  0
SECTION
  2
HEADER
  9
$ACADVER
  1
AC1015
  9
$ACADMAINTVER
 70
    13
  9
$DWGCODEPAGE
  3
ANSI_1252
  9
$INSBASE
 10
0.0
 20
0.0
 30
0.0
  9
$EXTMIN
 10
0.0
 20
-0.0000000000000044
 30
0.0
  9
$EXTMAX
 10
314.0
 20
60.0
 30
0.0
  9
$LIMMIN
 10
0.0
 20
0.0
  9
$LIMMAX
 10
12.0
 20
9.0
  9
$ORTHOMODE
 70
     0
  9
$REGENMODE
 70
     1
  9
$FILLMODE
 70
     1
  9
$QTEXTMODE
 70
     0
  9
$MIRRTEXT
 70
     1
  9
$LTSCALE
 40
1.0
  9
$ATTMODE
 70
     1
  9
$TEXTSIZE
 40
0.2
  9
$TRACEWID
 40
0.05
  9
$TEXTSTYLE
  7
Standard
  9
$CLAYER
  8
0
  9
$CELTYPE
  6
Continuous
  9
$CECOLOR
 62
   256
  9
$CELTSCALE
 40
1.0
  9
$DISPSILH
 70
     0
  9
$DIMSCALE
 40
1.0
  9
$DIMASZ
 40
0.18
  9
$DIMEXO
 40
0.0625
  9
$DIMDLI
 40
0.38
  9
$DIMRND
 40
0.0
  9
$DIMDLE
 40
0.0
  9
$DIMEXE
 40
0.18
  9
$DIMTP
 40
0.0
  9
$DIMTM
 40
0.0
  9
$DIMTXT
 40
0.18
  9
$DIMCEN
 40
0.09
  9
$DIMTSZ
 40
0.0
  9
$DIMTOL
 70
     0
  9
$DIMLIM
 70
     0
  9
$DIMTIH
 70
     1
  9
$DIMTOH
 70
     1
  9
$DIMSE1
 70
     0
  9
$DIMSE2
 70
     0
  9
$DIMTAD
 70
     0
  9
$DIMZIN
 70
     0
  9
$DIMBLK
  1

  9
$DIMASO
 70
     1
  9
$DIMSHO
 70
     1
  9
$DIMPOST
  1

  9
$DIMAPOST
  1

  9
$DIMALT
 70
     0
  9
$DIMALTD
 70
     2
  9
$DIMALTF
 40
25.4
  9
$DIMLFAC
 40
1.0
  9
$DIMTOFL
 70
     0
  9
$DIMTVP
 40
0.0
  9
$DIMTIX
 70
     0
  9
$DIMSOXD
 70
     0
  9
$DIMSAH
 70
     0
  9
$DIMBLK1
  1

  9
$DIMBLK2
  1

  9
$DIMSTYLE
  2
Standard
  9
$DIMCLRD
 70
     0
  9
$DIMCLRE
 70
     0
  9
$DIMCLRT
 70
     0
  9
$DIMTFAC
 40
1.0
  9
$DIMGAP
 40
0.09
  9
$DIMJUST
 70
     0
  9
$DIMSD1
 70
     0
  9
$DIMSD2
 70
     0
  9
$DIMTOLJ
 70
     1
  9
$DIMTZIN
 70
     0
  9
$DIMALTZ
 70
     0
  9
$DIMALTTZ
 70
     0
  9
$DIMUPT
 70
     0
  9
$DIMDEC
 70
     4
  9
$DIMTDEC
 70
     4
  9
$DIMALTU
 70
     2
  9
$DIMALTTD
 70
     2
  9
$DIMTXSTY
  7
Standard
  9
$DIMAUNIT
 70
     0
  9
$DIMADEC
 70
     0
  9
$DIMALTRND
 40
0.0
  9
$DIMAZIN
 70
     0
  9
$DIMDSEP
 70
    46
  9
$DIMATFIT
 70
     3
  9
$DIMFRAC
 70
     0
  9
$DIMLDRBLK
  1

  9
$DIMLUNIT
 70
     2
  9
$DIMLWD
 70
    -2
  9
$DIMLWE
 70
    -2
  9
$DIMTMOVE
 70
     0
  9
$LUNITS
 70
     2
  9
$LUPREC
 70
     4
  9
$SKETCHINC
 40
0.1
  9
$FILLETRAD
 40
0.0
  9
$AUNITS
 70
     0
  9
$AUPREC
 70
     0
  9
$MENU
  1
.
  9
$ELEVATION
 40
0.0
  9
$PELEVATION
 40
0.0
  9
$THICKNESS
 40
0.0
  9
$LIMCHECK
 70
     0
  9
$CHAMFERA
 40
0.0
  9
$CHAMFERB
 40
0.0
  9
$CHAMFERC
 40
0.0
  9
$CHAMFERD
 40
0.0
  9
$SKPOLY
 70
     0
  9
$TDCREATE
 40
2454874.798515081
  9
$TDUCREATE
 40
2454874.756848414
  9
$TDUPDATE
 40
2454874.807103761
  9
$TDUUPDATE
 40
2454874.765437095
  9
$TDINDWG
 40
0.0085886806
  9
$TDUSRTIMER
 40
0.0085886806
  9
$USRTIMER
 70
     1
  9
$ANGBASE
 50
0.0
  9
$ANGDIR
 70
     0
  9
$PDMODE
 70
     0
  9
$PDSIZE
 40
0.0
  9
$PLINEWID
 40
0.0
  9
$SPLFRAME
 70
     0
  9
$SPLINETYPE
 70
     6
  9
$SPLINESEGS
 70
     8
  9
$HANDSEED
  5
3D8
  9
$SURFTAB1
 70
     6
  9
$SURFTAB2
 70
     6
  9
$SURFTYPE
 70
     6
  9
$SURFU
 70
     6
  9
$SURFV
 70
     6
  9
$UCSBASE
  2

  9
$UCSNAME
  2

  9
$UCSORG
 10
0.0
 20
0.0
 30
0.0
  9
$UCSXDIR
 10
1.0
 20
0.0
 30
0.0
  9
$UCSYDIR
 10
0.0
 20
1.0
 30
0.0
  9
$UCSORTHOREF
  2

  9
$UCSORTHOVIEW
 70
     1
  9
$UCSORGTOP
 10
0.0
 20
0.0
 30
0.0
  9
$UCSORGBOTTOM
 10
0.0
 20
0.0
 30
0.0
  9
$UCSORGLEFT
 10
0.0
 20
0.0
 30
0.0
  9
$UCSORGRIGHT
 10
0.0
 20
0.0
 30
0.0
  9
$UCSORGFRONT
 10
0.0
 20
0.0
 30
0.0
  9
$UCSORGBACK
 10
0.0
 20
0.0
 30
0.0
  9
$PUCSBASE
  2

  9
$PUCSNAME
  2

  9
$PUCSORG
 10
0.0
 20
0.0
 30
0.0
  9
$PUCSXDIR
 10
1.0
 20
0.0
 30
0.0
  9
$PUCSYDIR
 10
0.0
 20
1.0
 30
0.0
  9
$PUCSORTHOREF
  2

  9
$PUCSORTHOVIEW
 70
     0
  9
$PUCSORGTOP
 10
0.0
 20
0.0
 30
0.0
  9
$PUCSORGBOTTOM
 10
0.0
 20
0.0
 30
0.0
  9
$PUCSORGLEFT
 10
0.0
 20
0.0
 30
0.0
  9
$PUCSORGRIGHT
 10
0.0
 20
0.0
 30
0.0
  9
$PUCSORGFRONT
 10
0.0
 20
0.0
 30
0.0
  9
$PUCSORGBACK
 10
0.0
 20
0.0
 30
0.0
  9
$USERI1
 70
     0
  9
$USERI2
 70
     0
  9
$USERI3
 70
     0
  9
$USERI4
 70
     0
  9
$USERI5
 70
     0
  9
$USERR1
 40
0.0
  9
$USERR2
 40
0.0
  9
$USERR3
 40
0.0
  9
$USERR4
 40
0.0
  9
$USERR5
 40
0.0
  9
$WORLDVIEW
 70
     1
  9
$SHADEDGE
 70
     3
  9
$SHADEDIF
 70
    70
  9
$TILEMODE
 70
     1
  9
$MAXACTVP
 70
    64
  9
$PINSBASE
 10
0.0
 20
0.0
 30
0.0
  9
$PLIMCHECK
 70
     0
  9
$PEXTMIN
 10
1.000000000000000E+20
 20
1.000000000000000E+20
 30
1.000000000000000E+20
  9
$PEXTMAX
 10
-1.000000000000000E+20
 20
-1.000000000000000E+20
 30
-1.000000000000000E+20
  9
$PLIMMIN
 10
0.0
 20
0.0
  9
$PLIMMAX
 10
12.0
 20
9.0
  9
$UNITMODE
 70
     0
  9
$VISRETAIN
 70
     1
  9
$PLINEGEN
 70
     0
  9
$PSLTSCALE
 70
     1
  9
$TREEDEPTH
 70
  3020
  9
$CMLSTYLE
  2
Standard
  9
$CMLJUST
 70
     0
  9
$CMLSCALE
 40
1.0
  9
$PROXYGRAPHICS
 70
     1
  9
$MEASUREMENT
 70
     0
  9
$CELWEIGHT
370
    -1
  9
$ENDCAPS
280
     0
  9
$JOINSTYLE
280
     0
  9
$LWDISPLAY
290
     0
  9
$INSUNITS
 70
     0
  9
$HYPERLINKBASE
  1

  9
$STYLESHEET
  1

  9
$XEDIT
290
     1
  9
$CEPSNTYPE
380
     0
  9
$PSTYLEMODE
290
     1
  9
$FINGERPRINTGUID
  2
{8F6485DB-7678-4D76-81A9-9B5C6CC7ACCA}
  9
$VERSIONGUID
  2
{A9461D72-FFC0-4EB8-A1C3-1023784CBD23}
  9
$EXTNAMES
290
     1
  9
$PSVPSCALE
 40
0.0
  9
$OLESTARTUP
290
     0
  0
ENDSEC
  0
SECTION
  2
CLASSES
  0
CLASS
  1
ACDBDICTIONARYWDFLT
  2
AcDbDictionaryWithDefault
  3
AutoCAD 2000
 90
        0
280
     0
281
     0
  0
CLASS
  1
ACDBPLACEHOLDER
  2
AcDbPlaceHolder
  3
AutoCAD 2000
 90
        0
280
     0
281
     0
  0
CLASS
  1
LAYOUT
  2
AcDbLayout
  3
AutoCAD 2000
 90
        0
280
     0
281
     0
  0
CLASS
  1
DICTIONARYVAR
  2
AcDbDictionaryVar
  3
AutoCAD 2000
 90
        0
280
     0
281
     0
  0
ENDSEC
  0
SECTION
  2
TABLES
  0
TABLE
  2
VPORT
  5
8
330
0
100
AcDbSymbolTable
 70
     2
  0
VPORT
  5
3D7
330
8
100
AcDbSymbolTableRecord
100
AcDbViewportTableRecord
  2
*Active
 70
     0
 10
0.0
 20
0.0
 11
1.0
 21
1.0
 12
157.0
 22
30.0
 13
0.0
 23
0.0
 14
1.0
 24
1.0
 15
0.0
 25
0.0
 16
0.0
 26
0.0
 36
1.0
 17
0.0
 27
0.0
 37
0.0
 40
160.0335205419655
 41
1.968387776606954
 42
50.0
 43
0.0
 44
0.0
 50
0.0
 51
0.0
 71
     0
 72
   100
 73
     1
 74
     3
 75
     0
 76
     0
 77
     0
 78
     0
281
     0
 65
     1
110
0.0
120
0.0
130
0.0
111
1.0
121
0.0
131
0.0
112
0.0
122
1.0
132
0.0
 79
     1
146
0.0
  0
ENDTAB
  0
TABLE
  2
LTYPE
  5
5
330
0
100
AcDbSymbolTable
 70
     1
  0
LTYPE
  5
13
330
5
100
AcDbSymbolTableRecord
100
AcDbLinetypeTableRecord
  2
ByBlock
 70
     0
  3

 72
    65
 73
     0
 40
0.0
  0
LTYPE
  5
14
330
5
100
AcDbSymbolTableRecord
100
AcDbLinetypeTableRecord
  2
ByLayer
 70
     0
  3

 72
    65
 73
     0
 40
0.0
  0
LTYPE
  5
15
330
5
100
AcDbSymbolTableRecord
100
AcDbLinetypeTableRecord
  2
Continuous
 70
     0
  3
Solid line
 72
    65
 73
     0
 40
0.0
  0
ENDTAB
  0
TABLE
  2
LAYER
  5
2
330
0
100
AcDbSymbolTable
 70
     1
  0
LAYER
  5
10
330
2
100
AcDbSymbolTableRecord
100
AcDbLayerTableRecord
  2
0
 70
     0
 62
     7
  6
Continuous
370
    -3
390
F
  0
ENDTAB
  0
TABLE
  2
STYLE
  5
3
330
0
100
AcDbSymbolTable
 70
     1
  0
STYLE
  5
11
330
3
100
AcDbSymbolTableRecord
100
AcDbTextStyleTableRecord
  2
Standard
 70
     0
 40
0.0
 41
1.0
 50
0.0
 71
     0
 42
0.2
  3
txt
  4

  0
ENDTAB
  0
TABLE
  2
VIEW
  5
6
330
0
100
AcDbSymbolTable
 70
     0
  0
ENDTAB
  0
TABLE
  2
UCS
  5
7
330
0
100
AcDbSymbolTable
 70
     0
  0
ENDTAB
  0
TABLE
  2
APPID
  5
9
330
0
100
AcDbSymbolTable
 70
     1
  0
APPID
  5
12
330
9
100
AcDbSymbolTableRecord
100
AcDbRegAppTableRecord
  2
ACAD
 70
     0
  0
ENDTAB
  0
TABLE
  2
DIMSTYLE
  5
A
330
0
100
AcDbSymbolTable
 70
     1
100
AcDbDimStyleTable
 71
     0
  0
DIMSTYLE
105
2F6
330
A
100
AcDbSymbolTableRecord
100
AcDbDimStyleTableRecord
  2
Standard
 70
     0
340
11
  0
ENDTAB
  0
TABLE
  2
BLOCK_RECORD
  5
1
330
0
100
AcDbSymbolTable
 70
     0
  0
BLOCK_RECORD
  5
1E
330
1
100
AcDbSymbolTableRecord
100
AcDbBlockTableRecord
  2
*Model_Space
340
21
  0
BLOCK_RECORD
  5
1A
330
1
100
AcDbSymbolTableRecord
100
AcDbBlockTableRecord
  2
*Paper_Space
340
1D
  0
ENDTAB
  0
ENDSEC
  0
SECTION
  2
BLOCKS
  0
BLOCK
  5
1F
330
1E
100
AcDbEntity
  8
0
100
AcDbBlockBegin
  2
*Model_Space
 70
     0
 10
0.0
 20
0.0
 30
0.0
  3
*Model_Space
  1

  0
ENDBLK
  5
20
330
1E
100
AcDbEntity
  8
0
100
AcDbBlockEnd
  0
BLOCK
  5
1B
330
1A
100
AcDbEntity
 67
     1
  8
0
100
AcDbBlockBegin
  2
*Paper_Space
 70
     0
 10
0.0
 20
0.0
 30
0.0
  3
*Paper_Space
  1

  0
ENDBLK
  5
1C
330
1A
100
AcDbEntity
 67
     1
  8
0
100
AcDbBlockEnd
  0
ENDSEC
  0
SECTION
  2
ENTITIES
  0
LINE
  5
22
330
1E
100
AcDbEntity
  8
0
100
AcDbLine
 10
10.0
 20
-0.000000000000004
 30
0.0
 11
10.0824
 21
-0.000000000000004
 31
0.0
  0
LINE
  5
23
330
1E
100
AcDbEntity
  8
0
100
AcDbLine
 10
11.2765
 20
-0.0000000000000042
 30
0.0
 11
11.8118
 21
-0.0000000000000042
 31
0.0
  0
LINE
  5
24
330
1E
100
AcDbEntity
  8
0
100
AcDbLine
 10
10.82349999999999
 20
-0.0000000000000042
 30
0.0
 11
11.2765
 21
-0.0000000000000042
 31
0.0
  0
LINE
  5
25
330
1E
100
AcDbEntity
  8
0
100
AcDbLine
 10
10.49409999999999
 20
-0.0000000000000041
 30
0.0
 11
10.82349999999999
 21
-0.0000000000000042
 31
0.0
  0
LINE
  5
26
330
1E
100
AcDbEntity
  8
0
100
AcDbLine
 10
10.2059
 20
-0.0000000000000041
 30
0.0
 11
10.49409999999999
 21
-0.0000000000000041
 31
0.0
  0
LINE
  5
27
330
1E
100
AcDbEntity
  8
0
100
AcDbLine
 10
10.0824
 20
-0.000000000000004
 30
0.0
 11
10.2059
 21
-0.0000000000000041
 31
0.0
  0
LINE
  5
28
330
1E
100
AcDbEntity
  8
0
100
AcDbLine
 10
11.8118
 20
-0.0000000000000042
 30
0.0
 11
12.42939999999999
 21
-0.0000000000000043
 31
0.0
  0
LINE
  5
29
330
1E
100
AcDbEntity
  8
0
100
AcDbLine
 10
11.2765
 20
-0.0000000000000017
 30
0.0
 11
11.8118
 21
-0.0000000000000017
 31
0.0
  0
LINE
  5
2A
330
1E
100
AcDbEntity
  8
0
100
AcDbLine
 10
10.82349999999999
 20
-0.0000000000000017
 30
0.0
 11
11.2765
 21
-0.0000000000000017
 31
0.0
  0
LINE
  5
2B
330
1E
100
AcDbEntity
  8
0
100
AcDbLine
 10
10.49409999999999
 20
-0.0000000000000018
 30
0.0
 11
10.82349999999999
 21
-0.0000000000000017
 31
0.0
  0
LINE
  5
2C
330
1E
100
AcDbEntity
  8
0
100
AcDbLine
 10
10.2059
 20
-0.0000000000000018
 30
0.0
 11
10.49409999999999
 21
-0.0000000000000018
 31
0.0
  0
LINE
  5
2D
330
1E
100
AcDbEntity
  8
0
100
AcDbLine
 10
10.0824
 20
-0.0000000000000019
 30
0.0
 11
10.2059
 21
-0.0000000000000018
 31
0.0
  0
LINE
  5
2E
330
1E
100
AcDbEntity
  8
0
100
AcDbLine
 10
10.0
 20
-0.0000000000000019
 30
0.0
 11
10.0824
 21
-0.0000000000000019
 31
0.0
  0
LINE
  5
2F
330
1E
100
AcDbEntity
  8
0
100
AcDbLine
 10
10.0
 20
-0.0000000000000019
 30
0.0
 11
10.0
 21
6.5
 31
0.0
  0
LINE
  5
30
330
1E
100
AcDbEntity
  8
0
100
AcDbLine
 10
12.42939999999999
 20
-0.0000000000000043
 30
0.0
 11
13.0882
 21
-0.0000000000000043
 31
0.0
  0
LINE
  5
31
330
1E
100
AcDbEntity
  8
0
100
AcDbLine
 10
13.0882
 20
-0.0000000000000043
 30
0.0
 11
13.8294
 21
-0.0000000000000043
 31
0.0
  0
LINE
  5
32
330
1E
100
AcDbEntity
  8
0
100
AcDbLine
 10
11.8118
 20
-0.0000000000000017
 30
0.0
 11
12.42939999999999
 21
-0.0000000000000016
 31
0.0
  0
LINE
  5
33
330
1E
100
AcDbEntity
  8
0
100
AcDbLine
 10
12.42939999999999
 20
-0.0000000000000016
 30
0.0
 11
13.0882
 21
-0.0000000000000016
 31
0.0
  0
LINE
  5
34
330
1E
100
AcDbEntity
  8
0
100
AcDbLine
 10
13.8294
 20
-0.0000000000000043
 30
0.0
 11
14.5706
 21
-0.0000000000000043
 31
0.0
  0
LINE
  5
35
330
1E
100
AcDbEntity
  8
0
100
AcDbLine
 10
14.5706
 20
-0.0000000000000043
 30
0.0
 11
15.35289999999999
 21
-0.0000000000000044
 31
0.0
  0
LINE
  5
36
330
1E
100
AcDbEntity
  8
0
100
AcDbLine
 10
13.0882
 20
-0.0000000000000016
 30
0.0
 11
13.8294
 21
-0.0000000000000016
 31
0.0
  0
LINE
  5
37
330
1E
100
AcDbEntity
  8
0
100
AcDbLine
 10
13.8294
 20
-0.0000000000000016
 30
0.0
 11
14.5706
 21
-0.0000000000000016
 31
0.0
  0
LINE
  5
38
330
1E
100
AcDbEntity
  8
0
100
AcDbLine
 10
16.1765
 20
-0.0000000000000044
 30
0.0
 11
45.0
 21
-0.0000000000000044
 31
0.0
  0
LINE
  5
39
330
1E
100
AcDbEntity
  8
0
100
AcDbLine
 10
15.35289999999999
 20
-0.0000000000000044
 30
0.0
 11
16.1765
 21
-0.0000000000000044
 31
0.0
  0
LINE
  5
3A
330
1E
100
AcDbEntity
  8
0
100
AcDbLine
 10
14.5706
 20
-0.0000000000000016
 30
0.0
 11
15.35289999999999
 21
-0.0000000000000015
 31
0.0
  0
LINE
  5
3B
330
1E
100
AcDbEntity
  8
0
100
AcDbLine
 10
11.3588
 20
6.849999999999999
 30
0.0
 11
11.8941
 21
6.849999999999999
 31
0.0
  0
LINE
  5
3C
330
1E
100
AcDbEntity
  8
0
100
AcDbLine
 10
10.9059
 20
6.849999999999999
 30
0.0
 11
11.3588
 21
6.849999999999999
 31
0.0
  0
LINE
  5
3D
330
1E
100
AcDbEntity
  8
0
100
AcDbLine
 10
10.57649999999999
 20
6.849999999999999
 30
0.0
 11
10.9059
 21
6.849999999999999
 31
0.0
  0
LINE
  5
3E
330
1E
100
AcDbEntity
  8
0
100
AcDbLine
 10
10.32939999999999
 20
6.849999999999999
 30
0.0
 11
10.57649999999999
 21
6.849999999999999
 31
0.0
  0
LINE
  5
3F
330
1E
100
AcDbEntity
  8
0
100
AcDbLine
 10
10.16469999999999
 20
6.849999999999999
 30
0.0
 11
10.32939999999999
 21
6.849999999999999
 31
0.0
  0
LINE
  5
40
330
1E
100
AcDbEntity
  8
0
100
AcDbLine
 10
10.1235
 20
6.849999999999999
 30
0.0
 11
10.41179999999999
 21
7.0
 31
0.0
  0
LINE
  5
41
330
1E
100
AcDbEntity
  8
0
100
AcDbLine
 10
10.0
 20
6.5
 30
0.0
 11
10.0
 21
-0.0000000000000017
 31
0.0
  0
LINE
  5
42
330
1E
100
AcDbEntity
  8
0
100
AcDbLine
 10
10.0
 20
6.5
 30
0.0
 11
10.1235
 21
6.849999999999999
 31
0.0
  0
LINE
  5
43
330
1E
100
AcDbEntity
  8
0
100
AcDbLine
 10
11.8941
 20
6.849999999999999
 30
0.0
 11
12.4706
 21
6.849999999999999
 31
0.0
  0
LINE
  5
44
330
1E
100
AcDbEntity
  8
0
100
AcDbLine
 10
12.4706
 20
6.849999999999999
 30
0.0
 11
13.1294
 21
6.849999999999999
 31
0.0
  0
LINE
  5
45
330
1E
100
AcDbEntity
  8
0
100
AcDbLine
 10
13.1294
 20
6.849999999999999
 30
0.0
 11
13.8294
 21
6.849999999999999
 31
0.0
  0
LINE
  5
46
330
1E
100
AcDbEntity
  8
0
100
AcDbLine
 10
13.8294
 20
6.849999999999999
 30
0.0
 11
14.6118
 21
6.849999999999999
 31
0.0
  0
LINE
  5
47
330
1E
100
AcDbEntity
  8
0
100
AcDbLine
 10
14.6118
 20
6.849999999999999
 30
0.0
 11
15.35289999999999
 21
6.849999999999999
 31
0.0
  0
LINE
  5
48
330
1E
100
AcDbEntity
  8
0
100
AcDbLine
 10
15.35289999999999
 20
6.849999999999999
 30
0.0
 11
16.1765
 21
6.849999999999999
 31
0.0
  0
LINE
  5
49
330
1E
100
AcDbEntity
  8
0
100
AcDbLine
 10
16.1765
 20
6.849999999999999
 30
0.0
 11
45.0
 21
6.849999999999999
 31
0.0
  0
LINE
  5
4A
330
1E
100
AcDbEntity
  8
0
100
AcDbLine
 10
15.35289999999999
 20
-0.0000000000000015
 30
0.0
 11
16.1765
 21
-0.0000000000000015
 31
0.0
  0
LINE
  5
4B
330
1E
100
AcDbEntity
  8
0
100
AcDbLine
 10
45.0
 20
-0.0000000000000044
 30
0.0
 11
73.82349999999999
 21
-0.0000000000000044
 31
0.0
  0
LINE
  5
4C
330
1E
100
AcDbEntity
  8
0
100
AcDbLine
 10
16.1765
 20
-0.0000000000000044
 30
0.0
 11
45.0
 21
-0.0000000000000044
 31
0.0
  0
LINE
  5
4D
330
1E
100
AcDbEntity
  8
0
100
AcDbLine
 10
16.1765
 20
6.849999999999999
 30
0.0
 11
45.0
 21
6.849999999999999
 31
0.0
  0
LINE
  5
4E
330
1E
100
AcDbEntity
  8
0
100
AcDbLine
 10
16.1765
 20
-0.0000000000000015
 30
0.0
 11
45.0
 21
-0.0000000000000015
 31
0.0
  0
LINE
  5
4F
330
1E
100
AcDbEntity
  8
0
100
AcDbLine
 10
16.1765
 20
-0.0000000000000015
 30
0.0
 11
45.0
 21
-0.0000000000000015
 31
0.0
  0
LINE
  5
50
330
1E
100
AcDbEntity
  8
0
100
AcDbLine
 10
6.0
 20
7.0
 30
0.0
 11
10.41179999999999
 21
7.0
 31
0.0
  0
LINE
  5
51
330
1E
100
AcDbEntity
  8
0
100
AcDbLine
 10
6.0
 20
7.0
 30
0.0
 11
10.41179999999999
 21
7.0
 31
0.0
  0
LINE
  5
52
330
1E
100
AcDbEntity
  8
0
100
AcDbLine
 10
6.0
 20
7.0
 30
0.0
 11
13.9941
 21
7.0
 31
0.0
  0
LINE
  5
53
330
1E
100
AcDbEntity
  8
0
100
AcDbLine
 10
6.0
 20
7.0
 30
0.0
 11
13.9941
 21
7.0
 31
0.0
  0
LINE
  5
54
330
1E
100
AcDbEntity
  8
0
100
AcDbLine
 10
11.1941
 20
7.0
 30
0.0
 11
11.6059
 21
7.0
 31
0.0
  0
LINE
  5
55
330
1E
100
AcDbEntity
  8
0
100
AcDbLine
 10
10.6176
 20
7.0
 30
0.0
 11
10.8647
 21
7.0
 31
0.0
  0
LINE
  5
56
330
1E
100
AcDbEntity
  8
0
100
AcDbLine
 10
10.4529
 20
7.0
 30
0.0
 11
10.6176
 21
7.0
 31
0.0
  0
LINE
  5
57
330
1E
100
AcDbEntity
  8
0
100
AcDbLine
 10
12.6765
 20
7.0
 30
0.0
 11
13.2941
 21
7.0
 31
0.0
  0
LINE
  5
58
330
1E
100
AcDbEntity
  8
0
100
AcDbLine
 10
13.2941
 20
7.0
 30
0.0
 11
13.9941
 21
7.0
 31
0.0
  0
LINE
  5
59
330
1E
100
AcDbEntity
  8
0
100
AcDbLine
 10
13.9941
 20
7.0
 30
0.0
 11
15.4353
 21
7.0
 31
0.0
  0
LINE
  5
5A
330
1E
100
AcDbEntity
  8
0
100
AcDbLine
 10
16.1765
 20
7.0
 30
0.0
 11
45.0
 21
7.0
 31
0.0
  0
LINE
  5
5B
330
1E
100
AcDbEntity
  8
0
100
AcDbLine
 10
15.4353
 20
7.0
 30
0.0
 11
16.1765
 21
7.0
 31
0.0
  0
LINE
  5
5C
330
1E
100
AcDbEntity
  8
0
100
AcDbLine
 10
0.0
 20
13.0
 30
0.0
 11
0.0
 21
27.0
 31
0.0
  0
LINE
  5
5D
330
1E
100
AcDbEntity
  8
0
100
AcDbLine
 10
0.0
 20
13.0
 30
0.0
 11
0.3
 21
11.5
 31
0.0
  0
LINE
  5
5E
330
1E
100
AcDbEntity
  8
0
100
AcDbLine
 10
0.3
 20
13.0
 30
0.0
 11
0.3
 21
27.0
 31
0.0
  0
LINE
  5
5F
330
1E
100
AcDbEntity
  8
0
100
AcDbLine
 10
0.3
 20
13.0
 30
0.0
 11
0.5
 21
11.59999999999999
 31
0.0
  0
LINE
  5
60
330
1E
100
AcDbEntity
  8
0
100
AcDbLine
 10
0.3
 20
11.5
 30
0.0
 11
0.9
 21
10.1
 31
0.0
  0
LINE
  5
61
330
1E
100
AcDbEntity
  8
0
100
AcDbLine
 10
0.3
 20
41.0
 30
0.0
 11
0.3
 21
27.0
 31
0.0
  0
LINE
  5
62
330
1E
100
AcDbEntity
  8
0
100
AcDbLine
 10
0.3
 20
41.0
 30
0.0
 11
0.5
 21
42.4
 31
0.0
  0
LINE
  5
63
330
1E
100
AcDbEntity
  8
0
100
AcDbLine
 10
0.3
 20
27.0
 30
0.0
 11
0.3
 21
41.0
 31
0.0
  0
LINE
  5
64
330
1E
100
AcDbEntity
  8
0
100
AcDbLine
 10
0.3
 20
27.0
 30
0.0
 11
0.3
 21
13.0
 31
0.0
  0
LINE
  5
65
330
1E
100
AcDbEntity
  8
0
100
AcDbLine
 10
0.0
 20
27.0
 30
0.0
 11
0.0
 21
41.0
 31
0.0
  0
LINE
  5
66
330
1E
100
AcDbEntity
  8
0
100
AcDbLine
 10
0.0
 20
27.0
 30
0.0
 11
0.0
 21
13.0
 31
0.0
  0
LINE
  5
67
330
1E
100
AcDbEntity
  8
0
100
AcDbLine
 10
0.0
 20
41.0
 30
0.0
 11
0.3
 21
42.5
 31
0.0
  0
LINE
  5
68
330
1E
100
AcDbEntity
  8
0
100
AcDbLine
 10
0.0
 20
41.0
 30
0.0
 11
0.0
 21
27.0
 31
0.0
  0
LINE
  5
69
330
1E
100
AcDbEntity
  8
0
100
AcDbLine
 10
0.5
 20
11.59999999999999
 30
0.0
 11
1.1
 21
10.2
 31
0.0
  0
LINE
  5
6A
330
1E
100
AcDbEntity
  8
0
100
AcDbLine
 10
1.1
 20
10.2
 30
0.0
 11
2.0
 21
9.0
 31
0.0
  0
LINE
  5
6B
330
1E
100
AcDbEntity
  8
0
100
AcDbLine
 10
1.8
 20
8.8
 30
0.0
 11
3.1
 21
7.9
 31
0.0
  0
LINE
  5
6C
330
1E
100
AcDbEntity
  8
0
100
AcDbLine
 10
0.9
 20
10.1
 30
0.0
 11
1.8
 21
8.8
 31
0.0
  0
LINE
  5
6D
330
1E
100
AcDbEntity
  8
0
100
AcDbLine
 10
1.1
 20
43.79999999999999
 30
0.0
 11
2.0
 21
45.0
 31
0.0
  0
LINE
  5
6E
330
1E
100
AcDbEntity
  8
0
100
AcDbLine
 10
0.5
 20
42.4
 30
0.0
 11
1.1
 21
43.79999999999999
 31
0.0
  0
LINE
  5
6F
330
1E
100
AcDbEntity
  8
0
100
AcDbLine
 10
0.3
 20
42.5
 30
0.0
 11
0.9
 21
43.89999999999999
 31
0.0
  0
LINE
  5
70
330
1E
100
AcDbEntity
  8
0
100
AcDbLine
 10
0.9
 20
43.89999999999999
 30
0.0
 11
1.8
 21
45.2
 31
0.0
  0
LINE
  5
71
330
1E
100
AcDbEntity
  8
0
100
AcDbLine
 10
3.2
 20
8.099999999999999
 30
0.0
 11
4.599999999999999
 21
7.5
 31
0.0
  0
LINE
  5
72
330
1E
100
AcDbEntity
  8
0
100
AcDbLine
 10
2.0
 20
9.0
 30
0.0
 11
3.2
 21
8.099999999999999
 31
0.0
  0
LINE
  5
73
330
1E
100
AcDbEntity
  8
0
100
AcDbLine
 10
3.5
 20
13.0
 30
0.0
 11
3.5
 21
27.0
 31
0.0
  0
LINE
  5
74
330
1E
100
AcDbEntity
  8
0
100
AcDbLine
 10
3.5
 20
13.0
 30
0.0
 11
3.57405
 21
12.3488
 31
0.0
  0
LINE
  5
75
330
1E
100
AcDbEntity
  8
0
100
AcDbLine
 10
3.1
 20
7.9
 30
0.0
 11
4.5
 21
7.299999999999999
 31
0.0
  0
LINE
  5
76
330
1E
100
AcDbEntity
  8
0
100
AcDbLine
 10
3.57405
 20
12.3488
 30
0.0
 11
3.816859999999999
 21
11.7596
 31
0.0
  0
LINE
  5
77
330
1E
100
AcDbEntity
  8
0
100
AcDbLine
 10
3.816859999999999
 20
11.7596
 30
0.0
 11
4.233109999999999
 21
11.23099999999999
 31
0.0
  0
LINE
  5
78
330
1E
100
AcDbEntity
  8
0
100
AcDbLine
 10
4.233109999999999
 20
11.23099999999999
 30
0.0
 11
4.710049999999999
 21
10.83239999999999
 31
0.0
  0
LINE
  5
7D
330
1E
100
AcDbEntity
  8
0
100
AcDbLine
 10
4.5
 20
7.299999999999999
 30
0.0
 11
6.0
 21
7.0
 31
0.0
  0
LINE
  5
80
330
1E
100
AcDbEntity
  8
0
100
AcDbLine
 10
3.5
 20
27.0
 30
0.0
 11
3.5
 21
41.0
 31
0.0
  0
LINE
  5
81
330
1E
100
AcDbEntity
  8
0
100
AcDbLine
 10
3.5
 20
27.0
 30
0.0
 11
3.5
 21
13.0
 31
0.0
  0
LINE
  5
84
330
1E
100
AcDbEntity
  8
0
100
AcDbLine
 10
3.2
 20
45.89999999999999
 30
0.0
 11
4.599999999999999
 21
46.5
 31
0.0
  0
LINE
  5
85
330
1E
100
AcDbEntity
  8
0
100
AcDbLine
 10
2.0
 20
45.0
 30
0.0
 11
3.2
 21
45.89999999999999
 31
0.0
  0
LINE
  5
87
330
1E
100
AcDbEntity
  8
0
100
AcDbLine
 10
3.816859999999999
 20
42.2404
 30
0.0
 11
4.233109999999999
 21
42.769
 31
0.0
  0
LINE
  5
88
330
1E
100
AcDbEntity
  8
0
100
AcDbLine
 10
3.57405
 20
41.6512
 30
0.0
 11
3.816859999999999
 21
42.2404
 31
0.0
  0
LINE
  5
89
330
1E
100
AcDbEntity
  8
0
100
AcDbLine
 10
3.5
 20
41.0
 30
0.0
 11
3.5
 21
27.0
 31
0.0
  0
LINE
  5
8A
330
1E
100
AcDbEntity
  8
0
100
AcDbLine
 10
3.5
 20
41.0
 30
0.0
 11
3.57405
 21
41.6512
 31
0.0
  0
LINE
  5
8C
330
1E
100
AcDbEntity
  8
0
100
AcDbLine
 10
4.233109999999999
 20
42.769
 30
0.0
 11
4.710049999999999
 21
43.1676
 31
0.0
  0
LINE
  5
90
330
1E
100
AcDbEntity
  8
0
100
AcDbLine
 10
1.8
 20
45.2
 30
0.0
 11
3.1
 21
46.1
 31
0.0
  0
LINE
  5
91
330
1E
100
AcDbEntity
  8
0
100
AcDbLine
 10
3.1
 20
46.1
 30
0.0
 11
4.5
 21
46.7
 31
0.0
  0
LINE
  5
92
330
1E
100
AcDbEntity
  8
0
100
AcDbLine
 10
4.599999999999999
 20
7.5
 30
0.0
 11
6.0
 21
7.299999999999999
 31
0.0
  0
LINE
  5
93
330
1E
100
AcDbEntity
  8
0
100
AcDbLine
 10
4.710049999999999
 20
10.83239999999999
 30
0.0
 11
5.35177
 21
10.58109999999999
 31
0.0
  0
LINE
  5
99
330
1E
100
AcDbEntity
  8
0
100
AcDbLine
 10
5.35177
 20
10.58109999999999
 30
0.0
 11
6.0
 21
10.5
 31
0.0
  0
LINE
  5
9B
330
1E
100
AcDbEntity
  8
0
100
AcDbLine
 10
6.0
 20
10.5
 30
0.0
 11
50.0
 21
10.5
 31
0.0
  0
LINE
  5
9C
330
1E
100
AcDbEntity
  8
0
100
AcDbLine
 10
6.0
 20
10.5
 30
0.0
 11
50.0
 21
10.5
 31
0.0
  0
LINE
  5
9D
330
1E
100
AcDbEntity
  8
0
100
AcDbLine
 10
6.0
 20
7.299999999999999
 30
0.0
 11
74.0
 21
7.299999999999999
 31
0.0
  0
LINE
  5
9E
330
1E
100
AcDbEntity
  8
0
100
AcDbLine
 10
6.0
 20
7.299999999999999
 30
0.0
 11
74.0
 21
7.299999999999999
 31
0.0
  0
LINE
  5
A5
330
1E
100
AcDbEntity
  8
0
100
AcDbLine
 10
5.35177
 20
43.4189
 30
0.0
 11
6.0
 21
43.5
 31
0.0
  0
LINE
  5
A6
330
1E
100
AcDbEntity
  8
0
100
AcDbLine
 10
4.710049999999999
 20
43.1676
 30
0.0
 11
5.35177
 21
43.4189
 31
0.0
  0
LINE
  5
A7
330
1E
100
AcDbEntity
  8
0
100
AcDbLine
 10
6.0
 20
43.5
 30
0.0
 11
50.0
 21
43.5
 31
0.0
  0
LINE
  5
A8
330
1E
100
AcDbEntity
  8
0
100
AcDbLine
 10
4.599999999999999
 20
46.5
 30
0.0
 11
6.0
 21
46.7
 31
0.0
  0
LINE
  5
A9
330
1E
100
AcDbEntity
  8
0
100
AcDbLine
 10
6.0
 20
46.7
 30
0.0
 11
74.0
 21
46.7
 31
0.0
  0
LINE
  5
AA
330
1E
100
AcDbEntity
  8
0
100
AcDbLine
 10
6.0
 20
47.0
 30
0.0
 11
74.0
 21
47.0
 31
0.0
  0
LINE
  5
AB
330
1E
100
AcDbEntity
  8
0
100
AcDbLine
 10
6.0
 20
46.7
 30
0.0
 11
74.0
 21
46.7
 31
0.0
  0
LINE
  5
AC
330
1E
100
AcDbEntity
  8
0
100
AcDbLine
 10
6.0
 20
43.5
 30
0.0
 11
50.0
 21
43.5
 31
0.0
  0
LINE
  5
AF
330
1E
100
AcDbEntity
  8
0
100
AcDbLine
 10
6.0
 20
47.0
 30
0.0
 11
74.0
 21
47.0
 31
0.0
  0
LINE
  5
B1
330
1E
100
AcDbEntity
  8
0
100
AcDbLine
 10
4.5
 20
46.7
 30
0.0
 11
6.0
 21
47.0
 31
0.0
  0
LINE
  5
B2
330
1E
100
AcDbEntity
  8
0
100
AcDbLine
 10
16.1765
 20
7.0
 30
0.0
 11
45.0
 21
7.0
 31
0.0
  0
LINE
  5
B3
330
1E
100
AcDbEntity
  8
0
100
AcDbLine
 10
45.0
 20
7.0
 30
0.0
 11
73.82349999999999
 21
7.0
 31
0.0
  0
LINE
  5
B4
330
1E
100
AcDbEntity
  8
0
100
AcDbLine
 10
45.0
 20
6.849999999999999
 30
0.0
 11
73.82349999999999
 21
6.849999999999999
 31
0.0
  0
LINE
  5
B5
330
1E
100
AcDbEntity
  8
0
100
AcDbLine
 10
74.6471
 20
-0.0000000000000044
 30
0.0
 11
75.4294
 21
-0.0000000000000043
 31
0.0
  0
LINE
  5
B6
330
1E
100
AcDbEntity
  8
0
100
AcDbLine
 10
73.82349999999999
 20
-0.0000000000000044
 30
0.0
 11
74.6471
 21
-0.0000000000000044
 31
0.0
  0
LINE
  5
B7
330
1E
100
AcDbEntity
  8
0
100
AcDbLine
 10
76.17059999999999
 20
-0.0000000000000043
 30
0.0
 11
76.9118
 21
-0.0000000000000043
 31
0.0
  0
LINE
  5
B8
330
1E
100
AcDbEntity
  8
0
100
AcDbLine
 10
75.4294
 20
-0.0000000000000043
 30
0.0
 11
76.17059999999999
 21
-0.0000000000000043
 31
0.0
  0
LINE
  5
B9
330
1E
100
AcDbEntity
  8
0
100
AcDbLine
 10
77.5706
 20
-0.0000000000000043
 30
0.0
 11
78.18819999999999
 21
-0.0000000000000042
 31
0.0
  0
LINE
  5
BA
330
1E
100
AcDbEntity
  8
0
100
AcDbLine
 10
76.9118
 20
-0.0000000000000043
 30
0.0
 11
77.5706
 21
-0.0000000000000043
 31
0.0
  0
LINE
  5
BB
330
1E
100
AcDbEntity
  8
0
100
AcDbLine
 10
78.18819999999999
 20
-0.0000000000000042
 30
0.0
 11
78.7235
 21
-0.0000000000000042
 31
0.0
  0
LINE
  5
BC
330
1E
100
AcDbEntity
  8
0
100
AcDbLine
 10
78.7235
 20
-0.0000000000000042
 30
0.0
 11
79.1765
 21
-0.0000000000000042
 31
0.0
  0
LINE
  5
BD
330
1E
100
AcDbEntity
  8
0
100
AcDbLine
 10
79.1765
 20
-0.0000000000000042
 30
0.0
 11
79.5059
 21
-0.0000000000000041
 31
0.0
  0
LINE
  5
BE
330
1E
100
AcDbEntity
  8
0
100
AcDbLine
 10
79.5059
 20
-0.0000000000000041
 30
0.0
 11
79.7941
 21
-0.0000000000000041
 31
0.0
  0
LINE
  5
BF
330
1E
100
AcDbEntity
  8
0
100
AcDbLine
 10
79.7941
 20
-0.0000000000000041
 30
0.0
 11
79.91759999999999
 21
-0.000000000000004
 31
0.0
  0
LINE
  5
C0
330
1E
100
AcDbEntity
  8
0
100
AcDbLine
 10
79.91759999999999
 20
-0.000000000000004
 30
0.0
 11
80.0
 21
-0.000000000000004
 31
0.0
  0
LINE
  5
C1
330
1E
100
AcDbEntity
  8
0
100
AcDbLine
 10
157.0
 20
-0.0000000000000044
 30
0.0
 11
159.3
 21
-0.0000000000000044
 31
0.0
  0
LINE
  5
C2
330
1E
100
AcDbEntity
  8
0
100
AcDbLine
 10
159.3
 20
-0.0000000000000044
 30
0.0
 11
162.4
 21
-0.0000000000000044
 31
0.0
  0
LINE
  5
C3
330
1E
100
AcDbEntity
  8
0
100
AcDbLine
 10
162.4
 20
-0.0000000000000044
 30
0.0
 11
166.0
 21
-0.0000000000000044
 31
0.0
  0
LINE
  5
C4
330
1E
100
AcDbEntity
  8
0
100
AcDbLine
 10
154.6999999999999
 20
-0.0000000000000044
 30
0.0
 11
157.0
 21
-0.0000000000000044
 31
0.0
  0
LINE
  5
C5
330
1E
100
AcDbEntity
  8
0
100
AcDbLine
 10
151.6
 20
-0.0000000000000044
 30
0.0
 11
154.6999999999999
 21
-0.0000000000000044
 31
0.0
  0
LINE
  5
C6
330
1E
100
AcDbEntity
  8
0
100
AcDbLine
 10
166.0
 20
-0.0000000000000044
 30
0.0
 11
169.0
 21
-0.0000000000000043
 31
0.0
  0
LINE
  5
C7
330
1E
100
AcDbEntity
  8
0
100
AcDbLine
 10
169.0
 20
-0.0000000000000043
 30
0.0
 11
171.3
 21
-0.0000000000000043
 31
0.0
  0
LINE
  5
C8
330
1E
100
AcDbEntity
  8
0
100
AcDbLine
 10
148.0
 20
-0.0000000000000044
 30
0.0
 11
151.6
 21
-0.0000000000000044
 31
0.0
  0
LINE
  5
C9
330
1E
100
AcDbEntity
  8
0
100
AcDbLine
 10
145.0
 20
-0.0000000000000043
 30
0.0
 11
148.0
 21
-0.0000000000000044
 31
0.0
  0
LINE
  5
CA
330
1E
100
AcDbEntity
  8
0
100
AcDbLine
 10
171.3
 20
-0.0000000000000043
 30
0.0
 11
173.3999999999999
 21
-0.0000000000000043
 31
0.0
  0
LINE
  5
CB
330
1E
100
AcDbEntity
  8
0
100
AcDbLine
 10
173.3999999999999
 20
-0.0000000000000043
 30
0.0
 11
175.3
 21
-0.0000000000000042
 31
0.0
  0
LINE
  5
CC
330
1E
100
AcDbEntity
  8
0
100
AcDbLine
 10
142.6999999999999
 20
-0.0000000000000043
 30
0.0
 11
145.0
 21
-0.0000000000000043
 31
0.0
  0
LINE
  5
CD
330
1E
100
AcDbEntity
  8
0
100
AcDbLine
 10
140.5999999999999
 20
-0.0000000000000043
 30
0.0
 11
142.6999999999999
 21
-0.0000000000000043
 31
0.0
  0
LINE
  5
CE
330
1E
100
AcDbEntity
  8
0
100
AcDbLine
 10
177.0
 20
-0.0000000000000042
 30
0.0
 11
178.2
 21
-0.0000000000000041
 31
0.0
  0
LINE
  5
CF
330
1E
100
AcDbEntity
  8
0
100
AcDbLine
 10
175.3
 20
-0.0000000000000042
 30
0.0
 11
177.0
 21
-0.0000000000000042
 31
0.0
  0
LINE
  5
D0
330
1E
100
AcDbEntity
  8
0
100
AcDbLine
 10
138.7
 20
-0.0000000000000042
 30
0.0
 11
140.5999999999999
 21
-0.0000000000000043
 31
0.0
  0
LINE
  5
D1
330
1E
100
AcDbEntity
  8
0
100
AcDbLine
 10
178.2
 20
-0.0000000000000041
 30
0.0
 11
179.0
 21
-0.000000000000004
 31
0.0
  0
LINE
  5
D2
330
1E
100
AcDbEntity
  8
0
100
AcDbLine
 10
135.8
 20
-0.0000000000000041
 30
0.0
 11
137.0
 21
-0.0000000000000042
 31
0.0
  0
LINE
  5
D3
330
1E
100
AcDbEntity
  8
0
100
AcDbLine
 10
137.0
 20
-0.0000000000000042
 30
0.0
 11
138.7
 21
-0.0000000000000042
 31
0.0
  0
LINE
  5
D9
330
1E
100
AcDbEntity
  8
0
100
AcDbLine
 10
179.0
 20
-0.000000000000004
 30
0.0
 11
179.4
 21
-0.0000000000000038
 31
0.0
  0
LINE
  5
DA
330
1E
100
AcDbEntity
  8
0
100
AcDbLine
 10
134.05
 20
-0.0000000000000033
 30
0.0
 11
134.15
 21
-0.0000000000000035
 31
0.0
  0
LINE
  5
DB
330
1E
100
AcDbEntity
  8
0
100
AcDbLine
 10
134.15
 20
-0.0000000000000035
 30
0.0
 11
134.3499999999999
 21
-0.0000000000000037
 31
0.0
  0
LINE
  5
DC
330
1E
100
AcDbEntity
  8
0
100
AcDbLine
 10
134.3499999999999
 20
-0.0000000000000037
 30
0.0
 11
134.5999999999999
 21
-0.0000000000000038
 31
0.0
  0
LINE
  5
DD
330
1E
100
AcDbEntity
  8
0
100
AcDbLine
 10
179.8499999999999
 20
-0.0000000000000035
 30
0.0
 11
179.9499999999999
 21
-0.0000000000000033
 31
0.0
  0
LINE
  5
DE
330
1E
100
AcDbEntity
  8
0
100
AcDbLine
 10
179.6499999999999
 20
-0.0000000000000037
 30
0.0
 11
179.8499999999999
 21
-0.0000000000000035
 31
0.0
  0
LINE
  5
DF
330
1E
100
AcDbEntity
  8
0
100
AcDbLine
 10
179.4
 20
-0.0000000000000038
 30
0.0
 11
179.6499999999999
 21
-0.0000000000000037
 31
0.0
  0
LINE
  5
E0
330
1E
100
AcDbEntity
  8
0
100
AcDbLine
 10
180.0
 20
-0.000000000000003
 30
0.0
 11
180.0
 21
20.0
 31
0.0
  0
LINE
  5
E1
330
1E
100
AcDbEntity
  8
0
100
AcDbLine
 10
134.5999999999999
 20
-0.0000000000000038
 30
0.0
 11
135.0
 21
-0.000000000000004
 31
0.0
  0
LINE
  5
E2
330
1E
100
AcDbEntity
  8
0
100
AcDbLine
 10
135.0
 20
-0.000000000000004
 30
0.0
 11
135.8
 21
-0.0000000000000041
 31
0.0
  0
LINE
  5
E3
330
1E
100
AcDbEntity
  8
0
100
AcDbLine
 10
134.0
 20
-0.000000000000003
 30
0.0
 11
134.0
 21
20.0
 31
0.0
  0
LINE
  5
F9
330
1E
100
AcDbEntity
  8
0
100
AcDbLine
 10
78.18819999999999
 20
-0.0000000000000017
 30
0.0
 11
78.7235
 21
-0.0000000000000017
 31
0.0
  0
LINE
  5
FA
330
1E
100
AcDbEntity
  8
0
100
AcDbLine
 10
78.7235
 20
-0.0000000000000017
 30
0.0
 11
79.1765
 21
-0.0000000000000017
 31
0.0
  0
LINE
  5
FB
330
1E
100
AcDbEntity
  8
0
100
AcDbLine
 10
79.1765
 20
-0.0000000000000017
 30
0.0
 11
79.5059
 21
-0.0000000000000018
 31
0.0
  0
LINE
  5
FC
330
1E
100
AcDbEntity
  8
0
100
AcDbLine
 10
79.5059
 20
-0.0000000000000018
 30
0.0
 11
79.7941
 21
-0.0000000000000018
 31
0.0
  0
LINE
  5
FD
330
1E
100
AcDbEntity
  8
0
100
AcDbLine
 10
79.7941
 20
-0.0000000000000018
 30
0.0
 11
79.91759999999999
 21
-0.0000000000000019
 31
0.0
  0
LINE
  5
FE
330
1E
100
AcDbEntity
  8
0
100
AcDbLine
 10
134.05
 20
-0.0000000000000026
 30
0.0
 11
134.15
 21
-0.0000000000000024
 31
0.0
  0
LINE
  5
FF
330
1E
100
AcDbEntity
  8
0
100
AcDbLine
 10
134.15
 20
-0.0000000000000024
 30
0.0
 11
134.3499999999999
 21
-0.0000000000000022
 31
0.0
  0
LINE
  5
100
330
1E
100
AcDbEntity
  8
0
100
AcDbLine
 10
134.3499999999999
 20
-0.0000000000000022
 30
0.0
 11
134.5999999999999
 21
-0.0000000000000021
 31
0.0
  0
LINE
  5
101
330
1E
100
AcDbEntity
  8
0
100
AcDbLine
 10
134.5999999999999
 20
-0.0000000000000021
 30
0.0
 11
135.0
 21
-0.0000000000000019
 31
0.0
  0
LINE
  5
102
330
1E
100
AcDbEntity
  8
0
100
AcDbLine
 10
179.8499999999999
 20
-0.0000000000000024
 30
0.0
 11
179.9499999999999
 21
-0.0000000000000026
 31
0.0
  0
LINE
  5
103
330
1E
100
AcDbEntity
  8
0
100
AcDbLine
 10
179.6499999999999
 20
-0.0000000000000022
 30
0.0
 11
179.8499999999999
 21
-0.0000000000000024
 31
0.0
  0
LINE
  5
104
330
1E
100
AcDbEntity
  8
0
100
AcDbLine
 10
179.4
 20
-0.0000000000000021
 30
0.0
 11
179.6499999999999
 21
-0.0000000000000022
 31
0.0
  0
LINE
  5
105
330
1E
100
AcDbEntity
  8
0
100
AcDbLine
 10
179.0
 20
-0.0000000000000019
 30
0.0
 11
179.4
 21
-0.0000000000000021
 31
0.0
  0
LINE
  5
106
330
1E
100
AcDbEntity
  8
0
100
AcDbLine
 10
135.0
 20
-0.0000000000000019
 30
0.0
 11
135.8
 21
-0.0000000000000018
 31
0.0
  0
LINE
  5
10A
330
1E
100
AcDbEntity
  8
0
100
AcDbLine
 10
178.2
 20
-0.0000000000000018
 30
0.0
 11
179.0
 21
-0.0000000000000019
 31
0.0
  0
LINE
  5
10B
330
1E
100
AcDbEntity
  8
0
100
AcDbLine
 10
177.0
 20
-0.0000000000000017
 30
0.0
 11
178.2
 21
-0.0000000000000018
 31
0.0
  0
LINE
  5
10C
330
1E
100
AcDbEntity
  8
0
100
AcDbLine
 10
135.8
 20
-0.0000000000000018
 30
0.0
 11
137.0
 21
-0.0000000000000017
 31
0.0
  0
LINE
  5
10D
330
1E
100
AcDbEntity
  8
0
100
AcDbLine
 10
137.0
 20
-0.0000000000000017
 30
0.0
 11
138.7
 21
-0.0000000000000017
 31
0.0
  0
LINE
  5
113
330
1E
100
AcDbEntity
  8
0
100
AcDbLine
 10
173.3999999999999
 20
-0.0000000000000016
 30
0.0
 11
175.3
 21
-0.0000000000000017
 31
0.0
  0
LINE
  5
114
330
1E
100
AcDbEntity
  8
0
100
AcDbLine
 10
175.3
 20
-0.0000000000000017
 30
0.0
 11
177.0
 21
-0.0000000000000017
 31
0.0
  0
LINE
  5
115
330
1E
100
AcDbEntity
  8
0
100
AcDbLine
 10
140.5999999999999
 20
-0.0000000000000016
 30
0.0
 11
142.6999999999999
 21
-0.0000000000000016
 31
0.0
  0
LINE
  5
116
330
1E
100
AcDbEntity
  8
0
100
AcDbLine
 10
138.7
 20
-0.0000000000000017
 30
0.0
 11
140.5999999999999
 21
-0.0000000000000016
 31
0.0
  0
LINE
  5
122
330
1E
100
AcDbEntity
  8
0
100
AcDbLine
 10
80.0
 20
-0.0000000000000019
 30
0.0
 11
80.0
 21
6.5
 31
0.0
  0
LINE
  5
123
330
1E
100
AcDbEntity
  8
0
100
AcDbLine
 10
79.91759999999999
 20
-0.0000000000000019
 30
0.0
 11
80.0
 21
-0.0000000000000019
 31
0.0
  0
LINE
  5
124
330
1E
100
AcDbEntity
  8
0
100
AcDbLine
 10
77.5706
 20
-0.0000000000000016
 30
0.0
 11
78.18819999999999
 21
-0.0000000000000017
 31
0.0
  0
LINE
  5
125
330
1E
100
AcDbEntity
  8
0
100
AcDbLine
 10
171.3
 20
-0.0000000000000016
 30
0.0
 11
173.3999999999999
 21
-0.0000000000000016
 31
0.0
  0
LINE
  5
126
330
1E
100
AcDbEntity
  8
0
100
AcDbLine
 10
169.0
 20
-0.0000000000000016
 30
0.0
 11
171.3
 21
-0.0000000000000016
 31
0.0
  0
LINE
  5
127
330
1E
100
AcDbEntity
  8
0
100
AcDbLine
 10
145.0
 20
-0.0000000000000016
 30
0.0
 11
148.0
 21
-0.0000000000000016
 31
0.0
  0
LINE
  5
128
330
1E
100
AcDbEntity
  8
0
100
AcDbLine
 10
142.6999999999999
 20
-0.0000000000000016
 30
0.0
 11
145.0
 21
-0.0000000000000016
 31
0.0
  0
LINE
  5
12D
330
1E
100
AcDbEntity
  8
0
100
AcDbLine
 10
76.9118
 20
-0.0000000000000016
 30
0.0
 11
77.5706
 21
-0.0000000000000016
 31
0.0
  0
LINE
  5
12E
330
1E
100
AcDbEntity
  8
0
100
AcDbLine
 10
76.17059999999999
 20
-0.0000000000000016
 30
0.0
 11
76.9118
 21
-0.0000000000000016
 31
0.0
  0
LINE
  5
12F
330
1E
100
AcDbEntity
  8
0
100
AcDbLine
 10
166.0
 20
-0.0000000000000016
 30
0.0
 11
169.0
 21
-0.0000000000000016
 31
0.0
  0
LINE
  5
130
330
1E
100
AcDbEntity
  8
0
100
AcDbLine
 10
159.3
 20
-0.0000000000000015
 30
0.0
 11
162.4
 21
-0.0000000000000015
 31
0.0
  0
LINE
  5
131
330
1E
100
AcDbEntity
  8
0
100
AcDbLine
 10
162.4
 20
-0.0000000000000015
 30
0.0
 11
166.0
 21
-0.0000000000000016
 31
0.0
  0
LINE
  5
132
330
1E
100
AcDbEntity
  8
0
100
AcDbLine
 10
157.0
 20
-0.0000000000000015
 30
0.0
 11
159.3
 21
-0.0000000000000015
 31
0.0
  0
LINE
  5
133
330
1E
100
AcDbEntity
  8
0
100
AcDbLine
 10
154.6999999999999
 20
-0.0000000000000015
 30
0.0
 11
157.0
 21
-0.0000000000000015
 31
0.0
  0
LINE
  5
134
330
1E
100
AcDbEntity
  8
0
100
AcDbLine
 10
151.6
 20
-0.0000000000000015
 30
0.0
 11
154.6999999999999
 21
-0.0000000000000015
 31
0.0
  0
LINE
  5
135
330
1E
100
AcDbEntity
  8
0
100
AcDbLine
 10
148.0
 20
-0.0000000000000016
 30
0.0
 11
151.6
 21
-0.0000000000000015
 31
0.0
  0
LINE
  5
13B
330
1E
100
AcDbEntity
  8
0
100
AcDbLine
 10
75.4294
 20
-0.0000000000000016
 30
0.0
 11
76.17059999999999
 21
-0.0000000000000016
 31
0.0
  0
LINE
  5
13C
330
1E
100
AcDbEntity
  8
0
100
AcDbLine
 10
74.6471
 20
-0.0000000000000015
 30
0.0
 11
75.4294
 21
-0.0000000000000016
 31
0.0
  0
LINE
  5
13D
330
1E
100
AcDbEntity
  8
0
100
AcDbLine
 10
50.0
 20
10.5
 30
0.0
 11
50.6482
 21
10.58109999999999
 31
0.0
  0
LINE
  5
140
330
1E
100
AcDbEntity
  8
0
100
AcDbLine
 10
50.0
 20
43.5
 30
0.0
 11
50.6482
 21
43.4189
 31
0.0
  0
LINE
  5
142
330
1E
100
AcDbEntity
  8
0
100
AcDbLine
 10
50.6482
 20
10.58109999999999
 30
0.0
 11
51.2899
 21
10.83239999999999
 31
0.0
  0
LINE
  5
146
330
1E
100
AcDbEntity
  8
0
100
AcDbLine
 10
51.2899
 20
10.83239999999999
 30
0.0
 11
51.7669
 21
11.23099999999999
 31
0.0
  0
LINE
  5
149
330
1E
100
AcDbEntity
  8
0
100
AcDbLine
 10
51.2899
 20
43.1676
 30
0.0
 11
51.7669
 21
42.769
 31
0.0
  0
LINE
  5
14E
330
1E
100
AcDbEntity
  8
0
100
AcDbLine
 10
51.7669
 20
11.23099999999999
 30
0.0
 11
52.1831
 21
11.7596
 31
0.0
  0
LINE
  5
159
330
1E
100
AcDbEntity
  8
0
100
AcDbLine
 10
52.1831
 20
11.7596
 30
0.0
 11
52.426
 21
12.3488
 31
0.0
  0
LINE
  5
15A
330
1E
100
AcDbEntity
  8
0
100
AcDbLine
 10
52.5
 20
13.0
 30
0.0
 11
52.5
 21
27.0
 31
0.0
  0
LINE
  5
15B
330
1E
100
AcDbEntity
  8
0
100
AcDbLine
 10
52.426
 20
12.3488
 30
0.0
 11
52.5
 21
13.0
 31
0.0
  0
LINE
  5
15C
330
1E
100
AcDbEntity
  8
0
100
AcDbLine
 10
52.5
 20
41.0
 30
0.0
 11
52.5
 21
27.0
 31
0.0
  0
LINE
  5
15D
330
1E
100
AcDbEntity
  8
0
100
AcDbLine
 10
52.5
 20
27.0
 30
0.0
 11
52.5
 21
41.0
 31
0.0
  0
LINE
  5
15E
330
1E
100
AcDbEntity
  8
0
100
AcDbLine
 10
52.5
 20
27.0
 30
0.0
 11
52.5
 21
13.0
 31
0.0
  0
LINE
  5
164
330
1E
100
AcDbEntity
  8
0
100
AcDbLine
 10
52.1831
 20
42.2404
 30
0.0
 11
52.426
 21
41.6512
 31
0.0
  0
LINE
  5
165
330
1E
100
AcDbEntity
  8
0
100
AcDbLine
 10
51.7669
 20
42.769
 30
0.0
 11
52.1831
 21
42.2404
 31
0.0
  0
LINE
  5
166
330
1E
100
AcDbEntity
  8
0
100
AcDbLine
 10
52.426
 20
41.6512
 30
0.0
 11
52.5
 21
41.0
 31
0.0
  0
LINE
  5
168
330
1E
100
AcDbEntity
  8
0
100
AcDbLine
 10
50.6482
 20
43.4189
 30
0.0
 11
51.2899
 21
43.1676
 31
0.0
  0
LINE
  5
169
330
1E
100
AcDbEntity
  8
0
100
AcDbLine
 10
73.82349999999999
 20
7.0
 30
0.0
 11
74.5647
 21
7.0
 31
0.0
  0
LINE
  5
16A
330
1E
100
AcDbEntity
  8
0
100
AcDbLine
 10
78.10590000000001
 20
6.849999999999999
 30
0.0
 11
78.64119999999999
 21
6.849999999999999
 31
0.0
  0
LINE
  5
16B
330
1E
100
AcDbEntity
  8
0
100
AcDbLine
 10
78.64119999999999
 20
6.849999999999999
 30
0.0
 11
79.0941
 21
6.849999999999999
 31
0.0
  0
LINE
  5
16C
330
1E
100
AcDbEntity
  8
0
100
AcDbLine
 10
79.0941
 20
6.849999999999999
 30
0.0
 11
79.42350000000001
 21
6.849999999999999
 31
0.0
  0
LINE
  5
16D
330
1E
100
AcDbEntity
  8
0
100
AcDbLine
 10
79.42350000000001
 20
6.849999999999999
 30
0.0
 11
79.6706
 21
6.849999999999999
 31
0.0
  0
LINE
  5
16E
330
1E
100
AcDbEntity
  8
0
100
AcDbLine
 10
79.6706
 20
6.849999999999999
 30
0.0
 11
79.8353
 21
6.849999999999999
 31
0.0
  0
LINE
  5
16F
330
1E
100
AcDbEntity
  8
0
100
AcDbLine
 10
79.87649999999999
 20
6.849999999999999
 30
0.0
 11
80.0
 21
6.5
 31
0.0
  0
LINE
  5
18D
330
1E
100
AcDbEntity
  8
0
100
AcDbLine
 10
80.0
 20
6.5
 30
0.0
 11
80.0
 21
-0.0000000000000017
 31
0.0
  0
LINE
  5
18E
330
1E
100
AcDbEntity
  8
0
100
AcDbLine
 10
77.52939999999999
 20
6.849999999999999
 30
0.0
 11
78.10590000000001
 21
6.849999999999999
 31
0.0
  0
LINE
  5
18F
330
1E
100
AcDbEntity
  8
0
100
AcDbLine
 10
76.87059999999999
 20
6.849999999999999
 30
0.0
 11
77.52939999999999
 21
6.849999999999999
 31
0.0
  0
LINE
  5
190
330
1E
100
AcDbEntity
  8
0
100
AcDbLine
 10
76.17059999999999
 20
6.849999999999999
 30
0.0
 11
76.87059999999999
 21
6.849999999999999
 31
0.0
  0
LINE
  5
191
330
1E
100
AcDbEntity
  8
0
100
AcDbLine
 10
75.3882
 20
6.849999999999999
 30
0.0
 11
76.17059999999999
 21
6.849999999999999
 31
0.0
  0
LINE
  5
192
330
1E
100
AcDbEntity
  8
0
100
AcDbLine
 10
74.0
 20
7.299999999999999
 30
0.0
 11
75.4
 21
7.299999999999999
 31
0.0
  0
LINE
  5
193
330
1E
100
AcDbEntity
  8
0
100
AcDbLine
 10
74.0
 20
47.0
 30
0.0
 11
75.2
 21
47.0
 31
0.0
  0
LINE
  5
194
330
1E
100
AcDbEntity
  8
0
100
AcDbLine
 10
74.0
 20
46.7
 30
0.0
 11
75.4
 21
46.7
 31
0.0
  0
LINE
  5
195
330
1E
100
AcDbEntity
  8
0
100
AcDbLine
 10
77.9
 20
7.0
 30
0.0
 11
78.39409999999999
 21
7.0
 31
0.0
  0
LINE
  5
196
330
1E
100
AcDbEntity
  8
0
100
AcDbLine
 10
79.0
 20
7.0
 30
0.0
 11
79.7
 21
7.299999999999999
 31
0.0
  0
LINE
  5
197
330
1E
100
AcDbEntity
  8
0
100
AcDbLine
 10
78.39409999999999
 20
7.0
 30
0.0
 11
78.80589999999999
 21
7.0
 31
0.0
  0
LINE
  5
198
330
1E
100
AcDbEntity
  8
0
100
AcDbLine
 10
79.1353
 20
7.0
 30
0.0
 11
79.3824
 21
7.0
 31
0.0
  0
LINE
  5
1B3
330
1E
100
AcDbEntity
  8
0
100
AcDbLine
 10
79.5882
 20
7.0
 30
0.0
 11
79.87649999999999
 21
6.849999999999999
 31
0.0
  0
LINE
  5
1B4
330
1E
100
AcDbEntity
  8
0
100
AcDbLine
 10
77.3235
 20
7.0
 30
0.0
 11
77.9
 21
7.0
 31
0.0
  0
LINE
  5
1B5
330
1E
100
AcDbEntity
  8
0
100
AcDbLine
 10
76.7059
 20
7.0
 30
0.0
 11
77.3235
 21
7.0
 31
0.0
  0
LINE
  5
1B6
330
1E
100
AcDbEntity
  8
0
100
AcDbLine
 10
76.0059
 20
7.0
 30
0.0
 11
76.7059
 21
7.0
 31
0.0
  0
LINE
  5
1B7
330
1E
100
AcDbEntity
  8
0
100
AcDbLine
 10
78.0
 20
7.299999999999999
 30
0.0
 11
78.9
 21
7.299999999999999
 31
0.0
  0
LINE
  5
1B8
330
1E
100
AcDbEntity
  8
0
100
AcDbLine
 10
79.5
 20
7.299999999999999
 30
0.0
 11
79.7
 21
7.299999999999999
 31
0.0
  0
LINE
  5
1B9
330
1E
100
AcDbEntity
  8
0
100
AcDbLine
 10
78.9
 20
7.299999999999999
 30
0.0
 11
79.5
 21
7.299999999999999
 31
0.0
  0
LINE
  5
1BA
330
1E
100
AcDbEntity
  8
0
100
AcDbLine
 10
76.79999999999999
 20
7.299999999999999
 30
0.0
 11
78.0
 21
7.299999999999999
 31
0.0
  0
LINE
  5
1BB
330
1E
100
AcDbEntity
  8
0
100
AcDbLine
 10
75.4
 20
7.299999999999999
 30
0.0
 11
76.79999999999999
 21
7.299999999999999
 31
0.0
  0
LINE
  5
1BC
330
1E
100
AcDbEntity
  8
0
100
AcDbLine
 10
75.2
 20
47.0
 30
0.0
 11
76.4
 21
47.0
 31
0.0
  0
LINE
  5
1BD
330
1E
100
AcDbEntity
  8
0
100
AcDbLine
 10
78.0
 20
46.7
 30
0.0
 11
78.9
 21
46.7
 31
0.0
  0
LINE
  5
1BE
330
1E
100
AcDbEntity
  8
0
100
AcDbLine
 10
78.9
 20
46.7
 30
0.0
 11
79.5
 21
46.7
 31
0.0
  0
LINE
  5
1BF
330
1E
100
AcDbEntity
  8
0
100
AcDbLine
 10
79.5
 20
46.7
 30
0.0
 11
79.7
 21
46.7
 31
0.0
  0
LINE
  5
1C0
330
1E
100
AcDbEntity
  8
0
100
AcDbLine
 10
77.5
 20
47.0
 30
0.0
 11
78.3
 21
47.0
 31
0.0
  0
LINE
  5
1C1
330
1E
100
AcDbEntity
  8
0
100
AcDbLine
 10
78.3
 20
47.0
 30
0.0
 11
78.79999999999999
 21
47.0
 31
0.0
  0
LINE
  5
1C2
330
1E
100
AcDbEntity
  8
0
100
AcDbLine
 10
78.79999999999999
 20
47.0
 30
0.0
 11
79.0
 21
47.0
 31
0.0
  0
LINE
  5
1C3
330
1E
100
AcDbEntity
  8
0
100
AcDbLine
 10
79.0
 20
47.0
 30
0.0
 11
79.7
 21
46.7
 31
0.0
  0
LINE
  5
1C4
330
1E
100
AcDbEntity
  8
0
100
AcDbLine
 10
76.4
 20
47.0
 30
0.0
 11
77.5
 21
47.0
 31
0.0
  0
LINE
  5
1C5
330
1E
100
AcDbEntity
  8
0
100
AcDbLine
 10
76.79999999999999
 20
46.7
 30
0.0
 11
78.0
 21
46.7
 31
0.0
  0
LINE
  5
1C6
330
1E
100
AcDbEntity
  8
0
100
AcDbLine
 10
75.4
 20
46.7
 30
0.0
 11
76.79999999999999
 21
46.7
 31
0.0
  0
LINE
  5
1ED
330
1E
100
AcDbEntity
  8
0
100
AcDbLine
 10
180.0
 20
20.0
 30
0.0
 11
180.0
 21
-0.0000000000000033
 31
0.0
  0
LINE
  5
1EE
330
1E
100
AcDbEntity
  8
0
100
AcDbLine
 10
180.0
 20
20.0
 30
0.0
 11
180.0
 21
32.1645
 31
0.0
  0
LINE
  5
1EF
330
1E
100
AcDbEntity
  8
0
100
AcDbLine
 10
180.0
 20
20.0
 30
0.0
 11
180.0
 21
43.5
 31
0.0
  0
LINE
  5
1F0
330
1E
100
AcDbEntity
  8
0
100
AcDbLine
 10
134.0
 20
20.0
 30
0.0
 11
134.0
 21
-0.0000000000000033
 31
0.0
  0
LINE
  5
1F1
330
1E
100
AcDbEntity
  8
0
100
AcDbLine
 10
134.0
 20
20.0
 30
0.0
 11
134.0063257065949
 21
42.7725437415882
 31
0.0
  0
LINE
  5
1F2
330
1E
100
AcDbEntity
  8
0
100
AcDbLine
 10
134.0
 20
20.0
 30
0.0
 11
134.0
 21
32.1645
 31
0.0
  0
LINE
  5
205
330
1E
100
AcDbEntity
  8
0
100
AcDbLine
 10
80.0
 20
8.0
 30
0.0
 11
80.0
 21
27.0
 31
0.0
  0
LINE
  5
206
330
1E
100
AcDbEntity
  8
0
100
AcDbLine
 10
134.0
 20
32.1645
 30
0.0
 11
134.0
 21
20.0
 31
0.0
  0
LINE
  5
207
330
1E
100
AcDbEntity
  8
0
100
AcDbLine
 10
134.0
 20
32.1645
 30
0.0
 11
134.0
 21
43.5
 31
0.0
  0
LINE
  5
208
330
1E
100
AcDbEntity
  8
0
100
AcDbLine
 10
146.396
 20
39.9964
 30
0.0
 11
146.6599999999999
 21
39.7295
 31
0.0
  0
LINE
  5
209
330
1E
100
AcDbEntity
  8
0
100
AcDbLine
 10
146.6599999999999
 20
39.7295
 30
0.0
 11
147.716
 21
38.85669999999999
 31
0.0
  0
LINE
  5
20A
330
1E
100
AcDbEntity
  8
0
100
AcDbLine
 10
147.716
 20
38.85669999999999
 30
0.0
 11
149.432
 21
38.0892
 31
0.0
  0
LINE
  5
20B
330
1E
100
AcDbEntity
  8
0
100
AcDbLine
 10
149.432
 20
38.0892
 30
0.0
 11
151.676
 21
37.5023
 31
0.0
  0
LINE
  5
20C
330
1E
100
AcDbEntity
  8
0
100
AcDbLine
 10
151.676
 20
37.5023
 30
0.0
 11
154.2279999999999
 21
37.1411
 31
0.0
  0
LINE
  5
20D
330
1E
100
AcDbEntity
  8
0
100
AcDbLine
 10
154.2279999999999
 20
37.1411
 30
0.0
 11
157.0
 21
37.00569999999999
 31
0.0
  0
LINE
  5
20E
330
1E
100
AcDbEntity
  8
0
100
AcDbLine
 10
146.264
 20
40.67759999999999
 30
0.0
 11
146.6599999999999
 21
41.6257
 31
0.0
  0
LINE
  5
20F
330
1E
100
AcDbEntity
  8
0
100
AcDbLine
 10
146.264
 20
40.67759999999999
 30
0.0
 11
146.6599999999999
 21
39.7295
 31
0.0
  0
LINE
  5
210
330
1E
100
AcDbEntity
  8
0
100
AcDbLine
 10
146.0
 20
40.9595
 30
0.0
 11
146.396
 21
41.9226
 31
0.0
  0
LINE
  5
211
330
1E
100
AcDbEntity
  8
0
100
AcDbLine
 10
146.0
 20
40.9595
 30
0.0
 11
146.396
 21
39.9964
 31
0.0
  0
LINE
  5
212
330
1E
100
AcDbEntity
  8
0
100
AcDbLine
 10
146.0
 20
40.9595
 30
0.0
 11
146.0
 21
44.4818198462102
 31
0.0
  0
LINE
  5
213
330
1E
100
AcDbEntity
  8
0
100
AcDbLine
 10
167.3399999999999
 20
39.7295
 30
0.0
 11
167.604
 21
39.9964
 31
0.0
  0
LINE
  5
214
330
1E
100
AcDbEntity
  8
0
100
AcDbLine
 10
167.3399999999999
 20
39.7295
 30
0.0
 11
167.736
 21
40.67759999999999
 31
0.0
  0
LINE
  5
215
330
1E
100
AcDbEntity
  8
0
100
AcDbLine
 10
166.284
 20
38.85669999999999
 30
0.0
 11
167.3399999999999
 21
39.7295
 31
0.0
  0
LINE
  5
216
330
1E
100
AcDbEntity
  8
0
100
AcDbLine
 10
164.5679999999999
 20
38.0892
 30
0.0
 11
166.284
 21
38.85669999999999
 31
0.0
  0
LINE
  5
217
330
1E
100
AcDbEntity
  8
0
100
AcDbLine
 10
162.3239999999999
 20
37.5023
 30
0.0
 11
164.5679999999999
 21
38.0892
 31
0.0
  0
LINE
  5
218
330
1E
100
AcDbEntity
  8
0
100
AcDbLine
 10
159.772
 20
37.1411
 30
0.0
 11
162.3239999999999
 21
37.5023
 31
0.0
  0
LINE
  5
219
330
1E
100
AcDbEntity
  8
0
100
AcDbLine
 10
157.0
 20
37.00569999999999
 30
0.0
 11
159.772
 21
37.1411
 31
0.0
  0
LINE
  5
21A
330
1E
100
AcDbEntity
  8
0
100
AcDbLine
 10
180.0
 20
32.1645
 30
0.0
 11
180.0
 21
43.5
 31
0.0
  0
LINE
  5
21B
330
1E
100
AcDbEntity
  8
0
100
AcDbLine
 10
180.0
 20
32.1645
 30
0.0
 11
180.0
 21
20.0
 31
0.0
  0
LINE
  5
21C
330
1E
100
AcDbEntity
  8
0
100
AcDbLine
 10
168.0
 20
40.9595
 30
0.0
 11
168.0
 21
44.4818198462102
 31
0.0
  0
LINE
  5
21D
330
1E
100
AcDbEntity
  8
0
100
AcDbLine
 10
167.604
 20
39.9964
 30
0.0
 11
168.0
 21
40.9595
 31
0.0
  0
LINE
  5
21E
330
1E
100
AcDbEntity
  8
0
100
AcDbLine
 10
146.6599999999999
 20
41.6257
 30
0.0
 11
147.716
 21
42.4985
 31
0.0
  0
LINE
  5
21F
330
1E
100
AcDbEntity
  8
0
100
AcDbLine
 10
167.3399999999999
 20
41.6257
 30
0.0
 11
167.736
 21
40.67759999999999
 31
0.0
  0
LINE
  5
224
330
1E
100
AcDbEntity
  8
0
100
AcDbLine
 10
146.396
 20
41.9226
 30
0.0
 11
147.452
 21
42.8256
 31
0.0
  0
LINE
  5
225
330
1E
100
AcDbEntity
  8
0
100
AcDbLine
 10
167.604
 20
41.9226
 30
0.0
 11
168.0
 21
40.9595
 31
0.0
  0
LINE
  5
22E
330
1E
100
AcDbEntity
  8
0
100
AcDbLine
 10
147.716
 20
42.4985
 30
0.0
 11
149.432
 21
43.266
 31
0.0
  0
LINE
  5
22F
330
1E
100
AcDbEntity
  8
0
100
AcDbLine
 10
166.284
 20
42.4985
 30
0.0
 11
167.3399999999999
 21
41.6257
 31
0.0
  0
LINE
  5
232
330
1E
100
AcDbEntity
  8
0
100
AcDbLine
 10
179.993674293405
 20
42.7725437415882
 30
0.0
 11
180.0
 21
20.0
 31
0.0
  0
LINE
  5
233
330
1E
100
AcDbEntity
  8
0
100
AcDbLine
 10
147.452
 20
42.8256
 30
0.0
 11
149.212
 21
43.62319999999999
 31
0.0
  0
LINE
  5
234
330
1E
100
AcDbEntity
  8
0
100
AcDbLine
 10
166.548
 20
42.8256
 30
0.0
 11
167.604
 21
41.9226
 31
0.0
  0
LINE
  5
24F
330
1E
100
AcDbEntity
  8
0
100
AcDbLine
 10
149.432
 20
43.266
 30
0.0
 11
151.676
 21
43.8529
 31
0.0
  0
LINE
  5
250
330
1E
100
AcDbEntity
  8
0
100
AcDbLine
 10
164.5679999999999
 20
43.266
 30
0.0
 11
166.284
 21
42.4985
 31
0.0
  0
LINE
  5
254
330
1E
100
AcDbEntity
  8
0
100
AcDbLine
 10
134.0
 20
43.5
 30
0.0
 11
134.0
 21
32.1645
 31
0.0
  0
LINE
  5
255
330
1E
100
AcDbEntity
  8
0
100
AcDbLine
 10
134.0
 20
43.5
 30
0.0
 11
134.0
 21
51.8745
 31
0.0
  0
LINE
  5
256
330
1E
100
AcDbEntity
  8
0
100
AcDbLine
 10
151.676
 20
43.8529
 30
0.0
 11
154.2279999999999
 21
44.2141
 31
0.0
  0
LINE
  5
257
330
1E
100
AcDbEntity
  8
0
100
AcDbLine
 10
154.2279999999999
 20
44.2141
 30
0.0
 11
157.0
 21
44.34949999999999
 31
0.0
  0
LINE
  5
258
330
1E
100
AcDbEntity
  8
0
100
AcDbLine
 10
149.212
 20
43.62319999999999
 30
0.0
 11
151.5439999999999
 21
44.22509999999999
 31
0.0
  0
LINE
  5
259
330
1E
100
AcDbEntity
  8
0
100
AcDbLine
 10
151.5439999999999
 20
44.22509999999999
 30
0.0
 11
154.184
 21
44.5863
 31
0.0
  0
LINE
  5
25A
330
1E
100
AcDbEntity
  8
0
100
AcDbLine
 10
159.772
 20
44.2141
 30
0.0
 11
162.3239999999999
 21
43.8529
 31
0.0
  0
LINE
  5
25B
330
1E
100
AcDbEntity
  8
0
100
AcDbLine
 10
143.5462242424239
 20
44.50378787878789
 30
0.0
 11
144.95
 21
44.35
 31
0.0
  0
LINE
  5
25C
330
1E
100
AcDbEntity
  8
0
100
AcDbLine
 10
146.0
 20
44.4818198462102
 30
0.0
 11
146.0
 21
40.9595
 31
0.0
  0
LINE
  5
25D
330
1E
100
AcDbEntity
  8
0
100
AcDbLine
 10
154.184
 20
44.5863
 30
0.0
 11
157.0
 21
44.7217
 31
0.0
  0
LINE
  5
25E
330
1E
100
AcDbEntity
  8
0
100
AcDbLine
 10
157.0
 20
44.34949999999999
 30
0.0
 11
159.772
 21
44.2141
 31
0.0
  0
LINE
  5
25F
330
1E
100
AcDbEntity
  8
0
100
AcDbLine
 10
162.3239999999999
 20
43.8529
 30
0.0
 11
164.5679999999999
 21
43.266
 31
0.0
  0
LINE
  5
260
330
1E
100
AcDbEntity
  8
0
100
AcDbLine
 10
164.7879999999999
 20
43.62319999999999
 30
0.0
 11
166.548
 21
42.8256
 31
0.0
  0
LINE
  5
261
330
1E
100
AcDbEntity
  8
0
100
AcDbLine
 10
162.456
 20
44.22509999999999
 30
0.0
 11
164.7879999999999
 21
43.62319999999999
 31
0.0
  0
LINE
  5
262
330
1E
100
AcDbEntity
  8
0
100
AcDbLine
 10
159.816
 20
44.5863
 30
0.0
 11
162.456
 21
44.22509999999999
 31
0.0
  0
LINE
  5
263
330
1E
100
AcDbEntity
  8
0
100
AcDbLine
 10
140.4989999999999
 20
45.0
 30
0.0
 11
142.541
 21
44.59999999999999
 31
0.0
  0
LINE
  5
264
330
1E
100
AcDbEntity
  8
0
100
AcDbLine
 10
138.65
 20
45.8
 30
0.0
 11
140.4989999999999
 21
45.0
 31
0.0
  0
LINE
  5
265
330
1E
100
AcDbEntity
  8
0
100
AcDbLine
 10
157.0
 20
44.7217
 30
0.0
 11
159.816
 21
44.5863
 31
0.0
  0
LINE
  5
266
330
1E
100
AcDbEntity
  8
0
100
AcDbLine
 10
169.0
 20
44.35
 30
0.0
 11
169.05
 21
44.35
 31
0.0
  0
LINE
  5
267
330
1E
100
AcDbEntity
  8
0
100
AcDbLine
 10
169.05
 20
44.35
 30
0.0
 11
170.453775757576
 21
44.50378787878789
 31
0.0
  0
LINE
  5
268
330
1E
100
AcDbEntity
  8
0
100
AcDbLine
 10
171.459
 20
44.59999999999999
 30
0.0
 11
173.5009999999999
 21
45.0
 31
0.0
  0
LINE
  5
269
330
1E
100
AcDbEntity
  8
0
100
AcDbLine
 10
173.5009999999999
 20
45.0
 30
0.0
 11
175.35
 21
45.8
 31
0.0
  0
LINE
  5
26A
330
1E
100
AcDbEntity
  8
0
100
AcDbLine
 10
175.35
 20
45.8
 30
0.0
 11
177.003
 21
47.0
 31
0.0
  0
LINE
  5
26B
330
1E
100
AcDbEntity
  8
0
100
AcDbLine
 10
180.0
 20
43.5
 30
0.0
 11
180.0
 21
51.8745
 31
0.0
  0
LINE
  5
26C
330
1E
100
AcDbEntity
  8
0
100
AcDbLine
 10
180.0
 20
43.5
 30
0.0
 11
180.0
 21
32.1645
 31
0.0
  0
LINE
  5
26D
330
1E
100
AcDbEntity
  8
0
100
AcDbLine
 10
168.0
 20
44.4818198462102
 30
0.0
 11
168.0
 21
40.9595
 31
0.0
  0
LINE
  5
288
330
1E
100
AcDbEntity
  8
0
100
AcDbLine
 10
134.0
 20
56.1062
 30
0.0
 11
134.0
 21
56.0
 31
0.0
  0
LINE
  5
289
330
1E
100
AcDbEntity
  8
0
100
AcDbLine
 10
134.0
 20
56.0
 30
0.0
 11
134.0
 21
56.1062
 31
0.0
  0
LINE
  5
28A
330
1E
100
AcDbEntity
  8
0
100
AcDbLine
 10
134.0
 20
56.0
 30
0.0
 11
134.0
 21
20.0
 31
0.0
  0
LINE
  5
28B
330
1E
100
AcDbEntity
  8
0
100
AcDbLine
 10
134.0
 20
56.50739999999999
 30
0.0
 11
134.0
 21
51.8745
 31
0.0
  0
LINE
  5
28C
330
1E
100
AcDbEntity
  8
0
100
AcDbLine
 10
134.0
 20
56.50739999999999
 30
0.0
 11
134.0
 21
58.0
 31
0.0
  0
LINE
  5
28D
330
1E
100
AcDbEntity
  8
0
100
AcDbLine
 10
134.0
 20
59.0
 30
0.0
 11
134.3
 21
59.7
 31
0.0
  0
LINE
  5
28E
330
1E
100
AcDbEntity
  8
0
100
AcDbLine
 10
134.0
 20
59.0
 30
0.0
 11
134.0
 21
58.0
 31
0.0
  0
LINE
  5
28F
330
1E
100
AcDbEntity
  8
0
100
AcDbLine
 10
134.0
 20
58.0
 30
0.0
 11
134.0
 21
59.0
 31
0.0
  0
LINE
  5
290
330
1E
100
AcDbEntity
  8
0
100
AcDbLine
 10
134.0
 20
58.0
 30
0.0
 11
134.0
 21
56.50739999999999
 31
0.0
  0
LINE
  5
291
330
1E
100
AcDbEntity
  8
0
100
AcDbLine
 10
136.997
 20
47.0
 30
0.0
 11
138.65
 21
45.8
 31
0.0
  0
LINE
  5
293
330
1E
100
AcDbEntity
  8
0
100
AcDbLine
 10
135.799
 20
48.7
 30
0.0
 11
136.9939999999999
 21
47.0
 31
0.0
  0
LINE
  5
294
330
1E
100
AcDbEntity
  8
0
100
AcDbLine
 10
177.0059999999999
 20
47.0
 30
0.0
 11
178.2009999999999
 21
48.7
 31
0.0
  0
LINE
  5
295
330
1E
100
AcDbEntity
  8
0
100
AcDbLine
 10
180.0
 20
51.8745
 30
0.0
 11
180.0
 21
56.50739999999999
 31
0.0
  0
LINE
  5
296
330
1E
100
AcDbEntity
  8
0
100
AcDbLine
 10
180.0
 20
51.8745
 30
0.0
 11
180.0
 21
43.5
 31
0.0
  0
LINE
  5
298
330
1E
100
AcDbEntity
  8
0
100
AcDbLine
 10
180.0
 20
58.0
 30
0.0
 11
180.0
 21
59.0
 31
0.0
  0
LINE
  5
29C
330
1E
100
AcDbEntity
  8
0
100
AcDbLine
 10
180.0
 20
58.0
 30
0.0
 11
180.0
 21
56.50739999999999
 31
0.0
  0
LINE
  5
29D
330
1E
100
AcDbEntity
  8
0
100
AcDbLine
 10
180.0
 20
56.50739999999999
 30
0.0
 11
180.0
 21
58.0
 31
0.0
  0
LINE
  5
29E
330
1E
100
AcDbEntity
  8
0
100
AcDbLine
 10
180.0
 20
56.50739999999999
 30
0.0
 11
180.0
 21
51.8745
 31
0.0
  0
LINE
  5
2AE
330
1E
100
AcDbEntity
  8
0
100
AcDbLine
 10
180.0
 20
59.0
 30
0.0
 11
180.0
 21
58.0
 31
0.0
  0
LINE
  5
2B6
330
1E
100
AcDbEntity
  8
0
100
AcDbLine
 10
179.6999999999999
 20
59.7
 30
0.0
 11
180.0
 21
59.0
 31
0.0
  0
LINE
  5
2C3
330
1E
100
AcDbEntity
  8
0
100
AcDbLine
 10
135.0
 20
60.0
 30
0.0
 11
135.596
 21
60.0
 31
0.0
  0
LINE
  5
2C4
330
1E
100
AcDbEntity
  8
0
100
AcDbLine
 10
135.596
 20
60.0
 30
0.0
 11
135.993
 21
60.0
 31
0.0
  0
LINE
  5
2C5
330
1E
100
AcDbEntity
  8
0
100
AcDbLine
 10
135.993
 20
60.0
 30
0.0
 11
136.8
 21
60.0
 31
0.0
  0
LINE
  5
2C6
330
1E
100
AcDbEntity
  8
0
100
AcDbLine
 10
157.0
 20
60.0
 30
0.0
 11
159.285
 21
60.0
 31
0.0
  0
LINE
  5
2C7
330
1E
100
AcDbEntity
  8
0
100
AcDbLine
 10
159.285
 20
60.0
 30
0.0
 11
162.4
 21
60.0
 31
0.0
  0
LINE
  5
2C8
330
1E
100
AcDbEntity
  8
0
100
AcDbLine
 10
162.4
 20
60.0
 30
0.0
 11
165.895
 21
60.0
 31
0.0
  0
LINE
  5
2C9
330
1E
100
AcDbEntity
  8
0
100
AcDbLine
 10
165.895
 20
60.0
 30
0.0
 11
168.4659999999999
 21
60.0
 31
0.0
  0
LINE
  5
2CA
330
1E
100
AcDbEntity
  8
0
100
AcDbLine
 10
168.4659999999999
 20
60.0
 30
0.0
 11
170.615
 21
60.0
 31
0.0
  0
LINE
  5
2CB
330
1E
100
AcDbEntity
  8
0
100
AcDbLine
 10
170.615
 20
60.0
 30
0.0
 11
172.4959999999999
 21
60.0
 31
0.0
  0
LINE
  5
2CC
330
1E
100
AcDbEntity
  8
0
100
AcDbLine
 10
172.4959999999999
 20
60.0
 30
0.0
 11
174.3
 21
60.0
 31
0.0
  0
LINE
  5
2CD
330
1E
100
AcDbEntity
  8
0
100
AcDbLine
 10
174.3
 20
60.0
 30
0.0
 11
176.0
 21
60.0
 31
0.0
  0
LINE
  5
2CE
330
1E
100
AcDbEntity
  8
0
100
AcDbLine
 10
178.657
 20
60.0
 30
0.0
 11
179.0
 21
60.0
 31
0.0
  0
LINE
  5
2CF
330
1E
100
AcDbEntity
  8
0
100
AcDbLine
 10
178.404
 20
60.0
 30
0.0
 11
178.657
 21
60.0
 31
0.0
  0
LINE
  5
2D0
330
1E
100
AcDbEntity
  8
0
100
AcDbLine
 10
178.007
 20
60.0
 30
0.0
 11
178.404
 21
60.0
 31
0.0
  0
LINE
  5
2D1
330
1E
100
AcDbEntity
  8
0
100
AcDbLine
 10
177.2
 20
60.0
 30
0.0
 11
178.007
 21
60.0
 31
0.0
  0
LINE
  5
2D2
330
1E
100
AcDbEntity
  8
0
100
AcDbLine
 10
176.0
 20
60.0
 30
0.0
 11
177.2
 21
60.0
 31
0.0
  0
LINE
  5
2D3
330
1E
100
AcDbEntity
  8
0
100
AcDbLine
 10
179.0
 20
60.0
 30
0.0
 11
179.6999999999999
 21
59.7
 31
0.0
  0
LINE
  5
2D4
330
1E
100
AcDbEntity
  8
0
100
AcDbLine
 10
154.715
 20
60.0
 30
0.0
 11
157.0
 21
60.0
 31
0.0
  0
LINE
  5
2D5
330
1E
100
AcDbEntity
  8
0
100
AcDbLine
 10
151.6
 20
60.0
 30
0.0
 11
154.715
 21
60.0
 31
0.0
  0
LINE
  5
2D6
330
1E
100
AcDbEntity
  8
0
100
AcDbLine
 10
148.1049999999999
 20
60.0
 30
0.0
 11
151.6
 21
60.0
 31
0.0
  0
LINE
  5
2D7
330
1E
100
AcDbEntity
  8
0
100
AcDbLine
 10
145.5339999999999
 20
60.0
 30
0.0
 11
148.1049999999999
 21
60.0
 31
0.0
  0
LINE
  5
2D8
330
1E
100
AcDbEntity
  8
0
100
AcDbLine
 10
143.3849999999999
 20
60.0
 30
0.0
 11
145.5339999999999
 21
60.0
 31
0.0
  0
LINE
  5
2D9
330
1E
100
AcDbEntity
  8
0
100
AcDbLine
 10
141.5039999999999
 20
60.0
 30
0.0
 11
143.3849999999999
 21
60.0
 31
0.0
  0
LINE
  5
2DA
330
1E
100
AcDbEntity
  8
0
100
AcDbLine
 10
139.7
 20
60.0
 30
0.0
 11
141.5039999999999
 21
60.0
 31
0.0
  0
LINE
  5
2DB
330
1E
100
AcDbEntity
  8
0
100
AcDbLine
 10
138.0
 20
60.0
 30
0.0
 11
139.7
 21
60.0
 31
0.0
  0
LINE
  5
2DC
330
1E
100
AcDbEntity
  8
0
100
AcDbLine
 10
136.8
 20
60.0
 30
0.0
 11
138.0
 21
60.0
 31
0.0
  0
LINE
  5
2DD
330
1E
100
AcDbEntity
  8
0
100
AcDbLine
 10
134.3
 20
59.7
 30
0.0
 11
135.0
 21
60.0
 31
0.0
  0
LINE
  5
2DE
330
1E
100
AcDbEntity
  8
0
100
AcDbLine
 10
134.0
 20
51.8745
 30
0.0
 11
134.0
 21
43.5
 31
0.0
  0
LINE
  5
2DF
330
1E
100
AcDbEntity
  8
0
100
AcDbLine
 10
134.0
 20
51.8745
 30
0.0
 11
134.0
 21
56.50739999999999
 31
0.0
  0
LINE
  5
2EC
330
1E
100
AcDbEntity
  8
0
100
AcDbLine
 10
80.0
 20
46.0
 30
0.0
 11
80.0
 21
27.0
 31
0.0
  0
LINE
  5
2ED
330
1E
100
AcDbEntity
  8
0
100
AcDbLine
 10
79.7
 20
46.7
 30
0.0
 11
80.0
 21
46.0
 31
0.0
  0
LINE
  5
2EE
330
1E
100
AcDbEntity
  8
0
100
AcDbLine
 10
80.0
 20
27.0
 30
0.0
 11
80.0
 21
46.0
 31
0.0
  0
LINE
  5
2EF
330
1E
100
AcDbEntity
  8
0
100
AcDbLine
 10
80.0
 20
27.0
 30
0.0
 11
80.0
 21
8.0
 31
0.0
  0
LINE
  5
2F0
330
1E
100
AcDbEntity
  8
0
100
AcDbLine
 10
75.3059
 20
7.0
 30
0.0
 11
76.0059
 21
7.0
 31
0.0
  0
LINE
  5
2F1
330
1E
100
AcDbEntity
  8
0
100
AcDbLine
 10
74.5647
 20
7.0
 30
0.0
 11
75.3059
 21
7.0
 31
0.0
  0
LINE
  5
2F2
330
1E
100
AcDbEntity
  8
0
100
AcDbLine
 10
74.6471
 20
6.849999999999999
 30
0.0
 11
75.3882
 21
6.849999999999999
 31
0.0
  0
LINE
  5
2F3
330
1E
100
AcDbEntity
  8
0
100
AcDbLine
 10
73.82349999999999
 20
6.849999999999999
 30
0.0
 11
74.6471
 21
6.849999999999999
 31
0.0
  0
LINE
  5
2F4
330
1E
100
AcDbEntity
  8
0
100
AcDbLine
 10
73.82349999999999
 20
-0.0000000000000015
 30
0.0
 11
74.6471
 21
-0.0000000000000015
 31
0.0
  0
LINE
  5
2F5
330
1E
100
AcDbEntity
  8
0
100
AcDbLine
 10
45.0
 20
-0.0000000000000015
 30
0.0
 11
73.82349999999999
 21
-0.0000000000000015
 31
0.0
  0
LINE
  5
2FA
330
1E
100
AcDbEntity
  8
0
100
AcDbLine
 10
80.0
 20
8.0
 30
0.0
 11
79.7
 21
7.299999999999999
 31
0.0
  0
LINE
  5
2FB
330
1E
100
AcDbEntity
  8
0
100
AcDbLine
 10
79.5882
 20
7.0
 30
0.0
 11
78.80589999999999
 21
7.0
 31
0.0
  0
LINE
  5
2FC
330
1E
100
AcDbEntity
  8
0
100
AcDbLine
 10
171.459
 20
44.59999999999999
 30
0.0
 11
170.453775757576
 21
44.50378787878789
 31
0.0
  0
LINE
  5
2FD
330
1E
100
AcDbEntity
  8
0
100
AcDbLine
 10
178.2009999999999
 20
48.7
 30
0.0
 11
180.0
 21
59.0
 31
0.0
  0
LINE
  5
2FE
330
1E
100
AcDbEntity
  8
0
100
AcDbLine
 10
169.0
 20
44.35
 30
0.0
 11
168.0
 21
44.35
 31
0.0
  0
LINE
  5
2FF
330
1E
100
AcDbEntity
  8
0
100
AcDbLine
 10
142.541
 20
44.59999999999999
 30
0.0
 11
143.5462242424239
 21
44.50378787878789
 31
0.0
  0
LINE
  5
300
330
1E
100
AcDbEntity
  8
0
100
AcDbLine
 10
144.95
 20
44.35
 30
0.0
 11
146.0
 21
44.35
 31
0.0
  0
LINE
  5
301
330
1E
100
AcDbEntity
  8
0
100
AcDbLine
 10
135.799
 20
48.7
 30
0.0
 11
134.0
 21
59.0
 31
0.0
  0
LINE
  5
302
330
1E
100
AcDbEntity
  8
0
100
AcDbLine
 10
234.0
 20
27.0
 30
0.0
 11
234.0
 21
46.0
 31
0.0
  0
LINE
  5
303
330
1E
100
AcDbEntity
  8
0
100
AcDbLine
 10
234.0
 20
46.0
 30
0.0
 11
234.0
 21
27.0
 31
0.0
  0
LINE
  5
304
330
1E
100
AcDbEntity
  8
0
100
AcDbLine
 10
261.5
 20
27.0
 30
0.0
 11
261.5
 21
41.0
 31
0.0
  0
LINE
  5
305
330
1E
100
AcDbEntity
  8
0
100
AcDbLine
 10
261.5
 20
41.0
 30
0.0
 11
261.5
 21
27.0
 31
0.0
  0
LINE
  5
306
330
1E
100
AcDbEntity
  8
0
100
AcDbLine
 10
310.4999999999999
 20
41.0
 30
0.0
 11
310.4999999999999
 21
27.0
 31
0.0
  0
LINE
  5
307
330
1E
100
AcDbEntity
  8
0
100
AcDbLine
 10
310.4999999999999
 20
27.0
 30
0.0
 11
310.4999999999999
 21
41.0
 31
0.0
  0
LINE
  5
308
330
1E
100
AcDbEntity
  8
0
100
AcDbLine
 10
314.0
 20
41.0
 30
0.0
 11
314.0
 21
27.0
 31
0.0
  0
LINE
  5
309
330
1E
100
AcDbEntity
  8
0
100
AcDbLine
 10
314.0
 20
27.0
 30
0.0
 11
314.0
 21
41.0
 31
0.0
  0
LINE
  5
30A
330
1E
100
AcDbEntity
  8
0
100
AcDbLine
 10
313.7
 20
27.0
 30
0.0
 11
313.7
 21
41.0
 31
0.0
  0
LINE
  5
30B
330
1E
100
AcDbEntity
  8
0
100
AcDbLine
 10
313.7
 20
41.0
 30
0.0
 11
313.7
 21
27.0
 31
0.0
  0
LINE
  5
30C
330
1E
100
AcDbEntity
  8
0
100
AcDbLine
 10
297.8235
 20
7.0
 30
0.0
 11
269.0
 21
7.0
 31
0.0
  0
LINE
  5
30D
330
1E
100
AcDbEntity
  8
0
100
AcDbLine
 10
297.8235
 20
7.0
 30
0.0
 11
269.0
 21
7.0
 31
0.0
  0
LINE
  5
30E
330
1E
100
AcDbEntity
  8
0
100
AcDbLine
 10
297.8235
 20
6.849999999999999
 30
0.0
 11
269.0
 21
6.849999999999999
 31
0.0
  0
LINE
  5
30F
330
1E
100
AcDbEntity
  8
0
100
AcDbLine
 10
297.8235
 20
6.849999999999999
 30
0.0
 11
269.0
 21
6.849999999999999
 31
0.0
  0
LINE
  5
310
330
1E
100
AcDbEntity
  8
0
100
AcDbLine
 10
297.8235
 20
-0.0000000000000015
 30
0.0
 11
269.0
 21
-0.0000000000000015
 31
0.0
  0
LINE
  5
311
330
1E
100
AcDbEntity
  8
0
100
AcDbLine
 10
297.8235
 20
-0.0000000000000015
 30
0.0
 11
269.0
 21
-0.0000000000000015
 31
0.0
  0
LINE
  5
312
330
1E
100
AcDbEntity
  8
0
100
AcDbLine
 10
297.8235
 20
-0.0000000000000044
 30
0.0
 11
269.0
 21
-0.0000000000000044
 31
0.0
  0
LINE
  5
313
330
1E
100
AcDbEntity
  8
0
100
AcDbLine
 10
297.8235
 20
-0.0000000000000044
 30
0.0
 11
269.0
 21
-0.0000000000000044
 31
0.0
  0
LINE
  5
314
330
1E
100
AcDbEntity
  8
0
100
AcDbLine
 10
308.0
 20
10.5
 30
0.0
 11
264.0
 21
10.5
 31
0.0
  0
LINE
  5
315
330
1E
100
AcDbEntity
  8
0
100
AcDbLine
 10
308.0
 20
10.5
 30
0.0
 11
264.0
 21
10.5
 31
0.0
  0
LINE
  5
316
330
1E
100
AcDbEntity
  8
0
100
AcDbLine
 10
308.0
 20
7.299999999999999
 30
0.0
 11
240.0
 21
7.299999999999999
 31
0.0
  0
LINE
  5
317
330
1E
100
AcDbEntity
  8
0
100
AcDbLine
 10
308.0
 20
7.299999999999999
 30
0.0
 11
240.0
 21
7.299999999999999
 31
0.0
  0
LINE
  5
318
330
1E
100
AcDbEntity
  8
0
100
AcDbLine
 10
310.18314
 20
11.7596
 30
0.0
 11
309.7668899999999
 21
11.23099999999999
 31
0.0
  0
LINE
  5
319
330
1E
100
AcDbEntity
  8
0
100
AcDbLine
 10
313.5
 20
11.59999999999999
 30
0.0
 11
312.9
 21
10.2
 31
0.0
  0
LINE
  5
31A
330
1E
100
AcDbEntity
  8
0
100
AcDbLine
 10
313.7
 20
11.5
 30
0.0
 11
313.1
 21
10.1
 31
0.0
  0
LINE
  5
31B
330
1E
100
AcDbEntity
  8
0
100
AcDbLine
 10
308.64823
 20
10.58109999999999
 30
0.0
 11
308.0
 21
10.5
 31
0.0
  0
LINE
  5
31C
330
1E
100
AcDbEntity
  8
0
100
AcDbLine
 10
309.5
 20
7.299999999999999
 30
0.0
 11
308.0
 21
7.0
 31
0.0
  0
LINE
  5
31D
330
1E
100
AcDbEntity
  8
0
100
AcDbLine
 10
309.3999999999999
 20
7.5
 30
0.0
 11
308.0
 21
7.299999999999999
 31
0.0
  0
LINE
  5
31E
330
1E
100
AcDbEntity
  8
0
100
AcDbLine
 10
313.1
 20
10.1
 30
0.0
 11
312.1999999999999
 21
8.8
 31
0.0
  0
LINE
  5
31F
330
1E
100
AcDbEntity
  8
0
100
AcDbLine
 10
312.0
 20
9.0
 30
0.0
 11
310.8
 21
8.099999999999999
 31
0.0
  0
LINE
  5
320
330
1E
100
AcDbEntity
  8
0
100
AcDbLine
 10
312.1999999999999
 20
8.8
 30
0.0
 11
310.8999999999999
 21
7.9
 31
0.0
  0
LINE
  5
321
330
1E
100
AcDbEntity
  8
0
100
AcDbLine
 10
310.8
 20
8.099999999999999
 30
0.0
 11
309.3999999999999
 21
7.5
 31
0.0
  0
LINE
  5
322
330
1E
100
AcDbEntity
  8
0
100
AcDbLine
 10
310.8999999999999
 20
7.9
 30
0.0
 11
309.5
 21
7.299999999999999
 31
0.0
  0
LINE
  5
323
330
1E
100
AcDbEntity
  8
0
100
AcDbLine
 10
312.9
 20
10.2
 30
0.0
 11
312.0
 21
9.0
 31
0.0
  0
LINE
  5
324
330
1E
100
AcDbEntity
  8
0
100
AcDbLine
 10
309.7668899999999
 20
11.23099999999999
 30
0.0
 11
309.2899499999999
 21
10.83239999999999
 31
0.0
  0
LINE
  5
325
330
1E
100
AcDbEntity
  8
0
100
AcDbLine
 10
309.2899499999999
 20
10.83239999999999
 30
0.0
 11
308.64823
 21
10.58109999999999
 31
0.0
  0
LINE
  5
326
330
1E
100
AcDbEntity
  8
0
100
AcDbLine
 10
304.0
 20
6.5
 30
0.0
 11
304.0
 21
-0.0000000000000017
 31
0.0
  0
LINE
  5
327
330
1E
100
AcDbEntity
  8
0
100
AcDbLine
 10
304.0
 20
-0.0000000000000019
 30
0.0
 11
304.0
 21
6.5
 31
0.0
  0
LINE
  5
328
330
1E
100
AcDbEntity
  8
0
100
AcDbLine
 10
301.5706
 20
-0.0000000000000016
 30
0.0
 11
300.9117999999999
 21
-0.0000000000000016
 31
0.0
  0
LINE
  5
329
330
1E
100
AcDbEntity
  8
0
100
AcDbLine
 10
301.5706
 20
-0.0000000000000043
 30
0.0
 11
300.9117999999999
 21
-0.0000000000000043
 31
0.0
  0
LINE
  5
32A
330
1E
100
AcDbEntity
  8
0
100
AcDbLine
 10
303.1765
 20
-0.0000000000000017
 30
0.0
 11
302.7235
 21
-0.0000000000000017
 31
0.0
  0
LINE
  5
32B
330
1E
100
AcDbEntity
  8
0
100
AcDbLine
 10
303.1765
 20
-0.0000000000000042
 30
0.0
 11
302.7235
 21
-0.0000000000000042
 31
0.0
  0
LINE
  5
32C
330
1E
100
AcDbEntity
  8
0
100
AcDbLine
 10
304.0
 20
-0.0000000000000019
 30
0.0
 11
303.9175999999999
 21
-0.0000000000000019
 31
0.0
  0
LINE
  5
32D
330
1E
100
AcDbEntity
  8
0
100
AcDbLine
 10
304.0
 20
-0.000000000000004
 30
0.0
 11
303.9175999999999
 21
-0.000000000000004
 31
0.0
  0
LINE
  5
32E
330
1E
100
AcDbEntity
  8
0
100
AcDbLine
 10
303.9175999999999
 20
-0.0000000000000019
 30
0.0
 11
303.7941
 21
-0.0000000000000018
 31
0.0
  0
LINE
  5
32F
330
1E
100
AcDbEntity
  8
0
100
AcDbLine
 10
303.9175999999999
 20
-0.000000000000004
 30
0.0
 11
303.7941
 21
-0.0000000000000041
 31
0.0
  0
LINE
  5
330
330
1E
100
AcDbEntity
  8
0
100
AcDbLine
 10
303.7941
 20
-0.0000000000000018
 30
0.0
 11
303.5058999999999
 21
-0.0000000000000018
 31
0.0
  0
LINE
  5
331
330
1E
100
AcDbEntity
  8
0
100
AcDbLine
 10
303.7941
 20
-0.0000000000000041
 30
0.0
 11
303.5058999999999
 21
-0.0000000000000041
 31
0.0
  0
LINE
  5
332
330
1E
100
AcDbEntity
  8
0
100
AcDbLine
 10
303.5058999999999
 20
-0.0000000000000018
 30
0.0
 11
303.1765
 21
-0.0000000000000017
 31
0.0
  0
LINE
  5
333
330
1E
100
AcDbEntity
  8
0
100
AcDbLine
 10
303.5058999999999
 20
-0.0000000000000041
 30
0.0
 11
303.1765
 21
-0.0000000000000042
 31
0.0
  0
LINE
  5
334
330
1E
100
AcDbEntity
  8
0
100
AcDbLine
 10
302.1882
 20
-0.0000000000000017
 30
0.0
 11
301.5706
 21
-0.0000000000000016
 31
0.0
  0
LINE
  5
335
330
1E
100
AcDbEntity
  8
0
100
AcDbLine
 10
302.1882
 20
-0.0000000000000042
 30
0.0
 11
301.5706
 21
-0.0000000000000043
 31
0.0
  0
LINE
  5
336
330
1E
100
AcDbEntity
  8
0
100
AcDbLine
 10
302.7235
 20
-0.0000000000000017
 30
0.0
 11
302.1882
 21
-0.0000000000000017
 31
0.0
  0
LINE
  5
337
330
1E
100
AcDbEntity
  8
0
100
AcDbLine
 10
302.7235
 20
-0.0000000000000042
 30
0.0
 11
302.1882
 21
-0.0000000000000042
 31
0.0
  0
LINE
  5
338
330
1E
100
AcDbEntity
  8
0
100
AcDbLine
 10
298.6471
 20
-0.0000000000000015
 30
0.0
 11
297.8235
 21
-0.0000000000000015
 31
0.0
  0
LINE
  5
339
330
1E
100
AcDbEntity
  8
0
100
AcDbLine
 10
298.6471
 20
-0.0000000000000044
 30
0.0
 11
297.8235
 21
-0.0000000000000044
 31
0.0
  0
LINE
  5
33A
330
1E
100
AcDbEntity
  8
0
100
AcDbLine
 10
300.1705999999999
 20
-0.0000000000000016
 30
0.0
 11
299.4294
 21
-0.0000000000000016
 31
0.0
  0
LINE
  5
33B
330
1E
100
AcDbEntity
  8
0
100
AcDbLine
 10
300.1705999999999
 20
-0.0000000000000043
 30
0.0
 11
299.4294
 21
-0.0000000000000043
 31
0.0
  0
LINE
  5
33C
330
1E
100
AcDbEntity
  8
0
100
AcDbLine
 10
300.9117999999999
 20
-0.0000000000000016
 30
0.0
 11
300.1705999999999
 21
-0.0000000000000016
 31
0.0
  0
LINE
  5
33D
330
1E
100
AcDbEntity
  8
0
100
AcDbLine
 10
300.9117999999999
 20
-0.0000000000000043
 30
0.0
 11
300.1705999999999
 21
-0.0000000000000043
 31
0.0
  0
LINE
  5
33E
330
1E
100
AcDbEntity
  8
0
100
AcDbLine
 10
299.4294
 20
-0.0000000000000016
 30
0.0
 11
298.6471
 21
-0.0000000000000015
 31
0.0
  0
LINE
  5
33F
330
1E
100
AcDbEntity
  8
0
100
AcDbLine
 10
299.4294
 20
-0.0000000000000043
 30
0.0
 11
298.6471
 21
-0.0000000000000044
 31
0.0
  0
LINE
  5
340
330
1E
100
AcDbEntity
  8
0
100
AcDbLine
 10
304.0
 20
6.5
 30
0.0
 11
303.8765
 21
6.849999999999999
 31
0.0
  0
LINE
  5
341
330
1E
100
AcDbEntity
  8
0
100
AcDbLine
 10
301.5294
 20
6.849999999999999
 30
0.0
 11
300.8706
 21
6.849999999999999
 31
0.0
  0
LINE
  5
342
330
1E
100
AcDbEntity
  8
0
100
AcDbLine
 10
308.0
 20
7.0
 30
0.0
 11
300.0059
 21
7.0
 31
0.0
  0
LINE
  5
343
330
1E
100
AcDbEntity
  8
0
100
AcDbLine
 10
308.0
 20
7.0
 30
0.0
 11
300.0059
 21
7.0
 31
0.0
  0
LINE
  5
344
330
1E
100
AcDbEntity
  8
0
100
AcDbLine
 10
308.0
 20
7.0
 30
0.0
 11
303.5882
 21
7.0
 31
0.0
  0
LINE
  5
345
330
1E
100
AcDbEntity
  8
0
100
AcDbLine
 10
308.0
 20
7.0
 30
0.0
 11
303.5882
 21
7.0
 31
0.0
  0
LINE
  5
346
330
1E
100
AcDbEntity
  8
0
100
AcDbLine
 10
303.4234999999999
 20
6.849999999999999
 30
0.0
 11
303.0941
 21
6.849999999999999
 31
0.0
  0
LINE
  5
347
330
1E
100
AcDbEntity
  8
0
100
AcDbLine
 10
303.5471
 20
7.0
 30
0.0
 11
303.3824
 21
7.0
 31
0.0
  0
LINE
  5
348
330
1E
100
AcDbEntity
  8
0
100
AcDbLine
 10
303.6705999999999
 20
6.849999999999999
 30
0.0
 11
303.4234999999999
 21
6.849999999999999
 31
0.0
  0
LINE
  5
349
330
1E
100
AcDbEntity
  8
0
100
AcDbLine
 10
303.8765
 20
6.849999999999999
 30
0.0
 11
303.5882
 21
7.0
 31
0.0
  0
LINE
  5
34A
330
1E
100
AcDbEntity
  8
0
100
AcDbLine
 10
303.8353
 20
6.849999999999999
 30
0.0
 11
303.6705999999999
 21
6.849999999999999
 31
0.0
  0
LINE
  5
34B
330
1E
100
AcDbEntity
  8
0
100
AcDbLine
 10
303.3824
 20
7.0
 30
0.0
 11
303.1353
 21
7.0
 31
0.0
  0
LINE
  5
34C
330
1E
100
AcDbEntity
  8
0
100
AcDbLine
 10
302.1059
 20
6.849999999999999
 30
0.0
 11
301.5294
 21
6.849999999999999
 31
0.0
  0
LINE
  5
34D
330
1E
100
AcDbEntity
  8
0
100
AcDbLine
 10
302.8059
 20
7.0
 30
0.0
 11
302.3940999999999
 21
7.0
 31
0.0
  0
LINE
  5
34E
330
1E
100
AcDbEntity
  8
0
100
AcDbLine
 10
303.0941
 20
6.849999999999999
 30
0.0
 11
302.6412
 21
6.849999999999999
 31
0.0
  0
LINE
  5
34F
330
1E
100
AcDbEntity
  8
0
100
AcDbLine
 10
302.6412
 20
6.849999999999999
 30
0.0
 11
302.1059
 21
6.849999999999999
 31
0.0
  0
LINE
  5
350
330
1E
100
AcDbEntity
  8
0
100
AcDbLine
 10
298.5647
 20
7.0
 30
0.0
 11
297.8235
 21
7.0
 31
0.0
  0
LINE
  5
351
330
1E
100
AcDbEntity
  8
0
100
AcDbLine
 10
298.6471
 20
6.849999999999999
 30
0.0
 11
297.8235
 21
6.849999999999999
 31
0.0
  0
LINE
  5
352
330
1E
100
AcDbEntity
  8
0
100
AcDbLine
 10
300.0059
 20
7.0
 30
0.0
 11
298.5647
 21
7.0
 31
0.0
  0
LINE
  5
353
330
1E
100
AcDbEntity
  8
0
100
AcDbLine
 10
300.1705999999999
 20
6.849999999999999
 30
0.0
 11
299.3881999999999
 21
6.849999999999999
 31
0.0
  0
LINE
  5
354
330
1E
100
AcDbEntity
  8
0
100
AcDbLine
 10
300.7058999999999
 20
7.0
 30
0.0
 11
300.0059
 21
7.0
 31
0.0
  0
LINE
  5
355
330
1E
100
AcDbEntity
  8
0
100
AcDbLine
 10
300.8706
 20
6.849999999999999
 30
0.0
 11
300.1705999999999
 21
6.849999999999999
 31
0.0
  0
LINE
  5
356
330
1E
100
AcDbEntity
  8
0
100
AcDbLine
 10
301.3235
 20
7.0
 30
0.0
 11
300.7058999999999
 21
7.0
 31
0.0
  0
LINE
  5
357
330
1E
100
AcDbEntity
  8
0
100
AcDbLine
 10
299.3881999999999
 20
6.849999999999999
 30
0.0
 11
298.6471
 21
6.849999999999999
 31
0.0
  0
LINE
  5
358
330
1E
100
AcDbEntity
  8
0
100
AcDbLine
 10
310.4999999999999
 20
27.0
 30
0.0
 11
310.4999999999999
 21
13.0
 31
0.0
  0
LINE
  5
359
330
1E
100
AcDbEntity
  8
0
100
AcDbLine
 10
310.4999999999999
 20
13.0
 30
0.0
 11
310.4999999999999
 21
27.0
 31
0.0
  0
LINE
  5
35A
330
1E
100
AcDbEntity
  8
0
100
AcDbLine
 10
314.0
 20
27.0
 30
0.0
 11
314.0
 21
13.0
 31
0.0
  0
LINE
  5
35B
330
1E
100
AcDbEntity
  8
0
100
AcDbLine
 10
313.7
 20
27.0
 30
0.0
 11
313.7
 21
13.0
 31
0.0
  0
LINE
  5
35C
330
1E
100
AcDbEntity
  8
0
100
AcDbLine
 10
313.7
 20
13.0
 30
0.0
 11
313.7
 21
27.0
 31
0.0
  0
LINE
  5
35D
330
1E
100
AcDbEntity
  8
0
100
AcDbLine
 10
314.0
 20
13.0
 30
0.0
 11
314.0
 21
27.0
 31
0.0
  0
LINE
  5
35E
330
1E
100
AcDbEntity
  8
0
100
AcDbLine
 10
313.7
 20
13.0
 30
0.0
 11
313.5
 21
11.59999999999999
 31
0.0
  0
LINE
  5
35F
330
1E
100
AcDbEntity
  8
0
100
AcDbLine
 10
314.0
 20
13.0
 30
0.0
 11
313.7
 21
11.5
 31
0.0
  0
LINE
  5
360
330
1E
100
AcDbEntity
  8
0
100
AcDbLine
 10
310.4999999999999
 20
13.0
 30
0.0
 11
310.4259499999999
 21
12.3488
 31
0.0
  0
LINE
  5
361
330
1E
100
AcDbEntity
  8
0
100
AcDbLine
 10
310.4259499999999
 20
12.3488
 30
0.0
 11
310.18314
 21
11.7596
 31
0.0
  0
LINE
  5
362
330
1E
100
AcDbEntity
  8
0
100
AcDbLine
 10
234.0
 20
27.0
 30
0.0
 11
234.0
 21
8.0
 31
0.0
  0
LINE
  5
363
330
1E
100
AcDbEntity
  8
0
100
AcDbLine
 10
234.0
 20
8.0
 30
0.0
 11
234.0
 21
27.0
 31
0.0
  0
LINE
  5
364
330
1E
100
AcDbEntity
  8
0
100
AcDbLine
 10
262.2330999999999
 20
11.23099999999999
 30
0.0
 11
261.8168999999999
 21
11.7596
 31
0.0
  0
LINE
  5
365
330
1E
100
AcDbEntity
  8
0
100
AcDbLine
 10
269.0
 20
-0.0000000000000015
 30
0.0
 11
240.1765
 21
-0.0000000000000015
 31
0.0
  0
LINE
  5
366
330
1E
100
AcDbEntity
  8
0
100
AcDbLine
 10
269.0
 20
6.849999999999999
 30
0.0
 11
240.1765
 21
6.849999999999999
 31
0.0
  0
LINE
  5
367
330
1E
100
AcDbEntity
  8
0
100
AcDbLine
 10
269.0
 20
7.0
 30
0.0
 11
240.1765
 21
7.0
 31
0.0
  0
LINE
  5
368
330
1E
100
AcDbEntity
  8
0
100
AcDbLine
 10
269.0
 20
-0.0000000000000044
 30
0.0
 11
240.1765
 21
-0.0000000000000044
 31
0.0
  0
LINE
  5
369
330
1E
100
AcDbEntity
  8
0
100
AcDbLine
 10
262.7101
 20
10.83239999999999
 30
0.0
 11
262.2330999999999
 21
11.23099999999999
 31
0.0
  0
LINE
  5
36A
330
1E
100
AcDbEntity
  8
0
100
AcDbLine
 10
263.3518
 20
10.58109999999999
 30
0.0
 11
262.7101
 21
10.83239999999999
 31
0.0
  0
LINE
  5
36B
330
1E
100
AcDbEntity
  8
0
100
AcDbLine
 10
264.0
 20
10.5
 30
0.0
 11
263.3518
 21
10.58109999999999
 31
0.0
  0
LINE
  5
36C
330
1E
100
AcDbEntity
  8
0
100
AcDbLine
 10
234.0
 20
6.5
 30
0.0
 11
234.0
 21
-0.0000000000000017
 31
0.0
  0
LINE
  5
36D
330
1E
100
AcDbEntity
  8
0
100
AcDbLine
 10
234.0
 20
-0.0000000000000019
 30
0.0
 11
234.0
 21
6.5
 31
0.0
  0
LINE
  5
36E
330
1E
100
AcDbEntity
  8
0
100
AcDbLine
 10
238.5706
 20
-0.0000000000000016
 30
0.0
 11
237.8294
 21
-0.0000000000000016
 31
0.0
  0
LINE
  5
36F
330
1E
100
AcDbEntity
  8
0
100
AcDbLine
 10
238.5706
 20
-0.0000000000000043
 30
0.0
 11
237.8294
 21
-0.0000000000000043
 31
0.0
  0
LINE
  5
370
330
1E
100
AcDbEntity
  8
0
100
AcDbLine
 10
240.1765
 20
-0.0000000000000015
 30
0.0
 11
239.3529
 21
-0.0000000000000015
 31
0.0
  0
LINE
  5
371
330
1E
100
AcDbEntity
  8
0
100
AcDbLine
 10
240.1765
 20
-0.0000000000000044
 30
0.0
 11
239.3529
 21
-0.0000000000000044
 31
0.0
  0
LINE
  5
372
330
1E
100
AcDbEntity
  8
0
100
AcDbLine
 10
239.3529
 20
-0.0000000000000015
 30
0.0
 11
238.5706
 21
-0.0000000000000016
 31
0.0
  0
LINE
  5
373
330
1E
100
AcDbEntity
  8
0
100
AcDbLine
 10
239.3529
 20
-0.0000000000000044
 30
0.0
 11
238.5706
 21
-0.0000000000000043
 31
0.0
  0
LINE
  5
374
330
1E
100
AcDbEntity
  8
0
100
AcDbLine
 10
234.8234999999999
 20
-0.0000000000000017
 30
0.0
 11
234.4940999999999
 21
-0.0000000000000018
 31
0.0
  0
LINE
  5
375
330
1E
100
AcDbEntity
  8
0
100
AcDbLine
 10
234.8234999999999
 20
-0.0000000000000042
 30
0.0
 11
234.4940999999999
 21
-0.0000000000000041
 31
0.0
  0
LINE
  5
376
330
1E
100
AcDbEntity
  8
0
100
AcDbLine
 10
236.4294
 20
-0.0000000000000016
 30
0.0
 11
235.8118
 21
-0.0000000000000017
 31
0.0
  0
LINE
  5
377
330
1E
100
AcDbEntity
  8
0
100
AcDbLine
 10
236.4294
 20
-0.0000000000000043
 30
0.0
 11
235.8118
 21
-0.0000000000000042
 31
0.0
  0
LINE
  5
378
330
1E
100
AcDbEntity
  8
0
100
AcDbLine
 10
237.8294
 20
-0.0000000000000016
 30
0.0
 11
237.0881999999999
 21
-0.0000000000000016
 31
0.0
  0
LINE
  5
379
330
1E
100
AcDbEntity
  8
0
100
AcDbLine
 10
237.8294
 20
-0.0000000000000043
 30
0.0
 11
237.0881999999999
 21
-0.0000000000000043
 31
0.0
  0
LINE
  5
37A
330
1E
100
AcDbEntity
  8
0
100
AcDbLine
 10
237.0881999999999
 20
-0.0000000000000016
 30
0.0
 11
236.4294
 21
-0.0000000000000016
 31
0.0
  0
LINE
  5
37B
330
1E
100
AcDbEntity
  8
0
100
AcDbLine
 10
237.0881999999999
 20
-0.0000000000000043
 30
0.0
 11
236.4294
 21
-0.0000000000000043
 31
0.0
  0
LINE
  5
37C
330
1E
100
AcDbEntity
  8
0
100
AcDbLine
 10
235.2765
 20
-0.0000000000000017
 30
0.0
 11
234.8234999999999
 21
-0.0000000000000017
 31
0.0
  0
LINE
  5
37D
330
1E
100
AcDbEntity
  8
0
100
AcDbLine
 10
235.8118
 20
-0.0000000000000017
 30
0.0
 11
235.2765
 21
-0.0000000000000017
 31
0.0
  0
LINE
  5
37E
330
1E
100
AcDbEntity
  8
0
100
AcDbLine
 10
235.2765
 20
-0.0000000000000042
 30
0.0
 11
234.8234999999999
 21
-0.0000000000000042
 31
0.0
  0
LINE
  5
37F
330
1E
100
AcDbEntity
  8
0
100
AcDbLine
 10
235.8118
 20
-0.0000000000000042
 30
0.0
 11
235.2765
 21
-0.0000000000000042
 31
0.0
  0
LINE
  5
380
330
1E
100
AcDbEntity
  8
0
100
AcDbLine
 10
234.0824
 20
-0.0000000000000019
 30
0.0
 11
234.0
 21
-0.0000000000000019
 31
0.0
  0
LINE
  5
381
330
1E
100
AcDbEntity
  8
0
100
AcDbLine
 10
234.2058999999999
 20
-0.0000000000000018
 30
0.0
 11
234.0824
 21
-0.0000000000000019
 31
0.0
  0
LINE
  5
382
330
1E
100
AcDbEntity
  8
0
100
AcDbLine
 10
234.4940999999999
 20
-0.0000000000000018
 30
0.0
 11
234.2058999999999
 21
-0.0000000000000018
 31
0.0
  0
LINE
  5
383
330
1E
100
AcDbEntity
  8
0
100
AcDbLine
 10
234.0824
 20
-0.000000000000004
 30
0.0
 11
234.0
 21
-0.000000000000004
 31
0.0
  0
LINE
  5
384
330
1E
100
AcDbEntity
  8
0
100
AcDbLine
 10
234.2058999999999
 20
-0.0000000000000041
 30
0.0
 11
234.0824
 21
-0.000000000000004
 31
0.0
  0
LINE
  5
385
330
1E
100
AcDbEntity
  8
0
100
AcDbLine
 10
234.4940999999999
 20
-0.0000000000000041
 30
0.0
 11
234.2058999999999
 21
-0.0000000000000041
 31
0.0
  0
LINE
  5
386
330
1E
100
AcDbEntity
  8
0
100
AcDbLine
 10
238.6940999999999
 20
7.0
 30
0.0
 11
237.9941
 21
7.0
 31
0.0
  0
LINE
  5
387
330
1E
100
AcDbEntity
  8
0
100
AcDbLine
 10
238.6
 20
7.299999999999999
 30
0.0
 11
237.1999999999999
 21
7.299999999999999
 31
0.0
  0
LINE
  5
388
330
1E
100
AcDbEntity
  8
0
100
AcDbLine
 10
238.6118
 20
6.849999999999999
 30
0.0
 11
237.8294
 21
6.849999999999999
 31
0.0
  0
LINE
  5
389
330
1E
100
AcDbEntity
  8
0
100
AcDbLine
 10
240.1765
 20
6.849999999999999
 30
0.0
 11
239.3529
 21
6.849999999999999
 31
0.0
  0
LINE
  5
38A
330
1E
100
AcDbEntity
  8
0
100
AcDbLine
 10
240.0
 20
7.299999999999999
 30
0.0
 11
238.6
 21
7.299999999999999
 31
0.0
  0
LINE
  5
38B
330
1E
100
AcDbEntity
  8
0
100
AcDbLine
 10
240.1765
 20
7.0
 30
0.0
 11
239.4352999999999
 21
7.0
 31
0.0
  0
LINE
  5
38C
330
1E
100
AcDbEntity
  8
0
100
AcDbLine
 10
239.3529
 20
6.849999999999999
 30
0.0
 11
238.6118
 21
6.849999999999999
 31
0.0
  0
LINE
  5
38D
330
1E
100
AcDbEntity
  8
0
100
AcDbLine
 10
239.4352999999999
 20
7.0
 30
0.0
 11
238.6940999999999
 21
7.0
 31
0.0
  0
LINE
  5
38E
330
1E
100
AcDbEntity
  8
0
100
AcDbLine
 10
234.1235
 20
6.849999999999999
 30
0.0
 11
234.0
 21
6.5
 31
0.0
  0
LINE
  5
38F
330
1E
100
AcDbEntity
  8
0
100
AcDbLine
 10
234.4117999999999
 20
7.0
 30
0.0
 11
235.1941
 21
7.0
 31
0.0
  0
LINE
  5
390
330
1E
100
AcDbEntity
  8
0
100
AcDbLine
 10
235.0999999999999
 20
7.299999999999999
 30
0.0
 11
234.5
 21
7.299999999999999
 31
0.0
  0
LINE
  5
391
330
1E
100
AcDbEntity
  8
0
100
AcDbLine
 10
235.0
 20
7.0
 30
0.0
 11
234.2999999999999
 21
7.299999999999999
 31
0.0
  0
LINE
  5
392
330
1E
100
AcDbEntity
  8
0
100
AcDbLine
 10
234.5765
 20
6.849999999999999
 30
0.0
 11
234.3294
 21
6.849999999999999
 31
0.0
  0
LINE
  5
393
330
1E
100
AcDbEntity
  8
0
100
AcDbLine
 10
236.6765
 20
7.0
 30
0.0
 11
236.1
 21
7.0
 31
0.0
  0
LINE
  5
394
330
1E
100
AcDbEntity
  8
0
100
AcDbLine
 10
236.4705999999999
 20
6.849999999999999
 30
0.0
 11
235.8940999999999
 21
6.849999999999999
 31
0.0
  0
LINE
  5
395
330
1E
100
AcDbEntity
  8
0
100
AcDbLine
 10
237.1999999999999
 20
7.299999999999999
 30
0.0
 11
236.0
 21
7.299999999999999
 31
0.0
  0
LINE
  5
396
330
1E
100
AcDbEntity
  8
0
100
AcDbLine
 10
237.9941
 20
7.0
 30
0.0
 11
237.2941
 21
7.0
 31
0.0
  0
LINE
  5
397
330
1E
100
AcDbEntity
  8
0
100
AcDbLine
 10
237.8294
 20
6.849999999999999
 30
0.0
 11
237.1294
 21
6.849999999999999
 31
0.0
  0
LINE
  5
398
330
1E
100
AcDbEntity
  8
0
100
AcDbLine
 10
237.2941
 20
7.0
 30
0.0
 11
236.6765
 21
7.0
 31
0.0
  0
LINE
  5
399
330
1E
100
AcDbEntity
  8
0
100
AcDbLine
 10
237.1294
 20
6.849999999999999
 30
0.0
 11
236.4705999999999
 21
6.849999999999999
 31
0.0
  0
LINE
  5
39A
330
1E
100
AcDbEntity
  8
0
100
AcDbLine
 10
236.0
 20
7.299999999999999
 30
0.0
 11
235.0999999999999
 21
7.299999999999999
 31
0.0
  0
LINE
  5
39B
330
1E
100
AcDbEntity
  8
0
100
AcDbLine
 10
234.8647
 20
7.0
 30
0.0
 11
234.6175999999999
 21
7.0
 31
0.0
  0
LINE
  5
39C
330
1E
100
AcDbEntity
  8
0
100
AcDbLine
 10
235.6059
 20
7.0
 30
0.0
 11
235.1941
 21
7.0
 31
0.0
  0
LINE
  5
39D
330
1E
100
AcDbEntity
  8
0
100
AcDbLine
 10
236.1
 20
7.0
 30
0.0
 11
235.6059
 21
7.0
 31
0.0
  0
LINE
  5
39E
330
1E
100
AcDbEntity
  8
0
100
AcDbLine
 10
234.9059
 20
6.849999999999999
 30
0.0
 11
234.5765
 21
6.849999999999999
 31
0.0
  0
LINE
  5
39F
330
1E
100
AcDbEntity
  8
0
100
AcDbLine
 10
235.3588
 20
6.849999999999999
 30
0.0
 11
234.9059
 21
6.849999999999999
 31
0.0
  0
LINE
  5
3A0
330
1E
100
AcDbEntity
  8
0
100
AcDbLine
 10
235.8940999999999
 20
6.849999999999999
 30
0.0
 11
235.3588
 21
6.849999999999999
 31
0.0
  0
LINE
  5
3A1
330
1E
100
AcDbEntity
  8
0
100
AcDbLine
 10
234.0
 20
8.0
 30
0.0
 11
234.2999999999999
 21
7.299999999999999
 31
0.0
  0
LINE
  5
3A2
330
1E
100
AcDbEntity
  8
0
100
AcDbLine
 10
234.5
 20
7.299999999999999
 30
0.0
 11
234.2999999999999
 21
7.299999999999999
 31
0.0
  0
LINE
  5
3A3
330
1E
100
AcDbEntity
  8
0
100
AcDbLine
 10
234.4117999999999
 20
7.0
 30
0.0
 11
234.1235
 21
6.849999999999999
 31
0.0
  0
LINE
  5
3A4
330
1E
100
AcDbEntity
  8
0
100
AcDbLine
 10
234.3294
 20
6.849999999999999
 30
0.0
 11
234.1647
 21
6.849999999999999
 31
0.0
  0
LINE
  5
3A5
330
1E
100
AcDbEntity
  8
0
100
AcDbLine
 10
261.5
 20
27.0
 30
0.0
 11
261.5
 21
13.0
 31
0.0
  0
LINE
  5
3A6
330
1E
100
AcDbEntity
  8
0
100
AcDbLine
 10
261.5
 20
13.0
 30
0.0
 11
261.5
 21
27.0
 31
0.0
  0
LINE
  5
3A7
330
1E
100
AcDbEntity
  8
0
100
AcDbLine
 10
261.574
 20
12.3488
 30
0.0
 11
261.5
 21
13.0
 31
0.0
  0
LINE
  5
3A8
330
1E
100
AcDbEntity
  8
0
100
AcDbLine
 10
261.8168999999999
 20
11.7596
 30
0.0
 11
261.574
 21
12.3488
 31
0.0
  0
LINE
  5
3A9
330
1E
100
AcDbEntity
  8
0
100
AcDbLine
 10
308.0
 20
43.5
 30
0.0
 11
264.0
 21
43.5
 31
0.0
  0
LINE
  5
3AA
330
1E
100
AcDbEntity
  8
0
100
AcDbLine
 10
308.0
 20
43.5
 30
0.0
 11
264.0
 21
43.5
 31
0.0
  0
LINE
  5
3AB
330
1E
100
AcDbEntity
  8
0
100
AcDbLine
 10
308.0
 20
47.0
 30
0.0
 11
240.0
 21
47.0
 31
0.0
  0
LINE
  5
3AC
330
1E
100
AcDbEntity
  8
0
100
AcDbLine
 10
308.0
 20
46.7
 30
0.0
 11
240.0
 21
46.7
 31
0.0
  0
LINE
  5
3AD
330
1E
100
AcDbEntity
  8
0
100
AcDbLine
 10
308.0
 20
47.0
 30
0.0
 11
240.0
 21
47.0
 31
0.0
  0
LINE
  5
3AE
330
1E
100
AcDbEntity
  8
0
100
AcDbLine
 10
308.0
 20
46.7
 30
0.0
 11
240.0
 21
46.7
 31
0.0
  0
LINE
  5
3AF
330
1E
100
AcDbEntity
  8
0
100
AcDbLine
 10
309.5
 20
46.7
 30
0.0
 11
308.0
 21
47.0
 31
0.0
  0
LINE
  5
3B0
330
1E
100
AcDbEntity
  8
0
100
AcDbLine
 10
309.3999999999999
 20
46.5
 30
0.0
 11
308.0
 21
46.7
 31
0.0
  0
LINE
  5
3B1
330
1E
100
AcDbEntity
  8
0
100
AcDbLine
 10
308.64823
 20
43.4189
 30
0.0
 11
308.0
 21
43.5
 31
0.0
  0
LINE
  5
3B2
330
1E
100
AcDbEntity
  8
0
100
AcDbLine
 10
313.1
 20
43.89999999999999
 30
0.0
 11
312.1999999999999
 21
45.2
 31
0.0
  0
LINE
  5
3B3
330
1E
100
AcDbEntity
  8
0
100
AcDbLine
 10
312.9
 20
43.79999999999999
 30
0.0
 11
312.0
 21
45.0
 31
0.0
  0
LINE
  5
3B4
330
1E
100
AcDbEntity
  8
0
100
AcDbLine
 10
310.4259499999999
 20
41.6512
 30
0.0
 11
310.18314
 21
42.2404
 31
0.0
  0
LINE
  5
3B5
330
1E
100
AcDbEntity
  8
0
100
AcDbLine
 10
314.0
 20
41.0
 30
0.0
 11
313.7
 21
42.5
 31
0.0
  0
LINE
  5
3B6
330
1E
100
AcDbEntity
  8
0
100
AcDbLine
 10
313.7
 20
41.0
 30
0.0
 11
313.5
 21
42.4
 31
0.0
  0
LINE
  5
3B7
330
1E
100
AcDbEntity
  8
0
100
AcDbLine
 10
310.4999999999999
 20
41.0
 30
0.0
 11
310.4259499999999
 21
41.6512
 31
0.0
  0
LINE
  5
3B8
330
1E
100
AcDbEntity
  8
0
100
AcDbLine
 10
313.7
 20
42.5
 30
0.0
 11
313.1
 21
43.89999999999999
 31
0.0
  0
LINE
  5
3B9
330
1E
100
AcDbEntity
  8
0
100
AcDbLine
 10
313.5
 20
42.4
 30
0.0
 11
312.9
 21
43.79999999999999
 31
0.0
  0
LINE
  5
3BA
330
1E
100
AcDbEntity
  8
0
100
AcDbLine
 10
309.7668899999999
 20
42.769
 30
0.0
 11
309.2899499999999
 21
43.1676
 31
0.0
  0
LINE
  5
3BB
330
1E
100
AcDbEntity
  8
0
100
AcDbLine
 10
310.18314
 20
42.2404
 30
0.0
 11
309.7668899999999
 21
42.769
 31
0.0
  0
LINE
  5
3BC
330
1E
100
AcDbEntity
  8
0
100
AcDbLine
 10
309.2899499999999
 20
43.1676
 30
0.0
 11
308.64823
 21
43.4189
 31
0.0
  0
LINE
  5
3BD
330
1E
100
AcDbEntity
  8
0
100
AcDbLine
 10
310.8999999999999
 20
46.1
 30
0.0
 11
309.5
 21
46.7
 31
0.0
  0
LINE
  5
3BE
330
1E
100
AcDbEntity
  8
0
100
AcDbLine
 10
310.8
 20
45.89999999999999
 30
0.0
 11
309.3999999999999
 21
46.5
 31
0.0
  0
LINE
  5
3BF
330
1E
100
AcDbEntity
  8
0
100
AcDbLine
 10
312.1999999999999
 20
45.2
 30
0.0
 11
310.8999999999999
 21
46.1
 31
0.0
  0
LINE
  5
3C0
330
1E
100
AcDbEntity
  8
0
100
AcDbLine
 10
312.0
 20
45.0
 30
0.0
 11
310.8
 21
45.89999999999999
 31
0.0
  0
LINE
  5
3C1
330
1E
100
AcDbEntity
  8
0
100
AcDbLine
 10
261.8168999999999
 20
42.2404
 30
0.0
 11
261.574
 21
41.6512
 31
0.0
  0
LINE
  5
3C2
330
1E
100
AcDbEntity
  8
0
100
AcDbLine
 10
261.574
 20
41.6512
 30
0.0
 11
261.5
 21
41.0
 31
0.0
  0
LINE
  5
3C3
330
1E
100
AcDbEntity
  8
0
100
AcDbLine
 10
262.7101
 20
43.1676
 30
0.0
 11
262.2330999999999
 21
42.769
 31
0.0
  0
LINE
  5
3C4
330
1E
100
AcDbEntity
  8
0
100
AcDbLine
 10
263.3518
 20
43.4189
 30
0.0
 11
262.7101
 21
43.1676
 31
0.0
  0
LINE
  5
3C5
330
1E
100
AcDbEntity
  8
0
100
AcDbLine
 10
264.0
 20
43.5
 30
0.0
 11
263.3518
 21
43.4189
 31
0.0
  0
LINE
  5
3C6
330
1E
100
AcDbEntity
  8
0
100
AcDbLine
 10
262.2330999999999
 20
42.769
 30
0.0
 11
261.8168999999999
 21
42.2404
 31
0.0
  0
LINE
  5
3C7
330
1E
100
AcDbEntity
  8
0
100
AcDbLine
 10
238.6
 20
46.7
 30
0.0
 11
237.1999999999999
 21
46.7
 31
0.0
  0
LINE
  5
3C8
330
1E
100
AcDbEntity
  8
0
100
AcDbLine
 10
238.8
 20
47.0
 30
0.0
 11
237.5999999999999
 21
47.0
 31
0.0
  0
LINE
  5
3C9
330
1E
100
AcDbEntity
  8
0
100
AcDbLine
 10
240.0
 20
46.7
 30
0.0
 11
238.6
 21
46.7
 31
0.0
  0
LINE
  5
3CA
330
1E
100
AcDbEntity
  8
0
100
AcDbLine
 10
240.0
 20
47.0
 30
0.0
 11
238.8
 21
47.0
 31
0.0
  0
LINE
  5
3CB
330
1E
100
AcDbEntity
  8
0
100
AcDbLine
 10
234.2999999999999
 20
46.7
 30
0.0
 11
234.0
 21
46.0
 31
0.0
  0
LINE
  5
3CC
330
1E
100
AcDbEntity
  8
0
100
AcDbLine
 10
235.0
 20
47.0
 30
0.0
 11
234.2999999999999
 21
46.7
 31
0.0
  0
LINE
  5
3CD
330
1E
100
AcDbEntity
  8
0
100
AcDbLine
 10
235.0999999999999
 20
46.7
 30
0.0
 11
234.5
 21
46.7
 31
0.0
  0
LINE
  5
3CE
330
1E
100
AcDbEntity
  8
0
100
AcDbLine
 10
236.5
 20
47.0
 30
0.0
 11
235.6999999999999
 21
47.0
 31
0.0
  0
LINE
  5
3CF
330
1E
100
AcDbEntity
  8
0
100
AcDbLine
 10
237.1999999999999
 20
46.7
 30
0.0
 11
236.0
 21
46.7
 31
0.0
  0
LINE
  5
3D0
330
1E
100
AcDbEntity
  8
0
100
AcDbLine
 10
237.5999999999999
 20
47.0
 30
0.0
 11
236.5
 21
47.0
 31
0.0
  0
LINE
  5
3D1
330
1E
100
AcDbEntity
  8
0
100
AcDbLine
 10
235.1999999999999
 20
47.0
 30
0.0
 11
235.0
 21
47.0
 31
0.0
  0
LINE
  5
3D2
330
1E
100
AcDbEntity
  8
0
100
AcDbLine
 10
235.6999999999999
 20
47.0
 30
0.0
 11
235.1999999999999
 21
47.0
 31
0.0
  0
LINE
  5
3D3
330
1E
100
AcDbEntity
  8
0
100
AcDbLine
 10
236.0
 20
46.7
 30
0.0
 11
235.0999999999999
 21
46.7
 31
0.0
  0
LINE
  5
3D4
330
1E
100
AcDbEntity
  8
0
100
AcDbLine
 10
234.5
 20
46.7
 30
0.0
 11
234.2999999999999
 21
46.7
 31
0.0
  0
ENDSEC
  0
SECTION
  2
OBJECTS
  0
DICTIONARY
  5
C
330
0
100
AcDbDictionary
281
     1
  3
ACAD_GROUP
350
D
  3
ACAD_LAYOUT
350
19
  3
ACAD_MLINESTYLE
350
16
  3
ACAD_PLOTSETTINGS
350
18
  3
ACAD_PLOTSTYLENAME
350
E
  3
AcDbVariableDictionary
350
3D5
  0
DICTIONARY
  5
D
102
{ACAD_REACTORS
330
C
102
}
330
C
100
AcDbDictionary
281
     1
  0
DICTIONARY
  5
19
102
{ACAD_REACTORS
330
C
102
}
330
C
100
AcDbDictionary
281
     1
  3
Layout1
350
1D
  3
Model
350
21
  0
DICTIONARY
  5
16
102
{ACAD_REACTORS
330
C
102
}
330
C
100
AcDbDictionary
281
     1
  3
Standard
350
17
  0
DICTIONARY
  5
18
102
{ACAD_REACTORS
330
C
102
}
330
C
100
AcDbDictionary
281
     1
  0
ACDBDICTIONARYWDFLT
  5
E
102
{ACAD_REACTORS
330
C
102
}
330
C
100
AcDbDictionary
281
     1
  3
Normal
350
F
100
AcDbDictionaryWithDefault
340
F
  0
DICTIONARY
  5
3D5
102
{ACAD_REACTORS
330
C
102
}
330
C
100
AcDbDictionary
281
     1
  3
DIMASSOC
350
3D6
  0
LAYOUT
  5
1D
102
{ACAD_REACTORS
330
19
102
}
330
19
100
AcDbPlotSettings
  1

  2
hp deskjet 980c series
  4

  6

 40
0.0
 41
0.0
 42
0.0
 43
0.0
 44
0.0
 45
0.0
 46
0.0
 47
0.0
 48
0.0
 49
0.0
140
0.0
141
0.0
142
1.0
143
1.0
 70
   688
 72
     0
 73
     0
 74
     5
  7

 75
    16
147
1.0
148
0.0
149
0.0
100
AcDbLayout
  1
Layout1
 70
     1
 71
     1
 10
0.0
 20
0.0
 11
12.0
 21
9.0
 12
0.0
 22
0.0
 32
0.0
 14
1.000000000000000E+20
 24
1.000000000000000E+20
 34
1.000000000000000E+20
 15
-1.000000000000000E+20
 25
-1.000000000000000E+20
 35
-1.000000000000000E+20
146
0.0
 13
0.0
 23
0.0
 33
0.0
 16
1.0
 26
0.0
 36
0.0
 17
0.0
 27
1.0
 37
0.0
 76
     0
330
1A
  0
LAYOUT
  5
21
102
{ACAD_REACTORS
330
19
102
}
330
19
100
AcDbPlotSettings
  1

  2
hp deskjet 980c series
  4

  6

 40
0.0
 41
0.0
 42
0.0
 43
0.0
 44
0.0
 45
0.0
 46
0.0
 47
0.0
 48
0.0
 49
0.0
140
0.0
141
0.0
142
1.0
143
1.0
 70
  1712
 72
     0
 73
     0
 74
     0
  7

 75
     0
147
1.0
148
0.0
149
0.0
100
AcDbLayout
  1
Model
 70
     1
 71
     0
 10
0.0
 20
0.0
 11
12.0
 21
9.0
 12
0.0
 22
0.0
 32
0.0
 14
0.0
 24
0.0
 34
0.0
 15
0.0
 25
0.0
 35
0.0
146
0.0
 13
0.0
 23
0.0
 33
0.0
 16
1.0
 26
0.0
 36
0.0
 17
0.0
 27
1.0
 37
0.0
 76
     0
330
1E
  0
MLINESTYLE
  5
17
102
{ACAD_REACTORS
330
16
102
}
330
16
100
AcDbMlineStyle
  2
STANDARD
 70
     0
  3

 62
   256
 51
90.0
 52
90.0
 71
     2
 49
0.5
 62
   256
  6
BYLAYER
 49
-0.5
 62
   256
  6
BYLAYER
  0
ACDBPLACEHOLDER
  5
F
102
{ACAD_REACTORS
330
E
102
}
330
E
  0
DICTIONARYVAR
  5
3D6
102
{ACAD_REACTORS
330
3D5
102
}
330
3D5
100
DictionaryVariables
280
     0
  1
1
  0
ENDSEC
  0
EOF
