  0
SECTION
  2
HEADER
  9
$ACADVER
  1
AC1015
  9
$ACADMAINTVER
 70
    13
  9
$DWGCODEPAGE
  3
ANSI_1252
  9
$INSBASE
 10
0.0
 20
0.0
 30
0.0
  9
$EXTMIN
 10
-0.139499999999979
 20
0.0000000000000005
 30
0.0
  9
$EXTMAX
 10
158.1395
 20
308.0
 30
0.0
  9
$LIMMIN
 10
0.0
 20
0.0
  9
$LIMMAX
 10
12.0
 20
9.0
  9
$ORTHOMODE
 70
     0
  9
$REGENMODE
 70
     1
  9
$FILLMODE
 70
     1
  9
$QTEXTMODE
 70
     0
  9
$MIRRTEXT
 70
     1
  9
$LTSCALE
 40
1.0
  9
$ATTMODE
 70
     1
  9
$TEXTSIZE
 40
0.2
  9
$TRACEWID
 40
0.05
  9
$TEXTSTYLE
  7
Standard
  9
$CLAYER
  8
0
  9
$CELTYPE
  6
Continuous
  9
$CECOLOR
 62
   256
  9
$CELTSCALE
 40
1.0
  9
$DISPSILH
 70
     0
  9
$DIMSCALE
 40
1.0
  9
$DIMASZ
 40
0.18
  9
$DIMEXO
 40
0.0625
  9
$DIMDLI
 40
0.38
  9
$DIMRND
 40
0.0
  9
$DIMDLE
 40
0.0
  9
$DIMEXE
 40
0.18
  9
$DIMTP
 40
0.0
  9
$DIMTM
 40
0.0
  9
$DIMTXT
 40
0.18
  9
$DIMCEN
 40
0.09
  9
$DIMTSZ
 40
0.0
  9
$DIMTOL
 70
     0
  9
$DIMLIM
 70
     0
  9
$DIMTIH
 70
     1
  9
$DIMTOH
 70
     1
  9
$DIMSE1
 70
     0
  9
$DIMSE2
 70
     0
  9
$DIMTAD
 70
     0
  9
$DIMZIN
 70
     0
  9
$DIMBLK
  1

  9
$DIMASO
 70
     1
  9
$DIMSHO
 70
     1
  9
$DIMPOST
  1

  9
$DIMAPOST
  1

  9
$DIMALT
 70
     0
  9
$DIMALTD
 70
     2
  9
$DIMALTF
 40
25.4
  9
$DIMLFAC
 40
1.0
  9
$DIMTOFL
 70
     0
  9
$DIMTVP
 40
0.0
  9
$DIMTIX
 70
     0
  9
$DIMSOXD
 70
     0
  9
$DIMSAH
 70
     0
  9
$DIMBLK1
  1

  9
$DIMBLK2
  1

  9
$DIMSTYLE
  2
Standard
  9
$DIMCLRD
 70
     0
  9
$DIMCLRE
 70
     0
  9
$DIMCLRT
 70
     0
  9
$DIMTFAC
 40
1.0
  9
$DIMGAP
 40
0.09
  9
$DIMJUST
 70
     0
  9
$DIMSD1
 70
     0
  9
$DIMSD2
 70
     0
  9
$DIMTOLJ
 70
     1
  9
$DIMTZIN
 70
     0
  9
$DIMALTZ
 70
     0
  9
$DIMALTTZ
 70
     0
  9
$DIMUPT
 70
     0
  9
$DIMDEC
 70
     4
  9
$DIMTDEC
 70
     4
  9
$DIMALTU
 70
     2
  9
$DIMALTTD
 70
     2
  9
$DIMTXSTY
  7
Standard
  9
$DIMAUNIT
 70
     0
  9
$DIMADEC
 70
     0
  9
$DIMALTRND
 40
0.0
  9
$DIMAZIN
 70
     0
  9
$DIMDSEP
 70
    46
  9
$DIMATFIT
 70
     3
  9
$DIMFRAC
 70
     0
  9
$DIMLDRBLK
  1

  9
$DIMLUNIT
 70
     2
  9
$DIMLWD
 70
    -2
  9
$DIMLWE
 70
    -2
  9
$DIMTMOVE
 70
     0
  9
$LUNITS
 70
     2
  9
$LUPREC
 70
     4
  9
$SKETCHINC
 40
0.1
  9
$FILLETRAD
 40
0.0
  9
$AUNITS
 70
     0
  9
$AUPREC
 70
     0
  9
$MENU
  1
.
  9
$ELEVATION
 40
0.0
  9
$PELEVATION
 40
0.0
  9
$THICKNESS
 40
0.0
  9
$LIMCHECK
 70
     0
  9
$CHAMFERA
 40
0.0
  9
$CHAMFERB
 40
0.0
  9
$CHAMFERC
 40
0.0
  9
$CHAMFERD
 40
0.0
  9
$SKPOLY
 70
     0
  9
$TDCREATE
 40
2454873.845691551
  9
$TDUCREATE
 40
2454873.804024884
  9
$TDUPDATE
 40
2454873.856546759
  9
$TDUUPDATE
 40
2454873.814880092
  9
$TDINDWG
 40
0.0108552083
  9
$TDUSRTIMER
 40
0.0108552083
  9
$USRTIMER
 70
     1
  9
$ANGBASE
 50
0.0
  9
$ANGDIR
 70
     0
  9
$PDMODE
 70
     0
  9
$PDSIZE
 40
0.0
  9
$PLINEWID
 40
0.0
  9
$SPLFRAME
 70
     0
  9
$SPLINETYPE
 70
     6
  9
$SPLINESEGS
 70
     8
  9
$HANDSEED
  5
2E8
  9
$SURFTAB1
 70
     6
  9
$SURFTAB2
 70
     6
  9
$SURFTYPE
 70
     6
  9
$SURFU
 70
     6
  9
$SURFV
 70
     6
  9
$UCSBASE
  2

  9
$UCSNAME
  2

  9
$UCSORG
 10
0.0
 20
0.0
 30
0.0
  9
$UCSXDIR
 10
1.0
 20
0.0
 30
0.0
  9
$UCSYDIR
 10
0.0
 20
1.0
 30
0.0
  9
$UCSORTHOREF
  2

  9
$UCSORTHOVIEW
 70
     1
  9
$UCSORGTOP
 10
0.0
 20
0.0
 30
0.0
  9
$UCSORGBOTTOM
 10
0.0
 20
0.0
 30
0.0
  9
$UCSORGLEFT
 10
0.0
 20
0.0
 30
0.0
  9
$UCSORGRIGHT
 10
0.0
 20
0.0
 30
0.0
  9
$UCSORGFRONT
 10
0.0
 20
0.0
 30
0.0
  9
$UCSORGBACK
 10
0.0
 20
0.0
 30
0.0
  9
$PUCSBASE
  2

  9
$PUCSNAME
  2

  9
$PUCSORG
 10
0.0
 20
0.0
 30
0.0
  9
$PUCSXDIR
 10
1.0
 20
0.0
 30
0.0
  9
$PUCSYDIR
 10
0.0
 20
1.0
 30
0.0
  9
$PUCSORTHOREF
  2

  9
$PUCSORTHOVIEW
 70
     0
  9
$PUCSORGTOP
 10
0.0
 20
0.0
 30
0.0
  9
$PUCSORGBOTTOM
 10
0.0
 20
0.0
 30
0.0
  9
$PUCSORGLEFT
 10
0.0
 20
0.0
 30
0.0
  9
$PUCSORGRIGHT
 10
0.0
 20
0.0
 30
0.0
  9
$PUCSORGFRONT
 10
0.0
 20
0.0
 30
0.0
  9
$PUCSORGBACK
 10
0.0
 20
0.0
 30
0.0
  9
$USERI1
 70
     0
  9
$USERI2
 70
     0
  9
$USERI3
 70
     0
  9
$USERI4
 70
     0
  9
$USERI5
 70
     0
  9
$USERR1
 40
0.0
  9
$USERR2
 40
0.0
  9
$USERR3
 40
0.0
  9
$USERR4
 40
0.0
  9
$USERR5
 40
0.0
  9
$WORLDVIEW
 70
     1
  9
$SHADEDGE
 70
     3
  9
$SHADEDIF
 70
    70
  9
$TILEMODE
 70
     1
  9
$MAXACTVP
 70
    64
  9
$PINSBASE
 10
0.0
 20
0.0
 30
0.0
  9
$PLIMCHECK
 70
     0
  9
$PEXTMIN
 10
1.000000000000000E+20
 20
1.000000000000000E+20
 30
1.000000000000000E+20
  9
$PEXTMAX
 10
-1.000000000000000E+20
 20
-1.000000000000000E+20
 30
-1.000000000000000E+20
  9
$PLIMMIN
 10
0.0
 20
0.0
  9
$PLIMMAX
 10
12.0
 20
9.0
  9
$UNITMODE
 70
     0
  9
$VISRETAIN
 70
     1
  9
$PLINEGEN
 70
     0
  9
$PSLTSCALE
 70
     1
  9
$TREEDEPTH
 70
  3020
  9
$CMLSTYLE
  2
Standard
  9
$CMLJUST
 70
     0
  9
$CMLSCALE
 40
1.0
  9
$PROXYGRAPHICS
 70
     1
  9
$MEASUREMENT
 70
     0
  9
$CELWEIGHT
370
    -1
  9
$ENDCAPS
280
     0
  9
$JOINSTYLE
280
     0
  9
$LWDISPLAY
290
     0
  9
$INSUNITS
 70
     0
  9
$HYPERLINKBASE
  1

  9
$STYLESHEET
  1

  9
$XEDIT
290
     1
  9
$CEPSNTYPE
380
     0
  9
$PSTYLEMODE
290
     1
  9
$FINGERPRINTGUID
  2
{8E7BEEF8-F8D3-4779-88AA-044D5CA3DE66}
  9
$VERSIONGUID
  2
{7E4DCD69-92E0-4845-A9E3-76DA76AA82D4}
  9
$EXTNAMES
290
     1
  9
$PSVPSCALE
 40
0.0
  9
$OLESTARTUP
290
     0
  0
ENDSEC
  0
SECTION
  2
CLASSES
  0
CLASS
  1
ACDBDICTIONARYWDFLT
  2
AcDbDictionaryWithDefault
  3
AutoCAD 2000
 90
        0
280
     0
281
     0
  0
CLASS
  1
ACDBPLACEHOLDER
  2
AcDbPlaceHolder
  3
AutoCAD 2000
 90
        0
280
     0
281
     0
  0
CLASS
  1
LAYOUT
  2
AcDbLayout
  3
AutoCAD 2000
 90
        0
280
     0
281
     0
  0
CLASS
  1
DICTIONARYVAR
  2
AcDbDictionaryVar
  3
AutoCAD 2000
 90
        0
280
     0
281
     0
  0
ENDSEC
  0
SECTION
  2
TABLES
  0
TABLE
  2
VPORT
  5
8
330
0
100
AcDbSymbolTable
 70
     3
  0
VPORT
  5
2E7
330
8
100
AcDbSymbolTableRecord
100
AcDbViewportTableRecord
  2
*Active
 70
     0
 10
0.0
 20
0.0
 11
1.0
 21
1.0
 12
79.0
 22
154.0
 13
0.0
 23
0.0
 14
1.0
 24
1.0
 15
0.0
 25
0.0
 16
0.0
 26
0.0
 36
1.0
 17
0.0
 27
0.0
 37
0.0
 40
309.9452631578947
 41
1.968387776606954
 42
50.0
 43
0.0
 44
0.0
 50
0.0
 51
0.0
 71
     0
 72
   100
 73
     1
 74
     3
 75
     0
 76
     0
 77
     0
 78
     0
281
     0
 65
     1
110
0.0
120
0.0
130
0.0
111
1.0
121
0.0
131
0.0
112
0.0
122
1.0
132
0.0
 79
     1
146
0.0
  0
ENDTAB
  0
TABLE
  2
LTYPE
  5
5
330
0
100
AcDbSymbolTable
 70
     1
  0
LTYPE
  5
13
330
5
100
AcDbSymbolTableRecord
100
AcDbLinetypeTableRecord
  2
ByBlock
 70
     0
  3

 72
    65
 73
     0
 40
0.0
  0
LTYPE
  5
14
330
5
100
AcDbSymbolTableRecord
100
AcDbLinetypeTableRecord
  2
ByLayer
 70
     0
  3

 72
    65
 73
     0
 40
0.0
  0
LTYPE
  5
15
330
5
100
AcDbSymbolTableRecord
100
AcDbLinetypeTableRecord
  2
Continuous
 70
     0
  3
Solid line
 72
    65
 73
     0
 40
0.0
  0
ENDTAB
  0
TABLE
  2
LAYER
  5
2
330
0
100
AcDbSymbolTable
 70
     1
  0
LAYER
  5
10
330
2
100
AcDbSymbolTableRecord
100
AcDbLayerTableRecord
  2
0
 70
     0
 62
     7
  6
Continuous
370
    -3
390
F
  0
ENDTAB
  0
TABLE
  2
STYLE
  5
3
330
0
100
AcDbSymbolTable
 70
     1
  0
STYLE
  5
11
330
3
100
AcDbSymbolTableRecord
100
AcDbTextStyleTableRecord
  2
Standard
 70
     0
 40
0.0
 41
1.0
 50
0.0
 71
     0
 42
0.2
  3
txt
  4

  0
ENDTAB
  0
TABLE
  2
VIEW
  5
6
330
0
100
AcDbSymbolTable
 70
     0
  0
ENDTAB
  0
TABLE
  2
UCS
  5
7
330
0
100
AcDbSymbolTable
 70
     0
  0
ENDTAB
  0
TABLE
  2
APPID
  5
9
330
0
100
AcDbSymbolTable
 70
     1
  0
APPID
  5
12
330
9
100
AcDbSymbolTableRecord
100
AcDbRegAppTableRecord
  2
ACAD
 70
     0
  0
ENDTAB
  0
TABLE
  2
DIMSTYLE
  5
A
330
0
100
AcDbSymbolTable
 70
     1
100
AcDbDimStyleTable
 71
     0
  0
DIMSTYLE
105
2DB
330
A
100
AcDbSymbolTableRecord
100
AcDbDimStyleTableRecord
  2
Standard
 70
     0
340
11
  0
ENDTAB
  0
TABLE
  2
BLOCK_RECORD
  5
1
330
0
100
AcDbSymbolTable
 70
     0
  0
BLOCK_RECORD
  5
1E
330
1
100
AcDbSymbolTableRecord
100
AcDbBlockTableRecord
  2
*Model_Space
340
21
  0
BLOCK_RECORD
  5
1A
330
1
100
AcDbSymbolTableRecord
100
AcDbBlockTableRecord
  2
*Paper_Space
340
1D
  0
ENDTAB
  0
ENDSEC
  0
SECTION
  2
BLOCKS
  0
BLOCK
  5
1F
330
1E
100
AcDbEntity
  8
0
100
AcDbBlockBegin
  2
*Model_Space
 70
     0
 10
0.0
 20
0.0
 30
0.0
  3
*Model_Space
  1

  0
ENDBLK
  5
20
330
1E
100
AcDbEntity
  8
0
100
AcDbBlockEnd
  0
BLOCK
  5
1B
330
1A
100
AcDbEntity
 67
     1
  8
0
100
AcDbBlockBegin
  2
*Paper_Space
 70
     0
 10
0.0
 20
0.0
 30
0.0
  3
*Paper_Space
  1

  0
ENDBLK
  5
1C
330
1A
100
AcDbEntity
 67
     1
  8
0
100
AcDbBlockEnd
  0
ENDSEC
  0
SECTION
  2
ENTITIES
  0
LINE
  5
22
330
1E
100
AcDbEntity
  8
0
100
AcDbLine
 10
22.86049999999999
 20
19.7292
 30
0.0
 11
22.8705
 21
17.85379999999999
 31
0.0
  0
LINE
  5
23
330
1E
100
AcDbEntity
  8
0
100
AcDbLine
 10
22.86049999999999
 20
19.7292
 30
0.0
 11
22.86049999999999
 21
20.3081
 31
0.0
  0
LINE
  5
2D
330
1E
100
AcDbEntity
  8
0
100
AcDbLine
 10
0.7371970000000219
 20
207.0
 30
0.0
 11
1.087870000000019
 21
207.0
 31
0.0
  0
LINE
  5
36
330
1E
100
AcDbEntity
  8
0
100
AcDbLine
 10
0.5034110000000211
 20
207.0
 30
0.0
 11
0.7371970000000219
 21
207.0
 31
0.0
  0
LINE
  5
37
330
1E
100
AcDbEntity
  8
0
100
AcDbLine
 10
0.444964000000021
 20
207.0
 30
0.0
 11
0.5034110000000211
 21
207.0
 31
0.0
  0
LINE
  5
39
330
1E
100
AcDbEntity
  8
0
100
AcDbLine
 10
-0.139499999999979
 20
208.0
 30
0.0
 11
-0.139499999999979
 21
217.0
 31
0.0
  0
LINE
  5
3A
330
1E
100
AcDbEntity
  8
0
100
AcDbLine
 10
-0.139499999999979
 20
208.0
 30
0.0
 11
0.0358400000000214
 21
207.2999999999999
 31
0.0
  0
LINE
  5
3D
330
1E
100
AcDbEntity
  8
0
100
AcDbLine
 10
0.0358400000000214
 20
207.2999999999999
 30
0.0
 11
0.444964000000021
 21
207.0
 31
0.0
  0
LINE
  5
48
330
1E
100
AcDbEntity
  8
0
100
AcDbLine
 10
2.432140000000019
 20
217.0
 30
0.0
 11
3.30884000000002
 21
217.0
 31
0.0
  0
LINE
  5
49
330
1E
100
AcDbEntity
  8
0
100
AcDbLine
 10
3.30884000000002
 20
217.0
 30
0.0
 11
4.24399000000002
 21
217.0
 31
0.0
  0
LINE
  5
4A
330
1E
100
AcDbEntity
  8
0
100
AcDbLine
 10
4.24399000000002
 20
217.0
 30
0.0
 11
5.296020000000019
 21
217.0
 31
0.0
  0
LINE
  5
4B
330
1E
100
AcDbEntity
  8
0
100
AcDbLine
 10
5.296020000000019
 20
217.0
 30
0.0
 11
6.348060000000018
 21
217.0
 31
0.0
  0
LINE
  5
4C
330
1E
100
AcDbEntity
  8
0
100
AcDbLine
 10
8.627470000000018
 20
217.0
 30
0.0
 11
77.3605
 21
217.0
 31
0.0
  0
LINE
  5
4D
330
1E
100
AcDbEntity
  8
0
100
AcDbLine
 10
6.348060000000018
 20
217.0
 30
0.0
 11
7.458540000000018
 21
217.0
 31
0.0
  0
LINE
  5
4E
330
1E
100
AcDbEntity
  8
0
100
AcDbLine
 10
7.458540000000018
 20
217.0
 30
0.0
 11
8.627470000000018
 21
217.0
 31
0.0
  0
LINE
  5
4F
330
1E
100
AcDbEntity
  8
0
100
AcDbLine
 10
21.86049999999999
 20
217.0
 30
0.0
 11
21.86049999999999
 21
229.0
 31
0.0
  0
LINE
  5
50
330
1E
100
AcDbEntity
  8
0
100
AcDbLine
 10
8.627470000000018
 20
217.0
 30
0.0
 11
77.3605
 21
217.0
 31
0.0
  0
LINE
  5
53
330
1E
100
AcDbEntity
  8
0
100
AcDbLine
 10
1.672340000000019
 20
217.0
 30
0.0
 11
2.432140000000019
 21
217.0
 31
0.0
  0
LINE
  5
54
330
1E
100
AcDbEntity
  8
0
100
AcDbLine
 10
1.02943000000002
 20
217.0
 30
0.0
 11
1.672340000000019
 21
217.0
 31
0.0
  0
LINE
  5
55
330
1E
100
AcDbEntity
  8
0
100
AcDbLine
 10
0.5618570000000211
 20
217.0
 30
0.0
 11
1.02943000000002
 21
217.0
 31
0.0
  0
LINE
  5
56
330
1E
100
AcDbEntity
  8
0
100
AcDbLine
 10
0.152733000000021
 20
217.0
 30
0.0
 11
0.5618570000000211
 21
217.0
 31
0.0
  0
LINE
  5
57
330
1E
100
AcDbEntity
  8
0
100
AcDbLine
 10
7.860500000000018
 20
277.0
 30
0.0
 11
8.262786000000019
 21
277.3959999999999
 31
0.0
  0
LINE
  5
58
330
1E
100
AcDbEntity
  8
0
100
AcDbLine
 10
7.860500000000018
 20
277.0
 30
0.0
 11
7.860500000000018
 21
271.0
 31
0.0
  0
LINE
  5
59
330
1E
100
AcDbEntity
  8
0
100
AcDbLine
 10
7.860500000000018
 20
271.0
 30
0.0
 11
7.860500000000018
 21
277.0
 31
0.0
  0
LINE
  5
5A
330
1E
100
AcDbEntity
  8
0
100
AcDbLine
 10
7.860500000000018
 20
271.0
 30
0.0
 11
9.408500000000019
 21
271.0
 31
0.0
  0
LINE
  5
5B
330
1E
100
AcDbEntity
  8
0
100
AcDbLine
 10
8.262786000000019
 20
277.3959999999999
 30
0.0
 11
8.639929000000019
 21
278.452
 31
0.0
  0
LINE
  5
5C
330
1E
100
AcDbEntity
  8
0
100
AcDbLine
 10
8.639929000000019
 20
278.452
 30
0.0
 11
8.973070000000019
 21
280.212
 31
0.0
  0
LINE
  5
5D
330
1E
100
AcDbEntity
  8
0
100
AcDbLine
 10
8.973070000000019
 20
280.212
 30
0.0
 11
9.224500000000018
 21
282.544
 31
0.0
  0
LINE
  5
5E
330
1E
100
AcDbEntity
  8
0
100
AcDbLine
 10
9.408500000000019
 20
271.0
 30
0.0
 11
13.5365
 21
271.0
 31
0.0
  0
LINE
  5
5F
330
1E
100
AcDbEntity
  8
0
100
AcDbLine
 10
9.224500000000018
 20
282.544
 30
0.0
 11
9.375360000000018
 21
285.184
 31
0.0
  0
LINE
  5
60
330
1E
100
AcDbEntity
  8
0
100
AcDbLine
 10
7.860500000000018
 20
308.0
 30
0.0
 11
7.860500000000018
 21
303.0
 31
0.0
  0
LINE
  5
61
330
1E
100
AcDbEntity
  8
0
100
AcDbLine
 10
7.860500000000018
 20
308.0
 30
0.0
 11
9.408500000000019
 21
308.0
 31
0.0
  0
LINE
  5
62
330
1E
100
AcDbEntity
  8
0
100
AcDbLine
 10
7.860500000000018
 20
299.0
 30
0.0
 11
7.860500000000018
 21
303.0
 31
0.0
  0
LINE
  5
63
330
1E
100
AcDbEntity
  8
0
100
AcDbLine
 10
7.860500000000018
 20
299.0
 30
0.0
 11
8.262786000000019
 21
298.604
 31
0.0
  0
LINE
  5
64
330
1E
100
AcDbEntity
  8
0
100
AcDbLine
 10
8.639929000000019
 20
297.548
 30
0.0
 11
8.973070000000019
 21
295.788
 31
0.0
  0
LINE
  5
65
330
1E
100
AcDbEntity
  8
0
100
AcDbLine
 10
8.262786000000019
 20
298.604
 30
0.0
 11
8.639929000000019
 21
297.548
 31
0.0
  0
LINE
  5
66
330
1E
100
AcDbEntity
  8
0
100
AcDbLine
 10
8.973070000000019
 20
295.788
 30
0.0
 11
9.224500000000018
 21
293.4559999999999
 31
0.0
  0
LINE
  5
67
330
1E
100
AcDbEntity
  8
0
100
AcDbLine
 10
13.5365
 20
303.0
 30
0.0
 11
19.32669999999999
 21
303.0
 31
0.0
  0
LINE
  5
68
330
1E
100
AcDbEntity
  8
0
100
AcDbLine
 10
13.5365
 20
308.0
 30
0.0
 11
19.32669999999999
 21
308.0
 31
0.0
  0
LINE
  5
69
330
1E
100
AcDbEntity
  8
0
100
AcDbLine
 10
9.408500000000019
 20
308.0
 30
0.0
 11
13.5365
 21
308.0
 31
0.0
  0
LINE
  5
6A
330
1E
100
AcDbEntity
  8
0
100
AcDbLine
 10
9.408500000000019
 20
303.0
 30
0.0
 11
13.5365
 21
303.0
 31
0.0
  0
LINE
  5
6B
330
1E
100
AcDbEntity
  8
0
100
AcDbLine
 10
9.224500000000018
 20
293.4559999999999
 30
0.0
 11
9.375360000000018
 21
290.8159999999999
 31
0.0
  0
LINE
  5
6C
330
1E
100
AcDbEntity
  8
0
100
AcDbLine
 10
9.375360000000018
 20
290.8159999999999
 30
0.0
 11
9.431930000000019
 21
288.0
 31
0.0
  0
LINE
  5
6D
330
1E
100
AcDbEntity
  8
0
100
AcDbLine
 10
7.860500000000018
 20
303.0
 30
0.0
 11
7.860500000000018
 21
308.0
 31
0.0
  0
LINE
  5
6E
330
1E
100
AcDbEntity
  8
0
100
AcDbLine
 10
7.860500000000018
 20
303.0
 30
0.0
 11
9.408500000000019
 21
303.0
 31
0.0
  0
LINE
  5
6F
330
1E
100
AcDbEntity
  8
0
100
AcDbLine
 10
7.860500000000018
 20
303.0
 30
0.0
 11
7.860500000000018
 21
299.0
 31
0.0
  0
LINE
  5
70
330
1E
100
AcDbEntity
  8
0
100
AcDbLine
 10
9.375360000000018
 20
285.184
 30
0.0
 11
9.431930000000019
 21
288.0
 31
0.0
  0
LINE
  5
71
330
1E
100
AcDbEntity
  8
0
100
AcDbLine
 10
21.86049999999999
 20
271.0
 30
0.0
 11
22.90449999999999
 21
271.0
 31
0.0
  0
LINE
  5
72
330
1E
100
AcDbEntity
  8
0
100
AcDbLine
 10
21.86049999999999
 20
271.0
 30
0.0
 11
21.86049999999999
 21
229.0
 31
0.0
  0
LINE
  5
73
330
1E
100
AcDbEntity
  8
0
100
AcDbLine
 10
21.86049999999999
 20
229.0
 30
0.0
 11
21.86049999999999
 21
271.0
 31
0.0
  0
LINE
  5
74
330
1E
100
AcDbEntity
  8
0
100
AcDbLine
 10
21.86049999999999
 20
229.0
 30
0.0
 11
22.90449999999999
 21
229.0
 31
0.0
  0
LINE
  5
75
330
1E
100
AcDbEntity
  8
0
100
AcDbLine
 10
21.86049999999999
 20
229.0
 30
0.0
 11
21.86049999999999
 21
217.0
 31
0.0
  0
LINE
  5
76
330
1E
100
AcDbEntity
  8
0
100
AcDbLine
 10
20.41529999999999
 20
303.0
 30
0.0
 11
29.5216
 21
303.0
 31
0.0
  0
LINE
  5
77
330
1E
100
AcDbEntity
  8
0
100
AcDbLine
 10
19.32669999999999
 20
303.0
 30
0.0
 11
20.41529999999999
 21
303.0
 31
0.0
  0
LINE
  5
78
330
1E
100
AcDbEntity
  8
0
100
AcDbLine
 10
19.32669999999999
 20
303.0
 30
0.0
 11
50.8605
 21
303.0
 31
0.0
  0
LINE
  5
79
330
1E
100
AcDbEntity
  8
0
100
AcDbLine
 10
19.32669999999999
 20
303.0
 30
0.0
 11
19.32669999999999
 21
271.0
 31
0.0
  0
LINE
  5
7A
330
1E
100
AcDbEntity
  8
0
100
AcDbLine
 10
19.32669999999999
 20
308.0
 30
0.0
 11
20.41529999999999
 21
308.0
 31
0.0
  0
LINE
  5
7B
330
1E
100
AcDbEntity
  8
0
100
AcDbLine
 10
20.41529999999999
 20
308.0
 30
0.0
 11
29.5216
 21
308.0
 31
0.0
  0
LINE
  5
7C
330
1E
100
AcDbEntity
  8
0
100
AcDbLine
 10
19.32669999999999
 20
271.0
 30
0.0
 11
21.86049999999999
 21
271.0
 31
0.0
  0
LINE
  5
7D
330
1E
100
AcDbEntity
  8
0
100
AcDbLine
 10
19.32669999999999
 20
271.0
 30
0.0
 11
50.8605
 21
271.0
 31
0.0
  0
LINE
  5
7E
330
1E
100
AcDbEntity
  8
0
100
AcDbLine
 10
19.32669999999999
 20
271.0
 30
0.0
 11
19.32669999999999
 21
303.0
 31
0.0
  0
LINE
  5
7F
330
1E
100
AcDbEntity
  8
0
100
AcDbLine
 10
13.5365
 20
271.0
 30
0.0
 11
19.32669999999999
 21
271.0
 31
0.0
  0
LINE
  5
80
330
1E
100
AcDbEntity
  8
0
100
AcDbLine
 10
-0.0226069999999786
 20
217.0
 30
0.0
 11
0.152733000000021
 21
217.0
 31
0.0
  0
LINE
  5
81
330
1E
100
AcDbEntity
  8
0
100
AcDbLine
 10
-0.139499999999979
 20
217.0
 30
0.0
 11
-0.0226069999999786
 21
217.0
 31
0.0
  0
LINE
  5
82
330
1E
100
AcDbEntity
  8
0
100
AcDbLine
 10
-0.139499999999979
 20
217.0
 30
0.0
 11
-0.139499999999979
 21
208.0
 31
0.0
  0
LINE
  5
89
330
1E
100
AcDbEntity
  8
0
100
AcDbLine
 10
22.86049999999999
 20
20.3081
 30
0.0
 11
22.86049999999999
 21
207.0
 31
0.0
  0
LINE
  5
8A
330
1E
100
AcDbEntity
  8
0
100
AcDbLine
 10
22.86049999999999
 20
20.3081
 30
0.0
 11
22.86049999999999
 21
19.7292
 31
0.0
  0
LINE
  5
8D
330
1E
100
AcDbEntity
  8
0
100
AcDbLine
 10
22.8705
 20
17.85379999999999
 30
0.0
 11
22.91049999999999
 21
15.3262
 31
0.0
  0
LINE
  5
8F
330
1E
100
AcDbEntity
  8
0
100
AcDbLine
 10
22.91049999999999
 20
15.3262
 30
0.0
 11
23.0105
 21
12.39099999999999
 31
0.0
  0
LINE
  5
90
330
1E
100
AcDbEntity
  8
0
100
AcDbLine
 10
23.0105
 20
12.39099999999999
 30
0.0
 11
23.2105
 21
9.94491
 31
0.0
  0
LINE
  5
94
330
1E
100
AcDbEntity
  8
0
100
AcDbLine
 10
23.2105
 20
9.94491
 30
0.0
 11
23.46049999999999
 21
8.069599999999999
 31
0.0
  0
LINE
  5
95
330
1E
100
AcDbEntity
  8
0
100
AcDbLine
 10
23.46049999999999
 20
8.069599999999999
 30
0.0
 11
23.8605
 21
6.357359999999999
 31
0.0
  0
LINE
  5
97
330
1E
100
AcDbEntity
  8
0
100
AcDbLine
 10
23.8605
 20
6.357359999999999
 30
0.0
 11
24.6605
 21
4.80818
 31
0.0
  0
LINE
  5
98
330
1E
100
AcDbEntity
  8
0
100
AcDbLine
 10
24.6605
 20
4.80818
 30
0.0
 11
25.8605
 21
3.42208
 31
0.0
  0
LINE
  5
99
330
1E
100
AcDbEntity
  8
0
100
AcDbLine
 10
27.5605
 20
2.443659999999999
 30
0.0
 11
27.86049999999999
 21
2.28299
 31
0.0
  0
LINE
  5
9A
330
1E
100
AcDbEntity
  8
0
100
AcDbLine
 10
45.8605
 20
0.0000000000000005
 30
0.0
 11
48.1591
 21
0.0645230000000005
 31
0.0
  0
LINE
  5
9B
330
1E
100
AcDbEntity
  8
0
100
AcDbLine
 10
48.1591
 20
0.0645230000000006
 30
0.0
 11
51.3146
 21
0.186420000000001
 31
0.0
  0
LINE
  5
9C
330
1E
100
AcDbEntity
  8
0
100
AcDbLine
 10
45.8605
 20
0.0000000000000005
 30
0.0
 11
48.1591
 21
0.0645230000000005
 31
0.0
  0
LINE
  5
9D
330
1E
100
AcDbEntity
  8
0
100
AcDbLine
 10
48.1591
 20
0.0645230000000005
 30
0.0
 11
51.3146
 21
0.186420000000001
 31
0.0
  0
LINE
  5
9E
330
1E
100
AcDbEntity
  8
0
100
AcDbLine
 10
51.3146
 20
0.186420000000001
 30
0.0
 11
54.9324
 21
0.4745390000000011
 31
0.0
  0
LINE
  5
9F
330
1E
100
AcDbEntity
  8
0
100
AcDbLine
 10
43.5619
 20
0.0645230000000005
 30
0.0
 11
45.8605
 21
0.0000000000000005
 31
0.0
  0
LINE
  5
A0
330
1E
100
AcDbEntity
  8
0
100
AcDbLine
 10
43.5619
 20
0.0645230000000005
 30
0.0
 11
45.8605
 21
0.0000000000000005
 31
0.0
  0
LINE
  5
A1
330
1E
100
AcDbEntity
  8
0
100
AcDbLine
 10
54.9324
 20
0.4745390000000011
 30
0.0
 11
57.72059999999999
 21
0.829147000000001
 31
0.0
  0
LINE
  5
A2
330
1E
100
AcDbEntity
  8
0
100
AcDbLine
 10
57.72059999999999
 20
0.829147000000001
 30
0.0
 11
59.992
 21
1.20592
 31
0.0
  0
LINE
  5
A3
330
1E
100
AcDbEntity
  8
0
100
AcDbLine
 10
40.40639999999999
 20
0.186420000000001
 30
0.0
 11
43.5619
 21
0.0645230000000006
 31
0.0
  0
LINE
  5
A4
330
1E
100
AcDbEntity
  8
0
100
AcDbLine
 10
40.40639999999999
 20
0.186420000000001
 30
0.0
 11
43.5619
 21
0.0645230000000005
 31
0.0
  0
LINE
  5
A5
330
1E
100
AcDbEntity
  8
0
100
AcDbLine
 10
36.7886
 20
0.4745390000000011
 30
0.0
 11
40.40639999999999
 21
0.186420000000001
 31
0.0
  0
LINE
  5
A6
330
1E
100
AcDbEntity
  8
0
100
AcDbLine
 10
59.992
 20
1.20592
 30
0.0
 11
61.9605
 21
1.63071
 31
0.0
  0
LINE
  5
A7
330
1E
100
AcDbEntity
  8
0
100
AcDbLine
 10
61.9605
 20
1.63071
 30
0.0
 11
63.8605
 21
2.28299
 31
0.0
  0
LINE
  5
A8
330
1E
100
AcDbEntity
  8
0
100
AcDbLine
 10
34.0004
 20
0.829147000000001
 30
0.0
 11
36.7886
 21
0.4745390000000011
 31
0.0
  0
LINE
  5
A9
330
1E
100
AcDbEntity
  8
0
100
AcDbLine
 10
31.729
 20
1.20592
 30
0.0
 11
34.0004
 21
0.829147000000001
 31
0.0
  0
LINE
  5
AB
330
1E
100
AcDbEntity
  8
0
100
AcDbLine
 10
64.1605
 20
2.443659999999999
 30
0.0
 11
65.8605
 21
3.42208
 31
0.0
  0
LINE
  5
AD
330
1E
100
AcDbEntity
  8
0
100
AcDbLine
 10
63.8605
 20
2.28299
 30
0.0
 11
64.1605
 21
2.443659999999999
 31
0.0
  0
LINE
  5
AE
330
1E
100
AcDbEntity
  8
0
100
AcDbLine
 10
29.7605
 20
1.63071
 30
0.0
 11
31.729
 21
1.20592
 31
0.0
  0
LINE
  5
AF
330
1E
100
AcDbEntity
  8
0
100
AcDbLine
 10
27.86049999999999
 20
2.28299
 30
0.0
 11
29.7605
 21
1.63071
 31
0.0
  0
LINE
  5
B7
330
1E
100
AcDbEntity
  8
0
100
AcDbLine
 10
68.85049999999999
 20
17.85379999999999
 30
0.0
 11
68.8605
 21
19.7292
 31
0.0
  0
LINE
  5
B8
330
1E
100
AcDbEntity
  8
0
100
AcDbLine
 10
68.8105
 20
15.3262
 30
0.0
 11
68.85049999999999
 21
17.85379999999999
 31
0.0
  0
LINE
  5
B9
330
1E
100
AcDbEntity
  8
0
100
AcDbLine
 10
68.7105
 20
12.39099999999999
 30
0.0
 11
68.8105
 21
15.3262
 31
0.0
  0
LINE
  5
BA
330
1E
100
AcDbEntity
  8
0
100
AcDbLine
 10
68.51049999999999
 20
9.94491
 30
0.0
 11
68.7105
 21
12.39099999999999
 31
0.0
  0
LINE
  5
BB
330
1E
100
AcDbEntity
  8
0
100
AcDbLine
 10
68.26049999999999
 20
8.069599999999999
 30
0.0
 11
68.51049999999999
 21
9.94491
 31
0.0
  0
LINE
  5
BC
330
1E
100
AcDbEntity
  8
0
100
AcDbLine
 10
67.8605
 20
6.357359999999999
 30
0.0
 11
68.26049999999999
 21
8.069599999999999
 31
0.0
  0
LINE
  5
BD
330
1E
100
AcDbEntity
  8
0
100
AcDbLine
 10
67.06050000000001
 20
4.80818
 30
0.0
 11
67.8605
 21
6.357359999999999
 31
0.0
  0
LINE
  5
BE
330
1E
100
AcDbEntity
  8
0
100
AcDbLine
 10
65.8605
 20
3.42208
 30
0.0
 11
67.06050000000001
 21
4.80818
 31
0.0
  0
LINE
  5
C0
330
1E
100
AcDbEntity
  8
0
100
AcDbLine
 10
25.8605
 20
3.42208
 30
0.0
 11
27.86049999999999
 21
2.28299
 31
0.0
  0
LINE
  5
C7
330
1E
100
AcDbEntity
  8
0
100
AcDbLine
 10
22.90449999999999
 20
229.0
 30
0.0
 11
25.6885
 21
229.0
 31
0.0
  0
LINE
  5
C8
330
1E
100
AcDbEntity
  8
0
100
AcDbLine
 10
22.90449999999999
 20
271.0
 30
0.0
 11
25.6885
 21
271.0
 31
0.0
  0
LINE
  5
D2
330
1E
100
AcDbEntity
  8
0
100
AcDbLine
 10
23.2464
 20
72.2955
 30
0.0
 11
23.3366
 21
73.5419
 31
0.0
  0
LINE
  5
D3
330
1E
100
AcDbEntity
  8
0
100
AcDbLine
 10
23.3366
 20
73.5419
 30
0.0
 11
23.5105
 21
74.12980000000001
 31
0.0
  0
LINE
  5
D4
330
1E
100
AcDbEntity
  8
0
100
AcDbLine
 10
23.5105
 20
74.12980000000001
 30
0.0
 11
23.7605
 21
74.3513
 31
0.0
  0
LINE
  5
D5
330
1E
100
AcDbEntity
  8
0
100
AcDbLine
 10
23.7605
 20
74.3513
 30
0.0
 11
24.1605
 21
74.3513
 31
0.0
  0
LINE
  5
D6
330
1E
100
AcDbEntity
  8
0
100
AcDbLine
 10
68.8605
 20
19.7292
 30
0.0
 11
68.8605
 21
70.2341
 31
0.0
  0
LINE
  5
D9
330
1E
100
AcDbEntity
  8
0
100
AcDbLine
 10
45.8605
 20
74.3513
 30
0.0
 11
48.1518
 21
74.3513
 31
0.0
  0
LINE
  5
DA
330
1E
100
AcDbEntity
  8
0
100
AcDbLine
 10
48.1518
 20
74.3513
 30
0.0
 11
51.2373
 21
74.3513
 31
0.0
  0
LINE
  5
DB
330
1E
100
AcDbEntity
  8
0
100
AcDbLine
 10
51.2373
 20
74.3513
 30
0.0
 11
54.792
 21
74.3513
 31
0.0
  0
LINE
  5
DC
330
1E
100
AcDbEntity
  8
0
100
AcDbLine
 10
54.792
 20
74.3513
 30
0.0
 11
57.5605
 21
74.3513
 31
0.0
  0
LINE
  5
DD
330
1E
100
AcDbEntity
  8
0
100
AcDbLine
 10
57.5605
 20
74.3513
 30
0.0
 11
59.8605
 21
74.3513
 31
0.0
  0
LINE
  5
DE
330
1E
100
AcDbEntity
  8
0
100
AcDbLine
 10
59.8605
 20
74.3513
 30
0.0
 11
61.9605
 21
74.3513
 31
0.0
  0
LINE
  5
DF
330
1E
100
AcDbEntity
  8
0
100
AcDbLine
 10
61.9605
 20
74.3513
 30
0.0
 11
63.8605
 21
74.3513
 31
0.0
  0
LINE
  5
E5
330
1E
100
AcDbEntity
  8
0
100
AcDbLine
 10
68.8605
 20
70.2341
 30
0.0
 11
68.8605
 21
71.8513
 31
0.0
  0
LINE
  5
E9
330
1E
100
AcDbEntity
  8
0
100
AcDbLine
 10
68.47459999999999
 20
72.2955
 30
0.0
 11
68.5605
 21
71.02549999999999
 31
0.0
  0
LINE
  5
EA
330
1E
100
AcDbEntity
  8
0
100
AcDbLine
 10
68.3844
 20
73.5419
 30
0.0
 11
68.47459999999999
 21
72.2955
 31
0.0
  0
LINE
  5
EB
330
1E
100
AcDbEntity
  8
0
100
AcDbLine
 10
68.21049999999999
 20
74.12980000000001
 30
0.0
 11
68.3844
 21
73.5419
 31
0.0
  0
LINE
  5
EC
330
1E
100
AcDbEntity
  8
0
100
AcDbLine
 10
67.9605
 20
74.3513
 30
0.0
 11
68.21049999999999
 21
74.12980000000001
 31
0.0
  0
LINE
  5
ED
330
1E
100
AcDbEntity
  8
0
100
AcDbLine
 10
67.5605
 20
74.3513
 30
0.0
 11
67.9605
 21
74.3513
 31
0.0
  0
LINE
  5
EE
330
1E
100
AcDbEntity
  8
0
100
AcDbLine
 10
66.7605
 20
74.3513
 30
0.0
 11
67.5605
 21
74.3513
 31
0.0
  0
LINE
  5
EF
330
1E
100
AcDbEntity
  8
0
100
AcDbLine
 10
65.5605
 20
74.3513
 30
0.0
 11
66.7605
 21
74.3513
 31
0.0
  0
LINE
  5
F1
330
1E
100
AcDbEntity
  8
0
100
AcDbLine
 10
63.8605
 20
74.3513
 30
0.0
 11
65.5605
 21
74.3513
 31
0.0
  0
LINE
  5
F2
330
1E
100
AcDbEntity
  8
0
100
AcDbLine
 10
68.8605
 20
70.2341
 30
0.0
 11
68.8605
 21
19.7292
 31
0.0
  0
LINE
  5
F3
330
1E
100
AcDbEntity
  8
0
100
AcDbLine
 10
68.8605
 20
71.8513
 30
0.0
 11
69.0138
 21
103.5949999999999
 31
0.0
  0
LINE
  5
F4
330
1E
100
AcDbEntity
  8
0
100
AcDbLine
 10
68.8605
 20
71.8513
 30
0.0
 11
68.8605
 21
70.2341
 31
0.0
  0
LINE
  5
F5
330
1E
100
AcDbEntity
  8
0
100
AcDbLine
 10
43.5692
 20
74.3513
 30
0.0
 11
45.8605
 21
74.3513
 31
0.0
  0
LINE
  5
F6
330
1E
100
AcDbEntity
  8
0
100
AcDbLine
 10
40.4837
 20
74.3513
 30
0.0
 11
43.5692
 21
74.3513
 31
0.0
  0
LINE
  5
F7
330
1E
100
AcDbEntity
  8
0
100
AcDbLine
 10
36.929
 20
74.3513
 30
0.0
 11
40.4837
 21
74.3513
 31
0.0
  0
LINE
  5
F8
330
1E
100
AcDbEntity
  8
0
100
AcDbLine
 10
34.1605
 20
74.3513
 30
0.0
 11
36.929
 21
74.3513
 31
0.0
  0
LINE
  5
F9
330
1E
100
AcDbEntity
  8
0
100
AcDbLine
 10
31.86049999999999
 20
74.3513
 30
0.0
 11
34.1605
 21
74.3513
 31
0.0
  0
LINE
  5
FA
330
1E
100
AcDbEntity
  8
0
100
AcDbLine
 10
29.7605
 20
74.3513
 30
0.0
 11
31.86049999999999
 21
74.3513
 31
0.0
  0
LINE
  5
FB
330
1E
100
AcDbEntity
  8
0
100
AcDbLine
 10
27.86049999999999
 20
74.3513
 30
0.0
 11
29.7605
 21
74.3513
 31
0.0
  0
LINE
  5
FC
330
1E
100
AcDbEntity
  8
0
100
AcDbLine
 10
26.16049999999999
 20
74.3513
 30
0.0
 11
27.86049999999999
 21
74.3513
 31
0.0
  0
LINE
  5
FD
330
1E
100
AcDbEntity
  8
0
100
AcDbLine
 10
24.1605
 20
74.3513
 30
0.0
 11
24.9605
 21
74.3513
 31
0.0
  0
LINE
  5
FE
330
1E
100
AcDbEntity
  8
0
100
AcDbLine
 10
69.0138
 20
103.5949999999999
 30
0.0
 11
69.36879999999999
 21
105.7389999999999
 31
0.0
  0
LINE
  5
103
330
1E
100
AcDbEntity
  8
0
100
AcDbLine
 10
69.36879999999999
 20
105.7389999999999
 30
0.0
 11
70.9567
 21
107.7409999999999
 31
0.0
  0
LINE
  5
104
330
1E
100
AcDbEntity
  8
0
100
AcDbLine
 10
80.03759999999999
 20
108.308
 30
0.0
 11
81.38240000000001
 21
108.735
 31
0.0
  0
LINE
  5
108
330
1E
100
AcDbEntity
  8
0
100
AcDbLine
 10
81.38240000000001
 20
108.735
 30
0.0
 11
81.41710000000001
 21
108.803
 31
0.0
  0
LINE
  5
109
330
1E
100
AcDbEntity
  8
0
100
AcDbLine
 10
78.9042
 20
108.8899999999999
 30
0.0
 11
80.03759999999999
 21
108.308
 31
0.0
  0
LINE
  5
10A
330
1E
100
AcDbEntity
  8
0
100
AcDbLine
 10
81.41710000000001
 20
108.803
 30
0.0
 11
81.4942
 21
108.9539999999999
 31
0.0
  0
LINE
  5
10B
330
1E
100
AcDbEntity
  8
0
100
AcDbLine
 10
81.6707
 20
108.2929999999999
 30
0.0
 11
89.83169999999999
 21
124.404
 31
0.0
  0
LINE
  5
10C
330
1E
100
AcDbEntity
  8
0
100
AcDbLine
 10
81.62350000000001
 20
107.528
 30
0.0
 11
82.1174
 21
106.937
 31
0.0
  0
LINE
  5
10D
330
1E
100
AcDbEntity
  8
0
100
AcDbLine
 10
81.62350000000001
 20
107.528
 30
0.0
 11
81.6707
 21
108.2929999999999
 31
0.0
  0
LINE
  5
10F
330
1E
100
AcDbEntity
  8
0
100
AcDbLine
 10
81.4942
 20
108.9539999999999
 30
0.0
 11
81.5558
 21
109.074
 31
0.0
  0
LINE
  5
110
330
1E
100
AcDbEntity
  8
0
100
AcDbLine
 10
77.7908
 20
109.3329999999999
 30
0.0
 11
78.9042
 21
108.8899999999999
 31
0.0
  0
LINE
  5
111
330
1E
100
AcDbEntity
  8
0
100
AcDbLine
 10
72.9914
 20
109.375
 30
0.0
 11
75.7078
 21
109.7409999999999
 31
0.0
  0
LINE
  5
112
330
1E
100
AcDbEntity
  8
0
100
AcDbLine
 10
81.5558
 20
109.074
 30
0.0
 11
81.6791
 21
109.315
 31
0.0
  0
LINE
  5
113
330
1E
100
AcDbEntity
  8
0
100
AcDbLine
 10
81.7200360089723
 20
109.395278258403
 30
0.0
 11
82.1241640046718
 21
109.188203845027
 31
0.0
  0
LINE
  5
115
330
1E
100
AcDbEntity
  8
0
100
AcDbLine
 10
81.6791
 20
109.315
 30
0.0
 11
81.81780000000001
 21
109.587
 31
0.0
  0
LINE
  5
12A
330
1E
100
AcDbEntity
  8
0
100
AcDbLine
 10
25.6885
 20
229.0
 30
0.0
 11
30.32849999999999
 21
229.0
 31
0.0
  0
LINE
  5
12B
330
1E
100
AcDbEntity
  8
0
100
AcDbLine
 10
25.6885
 20
229.0
 30
0.0
 11
29.17229999999999
 21
229.0
 31
0.0
  0
LINE
  5
12C
330
1E
100
AcDbEntity
  8
0
100
AcDbLine
 10
25.6885
 20
271.0
 30
0.0
 11
30.32849999999999
 21
271.0
 31
0.0
  0
LINE
  5
12E
330
1E
100
AcDbEntity
  8
0
100
AcDbLine
 10
29.17229999999999
 20
229.0
 30
0.0
 11
50.8605
 21
229.0
 31
0.0
  0
LINE
  5
12F
330
1E
100
AcDbEntity
  8
0
100
AcDbLine
 10
29.17229999999999
 20
229.0
 30
0.0
 11
29.17229999999999
 21
217.0
 31
0.0
  0
LINE
  5
130
330
1E
100
AcDbEntity
  8
0
100
AcDbLine
 10
29.17229999999999
 20
217.0
 30
0.0
 11
29.17229999999999
 21
229.0
 31
0.0
  0
LINE
  5
131
330
1E
100
AcDbEntity
  8
0
100
AcDbLine
 10
29.5216
 20
303.0
 30
0.0
 11
39.8305
 21
303.0
 31
0.0
  0
LINE
  5
132
330
1E
100
AcDbEntity
  8
0
100
AcDbLine
 10
31.6569
 20
217.0
 30
0.0
 11
31.6569
 21
227.0
 31
0.0
  0
LINE
  5
136
330
1E
100
AcDbEntity
  8
0
100
AcDbLine
 10
30.32849999999999
 20
229.0
 30
0.0
 11
36.4765
 21
229.0
 31
0.0
  0
LINE
  5
137
330
1E
100
AcDbEntity
  8
0
100
AcDbLine
 10
30.32849999999999
 20
271.0
 30
0.0
 11
36.4765
 21
271.0
 31
0.0
  0
LINE
  5
139
330
1E
100
AcDbEntity
  8
0
100
AcDbLine
 10
31.6569
 20
227.0
 30
0.0
 11
34.0445
 21
227.0
 31
0.0
  0
LINE
  5
13A
330
1E
100
AcDbEntity
  8
0
100
AcDbLine
 10
31.6569
 20
227.0
 30
0.0
 11
31.6569
 21
217.0
 31
0.0
  0
LINE
  5
13B
330
1E
100
AcDbEntity
  8
0
100
AcDbLine
 10
31.6569
 20
227.0
 30
0.0
 11
50.8605
 21
227.0
 31
0.0
  0
LINE
  5
13C
330
1E
100
AcDbEntity
  8
0
100
AcDbLine
 10
34.0445
 20
225.0
 30
0.0
 11
36.8605
 21
225.0
 31
0.0
  0
LINE
  5
13D
330
1E
100
AcDbEntity
  8
0
100
AcDbLine
 10
34.41259999999999
 20
225.0
 30
0.0
 11
35.74819999999999
 21
225.0
 31
0.0
  0
LINE
  5
13E
330
1E
100
AcDbEntity
  8
0
100
AcDbLine
 10
34.0445
 20
227.0
 30
0.0
 11
36.8605
 21
227.0
 31
0.0
  0
LINE
  5
13F
330
1E
100
AcDbEntity
  8
0
100
AcDbLine
 10
32.2792
 20
225.0
 30
0.0
 11
34.41259999999999
 21
225.0
 31
0.0
  0
LINE
  5
140
330
1E
100
AcDbEntity
  8
0
100
AcDbLine
 10
31.6569
 20
225.0
 30
0.0
 11
32.2792
 21
225.0
 31
0.0
  0
LINE
  5
141
330
1E
100
AcDbEntity
  8
0
100
AcDbLine
 10
31.6569
 20
225.0
 30
0.0
 11
34.0445
 21
225.0
 31
0.0
  0
LINE
  5
142
330
1E
100
AcDbEntity
  8
0
100
AcDbLine
 10
31.6569
 20
217.0790414359909
 30
0.0
 11
32.2792
 21
217.064166
 31
0.0
  0
LINE
  5
145
330
1E
100
AcDbEntity
  8
0
100
AcDbLine
 10
37.9728
 20
217.31746
 30
0.0
 11
39.30839999999999
 21
217.132892
 31
0.0
  0
LINE
  5
146
330
1E
100
AcDbEntity
  8
0
100
AcDbLine
 10
39.30839999999999
 20
217.132892
 30
0.0
 11
41.4418
 21
217.064166
 31
0.0
  0
LINE
  5
149
330
1E
100
AcDbEntity
  8
0
100
AcDbLine
 10
36.8605
 20
217.63492
 30
0.0
 11
37.3808
 21
217.63492
 31
0.0
  0
LINE
  5
14A
330
1E
100
AcDbEntity
  8
0
100
AcDbLine
 10
37.3808
 20
217.63492
 30
0.0
 11
37.9728
 21
217.31746
 31
0.0
  0
LINE
  5
14B
330
1E
100
AcDbEntity
  8
0
100
AcDbLine
 10
37.3808
 20
217.63492
 30
0.0
 11
37.3808
 21
225.0
 31
0.0
  0
LINE
  5
14C
330
1E
100
AcDbEntity
  8
0
100
AcDbLine
 10
36.8605
 20
225.0
 30
0.0
 11
37.3808
 21
225.0
 31
0.0
  0
LINE
  5
14D
330
1E
100
AcDbEntity
  8
0
100
AcDbLine
 10
36.8605
 20
225.0
 30
0.0
 11
39.67649999999999
 21
225.0
 31
0.0
  0
LINE
  5
14E
330
1E
100
AcDbEntity
  8
0
100
AcDbLine
 10
37.3808
 20
225.0
 30
0.0
 11
37.3808
 21
217.63492
 31
0.0
  0
LINE
  5
14F
330
1E
100
AcDbEntity
  8
0
100
AcDbLine
 10
37.3808
 20
225.0
 30
0.0
 11
37.9728
 21
225.0
 31
0.0
  0
LINE
  5
150
330
1E
100
AcDbEntity
  8
0
100
AcDbLine
 10
39.67649999999999
 20
225.0
 30
0.0
 11
42.3165
 21
225.0
 31
0.0
  0
LINE
  5
151
330
1E
100
AcDbEntity
  8
0
100
AcDbLine
 10
37.9728
 20
225.0
 30
0.0
 11
39.30839999999999
 21
225.0
 31
0.0
  0
LINE
  5
153
330
1E
100
AcDbEntity
  8
0
100
AcDbLine
 10
36.4765
 20
229.0
 30
0.0
 11
43.4365
 21
229.0
 31
0.0
  0
LINE
  5
154
330
1E
100
AcDbEntity
  8
0
100
AcDbLine
 10
36.4765
 20
271.0
 30
0.0
 11
43.4365
 21
271.0
 31
0.0
  0
LINE
  5
156
330
1E
100
AcDbEntity
  8
0
100
AcDbLine
 10
36.8605
 20
227.0
 30
0.0
 11
39.67649999999999
 21
227.0
 31
0.0
  0
LINE
  5
157
330
1E
100
AcDbEntity
  8
0
100
AcDbLine
 10
39.67649999999999
 20
227.0
 30
0.0
 11
42.3165
 21
227.0
 31
0.0
  0
LINE
  5
158
330
1E
100
AcDbEntity
  8
0
100
AcDbLine
 10
39.30839999999999
 20
225.0
 30
0.0
 11
41.4418
 21
225.0
 31
0.0
  0
LINE
  5
159
330
1E
100
AcDbEntity
  8
0
100
AcDbLine
 10
36.3402
 20
225.0
 30
0.0
 11
36.3402
 21
217.63492
 31
0.0
  0
LINE
  5
15A
330
1E
100
AcDbEntity
  8
0
100
AcDbLine
 10
36.3402
 20
225.0
 30
0.0
 11
36.8605
 21
225.0
 31
0.0
  0
LINE
  5
15B
330
1E
100
AcDbEntity
  8
0
100
AcDbLine
 10
36.3402
 20
217.63492
 30
0.0
 11
36.3402
 21
225.0
 31
0.0
  0
LINE
  5
15C
330
1E
100
AcDbEntity
  8
0
100
AcDbLine
 10
36.3402
 20
217.63492
 30
0.0
 11
36.8605
 21
217.63492
 31
0.0
  0
LINE
  5
15D
330
1E
100
AcDbEntity
  8
0
100
AcDbLine
 10
35.74819999999999
 20
225.0
 30
0.0
 11
36.3402
 21
225.0
 31
0.0
  0
LINE
  5
15E
330
1E
100
AcDbEntity
  8
0
100
AcDbLine
 10
35.74819999999999
 20
217.31746
 30
0.0
 11
36.3402
 21
217.63492
 31
0.0
  0
LINE
  5
162
330
1E
100
AcDbEntity
  8
0
100
AcDbLine
 10
34.41259999999999
 20
217.132892
 30
0.0
 11
35.74819999999999
 21
217.31746
 31
0.0
  0
LINE
  5
163
330
1E
100
AcDbEntity
  8
0
100
AcDbLine
 10
32.2792
 20
217.064166
 30
0.0
 11
34.41259999999999
 21
217.132892
 31
0.0
  0
LINE
  5
166
330
1E
100
AcDbEntity
  8
0
100
AcDbLine
 10
41.4418
 20
225.0
 30
0.0
 11
43.58679999999999
 21
225.0
 31
0.0
  0
LINE
  5
167
330
1E
100
AcDbEntity
  8
0
100
AcDbLine
 10
42.3165
 20
225.0
 30
0.0
 11
44.6485
 21
225.0
 31
0.0
  0
LINE
  5
168
330
1E
100
AcDbEntity
  8
0
100
AcDbLine
 10
41.4418
 20
217.064166
 30
0.0
 11
43.58679999999999
 21
217.1154399999999
 31
0.0
  0
LINE
  5
16A
330
1E
100
AcDbEntity
  8
0
100
AcDbLine
 10
43.58679999999999
 20
225.0
 30
0.0
 11
45.0891
 21
225.0
 31
0.0
  0
LINE
  5
16B
330
1E
100
AcDbEntity
  8
0
100
AcDbLine
 10
44.6485
 20
225.0
 30
0.0
 11
46.40849999999999
 21
225.0
 31
0.0
  0
LINE
  5
16E
330
1E
100
AcDbEntity
  8
0
100
AcDbLine
 10
43.58679999999999
 20
217.1154399999999
 30
0.0
 11
45.0891
 21
217.31746
 31
0.0
  0
LINE
  5
170
330
1E
100
AcDbEntity
  8
0
100
AcDbLine
 10
43.4365
 20
229.0
 30
0.0
 11
50.8605
 21
229.0
 31
0.0
  0
LINE
  5
171
330
1E
100
AcDbEntity
  8
0
100
AcDbLine
 10
43.4365
 20
271.0
 30
0.0
 11
50.8605
 21
271.0
 31
0.0
  0
LINE
  5
173
330
1E
100
AcDbEntity
  8
0
100
AcDbLine
 10
42.3165
 20
227.0
 30
0.0
 11
44.6485
 21
227.0
 31
0.0
  0
LINE
  5
174
330
1E
100
AcDbEntity
  8
0
100
AcDbLine
 10
44.6485
 20
227.0
 30
0.0
 11
46.40849999999999
 21
227.0
 31
0.0
  0
LINE
  5
175
330
1E
100
AcDbEntity
  8
0
100
AcDbLine
 10
45.0891
 20
225.0
 30
0.0
 11
45.6289
 21
225.0
 31
0.0
  0
LINE
  5
176
330
1E
100
AcDbEntity
  8
0
100
AcDbLine
 10
45.62370000000029
 20
217.0
 30
0.0
 11
45.8605
 21
217.031746
 31
0.0
  0
LINE
  5
178
330
1E
100
AcDbEntity
  8
0
100
AcDbLine
 10
45.8605
 20
217.63492
 30
0.0
 11
45.8605
 21
217.31746
 31
0.0
  0
LINE
  5
179
330
1E
100
AcDbEntity
  8
0
100
AcDbLine
 10
45.8605
 20
217.63492
 30
0.0
 11
45.8605
 21
225.0
 31
0.0
  0
LINE
  5
17A
330
1E
100
AcDbEntity
  8
0
100
AcDbLine
 10
45.8605
 20
217.31746
 30
0.0
 11
45.8605
 21
217.076191
 31
0.0
  0
LINE
  5
17B
330
1E
100
AcDbEntity
  8
0
100
AcDbLine
 10
45.8605
 20
217.31746
 30
0.0
 11
45.8605
 21
217.63492
 31
0.0
  0
LINE
  5
17C
330
1E
100
AcDbEntity
  8
0
100
AcDbLine
 10
55.8605
 20
217.076191
 30
0.0
 11
55.8605
 21
217.31746
 31
0.0
  0
LINE
  5
17F
330
1E
100
AcDbEntity
  8
0
100
AcDbLine
 10
55.8605
 20
217.031746
 30
0.0
 11
56.0972999999998
 21
217.0
 31
0.0
  0
LINE
  5
180
330
1E
100
AcDbEntity
  8
0
100
AcDbLine
 10
55.8605
 20
217.31746
 30
0.0
 11
55.8605
 21
217.076191
 31
0.0
  0
LINE
  5
181
330
1E
100
AcDbEntity
  8
0
100
AcDbLine
 10
55.8605
 20
217.31746
 30
0.0
 11
55.8605
 21
217.63492
 31
0.0
  0
LINE
  5
184
330
1E
100
AcDbEntity
  8
0
100
AcDbLine
 10
60.2792
 20
217.064166
 30
0.0
 11
62.4126
 21
217.132892
 31
0.0
  0
LINE
  5
187
330
1E
100
AcDbEntity
  8
0
100
AcDbLine
 10
63.74819999999999
 20
217.31746
 30
0.0
 11
64.3402
 21
217.63492
 31
0.0
  0
LINE
  5
18A
330
1E
100
AcDbEntity
  8
0
100
AcDbLine
 10
62.4126
 20
217.132892
 30
0.0
 11
63.74819999999999
 21
217.31746
 31
0.0
  0
LINE
  5
18C
330
1E
100
AcDbEntity
  8
0
100
AcDbLine
 10
58.1342
 20
217.1154399999999
 30
0.0
 11
60.2792
 21
217.064166
 31
0.0
  0
LINE
  5
18D
330
1E
100
AcDbEntity
  8
0
100
AcDbLine
 10
56.6319
 20
217.31746
 30
0.0
 11
58.1342
 21
217.1154399999999
 31
0.0
  0
LINE
  5
193
330
1E
100
AcDbEntity
  8
0
100
AcDbLine
 10
55.8605
 20
217.63492
 30
0.0
 11
55.8605
 21
225.0
 31
0.0
  0
LINE
  5
194
330
1E
100
AcDbEntity
  8
0
100
AcDbLine
 10
55.8605
 20
217.63492
 30
0.0
 11
55.8605
 21
217.31746
 31
0.0
  0
LINE
  5
195
330
1E
100
AcDbEntity
  8
0
100
AcDbLine
 10
55.8605
 20
217.63492
 30
0.0
 11
56.0921
 21
217.63492
 31
0.0
  0
LINE
  5
196
330
1E
100
AcDbEntity
  8
0
100
AcDbLine
 10
64.3402
 20
217.63492
 30
0.0
 11
64.8605
 21
217.63492
 31
0.0
  0
LINE
  5
197
330
1E
100
AcDbEntity
  8
0
100
AcDbLine
 10
64.3402
 20
217.63492
 30
0.0
 11
64.3402
 21
225.0
 31
0.0
  0
LINE
  5
199
330
1E
100
AcDbEntity
  8
0
100
AcDbLine
 10
56.0921
 20
217.63492
 30
0.0
 11
56.6319
 21
217.31746
 31
0.0
  0
LINE
  5
19A
330
1E
100
AcDbEntity
  8
0
100
AcDbLine
 10
64.8605
 20
217.63492
 30
0.0
 11
65.38079999999999
 21
217.63492
 31
0.0
  0
LINE
  5
19B
330
1E
100
AcDbEntity
  8
0
100
AcDbLine
 10
65.38079999999999
 20
217.63492
 30
0.0
 11
65.38079999999999
 21
225.0
 31
0.0
  0
LINE
  5
19C
330
1E
100
AcDbEntity
  8
0
100
AcDbLine
 10
65.38079999999999
 20
217.63492
 30
0.0
 11
65.97280000000001
 21
217.31746
 31
0.0
  0
LINE
  5
19D
330
1E
100
AcDbEntity
  8
0
100
AcDbLine
 10
65.97280000000001
 20
217.31746
 30
0.0
 11
67.3084
 21
217.132892
 31
0.0
  0
LINE
  5
19E
330
1E
100
AcDbEntity
  8
0
100
AcDbLine
 10
45.8605
 20
217.076191
 30
0.0
 11
45.8605
 21
217.31746
 31
0.0
  0
LINE
  5
1A0
330
1E
100
AcDbEntity
  8
0
100
AcDbLine
 10
45.6289
 20
225.0
 30
0.0
 11
45.8605
 21
225.0
 31
0.0
  0
LINE
  5
1A1
330
1E
100
AcDbEntity
  8
0
100
AcDbLine
 10
46.40849999999999
 20
225.0
 30
0.0
 11
47.4645
 21
225.0
 31
0.0
  0
LINE
  5
1A2
330
1E
100
AcDbEntity
  8
0
100
AcDbLine
 10
55.3125
 20
225.0
 30
0.0
 11
55.8605
 21
225.0
 31
0.0
  0
LINE
  5
1A3
330
1E
100
AcDbEntity
  8
0
100
AcDbLine
 10
55.3125
 20
225.0
 30
0.0
 11
57.0725
 21
225.0
 31
0.0
  0
LINE
  5
1A4
330
1E
100
AcDbEntity
  8
0
100
AcDbLine
 10
54.2565
 20
225.0
 30
0.0
 11
55.3125
 21
225.0
 31
0.0
  0
LINE
  5
1A5
330
1E
100
AcDbEntity
  8
0
100
AcDbLine
 10
53.8605
 20
225.0
 30
0.0
 11
53.8605
 21
227.0
 31
0.0
  0
LINE
  5
1A6
330
1E
100
AcDbEntity
  8
0
100
AcDbLine
 10
53.8605
 20
225.0
 30
0.0
 11
54.2565
 21
225.0
 31
0.0
  0
LINE
  5
1A7
330
1E
100
AcDbEntity
  8
0
100
AcDbLine
 10
55.8605
 20
225.0
 30
0.0
 11
55.8605
 21
217.63492
 31
0.0
  0
LINE
  5
1A8
330
1E
100
AcDbEntity
  8
0
100
AcDbLine
 10
55.8605
 20
225.0
 30
0.0
 11
56.0921
 21
225.0
 31
0.0
  0
LINE
  5
1A9
330
1E
100
AcDbEntity
  8
0
100
AcDbLine
 10
57.0725
 20
225.0
 30
0.0
 11
59.4045
 21
225.0
 31
0.0
  0
LINE
  5
1AA
330
1E
100
AcDbEntity
  8
0
100
AcDbLine
 10
62.0445
 20
225.0
 30
0.0
 11
64.8605
 21
225.0
 31
0.0
  0
LINE
  5
1AB
330
1E
100
AcDbEntity
  8
0
100
AcDbLine
 10
59.4045
 20
225.0
 30
0.0
 11
62.0445
 21
225.0
 31
0.0
  0
LINE
  5
1AC
330
1E
100
AcDbEntity
  8
0
100
AcDbLine
 10
64.3402
 20
225.0
 30
0.0
 11
64.3402
 21
217.63492
 31
0.0
  0
LINE
  5
1AD
330
1E
100
AcDbEntity
  8
0
100
AcDbLine
 10
64.3402
 20
225.0
 30
0.0
 11
64.8605
 21
225.0
 31
0.0
  0
LINE
  5
1AE
330
1E
100
AcDbEntity
  8
0
100
AcDbLine
 10
63.74819999999999
 20
225.0
 30
0.0
 11
64.3402
 21
225.0
 31
0.0
  0
LINE
  5
1AF
330
1E
100
AcDbEntity
  8
0
100
AcDbLine
 10
62.4126
 20
225.0
 30
0.0
 11
63.74819999999999
 21
225.0
 31
0.0
  0
LINE
  5
1B0
330
1E
100
AcDbEntity
  8
0
100
AcDbLine
 10
60.2792
 20
225.0
 30
0.0
 11
62.4126
 21
225.0
 31
0.0
  0
LINE
  5
1B1
330
1E
100
AcDbEntity
  8
0
100
AcDbLine
 10
58.1342
 20
225.0
 30
0.0
 11
60.2792
 21
225.0
 31
0.0
  0
LINE
  5
1B2
330
1E
100
AcDbEntity
  8
0
100
AcDbLine
 10
56.6319
 20
225.0
 30
0.0
 11
58.1342
 21
225.0
 31
0.0
  0
LINE
  5
1B3
330
1E
100
AcDbEntity
  8
0
100
AcDbLine
 10
56.0921
 20
225.0
 30
0.0
 11
56.6319
 21
225.0
 31
0.0
  0
LINE
  5
1B5
330
1E
100
AcDbEntity
  8
0
100
AcDbLine
 10
64.8605
 20
225.0
 30
0.0
 11
65.38079999999999
 21
225.0
 31
0.0
  0
LINE
  5
1B6
330
1E
100
AcDbEntity
  8
0
100
AcDbLine
 10
64.8605
 20
225.0
 30
0.0
 11
67.6765
 21
225.0
 31
0.0
  0
LINE
  5
1B7
330
1E
100
AcDbEntity
  8
0
100
AcDbLine
 10
65.38079999999999
 20
225.0
 30
0.0
 11
65.97280000000001
 21
225.0
 31
0.0
  0
LINE
  5
1B8
330
1E
100
AcDbEntity
  8
0
100
AcDbLine
 10
65.38079999999999
 20
225.0
 30
0.0
 11
65.38079999999999
 21
217.63492
 31
0.0
  0
LINE
  5
1B9
330
1E
100
AcDbEntity
  8
0
100
AcDbLine
 10
65.97280000000001
 20
225.0
 30
0.0
 11
67.3084
 21
225.0
 31
0.0
  0
LINE
  5
1BA
330
1E
100
AcDbEntity
  8
0
100
AcDbLine
 10
47.4645
 20
225.0
 30
0.0
 11
47.8605
 21
225.0
 31
0.0
  0
LINE
  5
1BB
330
1E
100
AcDbEntity
  8
0
100
AcDbLine
 10
46.40849999999999
 20
227.0
 30
0.0
 11
47.4645
 21
227.0
 31
0.0
  0
LINE
  5
1BC
330
1E
100
AcDbEntity
  8
0
100
AcDbLine
 10
47.4645
 20
227.0
 30
0.0
 11
47.8605
 21
227.0
 31
0.0
  0
LINE
  5
1BD
330
1E
100
AcDbEntity
  8
0
100
AcDbLine
 10
64.8605
 20
227.0
 30
0.0
 11
67.6765
 21
227.0
 31
0.0
  0
LINE
  5
1BE
330
1E
100
AcDbEntity
  8
0
100
AcDbLine
 10
62.0445
 20
227.0
 30
0.0
 11
64.8605
 21
227.0
 31
0.0
  0
LINE
  5
1BF
330
1E
100
AcDbEntity
  8
0
100
AcDbLine
 10
59.4045
 20
227.0
 30
0.0
 11
62.0445
 21
227.0
 31
0.0
  0
LINE
  5
1C0
330
1E
100
AcDbEntity
  8
0
100
AcDbLine
 10
57.0725
 20
227.0
 30
0.0
 11
59.4045
 21
227.0
 31
0.0
  0
LINE
  5
1C1
330
1E
100
AcDbEntity
  8
0
100
AcDbLine
 10
55.3125
 20
227.0
 30
0.0
 11
57.0725
 21
227.0
 31
0.0
  0
LINE
  5
1C2
330
1E
100
AcDbEntity
  8
0
100
AcDbLine
 10
54.2565
 20
227.0
 30
0.0
 11
55.3125
 21
227.0
 31
0.0
  0
LINE
  5
1C3
330
1E
100
AcDbEntity
  8
0
100
AcDbLine
 10
53.8605
 20
227.0
 30
0.0
 11
53.8605
 21
225.0
 31
0.0
  0
LINE
  5
1C4
330
1E
100
AcDbEntity
  8
0
100
AcDbLine
 10
53.8605
 20
227.0
 30
0.0
 11
54.2565
 21
227.0
 31
0.0
  0
LINE
  5
1C5
330
1E
100
AcDbEntity
  8
0
100
AcDbLine
 10
50.8605
 20
227.0
 30
0.0
 11
70.06399999999999
 21
227.0
 31
0.0
  0
LINE
  5
1C6
330
1E
100
AcDbEntity
  8
0
100
AcDbLine
 10
50.8605
 20
227.0
 30
0.0
 11
53.8605
 21
227.0
 31
0.0
  0
LINE
  5
1C7
330
1E
100
AcDbEntity
  8
0
100
AcDbLine
 10
58.2845
 20
229.0
 30
0.0
 11
65.2445
 21
229.0
 31
0.0
  0
LINE
  5
1C9
330
1E
100
AcDbEntity
  8
0
100
AcDbLine
 10
65.2445
 20
229.0
 30
0.0
 11
71.3925
 21
229.0
 31
0.0
  0
LINE
  5
1CB
330
1E
100
AcDbEntity
  8
0
100
AcDbLine
 10
58.2845
 20
271.0
 30
0.0
 11
65.2445
 21
271.0
 31
0.0
  0
LINE
  5
1CD
330
1E
100
AcDbEntity
  8
0
100
AcDbLine
 10
65.2445
 20
271.0
 30
0.0
 11
71.3925
 21
271.0
 31
0.0
  0
LINE
  5
1D0
330
1E
100
AcDbEntity
  8
0
100
AcDbLine
 10
50.8605
 20
229.0
 30
0.0
 11
58.2845
 21
229.0
 31
0.0
  0
LINE
  5
1D1
330
1E
100
AcDbEntity
  8
0
100
AcDbLine
 10
50.8605
 20
229.0
 30
0.0
 11
72.5487
 21
229.0
 31
0.0
  0
LINE
  5
1D2
330
1E
100
AcDbEntity
  8
0
100
AcDbLine
 10
47.8605
 20
227.0
 30
0.0
 11
47.8605
 21
225.0
 31
0.0
  0
LINE
  5
1D3
330
1E
100
AcDbEntity
  8
0
100
AcDbLine
 10
47.8605
 20
227.0
 30
0.0
 11
50.8605
 21
227.0
 31
0.0
  0
LINE
  5
1D4
330
1E
100
AcDbEntity
  8
0
100
AcDbLine
 10
47.8605
 20
225.0
 30
0.0
 11
47.8605
 21
227.0
 31
0.0
  0
LINE
  5
1D5
330
1E
100
AcDbEntity
  8
0
100
AcDbLine
 10
45.8605
 20
225.0
 30
0.0
 11
45.8605
 21
217.63492
 31
0.0
  0
LINE
  5
1D6
330
1E
100
AcDbEntity
  8
0
100
AcDbLine
 10
45.8605
 20
225.0
 30
0.0
 11
46.40849999999999
 21
225.0
 31
0.0
  0
LINE
  5
1D8
330
1E
100
AcDbEntity
  8
0
100
AcDbLine
 10
45.6289
 20
217.63492
 30
0.0
 11
45.8605
 21
217.63492
 31
0.0
  0
LINE
  5
1D9
330
1E
100
AcDbEntity
  8
0
100
AcDbLine
 10
45.0891
 20
217.31746
 30
0.0
 11
45.6289
 21
217.63492
 31
0.0
  0
LINE
  5
1DB
330
1E
100
AcDbEntity
  8
0
100
AcDbLine
 10
50.8267
 20
308.0
 30
0.0
 11
61.8905
 21
308.0
 31
0.0
  0
LINE
  5
1DC
330
1E
100
AcDbEntity
  8
0
100
AcDbLine
 10
61.8905
 20
303.0
 30
0.0
 11
61.8905
 21
308.0
 31
0.0
  0
LINE
  5
1DD
330
1E
100
AcDbEntity
  8
0
100
AcDbLine
 10
61.8905
 20
303.0
 30
0.0
 11
72.1994
 21
303.0
 31
0.0
  0
LINE
  5
1DE
330
1E
100
AcDbEntity
  8
0
100
AcDbLine
 10
61.8905
 20
308.0
 30
0.0
 11
72.1994
 21
308.0
 31
0.0
  0
LINE
  5
1DF
330
1E
100
AcDbEntity
  8
0
100
AcDbLine
 10
50.8605
 20
303.0
 30
0.0
 11
82.3943
 21
303.0
 31
0.0
  0
LINE
  5
1E0
330
1E
100
AcDbEntity
  8
0
100
AcDbLine
 10
50.8605
 20
303.0
 30
0.0
 11
61.8905
 21
303.0
 31
0.0
  0
LINE
  5
1E1
330
1E
100
AcDbEntity
  8
0
100
AcDbLine
 10
50.8605
 20
271.0
 30
0.0
 11
82.3943
 21
271.0
 31
0.0
  0
LINE
  5
1E2
330
1E
100
AcDbEntity
  8
0
100
AcDbLine
 10
50.8605
 20
271.0
 30
0.0
 11
58.2845
 21
271.0
 31
0.0
  0
LINE
  5
1E4
330
1E
100
AcDbEntity
  8
0
100
AcDbLine
 10
39.8305
 20
303.0
 30
0.0
 11
50.8605
 21
303.0
 31
0.0
  0
LINE
  5
1E5
330
1E
100
AcDbEntity
  8
0
100
AcDbLine
 10
39.8305
 20
308.0
 30
0.0
 11
50.8267
 21
308.0
 31
0.0
  0
LINE
  5
1E6
330
1E
100
AcDbEntity
  8
0
100
AcDbLine
 10
29.5216
 20
308.0
 30
0.0
 11
39.8305
 21
308.0
 31
0.0
  0
LINE
  5
1E9
330
1E
100
AcDbEntity
  8
0
100
AcDbLine
 10
75.7078
 20
109.7409999999999
 30
0.0
 11
77.7908
 21
109.3329999999999
 31
0.0
  0
LINE
  5
1EA
330
1E
100
AcDbEntity
  8
0
100
AcDbLine
 10
82.86239999999999
 20
149.207
 30
0.0
 11
87.33360000000001
 21
146.937
 31
0.0
  0
LINE
  5
1EB
330
1E
100
AcDbEntity
  8
0
100
AcDbLine
 10
78.10760000000001
 20
152.59
 30
0.0
 11
82.86239999999999
 21
149.207
 31
0.0
  0
LINE
  5
1EC
330
1E
100
AcDbEntity
  8
0
100
AcDbLine
 10
73.825
 20
157.355
 30
0.0
 11
78.10760000000001
 21
152.59
 31
0.0
  0
LINE
  5
1ED
330
1E
100
AcDbEntity
  8
0
100
AcDbLine
 10
70.6816
 20
163.246
 30
0.0
 11
73.825
 21
157.355
 31
0.0
  0
LINE
  5
1EE
330
1E
100
AcDbEntity
  8
0
100
AcDbLine
 10
69.35559999999999
 20
169.799
 30
0.0
 11
70.6816
 21
163.246
 31
0.0
  0
LINE
  5
1F0
330
1E
100
AcDbEntity
  8
0
100
AcDbLine
 10
69.02809999999999
 20
207.0
 30
0.0
 11
69.02809999999999
 21
173.0509999999999
 31
0.0
  0
LINE
  5
1F2
330
1E
100
AcDbEntity
  8
0
100
AcDbLine
 10
69.02809999999999
 20
173.0509999999999
 30
0.0
 11
69.02809999999999
 21
207.0
 31
0.0
  0
LINE
  5
1F3
330
1E
100
AcDbEntity
  8
0
100
AcDbLine
 10
69.02809999999999
 20
173.0509999999999
 30
0.0
 11
69.35559999999999
 21
169.799
 31
0.0
  0
LINE
  5
1F4
330
1E
100
AcDbEntity
  8
0
100
AcDbLine
 10
68.8776
 20
207.0
 30
0.0
 11
68.9779
 21
207.0
 31
0.0
  0
LINE
  5
1F9
330
1E
100
AcDbEntity
  8
0
100
AcDbLine
 10
67.3084
 20
225.0
 30
0.0
 11
69.4418
 21
225.0
 31
0.0
  0
LINE
  5
1FB
330
1E
100
AcDbEntity
  8
0
100
AcDbLine
 10
67.6765
 20
225.0
 30
0.0
 11
70.06399999999999
 21
225.0
 31
0.0
  0
LINE
  5
1FC
330
1E
100
AcDbEntity
  8
0
100
AcDbLine
 10
69.4418
 20
217.064166
 30
0.0
 11
70.06399999999999
 21
217.0790390455939
 31
0.0
  0
LINE
  5
1FD
330
1E
100
AcDbEntity
  8
0
100
AcDbLine
 10
67.6765
 20
227.0
 30
0.0
 11
70.06399999999999
 21
227.0
 31
0.0
  0
LINE
  5
1FE
330
1E
100
AcDbEntity
  8
0
100
AcDbLine
 10
69.4418
 20
225.0
 30
0.0
 11
70.06399999999999
 21
225.0
 31
0.0
  0
LINE
  5
1FF
330
1E
100
AcDbEntity
  8
0
100
AcDbLine
 10
67.3084
 20
217.132892
 30
0.0
 11
69.4418
 21
217.064166
 31
0.0
  0
LINE
  5
200
330
1E
100
AcDbEntity
  8
0
100
AcDbLine
 10
70.06399999999999
 20
227.0
 30
0.0
 11
70.06399999999999
 21
217.0
 31
0.0
  0
LINE
  5
201
330
1E
100
AcDbEntity
  8
0
100
AcDbLine
 10
70.06399999999999
 20
217.0
 30
0.0
 11
70.06399999999999
 21
227.0
 31
0.0
  0
LINE
  5
202
330
1E
100
AcDbEntity
  8
0
100
AcDbLine
 10
71.3925
 20
229.0
 30
0.0
 11
76.0325
 21
229.0
 31
0.0
  0
LINE
  5
204
330
1E
100
AcDbEntity
  8
0
100
AcDbLine
 10
71.3925
 20
271.0
 30
0.0
 11
76.0325
 21
271.0
 31
0.0
  0
LINE
  5
206
330
1E
100
AcDbEntity
  8
0
100
AcDbLine
 10
72.1994
 20
303.0
 30
0.0
 11
81.3057
 21
303.0
 31
0.0
  0
LINE
  5
207
330
1E
100
AcDbEntity
  8
0
100
AcDbLine
 10
72.5487
 20
217.0
 30
0.0
 11
72.5487
 21
229.0
 31
0.0
  0
LINE
  5
208
330
1E
100
AcDbEntity
  8
0
100
AcDbLine
 10
72.5487
 20
229.0
 30
0.0
 11
72.5487
 21
217.0
 31
0.0
  0
LINE
  5
209
330
1E
100
AcDbEntity
  8
0
100
AcDbLine
 10
72.5487
 20
229.0
 30
0.0
 11
76.0325
 21
229.0
 31
0.0
  0
LINE
  5
20A
330
1E
100
AcDbEntity
  8
0
100
AcDbLine
 10
76.0325
 20
229.0
 30
0.0
 11
78.8165
 21
229.0
 31
0.0
  0
LINE
  5
20C
330
1E
100
AcDbEntity
  8
0
100
AcDbLine
 10
76.0325
 20
271.0
 30
0.0
 11
78.8165
 21
271.0
 31
0.0
  0
LINE
  5
20E
330
1E
100
AcDbEntity
  8
0
100
AcDbLine
 10
72.1994
 20
308.0
 30
0.0
 11
81.3057
 21
308.0
 31
0.0
  0
LINE
  5
210
330
1E
100
AcDbEntity
  8
0
100
AcDbLine
 10
79.8605
 20
217.0
 30
0.0
 11
79.8605
 21
229.0
 31
0.0
  0
LINE
  5
211
330
1E
100
AcDbEntity
  8
0
100
AcDbLine
 10
78.8165
 20
229.0
 30
0.0
 11
79.8605
 21
229.0
 31
0.0
  0
LINE
  5
213
330
1E
100
AcDbEntity
  8
0
100
AcDbLine
 10
79.8605
 20
229.0
 30
0.0
 11
79.8605
 21
271.0
 31
0.0
  0
LINE
  5
214
330
1E
100
AcDbEntity
  8
0
100
AcDbLine
 10
79.8605
 20
229.0
 30
0.0
 11
79.8605
 21
217.0
 31
0.0
  0
LINE
  5
215
330
1E
100
AcDbEntity
  8
0
100
AcDbLine
 10
78.8165
 20
271.0
 30
0.0
 11
79.8605
 21
271.0
 31
0.0
  0
LINE
  5
217
330
1E
100
AcDbEntity
  8
0
100
AcDbLine
 10
82.3943
 20
271.0
 30
0.0
 11
88.1845
 21
271.0
 31
0.0
  0
LINE
  5
218
330
1E
100
AcDbEntity
  8
0
100
AcDbLine
 10
82.3943
 20
271.0
 30
0.0
 11
82.3943
 21
303.0
 31
0.0
  0
LINE
  5
219
330
1E
100
AcDbEntity
  8
0
100
AcDbLine
 10
82.3943
 20
308.0
 30
0.0
 11
88.1845
 21
308.0
 31
0.0
  0
LINE
  5
21A
330
1E
100
AcDbEntity
  8
0
100
AcDbLine
 10
81.3057
 20
303.0
 30
0.0
 11
82.3943
 21
303.0
 31
0.0
  0
LINE
  5
21B
330
1E
100
AcDbEntity
  8
0
100
AcDbLine
 10
81.3057
 20
308.0
 30
0.0
 11
82.3943
 21
308.0
 31
0.0
  0
LINE
  5
21C
330
1E
100
AcDbEntity
  8
0
100
AcDbLine
 10
82.3943
 20
303.0
 30
0.0
 11
82.3943
 21
271.0
 31
0.0
  0
LINE
  5
21D
330
1E
100
AcDbEntity
  8
0
100
AcDbLine
 10
82.3943
 20
303.0
 30
0.0
 11
88.1845
 21
303.0
 31
0.0
  0
LINE
  5
21E
330
1E
100
AcDbEntity
  8
0
100
AcDbLine
 10
79.8605
 20
271.0
 30
0.0
 11
82.3943
 21
271.0
 31
0.0
  0
LINE
  5
21F
330
1E
100
AcDbEntity
  8
0
100
AcDbLine
 10
79.8605
 20
271.0
 30
0.0
 11
79.8605
 21
229.0
 31
0.0
  0
LINE
  5
220
330
1E
100
AcDbEntity
  8
0
100
AcDbLine
 10
77.3605
 20
217.0
 30
0.0
 11
146.0935
 21
217.0
 31
0.0
  0
LINE
  5
223
330
1E
100
AcDbEntity
  8
0
100
AcDbLine
 10
81.81780000000001
 20
109.587
 30
0.0
 11
89.39299999999999
 21
124.697
 31
0.0
  0
LINE
  5
232
330
1E
100
AcDbEntity
  8
0
100
AcDbLine
 10
82.1174
 20
106.937
 30
0.0
 11
140.3213654970689
 21
77.10640175438959
 31
0.0
  0
LINE
  5
234
330
1E
100
AcDbEntity
  8
0
100
AcDbLine
 10
140.368688568994
 20
77.0821931308904
 30
0.0
 11
140.4195
 21
77.0562
 31
0.0
  0
LINE
  5
238
330
1E
100
AcDbEntity
  8
0
100
AcDbLine
 10
140.3164999999999
 20
77.1089
 30
0.0
 11
140.3685
 21
77.0822
 31
0.0
  0
LINE
  5
239
330
1E
100
AcDbEntity
  8
0
100
AcDbLine
 10
140.4195
 20
77.0562
 30
0.0
 11
141.1825
 21
77.0034
 31
0.0
  0
LINE
  5
23A
330
1E
100
AcDbEntity
  8
0
100
AcDbLine
 10
141.1825
 20
77.0034
 30
0.0
 11
141.7675
 21
77.49259999999999
 31
0.0
  0
LINE
  5
23B
330
1E
100
AcDbEntity
  8
0
100
AcDbLine
 10
141.7675
 20
77.49259999999999
 30
0.0
 11
149.9285
 21
93.6035
 31
0.0
  0
LINE
  5
251
330
1E
100
AcDbEntity
  8
0
100
AcDbLine
 10
89.83169999999999
 20
124.404
 30
0.0
 11
97.99269999999999
 21
140.5149999999999
 31
0.0
  0
LINE
  5
260
330
1E
100
AcDbEntity
  8
0
100
AcDbLine
 10
157.5455
 20
111.121
 30
0.0
 11
157.5974999999999
 21
111.094
 31
0.0
  0
LINE
  5
262
330
1E
100
AcDbEntity
  8
0
100
AcDbLine
 10
157.4755
 20
111.157
 30
0.0
 11
157.543677339901
 21
111.1219261083749
 31
0.0
  0
LINE
  5
263
330
1E
100
AcDbEntity
  8
0
100
AcDbLine
 10
158.0355
 20
110.531
 30
0.0
 11
158.0874999999999
 21
110.505
 31
0.0
  0
LINE
  5
264
330
1E
100
AcDbEntity
  8
0
100
AcDbLine
 10
158.0874999999999
 20
110.505
 30
0.0
 11
158.1395
 21
110.4779999999999
 31
0.0
  0
LINE
  5
265
330
1E
100
AcDbEntity
  8
0
100
AcDbLine
 10
157.8505
 20
110.626
 30
0.0
 11
158.0355
 21
110.531
 31
0.0
  0
LINE
  5
266
330
1E
100
AcDbEntity
  8
0
100
AcDbLine
 10
157.6485
 20
111.068
 30
0.0
 11
158.1395
 21
110.4779999999999
 31
0.0
  0
LINE
  5
267
330
1E
100
AcDbEntity
  8
0
100
AcDbLine
 10
158.0894999999999
 20
109.715
 30
0.0
 11
158.1395
 21
110.4779999999999
 31
0.0
  0
LINE
  5
268
330
1E
100
AcDbEntity
  8
0
100
AcDbLine
 10
157.547918604652
 20
111.1197441860459
 30
0.0
 11
157.6485
 21
111.068
 31
0.0
  0
LINE
  5
272
330
1E
100
AcDbEntity
  8
0
100
AcDbLine
 10
149.9285
 20
93.6035
 30
0.0
 11
158.0894999999999
 21
109.715
 31
0.0
  0
LINE
  5
273
330
1E
100
AcDbEntity
  8
0
100
AcDbLine
 10
93.8605
 20
271.0
 30
0.0
 11
93.8605
 21
277.0
 31
0.0
  0
LINE
  5
274
330
1E
100
AcDbEntity
  8
0
100
AcDbLine
 10
88.1845
 20
271.0
 30
0.0
 11
92.31250000000001
 21
271.0
 31
0.0
  0
LINE
  5
275
330
1E
100
AcDbEntity
  8
0
100
AcDbLine
 10
88.1845
 20
308.0
 30
0.0
 11
92.31250000000001
 21
308.0
 31
0.0
  0
LINE
  5
276
330
1E
100
AcDbEntity
  8
0
100
AcDbLine
 10
88.1845
 20
303.0
 30
0.0
 11
92.31250000000001
 21
303.0
 31
0.0
  0
LINE
  5
277
330
1E
100
AcDbEntity
  8
0
100
AcDbLine
 10
93.45820000000001
 20
277.3959999999999
 30
0.0
 11
93.8605
 21
277.0
 31
0.0
  0
LINE
  5
278
330
1E
100
AcDbEntity
  8
0
100
AcDbLine
 10
93.0811
 20
278.452
 30
0.0
 11
93.45820000000001
 21
277.3959999999999
 31
0.0
  0
LINE
  5
279
330
1E
100
AcDbEntity
  8
0
100
AcDbLine
 10
92.74790000000001
 20
280.212
 30
0.0
 11
93.0811
 21
278.452
 31
0.0
  0
LINE
  5
27A
330
1E
100
AcDbEntity
  8
0
100
AcDbLine
 10
92.4965
 20
282.544
 30
0.0
 11
92.74790000000001
 21
280.212
 31
0.0
  0
LINE
  5
27B
330
1E
100
AcDbEntity
  8
0
100
AcDbLine
 10
92.3456
 20
285.184
 30
0.0
 11
92.4965
 21
282.544
 31
0.0
  0
LINE
  5
27C
330
1E
100
AcDbEntity
  8
0
100
AcDbLine
 10
92.31250000000001
 20
308.0
 30
0.0
 11
93.8605
 21
308.0
 31
0.0
  0
LINE
  5
27D
330
1E
100
AcDbEntity
  8
0
100
AcDbLine
 10
92.31250000000001
 20
303.0
 30
0.0
 11
93.8605
 21
303.0
 31
0.0
  0
LINE
  5
27E
330
1E
100
AcDbEntity
  8
0
100
AcDbLine
 10
93.8605
 20
299.0
 30
0.0
 11
93.8605
 21
303.0
 31
0.0
  0
LINE
  5
27F
330
1E
100
AcDbEntity
  8
0
100
AcDbLine
 10
93.45820000000001
 20
298.604
 30
0.0
 11
93.8605
 21
299.0
 31
0.0
  0
LINE
  5
280
330
1E
100
AcDbEntity
  8
0
100
AcDbLine
 10
93.0811
 20
297.548
 30
0.0
 11
93.45820000000001
 21
298.604
 31
0.0
  0
LINE
  5
281
330
1E
100
AcDbEntity
  8
0
100
AcDbLine
 10
92.74790000000001
 20
295.788
 30
0.0
 11
93.0811
 21
297.548
 31
0.0
  0
LINE
  5
282
330
1E
100
AcDbEntity
  8
0
100
AcDbLine
 10
92.4965
 20
293.4559999999999
 30
0.0
 11
92.74790000000001
 21
295.788
 31
0.0
  0
LINE
  5
283
330
1E
100
AcDbEntity
  8
0
100
AcDbLine
 10
92.3456
 20
290.8159999999999
 30
0.0
 11
92.4965
 21
293.4559999999999
 31
0.0
  0
LINE
  5
284
330
1E
100
AcDbEntity
  8
0
100
AcDbLine
 10
92.2891
 20
288.0
 30
0.0
 11
92.3456
 21
290.8159999999999
 31
0.0
  0
LINE
  5
285
330
1E
100
AcDbEntity
  8
0
100
AcDbLine
 10
92.2891
 20
288.0
 30
0.0
 11
92.3456
 21
285.184
 31
0.0
  0
LINE
  5
286
330
1E
100
AcDbEntity
  8
0
100
AcDbLine
 10
93.8605
 20
277.0
 30
0.0
 11
93.8605
 21
271.0
 31
0.0
  0
LINE
  5
287
330
1E
100
AcDbEntity
  8
0
100
AcDbLine
 10
93.8605
 20
303.0
 30
0.0
 11
93.8605
 21
299.0
 31
0.0
  0
LINE
  5
288
330
1E
100
AcDbEntity
  8
0
100
AcDbLine
 10
93.8605
 20
303.0
 30
0.0
 11
93.8605
 21
308.0
 31
0.0
  0
LINE
  5
289
330
1E
100
AcDbEntity
  8
0
100
AcDbLine
 10
92.31250000000001
 20
271.0
 30
0.0
 11
93.8605
 21
271.0
 31
0.0
  0
LINE
  5
28A
330
1E
100
AcDbEntity
  8
0
100
AcDbLine
 10
93.8605
 20
308.0
 30
0.0
 11
93.8605
 21
303.0
 31
0.0
  0
LINE
  5
28B
330
1E
100
AcDbEntity
  8
0
100
AcDbLine
 10
95.4349
 20
142.8229999999999
 30
0.0
 11
97.2234
 21
141.9149999999999
 31
0.0
  0
LINE
  5
29E
330
1E
100
AcDbEntity
  8
0
100
AcDbLine
 10
97.25179602545692
 20
139.76755312851
 30
0.0
 11
97.3484
 21
139.9569999999999
 31
0.0
  0
LINE
  5
29F
330
1E
100
AcDbEntity
  8
0
100
AcDbLine
 10
97.25179602545692
 20
139.76755312851
 30
0.0
 11
97.53942633256292
 21
139.620171908335
 31
0.0
  0
LINE
  5
2A0
330
1E
100
AcDbEntity
  8
0
100
AcDbLine
 10
97.2234
 20
141.9149999999999
 30
0.0
 11
97.6654
 21
140.5759999999999
 31
0.0
  0
LINE
  5
2A1
330
1E
100
AcDbEntity
  8
0
100
AcDbLine
 10
97.99269999999999
 20
140.5149999999999
 30
0.0
 11
98.58020000000001
 21
141.0029999999999
 31
0.0
  0
LINE
  5
2A3
330
1E
100
AcDbEntity
  8
0
100
AcDbLine
 10
98.58020000000001
 20
141.0029999999999
 30
0.0
 11
99.34610000000001
 21
140.9489999999999
 31
0.0
  0
LINE
  5
2A5
330
1E
100
AcDbEntity
  8
0
100
AcDbLine
 10
99.34610000000001
 20
140.9489999999999
 30
0.0
 11
157.4755
 21
111.157
 31
0.0
  0
LINE
  5
2AA
330
1E
100
AcDbEntity
  8
0
100
AcDbLine
 10
1.087870000000009
 20
207.0
 30
0.0
 11
151.0615
 21
207.0
 31
0.0
  0
LINE
  5
2AB
330
1E
100
AcDbEntity
  8
0
100
AcDbLine
 10
151.0615
 20
207.0
 30
0.0
 11
151.8795
 21
207.0
 31
0.0
  0
LINE
  5
2B2
330
1E
100
AcDbEntity
  8
0
100
AcDbLine
 10
151.8795
 20
207.0
 30
0.0
 11
152.5815
 21
207.0
 31
0.0
  0
LINE
  5
2B3
330
1E
100
AcDbEntity
  8
0
100
AcDbLine
 10
151.4124999999999
 20
217.0
 30
0.0
 11
152.2885
 21
217.0
 31
0.0
  0
LINE
  5
2B4
330
1E
100
AcDbEntity
  8
0
100
AcDbLine
 10
150.4764999999999
 20
217.0
 30
0.0
 11
151.4124999999999
 21
217.0
 31
0.0
  0
LINE
  5
2B5
330
1E
100
AcDbEntity
  8
0
100
AcDbLine
 10
149.4245
 20
217.0
 30
0.0
 11
150.4764999999999
 21
217.0
 31
0.0
  0
LINE
  5
2B6
330
1E
100
AcDbEntity
  8
0
100
AcDbLine
 10
148.3724999999999
 20
217.0
 30
0.0
 11
149.4245
 21
217.0
 31
0.0
  0
LINE
  5
2B7
330
1E
100
AcDbEntity
  8
0
100
AcDbLine
 10
147.2624999999999
 20
217.0
 30
0.0
 11
148.3724999999999
 21
217.0
 31
0.0
  0
LINE
  5
2B8
330
1E
100
AcDbEntity
  8
0
100
AcDbLine
 10
146.0935
 20
217.0
 30
0.0
 11
147.2624999999999
 21
217.0
 31
0.0
  0
LINE
  5
2BA
330
1E
100
AcDbEntity
  8
0
100
AcDbLine
 10
152.5815
 20
207.0
 30
0.0
 11
153.1655
 21
207.0
 31
0.0
  0
LINE
  5
2BB
330
1E
100
AcDbEntity
  8
0
100
AcDbLine
 10
153.1655
 20
207.0
 30
0.0
 11
153.6335
 21
207.0
 31
0.0
  0
LINE
  5
2BC
330
1E
100
AcDbEntity
  8
0
100
AcDbLine
 10
153.6335
 20
207.0
 30
0.0
 11
153.9835
 21
207.0
 31
0.0
  0
LINE
  5
2BF
330
1E
100
AcDbEntity
  8
0
100
AcDbLine
 10
152.2885
 20
217.0
 30
0.0
 11
153.0484999999999
 21
217.0
 31
0.0
  0
LINE
  5
2C0
330
1E
100
AcDbEntity
  8
0
100
AcDbLine
 10
153.0484999999999
 20
217.0
 30
0.0
 11
153.6915
 21
217.0
 31
0.0
  0
LINE
  5
2C1
330
1E
100
AcDbEntity
  8
0
100
AcDbLine
 10
153.9835
 20
207.0
 30
0.0
 11
154.2175
 21
207.0
 31
0.0
  0
LINE
  5
2C2
330
1E
100
AcDbEntity
  8
0
100
AcDbLine
 10
154.2175
 20
207.0
 30
0.0
 11
154.2764999999999
 21
207.0
 31
0.0
  0
LINE
  5
2C5
330
1E
100
AcDbEntity
  8
0
100
AcDbLine
 10
153.6915
 20
217.0
 30
0.0
 11
154.1595
 21
217.0
 31
0.0
  0
LINE
  5
2C6
330
1E
100
AcDbEntity
  8
0
100
AcDbLine
 10
154.1595
 20
217.0
 30
0.0
 11
154.5684999999999
 21
217.0
 31
0.0
  0
LINE
  5
2C8
330
1E
100
AcDbEntity
  8
0
100
AcDbLine
 10
154.8605
 20
208.0
 30
0.0
 11
154.8605
 21
217.0
 31
0.0
  0
LINE
  5
2C9
330
1E
100
AcDbEntity
  8
0
100
AcDbLine
 10
154.8605
 20
217.0
 30
0.0
 11
154.8605
 21
208.0
 31
0.0
  0
LINE
  5
2CA
330
1E
100
AcDbEntity
  8
0
100
AcDbLine
 10
154.5684999999999
 20
217.0
 30
0.0
 11
154.7435
 21
217.0
 31
0.0
  0
LINE
  5
2CB
330
1E
100
AcDbEntity
  8
0
100
AcDbLine
 10
154.7435
 20
217.0
 30
0.0
 11
154.8605
 21
217.0
 31
0.0
  0
LINE
  5
2CD
330
1E
100
AcDbEntity
  8
0
100
AcDbLine
 10
97.61040000000001
 20
140.4689999999999
 30
0.0
 11
97.64510000000001
 21
140.537
 31
0.0
  0
LINE
  5
2CE
330
1E
100
AcDbEntity
  8
0
100
AcDbLine
 10
97.53340000000001
 20
140.3179999999999
 30
0.0
 11
97.61040000000001
 21
140.4689999999999
 31
0.0
  0
LINE
  5
2CF
330
1E
100
AcDbEntity
  8
0
100
AcDbLine
 10
97.4717
 20
140.1979999999999
 30
0.0
 11
97.53340000000001
 21
140.3179999999999
 31
0.0
  0
LINE
  5
2D0
330
1E
100
AcDbEntity
  8
0
100
AcDbLine
 10
97.3484
 20
139.9569999999999
 30
0.0
 11
97.4717
 21
140.1979999999999
 31
0.0
  0
LINE
  5
2D1
330
1E
100
AcDbEntity
  8
0
100
AcDbLine
 10
97.20970000000001
 20
139.685
 30
0.0
 11
97.3484
 21
139.9569999999999
 31
0.0
  0
LINE
  5
2D2
330
1E
100
AcDbEntity
  8
0
100
AcDbLine
 10
89.39299999999999
 20
124.697
 30
0.0
 11
97.20970000000001
 21
139.685
 31
0.0
  0
LINE
  5
2D3
330
1E
100
AcDbEntity
  8
0
100
AcDbLine
 10
87.33360000000001
 20
146.937
 30
0.0
 11
95.4349
 21
142.8229999999999
 31
0.0
  0
LINE
  5
2D4
330
1E
100
AcDbEntity
  8
0
100
AcDbLine
 10
24.9605
 20
74.3513
 30
0.0
 11
26.16049999999999
 21
74.3513
 31
0.0
  0
LINE
  5
2DA
330
1E
100
AcDbEntity
  8
0
100
AcDbLine
 10
22.86049999999999
 20
207.0
 30
0.0
 11
22.86049999999999
 21
20.3081
 31
0.0
  0
LINE
  5
2DF
330
1E
100
AcDbEntity
  8
0
100
AcDbLine
 10
72.9914
 20
109.375
 30
0.0
 11
70.9567
 21
107.7409999999999
 31
0.0
  0
LINE
  5
2E0
330
1E
100
AcDbEntity
  8
0
100
AcDbLine
 10
154.2764999999999
 20
207.0
 30
0.0
 11
154.6854999999999
 21
207.2999999999999
 31
0.0
  0
LINE
  5
2E1
330
1E
100
AcDbEntity
  8
0
100
AcDbLine
 10
154.6854999999999
 20
207.2999999999999
 30
0.0
 11
154.8605
 21
208.0
 31
0.0
  0
ENDSEC
  0
SECTION
  2
OBJECTS
  0
DICTIONARY
  5
C
330
0
100
AcDbDictionary
281
     1
  3
ACAD_GROUP
350
D
  3
ACAD_LAYOUT
350
19
  3
ACAD_MLINESTYLE
350
16
  3
ACAD_PLOTSETTINGS
350
18
  3
ACAD_PLOTSTYLENAME
350
E
  3
AcDbVariableDictionary
350
2E2
  0
DICTIONARY
  5
D
102
{ACAD_REACTORS
330
C
102
}
330
C
100
AcDbDictionary
281
     1
  0
DICTIONARY
  5
19
102
{ACAD_REACTORS
330
C
102
}
330
C
100
AcDbDictionary
281
     1
  3
Layout1
350
1D
  3
Model
350
21
  0
DICTIONARY
  5
16
102
{ACAD_REACTORS
330
C
102
}
330
C
100
AcDbDictionary
281
     1
  3
Standard
350
17
  0
DICTIONARY
  5
18
102
{ACAD_REACTORS
330
C
102
}
330
C
100
AcDbDictionary
281
     1
  0
ACDBDICTIONARYWDFLT
  5
E
102
{ACAD_REACTORS
330
C
102
}
330
C
100
AcDbDictionary
281
     1
  3
Normal
350
F
100
AcDbDictionaryWithDefault
340
F
  0
DICTIONARY
  5
2E2
102
{ACAD_REACTORS
330
C
102
}
330
C
100
AcDbDictionary
281
     1
  3
DIMASSOC
350
2E3
  0
LAYOUT
  5
1D
102
{ACAD_REACTORS
330
19
102
}
330
19
100
AcDbPlotSettings
  1

  2
hp deskjet 980c series
  4

  6

 40
0.0
 41
0.0
 42
0.0
 43
0.0
 44
0.0
 45
0.0
 46
0.0
 47
0.0
 48
0.0
 49
0.0
140
0.0
141
0.0
142
1.0
143
1.0
 70
   688
 72
     0
 73
     0
 74
     5
  7

 75
    16
147
1.0
148
0.0
149
0.0
100
AcDbLayout
  1
Layout1
 70
     1
 71
     1
 10
0.0
 20
0.0
 11
12.0
 21
9.0
 12
0.0
 22
0.0
 32
0.0
 14
1.000000000000000E+20
 24
1.000000000000000E+20
 34
1.000000000000000E+20
 15
-1.000000000000000E+20
 25
-1.000000000000000E+20
 35
-1.000000000000000E+20
146
0.0
 13
0.0
 23
0.0
 33
0.0
 16
1.0
 26
0.0
 36
0.0
 17
0.0
 27
1.0
 37
0.0
 76
     0
330
1A
  0
LAYOUT
  5
21
102
{ACAD_REACTORS
330
19
102
}
330
19
100
AcDbPlotSettings
  1

  2
hp deskjet 980c series
  4

  6

 40
0.0
 41
0.0
 42
0.0
 43
0.0
 44
0.0
 45
0.0
 46
0.0
 47
0.0
 48
0.0
 49
0.0
140
0.0
141
0.0
142
1.0
143
1.0
 70
  1712
 72
     0
 73
     0
 74
     0
  7

 75
     0
147
1.0
148
0.0
149
0.0
100
AcDbLayout
  1
Model
 70
     1
 71
     0
 10
0.0
 20
0.0
 11
12.0
 21
9.0
 12
0.0
 22
0.0
 32
0.0
 14
0.0
 24
0.0
 34
0.0
 15
0.0
 25
0.0
 35
0.0
146
0.0
 13
0.0
 23
0.0
 33
0.0
 16
1.0
 26
0.0
 36
0.0
 17
0.0
 27
1.0
 37
0.0
 76
     0
330
1E
  0
MLINESTYLE
  5
17
102
{ACAD_REACTORS
330
16
102
}
330
16
100
AcDbMlineStyle
  2
STANDARD
 70
     0
  3

 62
   256
 51
90.0
 52
90.0
 71
     2
 49
0.5
 62
   256
  6
BYLAYER
 49
-0.5
 62
   256
  6
BYLAYER
  0
ACDBPLACEHOLDER
  5
F
102
{ACAD_REACTORS
330
E
102
}
330
E
  0
DICTIONARYVAR
  5
2E3
102
{ACAD_REACTORS
330
2E2
102
}
330
2E2
100
DictionaryVariables
280
     0
  1
1
  0
ENDSEC
  0
EOF
