  0
SECTION
  2
HEADER
  9
$ACADVER
  1
AC1015
  9
$ACADMAINTVER
 70
    13
  9
$DWGCODEPAGE
  3
ANSI_1252
  9
$INSBASE
 10
0.0
 20
0.0
 30
0.0
  9
$EXTMIN
 10
-0.0000000000000026
 20
0.0547401893533169
 30
0.0
  9
$EXTMAX
 10
48.0
 20
374.9452598106469
 30
0.0
  9
$LIMMIN
 10
0.0
 20
0.0
  9
$LIMMAX
 10
12.0
 20
9.0
  9
$ORTHOMODE
 70
     0
  9
$REGENMODE
 70
     1
  9
$FILLMODE
 70
     1
  9
$QTEXTMODE
 70
     0
  9
$MIRRTEXT
 70
     1
  9
$LTSCALE
 40
1.0
  9
$ATTMODE
 70
     1
  9
$TEXTSIZE
 40
0.2
  9
$TRACEWID
 40
0.05
  9
$TEXTSTYLE
  7
STANDARD
  9
$CLAYER
  8
0
  9
$CELTYPE
  6
CONTINUOUS
  9
$CECOLOR
 62
   256
  9
$CELTSCALE
 40
1.0
  9
$DISPSILH
 70
     0
  9
$DIMSCALE
 40
1.0
  9
$DIMASZ
 40
0.18
  9
$DIMEXO
 40
0.0625
  9
$DIMDLI
 40
0.38
  9
$DIMRND
 40
0.0
  9
$DIMDLE
 40
0.0
  9
$DIMEXE
 40
0.18
  9
$DIMTP
 40
0.0
  9
$DIMTM
 40
0.0
  9
$DIMTXT
 40
0.18
  9
$DIMCEN
 40
0.09
  9
$DIMTSZ
 40
0.0
  9
$DIMTOL
 70
     0
  9
$DIMLIM
 70
     0
  9
$DIMTIH
 70
     1
  9
$DIMTOH
 70
     1
  9
$DIMSE1
 70
     0
  9
$DIMSE2
 70
     0
  9
$DIMTAD
 70
     0
  9
$DIMZIN
 70
     0
  9
$DIMBLK
  1

  9
$DIMASO
 70
     1
  9
$DIMSHO
 70
     1
  9
$DIMPOST
  1

  9
$DIMAPOST
  1

  9
$DIMALT
 70
     0
  9
$DIMALTD
 70
     2
  9
$DIMALTF
 40
25.4
  9
$DIMLFAC
 40
1.0
  9
$DIMTOFL
 70
     0
  9
$DIMTVP
 40
0.0
  9
$DIMTIX
 70
     0
  9
$DIMSOXD
 70
     0
  9
$DIMSAH
 70
     0
  9
$DIMBLK1
  1

  9
$DIMBLK2
  1

  9
$DIMSTYLE
  2
STANDARD
  9
$DIMCLRD
 70
     0
  9
$DIMCLRE
 70
     0
  9
$DIMCLRT
 70
     0
  9
$DIMTFAC
 40
1.0
  9
$DIMGAP
 40
0.09
  9
$DIMJUST
 70
     0
  9
$DIMSD1
 70
     0
  9
$DIMSD2
 70
     0
  9
$DIMTOLJ
 70
     1
  9
$DIMTZIN
 70
     0
  9
$DIMALTZ
 70
     0
  9
$DIMALTTZ
 70
     0
  9
$DIMUPT
 70
     0
  9
$DIMDEC
 70
     4
  9
$DIMTDEC
 70
     4
  9
$DIMALTU
 70
     2
  9
$DIMALTTD
 70
     2
  9
$DIMTXSTY
  7
STANDARD
  9
$DIMAUNIT
 70
     0
  9
$DIMADEC
 70
     0
  9
$DIMALTRND
 40
0.0
  9
$DIMAZIN
 70
     0
  9
$DIMDSEP
 70
    46
  9
$DIMATFIT
 70
     3
  9
$DIMFRAC
 70
     0
  9
$DIMLDRBLK
  1

  9
$DIMLUNIT
 70
     2
  9
$DIMLWD
 70
    -2
  9
$DIMLWE
 70
    -2
  9
$DIMTMOVE
 70
     0
  9
$LUNITS
 70
     2
  9
$LUPREC
 70
     4
  9
$SKETCHINC
 40
0.1
  9
$FILLETRAD
 40
0.0
  9
$AUNITS
 70
     0
  9
$AUPREC
 70
     0
  9
$MENU
  1
.
  9
$ELEVATION
 40
0.0
  9
$PELEVATION
 40
0.0
  9
$THICKNESS
 40
0.0
  9
$LIMCHECK
 70
     0
  9
$CHAMFERA
 40
0.0
  9
$CHAMFERB
 40
0.0
  9
$CHAMFERC
 40
0.0
  9
$CHAMFERD
 40
0.0
  9
$SKPOLY
 70
     0
  9
$TDCREATE
 40
2454690.723592476
  9
$TDUCREATE
 40
2454690.681925810
  9
$TDUPDATE
 40
2454830.539593460
  9
$TDUUPDATE
 40
2454830.497926794
  9
$TDINDWG
 40
0.0044484144
  9
$TDUSRTIMER
 40
0.0044484144
  9
$USRTIMER
 70
     1
  9
$ANGBASE
 50
0.0
  9
$ANGDIR
 70
     0
  9
$PDMODE
 70
     0
  9
$PDSIZE
 40
0.0
  9
$PLINEWID
 40
0.0
  9
$SPLFRAME
 70
     0
  9
$SPLINETYPE
 70
     6
  9
$SPLINESEGS
 70
     8
  9
$HANDSEED
  5
19F
  9
$SURFTAB1
 70
     6
  9
$SURFTAB2
 70
     6
  9
$SURFTYPE
 70
     6
  9
$SURFU
 70
     6
  9
$SURFV
 70
     6
  9
$UCSBASE
  2

  9
$UCSNAME
  2

  9
$UCSORG
 10
0.0
 20
0.0
 30
0.0
  9
$UCSXDIR
 10
1.0
 20
0.0
 30
0.0
  9
$UCSYDIR
 10
0.0
 20
1.0
 30
0.0
  9
$UCSORTHOREF
  2

  9
$UCSORTHOVIEW
 70
     1
  9
$UCSORGTOP
 10
0.0
 20
0.0
 30
0.0
  9
$UCSORGBOTTOM
 10
0.0
 20
0.0
 30
0.0
  9
$UCSORGLEFT
 10
0.0
 20
0.0
 30
0.0
  9
$UCSORGRIGHT
 10
0.0
 20
0.0
 30
0.0
  9
$UCSORGFRONT
 10
0.0
 20
0.0
 30
0.0
  9
$UCSORGBACK
 10
0.0
 20
0.0
 30
0.0
  9
$PUCSBASE
  2

  9
$PUCSNAME
  2

  9
$PUCSORG
 10
0.0
 20
0.0
 30
0.0
  9
$PUCSXDIR
 10
1.0
 20
0.0
 30
0.0
  9
$PUCSYDIR
 10
0.0
 20
1.0
 30
0.0
  9
$PUCSORTHOREF
  2

  9
$PUCSORTHOVIEW
 70
     0
  9
$PUCSORGTOP
 10
0.0
 20
0.0
 30
0.0
  9
$PUCSORGBOTTOM
 10
0.0
 20
0.0
 30
0.0
  9
$PUCSORGLEFT
 10
0.0
 20
0.0
 30
0.0
  9
$PUCSORGRIGHT
 10
0.0
 20
0.0
 30
0.0
  9
$PUCSORGFRONT
 10
0.0
 20
0.0
 30
0.0
  9
$PUCSORGBACK
 10
0.0
 20
0.0
 30
0.0
  9
$USERI1
 70
     0
  9
$USERI2
 70
     0
  9
$USERI3
 70
     0
  9
$USERI4
 70
     0
  9
$USERI5
 70
     0
  9
$USERR1
 40
0.0
  9
$USERR2
 40
0.0
  9
$USERR3
 40
0.0
  9
$USERR4
 40
0.0
  9
$USERR5
 40
0.0
  9
$WORLDVIEW
 70
     1
  9
$SHADEDGE
 70
     3
  9
$SHADEDIF
 70
    70
  9
$TILEMODE
 70
     1
  9
$MAXACTVP
 70
    64
  9
$PINSBASE
 10
0.0
 20
0.0
 30
0.0
  9
$PLIMCHECK
 70
     0
  9
$PEXTMIN
 10
1.000000000000000E+20
 20
1.000000000000000E+20
 30
1.000000000000000E+20
  9
$PEXTMAX
 10
-1.000000000000000E+20
 20
-1.000000000000000E+20
 30
-1.000000000000000E+20
  9
$PLIMMIN
 10
0.0
 20
0.0
  9
$PLIMMAX
 10
12.0
 20
9.0
  9
$UNITMODE
 70
     0
  9
$VISRETAIN
 70
     1
  9
$PLINEGEN
 70
     0
  9
$PSLTSCALE
 70
     1
  9
$TREEDEPTH
 70
  3020
  9
$CMLSTYLE
  2
STANDARD
  9
$CMLJUST
 70
     0
  9
$CMLSCALE
 40
1.0
  9
$PROXYGRAPHICS
 70
     1
  9
$MEASUREMENT
 70
     0
  9
$CELWEIGHT
370
    -1
  9
$ENDCAPS
280
     0
  9
$JOINSTYLE
280
     0
  9
$LWDISPLAY
290
     0
  9
$INSUNITS
 70
     0
  9
$HYPERLINKBASE
  1

  9
$STYLESHEET
  1

  9
$XEDIT
290
     1
  9
$CEPSNTYPE
380
     0
  9
$PSTYLEMODE
290
     1
  9
$FINGERPRINTGUID
  2
{DC4F28B8-699C-4D61-B68C-5DBD246E4B76}
  9
$VERSIONGUID
  2
{FFCEBB38-E5BC-4A5A-8D6E-F7DF47BAD7C9}
  9
$EXTNAMES
290
     1
  9
$PSVPSCALE
 40
0.0
  9
$OLESTARTUP
290
     0
  0
ENDSEC
  0
SECTION
  2
CLASSES
  0
CLASS
  1
ACDBDICTIONARYWDFLT
  2
AcDbDictionaryWithDefault
  3
AutoCAD 2000
 90
        0
280
     0
281
     0
  0
CLASS
  1
ACDBPLACEHOLDER
  2
AcDbPlaceHolder
  3
AutoCAD 2000
 90
        0
280
     0
281
     0
  0
CLASS
  1
LAYOUT
  2
AcDbLayout
  3
AutoCAD 2000
 90
        0
280
     0
281
     0
  0
CLASS
  1
DICTIONARYVAR
  2
AcDbDictionaryVar
  3
AutoCAD 2000
 90
        0
280
     0
281
     0
  0
CLASS
  1
LONG_TRANSACTION
  2
AcDbLongTransaction
  3
AutoCAD 2000
 90
    32768
280
     0
281
     0
  0
CLASS
  1
LWPOLYLINE
  2
AcDbPolyline
  3
AutoCAD 2000
 90
    32768
280
     0
281
     1
  0
CLASS
  1
HATCH
  2
AcDbHatch
  3
AutoCAD 2000
 90
    32768
280
     0
281
     1
  0
CLASS
  1
XRECORD
  2
AcDbXrecord
  3
AutoCAD 2000
 90
    32768
280
     0
281
     0
  0
ENDSEC
  0
SECTION
  2
TABLES
  0
TABLE
  2
VPORT
  5
8
330
0
100
AcDbSymbolTable
 70
     3
  0
VPORT
  5
19E
330
8
100
AcDbSymbolTableRecord
100
AcDbViewportTableRecord
  2
*Active
 70
     0
 10
0.0
 20
0.0
 11
1.0
 21
1.0
 12
23.99999999999999
 22
187.5000000000001
 13
0.0
 23
0.0
 14
1.0
 24
1.0
 15
0.0
 25
0.0
 16
0.0
 26
0.0
 36
1.0
 17
0.0
 27
0.0
 37
0.0
 40
377.7669174700503
 41
2.078104993597951
 42
50.0
 43
0.0
 44
0.0
 50
0.0
 51
0.0
 71
     0
 72
   100
 73
     1
 74
     3
 75
     0
 76
     0
 77
     0
 78
     0
281
     0
 65
     1
110
0.0
120
0.0
130
0.0
111
1.0
121
0.0
131
0.0
112
0.0
122
1.0
132
0.0
 79
     1
146
0.0
  0
ENDTAB
  0
TABLE
  2
LTYPE
  5
5
330
0
100
AcDbSymbolTable
 70
     1
  0
LTYPE
  5
13
330
5
100
AcDbSymbolTableRecord
100
AcDbLinetypeTableRecord
  2
BYBLOCK
 70
     0
  3

 72
    65
 73
     0
 40
0.0
  0
LTYPE
  5
14
330
5
100
AcDbSymbolTableRecord
100
AcDbLinetypeTableRecord
  2
BYLAYER
 70
     0
  3

 72
    65
 73
     0
 40
0.0
  0
LTYPE
  5
15
330
5
100
AcDbSymbolTableRecord
100
AcDbLinetypeTableRecord
  2
CONTINUOUS
 70
     0
  3
Solid line
 72
    65
 73
     0
 40
0.0
  0
ENDTAB
  0
TABLE
  2
LAYER
  5
2
330
0
100
AcDbSymbolTable
 70
     1
  0
LAYER
  5
10
330
2
100
AcDbSymbolTableRecord
100
AcDbLayerTableRecord
  2
0
 70
     0
 62
     7
  6
CONTINUOUS
370
    -3
390
F
  0
ENDTAB
  0
TABLE
  2
STYLE
  5
3
330
0
100
AcDbSymbolTable
 70
     1
  0
STYLE
  5
11
330
3
100
AcDbSymbolTableRecord
100
AcDbTextStyleTableRecord
  2
STANDARD
 70
     0
 40
0.0
 41
1.0
 50
0.0
 71
     0
 42
0.2
  3
txt
  4

  0
ENDTAB
  0
TABLE
  2
VIEW
  5
6
330
0
100
AcDbSymbolTable
 70
     0
  0
ENDTAB
  0
TABLE
  2
UCS
  5
7
330
0
100
AcDbSymbolTable
 70
     0
  0
ENDTAB
  0
TABLE
  2
APPID
  5
9
330
0
100
AcDbSymbolTable
 70
     1
  0
APPID
  5
12
330
9
100
AcDbSymbolTableRecord
100
AcDbRegAppTableRecord
  2
ACAD
 70
     0
  0
ENDTAB
  0
TABLE
  2
DIMSTYLE
  5
A
330
0
100
AcDbSymbolTable
 70
     1
100
AcDbDimStyleTable
 71
     0
  0
DIMSTYLE
105
13F
330
A
100
AcDbSymbolTableRecord
100
AcDbDimStyleTableRecord
  2
STANDARD
 70
     0
340
11
  0
ENDTAB
  0
TABLE
  2
BLOCK_RECORD
  5
1
330
0
100
AcDbSymbolTable
 70
     0
  0
BLOCK_RECORD
  5
1E
102
{ACAD_XDICTIONARY
360
195
102
}
330
1
100
AcDbSymbolTableRecord
100
AcDbBlockTableRecord
  2
*MODEL_SPACE
340
199
  0
BLOCK_RECORD
  5
1A
102
{ACAD_XDICTIONARY
360
193
102
}
330
1
100
AcDbSymbolTableRecord
100
AcDbBlockTableRecord
  2
*PAPER_SPACE
340
19A
  0
ENDTAB
  0
ENDSEC
  0
SECTION
  2
BLOCKS
  0
BLOCK
  5
1F
330
1E
100
AcDbEntity
  8
0
100
AcDbBlockBegin
  2
*MODEL_SPACE
 70
     0
 10
0.0
 20
0.0
 30
0.0
  3
*MODEL_SPACE
  1

  0
ENDBLK
  5
20
330
1E
100
AcDbEntity
  8
0
100
AcDbBlockEnd
  0
BLOCK
  5
1B
330
1A
100
AcDbEntity
 67
     1
  8
0
100
AcDbBlockBegin
  2
*PAPER_SPACE
 70
     0
 10
0.0
 20
0.0
 30
0.0
  3
*PAPER_SPACE
  1

  0
ENDBLK
  5
1C
330
1A
100
AcDbEntity
 67
     1
  8
0
100
AcDbBlockEnd
  0
ENDSEC
  0
SECTION
  2
ENTITIES
  0
LINE
  5
22
330
1E
100
AcDbEntity
  8
0
100
AcDbLine
 10
0.461199999999999
 20
0.0701221693533157
 30
0.0
 11
1.8269
 21
0.066537229353316
 31
0.0
  0
LINE
  5
23
330
1E
100
AcDbEntity
  8
0
100
AcDbLine
 10
10.66629999999999
 20
0.0579607893533166
 30
0.0
 11
14.81559999999999
 21
0.0561948893533168
 31
0.0
  0
LINE
  5
24
330
1E
100
AcDbEntity
  8
0
100
AcDbLine
 10
7.02939999999999
 20
0.0603373893533165
 30
0.0
 11
10.66629999999999
 21
0.0579607893533166
 31
0.0
  0
LINE
  5
25
330
1E
100
AcDbEntity
  8
0
100
AcDbLine
 10
4.04469999999999
 20
0.0632332893533162
 30
0.0
 11
7.02939999999999
 21
0.0603373893533165
 31
0.0
  0
LINE
  5
26
330
1E
100
AcDbEntity
  8
0
100
AcDbLine
 10
1.8269
 20
0.066537229353316
 30
0.0
 11
4.04469999999999
 21
0.0632332893533162
 31
0.0
  0
LINE
  5
27
330
1E
100
AcDbEntity
  8
0
100
AcDbLine
 10
11.05829999999998
 20
219.7678441452529
 30
0.0
 11
14.09321
 21
215.835063151391
 31
0.0
  0
LINE
  5
28
330
1E
100
AcDbEntity
  8
0
100
AcDbLine
 10
9.992599999999999
 20
224.4059167779365
 30
0.0
 11
10.0
 21
229.0792907309942
 31
0.0
  0
LINE
  5
29
330
1E
100
AcDbEntity
  8
0
100
AcDbLine
 10
9.992599999999999
 20
224.4059167779365
 30
0.0
 11
11.0582
 21
229.0431622954863
 31
0.0
  0
LINE
  5
2A
330
1E
100
AcDbEntity
  8
0
100
AcDbLine
 10
9.992599999999999
 20
224.4059167779365
 30
0.0
 11
11.05829999999998
 21
219.7678441452529
 31
0.0
  0
LINE
  5
2B
330
1E
100
AcDbEntity
  8
0
100
AcDbLine
 10
10.0
 20
229.0792907309942
 30
0.0
 11
11.06559999999999
 21
233.7165329298199
 31
0.0
  0
LINE
  5
2C
330
1E
100
AcDbEntity
  8
0
100
AcDbLine
 10
11.0582
 20
229.0431622954863
 30
0.0
 11
14.09297999999999
 21
232.9735888904689
 31
0.0
  0
LINE
  5
2D
330
1E
100
AcDbEntity
  8
0
100
AcDbLine
 10
-0.0000000000000026
 20
0.0738503893533155
 30
0.0
 11
0.461199999999999
 21
0.0701221693533157
 31
0.0
  0
LINE
  5
2E
330
1E
100
AcDbEntity
  8
0
100
AcDbLine
 10
0.461199999999999
 20
0.0701221693533157
 30
0.0
 11
1.8269
 21
0.066537229353316
 31
0.0
  0
LINE
  5
2F
330
1E
100
AcDbEntity
  8
0
100
AcDbLine
 10
-0.0000000000000026
 20
0.0738503893533155
 30
0.0
 11
0.461199999999999
 21
0.0701221693533157
 31
0.0
  0
LINE
  5
30
330
1E
100
AcDbEntity
  8
0
100
AcDbLine
 10
-0.0000000000000026
 20
0.0738503893533107
 30
0.0
 11
-0.0000000000000026
 21
294.5738503893528
 31
0.0
  0
LINE
  5
31
330
1E
100
AcDbEntity
  8
0
100
AcDbLine
 10
11.06559999999999
 20
233.7165329298199
 30
0.0
 11
14.10041
 21
237.6469581129169
 31
0.0
  0
LINE
  5
32
330
1E
100
AcDbEntity
  8
0
100
AcDbLine
 10
10.0
 20
229.2480503893534
 30
0.0
 11
11.0657
 21
233.8857503893533
 31
0.0
  0
LINE
  5
33
330
1E
100
AcDbEntity
  8
0
100
AcDbLine
 10
10.0
 20
229.2480503893534
 30
0.0
 11
10.0193897413154
 21
229.1636703543541
 31
0.0
  0
LINE
  5
34
330
1E
100
AcDbEntity
  8
0
100
AcDbLine
 10
10.0
 20
229.2480503893534
 30
0.0
 11
10.02909999999999
 21
272.721850389353
 31
0.0
  0
LINE
  5
35
330
1E
100
AcDbEntity
  8
0
100
AcDbLine
 10
14.09321
 20
215.835063151391
 30
0.0
 11
18.63001
 21
213.2081186319096
 31
0.0
  0
LINE
  5
36
330
1E
100
AcDbEntity
  8
0
100
AcDbLine
 10
14.66249
 20
226.741139335655
 30
0.0
 11
15.37294
 21
229.8327884603703
 31
0.0
  0
LINE
  5
37
330
1E
100
AcDbEntity
  8
0
100
AcDbLine
 10
14.66249
 20
226.741139335655
 30
0.0
 11
15.37302
 21
223.6489386987846
 31
0.0
  0
LINE
  5
38
330
1E
100
AcDbEntity
  8
0
100
AcDbLine
 10
18.63001
 20
213.2081186319096
 30
0.0
 11
23.99257492999999
 21
212.2817559083815
 31
0.0
  0
LINE
  5
39
330
1E
100
AcDbEntity
  8
0
100
AcDbLine
 10
17.39637999999999
 20
221.0269519126903
 30
0.0
 11
20.42107
 21
219.2755833977896
 31
0.0
  0
LINE
  5
3A
330
1E
100
AcDbEntity
  8
0
100
AcDbLine
 10
15.37302
 20
223.6489386987846
 30
0.0
 11
17.39637999999999
 21
221.0269519126903
 31
0.0
  0
LINE
  5
3B
330
1E
100
AcDbEntity
  8
0
100
AcDbLine
 10
15.37294
 20
229.8327884603703
 30
0.0
 11
17.39622999999999
 21
232.4532085339547
 31
0.0
  0
LINE
  5
3C
330
1E
100
AcDbEntity
  8
0
100
AcDbLine
 10
17.39622999999999
 20
232.4532085339547
 30
0.0
 11
20.42432
 21
234.2034574026146
 31
0.0
  0
LINE
  5
3D
330
1E
100
AcDbEntity
  8
0
100
AcDbLine
 10
14.09297999999999
 20
232.9735888904689
 30
0.0
 11
18.63488
 21
235.5988013092841
 31
0.0
  0
LINE
  5
3E
330
1E
100
AcDbEntity
  8
0
100
AcDbLine
 10
14.10041
 20
237.6469581129169
 30
0.0
 11
18.64232
 21
240.2722347252429
 31
0.0
  0
LINE
  5
3F
330
1E
100
AcDbEntity
  8
0
100
AcDbLine
 10
18.63488
 20
235.5988013092841
 30
0.0
 11
24.01485389999999
 21
236.5191569506378
 31
0.0
  0
LINE
  5
40
330
1E
100
AcDbEntity
  8
0
100
AcDbLine
 10
14.81559999999999
 20
0.0561948893533168
 30
0.0
 11
19.31782999999997
 21
0.0551073893533169
 31
0.0
  0
LINE
  5
41
330
1E
100
AcDbEntity
  8
0
100
AcDbLine
 10
11.0657
 20
233.8857503893533
 30
0.0
 11
14.10051
 21
237.8172503893531
 31
0.0
  0
LINE
  5
42
330
1E
100
AcDbEntity
  8
0
100
AcDbLine
 10
18.64232
 20
240.2722347252429
 30
0.0
 11
24.0222873
 21
241.1925892615871
 31
0.0
  0
LINE
  5
43
330
1E
100
AcDbEntity
  8
0
100
AcDbLine
 10
10.02909999999999
 20
272.721850389353
 30
0.0
 11
10.49009999999999
 21
275.901850389353
 31
0.0
  0
LINE
  5
45
330
1E
100
AcDbEntity
  8
0
100
AcDbLine
 10
10.49009999999999
 20
275.901850389353
 30
0.0
 11
11.5041700043514
 21
278.5148498744963
 31
0.0
  0
LINE
  5
48
330
1E
100
AcDbEntity
  8
0
100
AcDbLine
 10
0.461199999999999
 20
294.569850389353
 30
0.0
 11
1.8269
 21
294.5668503893529
 31
0.0
  0
LINE
  5
49
330
1E
100
AcDbEntity
  8
0
100
AcDbLine
 10
-0.0000000000000026
 20
294.5738503893528
 30
0.0
 11
0.49592372324106
 21
295.0697741125939
 31
0.0
  0
LINE
  5
4A
330
1E
100
AcDbEntity
  8
0
100
AcDbLine
 10
-0.0000000000000026
 20
294.5738503893528
 30
0.0
 11
0.461199999999999
 21
294.569850389353
 31
0.0
  0
LINE
  5
4B
330
1E
100
AcDbEntity
  8
0
100
AcDbLine
 10
0.461199999999999
 20
294.569850389353
 30
0.0
 11
1.8269
 21
294.5668503893529
 31
0.0
  0
LINE
  5
4C
330
1E
100
AcDbEntity
  8
0
100
AcDbLine
 10
1.8269
 20
294.5668503893529
 30
0.0
 11
4.04469999999999
 21
294.562850389353
 31
0.0
  0
LINE
  5
4D
330
1E
100
AcDbEntity
  8
0
100
AcDbLine
 10
4.04469999999999
 20
294.562850389353
 30
0.0
 11
7.02939999999999
 21
294.559850389353
 31
0.0
  0
LINE
  5
4E
330
1E
100
AcDbEntity
  8
0
100
AcDbLine
 10
7.02939999999999
 20
294.559850389353
 30
0.0
 11
10.66629999999999
 21
294.557850389353
 31
0.0
  0
LINE
  5
4F
330
1E
100
AcDbEntity
  8
0
100
AcDbLine
 10
10.66629999999999
 20
294.557850389353
 30
0.0
 11
14.81559999999999
 21
294.555850389353
 31
0.0
  0
LINE
  5
50
330
1E
100
AcDbEntity
  8
0
100
AcDbLine
 10
14.81559999999999
 20
294.555850389353
 30
0.0
 11
19.31782999999997
 21
294.5548503893529
 31
0.0
  0
LINE
  5
51
330
1E
100
AcDbEntity
  8
0
100
AcDbLine
 10
-0.0000000000000026
 20
294.5738503893528
 30
0.0
 11
0.49592372324106
 21
295.0697741125939
 31
0.0
  0
LINE
  5
52
330
1E
100
AcDbEntity
  8
0
100
AcDbLine
 10
-0.0000000000000026
 20
294.5738503893528
 30
0.0
 11
0.461199999999999
 21
294.569850389353
 31
0.0
  0
LINE
  5
53
330
1E
100
AcDbEntity
  8
0
100
AcDbLine
 10
-0.0000000000000026
 20
294.5738503893528
 30
0.0
 11
-0.0000000000000026
 21
0.0738503893533107
 31
0.0
  0
LINE
  5
54
330
1E
100
AcDbEntity
  8
0
100
AcDbLine
 10
14.10051
 20
237.8172503893531
 30
0.0
 11
18.64242999999998
 21
240.4442503893533
 31
0.0
  0
LINE
  5
55
330
1E
100
AcDbEntity
  8
0
100
AcDbLine
 10
20.42107
 20
219.2755833977896
 30
0.0
 11
23.99628941
 21
218.6579476271643
 31
0.0
  0
LINE
  5
56
330
1E
100
AcDbEntity
  8
0
100
AcDbLine
 10
20.42432
 20
234.2034574026146
 30
0.0
 11
24.0111428
 21
234.8170653578451
 31
0.0
  0
LINE
  5
57
330
1E
100
AcDbEntity
  8
0
100
AcDbLine
 10
23.99628941
 20
218.6579476271643
 30
0.0
 11
27.60265
 21
219.2839643514842
 31
0.0
  0
LINE
  5
58
330
1E
100
AcDbEntity
  8
0
100
AcDbLine
 10
23.99257492999999
 20
212.2817559083815
 30
0.0
 11
29.40184999999999
 21
213.2207110430974
 31
0.0
  0
LINE
  5
5C
330
1E
100
AcDbEntity
  8
0
100
AcDbLine
 10
23.9999999999999
 20
0.0547401893533169
 30
0.0
 11
28.68217
 21
0.0551073893533169
 31
0.0
  0
LINE
  5
5D
330
1E
100
AcDbEntity
  8
0
100
AcDbLine
 10
19.31782999999997
 20
0.0551073893533169
 30
0.0
 11
23.9999999999999
 21
0.0547401893533169
 31
0.0
  0
LINE
  5
5E
330
1E
100
AcDbEntity
  8
0
100
AcDbLine
 10
19.31782999999997
 20
294.5548503893529
 30
0.0
 11
24.00000000000019
 21
294.5548503893529
 31
0.0
  0
LINE
  5
5F
330
1E
100
AcDbEntity
  8
0
100
AcDbLine
 10
18.64242999999998
 20
240.4442503893533
 30
0.0
 11
24.0000000000001
 21
241.3668503893533
 31
0.0
  0
LINE
  5
60
330
1E
100
AcDbEntity
  8
0
100
AcDbLine
 10
-0.0000000000000026
 20
295.0738503893528
 30
0.0
 11
0.461199999999999
 21
295.069850389353
 31
0.0
  0
LINE
  5
61
330
1E
100
AcDbEntity
  8
0
100
AcDbLine
 10
-0.0000000000000026
 20
295.0738503893528
 30
0.0
 11
-0.0000000000000026
 21
315.0738503893528
 31
0.0
  0
LINE
  5
62
330
1E
100
AcDbEntity
  8
0
100
AcDbLine
 10
-0.0000000000000026
 20
315.0738503893528
 30
0.0
 11
-0.0000000000000026
 21
295.0738503893528
 31
0.0
  0
LINE
  5
64
330
1E
100
AcDbEntity
  8
0
100
AcDbLine
 10
-0.0000000000000026
 20
315.0738503893528
 30
0.0
 11
0.461199999999999
 21
315.069850389353
 31
0.0
  0
LINE
  5
65
330
1E
100
AcDbEntity
  8
0
100
AcDbLine
 10
-0.0000000000000026
 20
315.0738503893528
 30
0.0
 11
0.461199999999999
 21
315.069850389353
 31
0.0
  0
LINE
  5
67
330
1E
100
AcDbEntity
  8
0
100
AcDbLine
 10
10.66629999999999
 20
295.057850389353
 30
0.0
 11
14.81559999999999
 21
295.0558503893528
 31
0.0
  0
LINE
  5
68
330
1E
100
AcDbEntity
  8
0
100
AcDbLine
 10
7.02939999999999
 20
295.059850389353
 30
0.0
 11
10.66629999999999
 21
295.057850389353
 31
0.0
  0
LINE
  5
69
330
1E
100
AcDbEntity
  8
0
100
AcDbLine
 10
4.04469999999999
 20
295.0628503893529
 30
0.0
 11
7.02939999999999
 21
295.059850389353
 31
0.0
  0
LINE
  5
6A
330
1E
100
AcDbEntity
  8
0
100
AcDbLine
 10
0.461199999999999
 20
295.069850389353
 30
0.0
 11
1.8269
 21
295.0668503893529
 31
0.0
  0
LINE
  5
6B
330
1E
100
AcDbEntity
  8
0
100
AcDbLine
 10
1.8269
 20
295.0668503893529
 30
0.0
 11
4.04469999999999
 21
295.0628503893529
 31
0.0
  0
LINE
  5
6C
330
1E
100
AcDbEntity
  8
0
100
AcDbLine
 10
14.81559999999999
 20
295.0558503893528
 30
0.0
 11
19.31782999999997
 21
295.0548503893529
 31
0.0
  0
LINE
  5
6E
330
1E
100
AcDbEntity
  8
0
100
AcDbLine
 10
19.31782999999997
 20
315.0548503893529
 30
0.0
 11
24.00000000000019
 21
315.0548503893529
 31
0.0
  0
LINE
  5
6F
330
1E
100
AcDbEntity
  8
0
100
AcDbLine
 10
17.47018751334858
 20
315.056118001186
 30
0.0
 11
17.56571
 21
315.1491750380858
 31
0.0
  0
LINE
  5
71
330
1E
100
AcDbEntity
  8
0
100
AcDbLine
 10
14.81559999999999
 20
315.055850389353
 30
0.0
 11
19.31782999999997
 21
315.0548503893529
 31
0.0
  0
LINE
  5
72
330
1E
100
AcDbEntity
  8
0
100
AcDbLine
 10
10.66629999999999
 20
315.057850389353
 30
0.0
 11
14.81559999999999
 21
315.055850389353
 31
0.0
  0
LINE
  5
73
330
1E
100
AcDbEntity
  8
0
100
AcDbLine
 10
7.02939999999999
 20
315.059850389353
 30
0.0
 11
10.66629999999999
 21
315.057850389353
 31
0.0
  0
LINE
  5
74
330
1E
100
AcDbEntity
  8
0
100
AcDbLine
 10
4.04469999999999
 20
315.062850389353
 30
0.0
 11
7.02939999999999
 21
315.059850389353
 31
0.0
  0
LINE
  5
75
330
1E
100
AcDbEntity
  8
0
100
AcDbLine
 10
0.461199999999999
 20
315.069850389353
 30
0.0
 11
1.8269
 21
315.0668503893529
 31
0.0
  0
LINE
  5
7B
330
1E
100
AcDbEntity
  8
0
100
AcDbLine
 10
17.56571
 20
315.1491750380858
 30
0.0
 11
17.75929999999998
 21
315.337764213169
 31
0.0
  0
LINE
  5
7C
330
1E
100
AcDbEntity
  8
0
100
AcDbLine
 10
17.77796
 20
315.348968467196
 30
0.0
 11
18.55105
 21
315.8967192412648
 31
0.0
  0
LINE
  5
7D
330
1E
100
AcDbEntity
  8
0
100
AcDbLine
 10
18.68352
 20
315.9886308683159
 30
0.0
 11
19.48901
 21
316.449860637911
 31
0.0
  0
LINE
  5
7E
330
1E
100
AcDbEntity
  8
0
100
AcDbLine
 10
18.55105
 20
315.8967192412648
 30
0.0
 11
18.68352
 21
315.9886308683159
 31
0.0
  0
LINE
  5
7F
330
1E
100
AcDbEntity
  8
0
100
AcDbLine
 10
19.3114
 20
342.3565575272129
 30
0.0
 11
19.31197
 21
345.9326143924828
 31
0.0
  0
LINE
  5
80
330
1E
100
AcDbEntity
  8
0
100
AcDbLine
 10
19.3114
 20
342.3565575272129
 30
0.0
 11
19.37268999999998
 21
338.745959884612
 31
0.0
  0
LINE
  5
81
330
1E
100
AcDbEntity
  8
0
100
AcDbLine
 10
19.48901
 20
316.449860637911
 30
0.0
 11
20.33795
 21
316.8334377916599
 31
0.0
  0
LINE
  5
82
330
1E
100
AcDbEntity
  8
0
100
AcDbLine
 10
19.49573
 20
335.1043738872488
 30
0.0
 11
19.68034
 21
331.4360699644868
 31
0.0
  0
LINE
  5
83
330
1E
100
AcDbEntity
  8
0
100
AcDbLine
 10
19.37268999999998
 20
338.745959884612
 30
0.0
 11
19.49573
 21
335.1043738872488
 31
0.0
  0
LINE
  5
84
330
1E
100
AcDbEntity
  8
0
100
AcDbLine
 10
19.31197
 20
345.9326143924828
 30
0.0
 11
19.37438
 21
349.4699289342358
 31
0.0
  0
LINE
  5
85
330
1E
100
AcDbEntity
  8
0
100
AcDbLine
 10
19.37438
 20
349.4699289342358
 30
0.0
 11
19.49849
 21
352.9640681333408
 31
0.0
  0
LINE
  5
86
330
1E
100
AcDbEntity
  8
0
100
AcDbLine
 10
19.92646
 20
327.7454527115799
 30
0.0
 11
20.23362999999998
 21
324.0362068906358
 31
0.0
  0
LINE
  5
87
330
1E
100
AcDbEntity
  8
0
100
AcDbLine
 10
19.68034
 20
331.4360699644868
 30
0.0
 11
19.92646
 21
327.7454527115799
 31
0.0
  0
LINE
  5
88
330
1E
100
AcDbEntity
  8
0
100
AcDbLine
 10
19.49849
 20
352.9640681333408
 30
0.0
 11
19.68427
 21
356.4119258027418
 31
0.0
  0
LINE
  5
89
330
1E
100
AcDbEntity
  8
0
100
AcDbLine
 10
19.68427
 20
356.4119258027418
 30
0.0
 11
19.93148
 21
359.8095043051948
 31
0.0
  0
LINE
  5
8A
330
1E
100
AcDbEntity
  8
0
100
AcDbLine
 10
20.33795
 20
316.8334377916599
 30
0.0
 11
20.9739249022513
 21
317.0508354462429
 31
0.0
  0
LINE
  5
8B
330
1E
100
AcDbEntity
  8
0
100
AcDbLine
 10
20.60153
 20
320.312612591692
 30
0.0
 11
21.00010999999998
 21
316.8214822706978
 31
0.0
  0
LINE
  5
8C
330
1E
100
AcDbEntity
  8
0
100
AcDbLine
 10
20.23362999999998
 20
324.0362068906358
 30
0.0
 11
20.60153
 21
320.312612591692
 31
0.0
  0
LINE
  5
8D
330
1E
100
AcDbEntity
  8
0
100
AcDbLine
 10
19.93148
 20
359.8095043051948
 30
0.0
 11
20.23969
 21
363.1517175755659
 31
0.0
  0
LINE
  5
8E
330
1E
100
AcDbEntity
  8
0
100
AcDbLine
 10
20.23969
 20
363.1517175755659
 30
0.0
 11
20.60882
 21
366.4371683934689
 31
0.0
  0
LINE
  5
8F
330
1E
100
AcDbEntity
  8
0
100
AcDbLine
 10
21.51775
 20
316.4248170472328
 30
0.0
 11
21.64086
 21
316.3533180613169
 31
0.0
  0
LINE
  5
90
330
1E
100
AcDbEntity
  8
0
100
AcDbLine
 10
21.39470999999999
 20
316.4887611859949
 30
0.0
 11
21.51775
 21
316.4248170472328
 31
0.0
  0
LINE
  5
91
330
1E
100
AcDbEntity
  8
0
100
AcDbLine
 10
21.27183
 20
316.5451057519668
 30
0.0
 11
21.39470999999999
 21
316.4887611859949
 31
0.0
  0
LINE
  5
92
330
1E
100
AcDbEntity
  8
0
100
AcDbLine
 10
21.05996999999999
 20
316.676371538581
 30
0.0
 11
21.27183
 21
316.5451057519668
 31
0.0
  0
LINE
  5
93
330
1E
100
AcDbEntity
  8
0
100
AcDbLine
 10
21.00010999999998
 20
316.8214822706978
 30
0.0
 11
21.05996999999999
 21
316.676371538581
 31
0.0
  0
LINE
  5
94
330
1E
100
AcDbEntity
  8
0
100
AcDbLine
 10
20.60882
 20
366.4371683934689
 30
0.0
 11
21.03822
 21
369.6603359029229
 31
0.0
  0
LINE
  5
95
330
1E
100
AcDbEntity
  8
0
100
AcDbLine
 10
21.52814
 20
372.824481410994
 30
0.0
 11
21.54803999999999
 21
372.9219098860649
 31
0.0
  0
LINE
  5
96
330
1E
100
AcDbEntity
  8
0
100
AcDbLine
 10
21.54803999999999
 20
372.9219098860649
 30
0.0
 11
21.6903
 21
373.3699626994648
 31
0.0
  0
LINE
  5
97
330
1E
100
AcDbEntity
  8
0
100
AcDbLine
 10
21.03822
 20
369.6603359029229
 30
0.0
 11
21.52814
 21
372.824481410994
 31
0.0
  0
LINE
  5
98
330
1E
100
AcDbEntity
  8
0
100
AcDbLine
 10
23.05556499999999
 20
315.8805969069309
 30
0.0
 11
23.320722
 21
315.8411875237078
 31
0.0
  0
LINE
  5
99
330
1E
100
AcDbEntity
  8
0
100
AcDbLine
 10
21.64086
 20
316.3533180613169
 30
0.0
 11
21.76393
 21
316.2743278618078
 31
0.0
  0
LINE
  5
9A
330
1E
100
AcDbEntity
  8
0
100
AcDbLine
 10
21.76393
 20
316.2743278618078
 30
0.0
 11
22.15542
 21
316.082854220573
 31
0.0
  0
LINE
  5
9B
330
1E
100
AcDbEntity
  8
0
100
AcDbLine
 10
22.15542
 20
316.082854220573
 30
0.0
 11
22.67862
 21
315.936624391316
 31
0.0
  0
LINE
  5
9D
330
1E
100
AcDbEntity
  8
0
100
AcDbLine
 10
22.67862
 20
315.936624391316
 30
0.0
 11
23.05556499999999
 21
315.8805969069309
 31
0.0
  0
LINE
  5
9F
330
1E
100
AcDbEntity
  8
0
100
AcDbLine
 10
23.320722
 20
315.8411875237078
 30
0.0
 11
24.0
 21
315.80954384222
 31
0.0
  0
LINE
  5
A2
330
1E
100
AcDbEntity
  8
0
100
AcDbLine
 10
21.6903
 20
373.3699626994648
 30
0.0
 11
21.73467999999999
 21
373.503124045483
 31
0.0
  0
LINE
  5
A3
330
1E
100
AcDbEntity
  8
0
100
AcDbLine
 10
21.96127
 20
373.9027011823698
 30
0.0
 11
22.3668
 21
374.3446585343507
 31
0.0
  0
LINE
  5
A4
330
1E
100
AcDbEntity
  8
0
100
AcDbLine
 10
21.73467999999999
 20
373.503124045483
 30
0.0
 11
21.96127
 21
373.9027011823698
 31
0.0
  0
LINE
  5
A5
330
1E
100
AcDbEntity
  8
0
100
AcDbLine
 10
22.3668
 20
374.3446585343507
 30
0.0
 11
22.71679999999999
 21
374.5988293113388
 31
0.0
  0
LINE
  5
A9
330
1E
100
AcDbEntity
  8
0
100
AcDbLine
 10
22.71679999999999
 20
374.5988293113388
 30
0.0
 11
23.017881
 21
374.7319907164608
 31
0.0
  0
LINE
  5
AA
330
1E
100
AcDbEntity
  8
0
100
AcDbLine
 10
23.017881
 20
374.7319907164608
 30
0.0
 11
23.32350499999999
 21
374.8624509114569
 31
0.0
  0
LINE
  5
AB
330
1E
100
AcDbEntity
  8
0
100
AcDbLine
 10
23.32350499999999
 20
374.8624509114569
 30
0.0
 11
23.63388299999999
 21
374.9237382560759
 31
0.0
  0
LINE
  5
AC
330
1E
100
AcDbEntity
  8
0
100
AcDbLine
 10
23.63388299999999
 20
374.9237382560759
 30
0.0
 11
24.0
 21
374.9452598106469
 31
0.0
  0
LINE
  5
B3
330
1E
100
AcDbEntity
  8
0
100
AcDbLine
 10
17.75929999999998
 20
315.337764213169
 30
0.0
 11
17.8457122879958
 21
315.3969724100678
 31
0.0
  0
LINE
  5
B5
330
1E
100
AcDbEntity
  8
0
100
AcDbLine
 10
1.8269
 20
315.0668503893529
 30
0.0
 11
4.04469999999999
 21
315.062850389353
 31
0.0
  0
LINE
  5
B6
330
1E
100
AcDbEntity
  8
0
100
AcDbLine
 10
0.461199999999999
 20
315.069850389353
 30
0.0
 11
1.8269
 21
315.0668503893529
 31
0.0
  0
LINE
  5
B7
330
1E
100
AcDbEntity
  8
0
100
AcDbLine
 10
0.461199999999999
 20
295.069850389353
 30
0.0
 11
1.8269
 21
295.0668503893529
 31
0.0
  0
LINE
  5
B8
330
1E
100
AcDbEntity
  8
0
100
AcDbLine
 10
-0.0000000000000026
 20
295.0738503893528
 30
0.0
 11
0.461199999999999
 21
295.069850389353
 31
0.0
  0
LINE
  5
B9
330
1E
100
AcDbEntity
  8
0
100
AcDbLine
 10
19.31782999999997
 20
295.0548503893529
 30
0.0
 11
23.9999999999999
 21
295.0548503893529
 31
0.0
  0
LINE
  5
BA
330
1E
100
AcDbEntity
  8
0
100
AcDbLine
 10
19.31782999999997
 20
295.0548503893529
 30
0.0
 11
23.9999999999999
 21
295.0548503893529
 31
0.0
  0
LINE
  5
BB
330
1E
100
AcDbEntity
  8
0
100
AcDbLine
 10
24.0111428
 20
234.8170653578451
 30
0.0
 11
27.56810999999999
 21
234.2006556796284
 31
0.0
  0
LINE
  5
BC
330
1E
100
AcDbEntity
  8
0
100
AcDbLine
 10
24.01485389999999
 20
236.5191569506378
 30
0.0
 11
29.35004
 21
235.5946228754
 31
0.0
  0
LINE
  5
BD
330
1E
100
AcDbEntity
  8
0
100
AcDbLine
 10
27.56810999999999
 20
234.2006556796284
 30
0.0
 11
30.59624
 21
232.4480314314433
 31
0.0
  0
LINE
  5
BE
330
1E
100
AcDbEntity
  8
0
100
AcDbLine
 10
27.60265
 20
219.2839643514842
 30
0.0
 11
30.59629
 21
221.0217748101786
 31
0.0
  0
LINE
  5
BF
330
1E
100
AcDbEntity
  8
0
100
AcDbLine
 10
29.35004
 20
235.5946228754
 30
0.0
 11
33.89199999999998
 21
232.9658337270244
 31
0.0
  0
LINE
  5
C0
330
1E
100
AcDbEntity
  8
0
100
AcDbLine
 10
30.59624
 20
232.4480314314433
 30
0.0
 11
32.61957
 21
229.8260359851191
 31
0.0
  0
LINE
  5
C1
330
1E
100
AcDbEntity
  8
0
100
AcDbLine
 10
32.61957
 20
229.8260359851191
 30
0.0
 11
33.33008
 21
226.7273667487609
 31
0.0
  0
LINE
  5
C2
330
1E
100
AcDbEntity
  8
0
100
AcDbLine
 10
33.89199999999998
 20
232.9658337270244
 30
0.0
 11
36.9269
 21
229.0330267524739
 31
0.0
  0
LINE
  5
C3
330
1E
100
AcDbEntity
  8
0
100
AcDbLine
 10
36.9269
 20
229.0330267524739
 30
0.0
 11
37.9926
 21
224.3852558262555
 31
0.0
  0
LINE
  5
C4
330
1E
100
AcDbEntity
  8
0
100
AcDbLine
 10
33.89942999999998
 20
237.6392056163687
 30
0.0
 11
36.9343
 21
233.7063985918176
 31
0.0
  0
LINE
  5
C5
330
1E
100
AcDbEntity
  8
0
100
AcDbLine
 10
36.9343
 20
233.7063985918176
 30
0.0
 11
38.0
 21
229.0586269414134
 31
0.0
  0
LINE
  5
C6
330
1E
100
AcDbEntity
  8
0
100
AcDbLine
 10
32.6196
 20
223.6421862235338
 30
0.0
 11
33.33008
 21
226.7273667487609
 31
0.0
  0
LINE
  5
C7
330
1E
100
AcDbEntity
  8
0
100
AcDbLine
 10
36.9269
 20
219.7577172624701
 30
0.0
 11
37.9926
 21
224.3852558262555
 31
0.0
  0
LINE
  5
C8
330
1E
100
AcDbEntity
  8
0
100
AcDbLine
 10
30.59629
 20
221.0217748101786
 30
0.0
 11
32.6196
 21
223.6421862235338
 31
0.0
  0
LINE
  5
C9
330
1E
100
AcDbEntity
  8
0
100
AcDbLine
 10
33.89207999999999
 20
215.8273043277595
 30
0.0
 11
36.9269
 21
219.7577172624701
 31
0.0
  0
LINE
  5
CA
330
1E
100
AcDbEntity
  8
0
100
AcDbLine
 10
29.40184999999999
 20
213.2207110430974
 30
0.0
 11
33.89207999999999
 21
215.8273043277595
 31
0.0
  0
LINE
  5
CB
330
1E
100
AcDbEntity
  8
0
100
AcDbLine
 10
33.18439999999998
 20
0.0561948893533168
 30
0.0
 11
37.3337
 21
0.0579607893533166
 31
0.0
  0
LINE
  5
CC
330
1E
100
AcDbEntity
  8
0
100
AcDbLine
 10
28.68217
 20
0.0551073893533169
 30
0.0
 11
33.18439999999998
 21
0.0561948893533168
 31
0.0
  0
LINE
  5
CD
330
1E
100
AcDbEntity
  8
0
100
AcDbLine
 10
24.0222873
 20
241.1925892615871
 30
0.0
 11
29.35748
 21
240.2679687840556
 31
0.0
  0
LINE
  5
CE
330
1E
100
AcDbEntity
  8
0
100
AcDbLine
 10
29.35748
 20
240.2679687840556
 30
0.0
 11
33.89942999999998
 21
237.6392056163687
 31
0.0
  0
LINE
  5
D2
330
1E
100
AcDbEntity
  8
0
100
AcDbLine
 10
24.00000000000019
 20
294.5548503893529
 30
0.0
 11
28.68217
 21
294.5548503893529
 31
0.0
  0
LINE
  5
D3
330
1E
100
AcDbEntity
  8
0
100
AcDbLine
 10
28.68217
 20
294.5548503893529
 30
0.0
 11
33.18439999999998
 21
294.555850389353
 31
0.0
  0
LINE
  5
D4
330
1E
100
AcDbEntity
  8
0
100
AcDbLine
 10
24.0000000000001
 20
241.3668503893533
 30
0.0
 11
29.35757
 21
240.4442503893533
 31
0.0
  0
LINE
  5
D5
330
1E
100
AcDbEntity
  8
0
100
AcDbLine
 10
33.18439999999998
 20
294.555850389353
 30
0.0
 11
37.3337
 21
294.557850389353
 31
0.0
  0
LINE
  5
D6
330
1E
100
AcDbEntity
  8
0
100
AcDbLine
 10
29.35757
 20
240.4442503893533
 30
0.0
 11
33.89949
 21
237.8172503893531
 31
0.0
  0
LINE
  5
D7
330
1E
100
AcDbEntity
  8
0
100
AcDbLine
 10
33.89949
 20
237.8172503893531
 30
0.0
 11
36.9343
 21
233.8857503893533
 31
0.0
  0
LINE
  5
D8
330
1E
100
AcDbEntity
  8
0
100
AcDbLine
 10
37.9926
 20
224.3852558262555
 30
0.0
 11
38.0
 21
229.0586269414134
 31
0.0
  0
LINE
  5
D9
330
1E
100
AcDbEntity
  8
0
100
AcDbLine
 10
37.3337
 20
0.0579607893533166
 30
0.0
 11
40.97059999999999
 21
0.0603373893533165
 31
0.0
  0
LINE
  5
DA
330
1E
100
AcDbEntity
  8
0
100
AcDbLine
 10
47.5388
 20
0.0701221693533157
 30
0.0
 11
48.0
 21
0.0738503893533154
 31
0.0
  0
LINE
  5
DB
330
1E
100
AcDbEntity
  8
0
100
AcDbLine
 10
48.0
 20
0.0738503893533107
 30
0.0
 11
48.0
 21
294.5738503893528
 31
0.0
  0
LINE
  5
DC
330
1E
100
AcDbEntity
  8
0
100
AcDbLine
 10
46.17309999999998
 20
0.066537229353316
 30
0.0
 11
47.5388
 21
0.0701221693533157
 31
0.0
  0
LINE
  5
DD
330
1E
100
AcDbEntity
  8
0
100
AcDbLine
 10
43.95529999999999
 20
0.0632332893533162
 30
0.0
 11
46.17309999999998
 21
0.066537229353316
 31
0.0
  0
LINE
  5
DE
330
1E
100
AcDbEntity
  8
0
100
AcDbLine
 10
40.97059999999999
 20
0.0603373893533165
 30
0.0
 11
43.95529999999999
 21
0.0632332893533162
 31
0.0
  0
LINE
  5
DF
330
1E
100
AcDbEntity
  8
0
100
AcDbLine
 10
38.02088041548291
 20
272.5984746986475
 30
0.0
 11
38.0
 21
229.2480503893534
 31
0.0
  0
LINE
  5
E0
330
1E
100
AcDbEntity
  8
0
100
AcDbLine
 10
37.3337
 20
294.557850389353
 30
0.0
 11
40.97059999999999
 21
294.559850389353
 31
0.0
  0
LINE
  5
E1
330
1E
100
AcDbEntity
  8
0
100
AcDbLine
 10
40.97059999999999
 20
294.559850389353
 30
0.0
 11
43.95529999999999
 21
294.562850389353
 31
0.0
  0
LINE
  5
E2
330
1E
100
AcDbEntity
  8
0
100
AcDbLine
 10
43.95529999999999
 20
294.562850389353
 30
0.0
 11
46.17309999999998
 21
294.5668503893529
 31
0.0
  0
LINE
  5
E3
330
1E
100
AcDbEntity
  8
0
100
AcDbLine
 10
46.17309999999998
 20
294.5668503893529
 30
0.0
 11
47.5388
 21
294.569850389353
 31
0.0
  0
LINE
  5
E4
330
1E
100
AcDbEntity
  8
0
100
AcDbLine
 10
48.0
 20
294.5738503893528
 30
0.0
 11
48.0
 21
0.0738503893533107
 31
0.0
  0
LINE
  5
E5
330
1E
100
AcDbEntity
  8
0
100
AcDbLine
 10
47.5388
 20
294.569850389353
 30
0.0
 11
48.0
 21
294.5738503893528
 31
0.0
  0
LINE
  5
E6
330
1E
100
AcDbEntity
  8
0
100
AcDbLine
 10
37.97825973993889
 20
229.1534413961233
 30
0.0
 11
38.0
 21
229.2480503893534
 31
0.0
  0
LINE
  5
E7
330
1E
100
AcDbEntity
  8
0
100
AcDbLine
 10
36.9343
 20
233.8857503893533
 30
0.0
 11
38.0
 21
229.2480503893534
 31
0.0
  0
LINE
  5
E8
330
1E
100
AcDbEntity
  8
0
100
AcDbLine
 10
28.68217
 20
315.0548503893529
 30
0.0
 11
33.18439999999998
 21
315.055850389353
 31
0.0
  0
LINE
  5
E9
330
1E
100
AcDbEntity
  8
0
100
AcDbLine
 10
30.43429
 20
315.1491750380858
 30
0.0
 11
30.5306922254226
 21
315.055260968605
 31
0.0
  0
LINE
  5
EA
330
1E
100
AcDbEntity
  8
0
100
AcDbLine
 10
30.2407
 20
315.337764213169
 30
0.0
 11
30.5306911572623
 21
315.0552609683678
 31
0.0
  0
LINE
  5
EB
330
1E
100
AcDbEntity
  8
0
100
AcDbLine
 10
30.2407
 20
315.337764213169
 30
0.0
 11
30.43429
 21
315.1491750380858
 31
0.0
  0
LINE
  5
EC
330
1E
100
AcDbEntity
  8
0
100
AcDbLine
 10
24.0
 20
315.80954384222
 30
0.0
 11
24.679278
 21
315.8411875237078
 31
0.0
  0
LINE
  5
ED
330
1E
100
AcDbEntity
  8
0
100
AcDbLine
 10
24.679278
 20
315.8411875237078
 30
0.0
 11
25.32137999999999
 21
315.936624391316
 31
0.0
  0
LINE
  5
F6
330
1E
100
AcDbEntity
  8
0
100
AcDbLine
 10
25.32137999999999
 20
315.936624391316
 30
0.0
 11
25.84458
 21
316.082854220573
 31
0.0
  0
LINE
  5
F7
330
1E
100
AcDbEntity
  8
0
100
AcDbLine
 10
25.94562999999999
 20
316.1322797403348
 30
0.0
 11
26.23607
 21
316.2743278618078
 31
0.0
  0
LINE
  5
F8
330
1E
100
AcDbEntity
  8
0
100
AcDbLine
 10
26.23607
 20
316.2743278618078
 30
0.0
 11
26.35914
 21
316.3533180613169
 31
0.0
  0
LINE
  5
F9
330
1E
100
AcDbEntity
  8
0
100
AcDbLine
 10
25.84458
 20
316.082854220573
 30
0.0
 11
26.23607
 21
316.2743278618078
 31
0.0
  0
LINE
  5
FA
330
1E
100
AcDbEntity
  8
0
100
AcDbLine
 10
25.84458
 20
316.082854220573
 30
0.0
 11
25.94562999999999
 21
316.1322797403348
 31
0.0
  0
LINE
  5
FE
330
1E
100
AcDbEntity
  8
0
100
AcDbLine
 10
26.35914
 20
316.3533180613169
 30
0.0
 11
26.48225
 21
316.4248170472328
 31
0.0
  0
LINE
  5
FF
330
1E
100
AcDbEntity
  8
0
100
AcDbLine
 10
26.48225
 20
316.4248170472328
 30
0.0
 11
26.60529
 21
316.4887611859949
 31
0.0
  0
LINE
  5
100
330
1E
100
AcDbEntity
  8
0
100
AcDbLine
 10
26.60529
 20
316.4887611859949
 30
0.0
 11
26.72817
 21
316.5451057519668
 31
0.0
  0
LINE
  5
104
330
1E
100
AcDbEntity
  8
0
100
AcDbLine
 10
24.982119
 20
374.7319907164608
 30
0.0
 11
25.2832
 21
374.5988293113388
 31
0.0
  0
LINE
  5
105
330
1E
100
AcDbEntity
  8
0
100
AcDbLine
 10
24.366117
 20
374.9237382560759
 30
0.0
 11
24.676495
 21
374.8624509114569
 31
0.0
  0
LINE
  5
106
330
1E
100
AcDbEntity
  8
0
100
AcDbLine
 10
24.0
 20
374.9452598106469
 30
0.0
 11
24.366117
 21
374.9237382560759
 31
0.0
  0
LINE
  5
107
330
1E
100
AcDbEntity
  8
0
100
AcDbLine
 10
24.676495
 20
374.8624509114569
 30
0.0
 11
24.982119
 21
374.7319907164608
 31
0.0
  0
LINE
  5
108
330
1E
100
AcDbEntity
  8
0
100
AcDbLine
 10
25.2832
 20
374.5988293113388
 30
0.0
 11
25.6332
 21
374.3446585343507
 31
0.0
  0
LINE
  5
109
330
1E
100
AcDbEntity
  8
0
100
AcDbLine
 10
25.6332
 20
374.3446585343507
 30
0.0
 11
26.03873
 21
373.9027011823698
 31
0.0
  0
LINE
  5
10A
330
1E
100
AcDbEntity
  8
0
100
AcDbLine
 10
26.03873
 20
373.9027011823698
 30
0.0
 11
26.26532
 21
373.503124045483
 31
0.0
  0
LINE
  5
10B
330
1E
100
AcDbEntity
  8
0
100
AcDbLine
 10
26.26532
 20
373.503124045483
 30
0.0
 11
26.3097
 21
373.3699626994648
 31
0.0
  0
LINE
  5
10C
330
1E
100
AcDbEntity
  8
0
100
AcDbLine
 10
26.45195999999998
 20
372.9219098860649
 30
0.0
 11
26.47185999999999
 21
372.824481410994
 31
0.0
  0
LINE
  5
10D
330
1E
100
AcDbEntity
  8
0
100
AcDbLine
 10
26.3097
 20
373.3699626994648
 30
0.0
 11
26.45195999999998
 21
372.9219098860649
 31
0.0
  0
LINE
  5
10E
330
1E
100
AcDbEntity
  8
0
100
AcDbLine
 10
26.47185999999999
 20
372.824481410994
 30
0.0
 11
26.96177999999999
 21
369.6603359029229
 31
0.0
  0
LINE
  5
10F
330
1E
100
AcDbEntity
  8
0
100
AcDbLine
 10
28.51099
 20
316.449860637911
 30
0.0
 11
29.31648
 21
315.9886308683159
 31
0.0
  0
LINE
  5
110
330
1E
100
AcDbEntity
  8
0
100
AcDbLine
 10
29.31648
 20
315.9886308683159
 30
0.0
 11
29.44895
 21
315.8967192412648
 31
0.0
  0
LINE
  5
111
330
1E
100
AcDbEntity
  8
0
100
AcDbLine
 10
29.44895
 20
315.8967192412648
 30
0.0
 11
30.22204
 21
315.348968467196
 31
0.0
  0
LINE
  5
112
330
1E
100
AcDbEntity
  8
0
100
AcDbLine
 10
30.1542877120041
 20
315.3969724100678
 30
0.0
 11
30.2407
 21
315.337764213169
 31
0.0
  0
LINE
  5
113
330
1E
100
AcDbEntity
  8
0
100
AcDbLine
 10
26.94002
 20
316.6763613807479
 30
0.0
 11
26.99989
 21
316.8215470917068
 31
0.0
  0
LINE
  5
114
330
1E
100
AcDbEntity
  8
0
100
AcDbLine
 10
27.0260684429579
 20
317.0508377210748
 30
0.0
 11
27.66205
 21
316.8334377916599
 31
0.0
  0
LINE
  5
115
330
1E
100
AcDbEntity
  8
0
100
AcDbLine
 10
26.96177999999999
 20
369.6603359029229
 30
0.0
 11
27.39117999999999
 21
366.4371683934689
 31
0.0
  0
LINE
  5
116
330
1E
100
AcDbEntity
  8
0
100
AcDbLine
 10
27.39117999999999
 20
366.4371683934689
 30
0.0
 11
27.76030999999999
 21
363.1517175755659
 31
0.0
  0
LINE
  5
117
330
1E
100
AcDbEntity
  8
0
100
AcDbLine
 10
27.66205
 20
316.8334377916599
 30
0.0
 11
28.51099
 21
316.449860637911
 31
0.0
  0
LINE
  5
118
330
1E
100
AcDbEntity
  8
0
100
AcDbLine
 10
27.76030999999999
 20
363.1517175755659
 30
0.0
 11
28.06852
 21
359.8095043051948
 31
0.0
  0
LINE
  5
119
330
1E
100
AcDbEntity
  8
0
100
AcDbLine
 10
28.06852
 20
359.8095043051948
 30
0.0
 11
28.31573
 21
356.4119258027418
 31
0.0
  0
LINE
  5
11A
330
1E
100
AcDbEntity
  8
0
100
AcDbLine
 10
28.31573
 20
356.4119258027418
 30
0.0
 11
28.50150999999998
 21
352.9640681333408
 31
0.0
  0
LINE
  5
11B
330
1E
100
AcDbEntity
  8
0
100
AcDbLine
 10
28.50150999999998
 20
352.9640681333408
 30
0.0
 11
28.62562
 21
349.4699289342358
 31
0.0
  0
LINE
  5
11C
330
1E
100
AcDbEntity
  8
0
100
AcDbLine
 10
28.62562
 20
349.4699289342358
 30
0.0
 11
28.68802999999999
 21
345.9326143924828
 31
0.0
  0
LINE
  5
11D
330
1E
100
AcDbEntity
  8
0
100
AcDbLine
 10
28.68802999999999
 20
345.9326143924828
 30
0.0
 11
28.6886
 21
342.3565575272129
 31
0.0
  0
LINE
  5
11E
330
1E
100
AcDbEntity
  8
0
100
AcDbLine
 10
28.62731
 20
338.745959884612
 30
0.0
 11
28.6886
 21
342.3565575272129
 31
0.0
  0
LINE
  5
11F
330
1E
100
AcDbEntity
  8
0
100
AcDbLine
 10
28.50427
 20
335.1043738872488
 30
0.0
 11
28.62731
 21
338.745959884612
 31
0.0
  0
LINE
  5
120
330
1E
100
AcDbEntity
  8
0
100
AcDbLine
 10
28.31965999999999
 20
331.4360699644868
 30
0.0
 11
28.50427
 21
335.1043738872488
 31
0.0
  0
LINE
  5
121
330
1E
100
AcDbEntity
  8
0
100
AcDbLine
 10
28.07354
 20
327.7454527115799
 30
0.0
 11
28.31965999999999
 21
331.4360699644868
 31
0.0
  0
LINE
  5
122
330
1E
100
AcDbEntity
  8
0
100
AcDbLine
 10
27.76637
 20
324.0362068906358
 30
0.0
 11
28.07354
 21
327.7454527115799
 31
0.0
  0
LINE
  5
123
330
1E
100
AcDbEntity
  8
0
100
AcDbLine
 10
27.39847
 20
320.312612591692
 30
0.0
 11
27.76637
 21
324.0362068906358
 31
0.0
  0
LINE
  5
124
330
1E
100
AcDbEntity
  8
0
100
AcDbLine
 10
26.99989
 20
316.8215470917068
 30
0.0
 11
27.39847
 21
320.312612591692
 31
0.0
  0
LINE
  5
125
330
1E
100
AcDbEntity
  8
0
100
AcDbLine
 10
26.72817
 20
316.5451057519668
 30
0.0
 11
26.94002
 21
316.6763613807479
 31
0.0
  0
LINE
  5
128
330
1E
100
AcDbEntity
  8
0
100
AcDbLine
 10
33.18439999999998
 20
315.055850389353
 30
0.0
 11
37.3337
 21
315.057850389353
 31
0.0
  0
LINE
  5
129
330
1E
100
AcDbEntity
  8
0
100
AcDbLine
 10
24.00000000000019
 20
315.0548503893529
 30
0.0
 11
28.68217
 21
315.0548503893529
 31
0.0
  0
LINE
  5
12C
330
1E
100
AcDbEntity
  8
0
100
AcDbLine
 10
40.97059999999999
 20
315.059850389353
 30
0.0
 11
43.95529999999999
 21
315.062850389353
 31
0.0
  0
LINE
  5
12D
330
1E
100
AcDbEntity
  8
0
100
AcDbLine
 10
37.3337
 20
315.057850389353
 30
0.0
 11
40.97059999999999
 21
315.059850389353
 31
0.0
  0
LINE
  5
130
330
1E
100
AcDbEntity
  8
0
100
AcDbLine
 10
46.17309999999998
 20
315.0668503893529
 30
0.0
 11
47.5388
 21
315.069850389353
 31
0.0
  0
LINE
  5
131
330
1E
100
AcDbEntity
  8
0
100
AcDbLine
 10
43.95529999999999
 20
315.062850389353
 30
0.0
 11
46.17309999999998
 21
315.0668503893529
 31
0.0
  0
LINE
  5
132
330
1E
100
AcDbEntity
  8
0
100
AcDbLine
 10
47.50407627675889
 20
295.0697741125939
 30
0.0
 11
48.0
 21
294.5738503893528
 31
0.0
  0
LINE
  5
133
330
1E
100
AcDbEntity
  8
0
100
AcDbLine
 10
48.0
 20
315.0738503893528
 30
0.0
 11
48.0
 21
295.0738503893528
 31
0.0
  0
LINE
  5
135
330
1E
100
AcDbEntity
  8
0
100
AcDbLine
 10
47.5388
 20
315.069850389353
 30
0.0
 11
48.0
 21
315.0738503893528
 31
0.0
  0
LINE
  5
136
330
1E
100
AcDbEntity
  8
0
100
AcDbLine
 10
48.0
 20
295.0738503893528
 30
0.0
 11
48.0
 21
315.0738503893528
 31
0.0
  0
LINE
  5
137
330
1E
100
AcDbEntity
  8
0
100
AcDbLine
 10
47.5388
 20
295.069850389353
 30
0.0
 11
48.0
 21
295.0738503893528
 31
0.0
  0
LINE
  5
138
330
1E
100
AcDbEntity
  8
0
100
AcDbLine
 10
46.17309999999998
 20
295.0668503893529
 30
0.0
 11
47.5388
 21
295.069850389353
 31
0.0
  0
LINE
  5
139
330
1E
100
AcDbEntity
  8
0
100
AcDbLine
 10
43.95529999999999
 20
295.0628503893529
 30
0.0
 11
46.17309999999998
 21
295.0668503893529
 31
0.0
  0
LINE
  5
13A
330
1E
100
AcDbEntity
  8
0
100
AcDbLine
 10
40.97059999999999
 20
295.059850389353
 30
0.0
 11
43.95529999999999
 21
295.0628503893529
 31
0.0
  0
LINE
  5
13B
330
1E
100
AcDbEntity
  8
0
100
AcDbLine
 10
37.3337
 20
295.057850389353
 30
0.0
 11
40.97059999999999
 21
295.059850389353
 31
0.0
  0
LINE
  5
13C
330
1E
100
AcDbEntity
  8
0
100
AcDbLine
 10
33.18439999999998
 20
295.0558503893528
 30
0.0
 11
37.3337
 21
295.057850389353
 31
0.0
  0
LINE
  5
13D
330
1E
100
AcDbEntity
  8
0
100
AcDbLine
 10
28.68217
 20
295.0548503893529
 30
0.0
 11
33.18439999999998
 21
295.0558503893528
 31
0.0
  0
LINE
  5
13E
330
1E
100
AcDbEntity
  8
0
100
AcDbLine
 10
23.9999999999999
 20
295.0548503893529
 30
0.0
 11
28.68217
 21
295.0548503893529
 31
0.0
  0
LWPOLYLINE
  5
144
330
1E
100
AcDbEntity
  8
0
100
AcDbPolyline
 90
       15
 70
     0
 43
0.0
 10
38.02088041548291
 20
272.5984746986475
 10
37.52338104306909
 20
275.4820860957881
 10
36.6278827765136
 20
278.1668279791309
 10
35.38413484863689
 20
280.453830342439
 10
33.74238702030288
 20
282.2933755610439
 10
31.95138948087627
 20
283.834616016513
 10
29.66289256903564
 20
285.0775522012856
 10
27.02614700218964
 20
285.9724659982533
 10
24.19040148511498
 20
286.3702055182881
 10
21.70290462304569
 20
286.2210531367201
 10
18.71790939487846
 20
285.3261393397522
 10
16.13091306085266
 20
284.0334860227498
 10
14.1409155711974
 20
282.4922450748416
 10
12.44941851004296
 20
280.1555255793035
 10
11.5041700043514
 20
278.5148498744963
  0
LINE
  5
14C
330
1E
100
AcDbEntity
  8
0
100
AcDbLine
 10
-0.0000000000000026
 20
165.0738503893533
 30
0.0
 11
48.0
 21
165.0738503893533
 31
0.0
  0
ENDSEC
  0
SECTION
  2
OBJECTS
  0
DICTIONARY
  5
C
330
0
100
AcDbDictionary
281
     1
  3
ACAD_GROUP
350
D
  3
ACAD_LAYOUT
350
19
  3
ACAD_MLINESTYLE
350
16
  3
ACAD_PLOTSETTINGS
350
18
  3
ACAD_PLOTSTYLENAME
350
E
  3
ACDBVARIABLEDICTIONARY
350
145
  0
DICTIONARY
  5
195
330
1E
100
AcDbDictionary
280
     1
281
     1
  3
ACAD_LAYOUTSELFREF
360
196
  0
DICTIONARY
  5
193
330
1A
100
AcDbDictionary
280
     1
281
     1
  3
ACAD_LAYOUTSELFREF
360
194
  0
DICTIONARY
  5
D
102
{ACAD_REACTORS
330
C
102
}
330
C
100
AcDbDictionary
281
     1
  0
DICTIONARY
  5
19
102
{ACAD_REACTORS
330
C
102
}
330
C
100
AcDbDictionary
281
     1
  3
Layout1
350
19A
  3
Model
350
199
  0
DICTIONARY
  5
16
102
{ACAD_REACTORS
330
C
102
}
330
C
100
AcDbDictionary
281
     1
  3
STANDARD
350
17
  0
DICTIONARY
  5
18
102
{ACAD_REACTORS
330
C
102
}
330
C
100
AcDbDictionary
281
     1
  0
ACDBDICTIONARYWDFLT
  5
E
102
{ACAD_REACTORS
330
C
102
}
330
C
100
AcDbDictionary
281
     1
  3
Normal
350
F
100
AcDbDictionaryWithDefault
340
F
  0
DICTIONARY
  5
145
102
{ACAD_REACTORS
330
C
102
}
330
C
100
AcDbDictionary
281
     1
  3
DIMASSOC
350
146
  0
XRECORD
  5
196
102
{ACAD_REACTORS
330
195
102
}
330
195
100
AcDbXrecord
280
     1
340
1E
  0
XRECORD
  5
194
102
{ACAD_REACTORS
330
193
102
}
330
193
100
AcDbXrecord
280
     1
340
1A
  0
LAYOUT
  5
19A
102
{ACAD_REACTORS
330
19
102
}
330
19
100
AcDbPlotSettings
  1

  2
hp deskjet 980c series
  4

  6

 40
0.0
 41
0.0
 42
0.0
 43
0.0
 44
0.0
 45
0.0
 46
0.0
 47
0.0
 48
0.0
 49
0.0
140
0.0
141
0.0
142
1.0
143
1.0
 70
   688
 72
     0
 73
     0
 74
     5
  7

 75
    16
147
1.0
148
0.0
149
0.0
100
AcDbLayout
  1
Layout1
 70
     1
 71
     1
 10
0.0
 20
0.0
 11
12.0
 21
9.0
 12
0.0
 22
0.0
 32
0.0
 14
1.000000000000000E+20
 24
1.000000000000000E+20
 34
1.000000000000000E+20
 15
-1.000000000000000E+20
 25
-1.000000000000000E+20
 35
-1.000000000000000E+20
146
0.0
 13
0.0
 23
0.0
 33
0.0
 16
1.0
 26
0.0
 36
0.0
 17
0.0
 27
1.0
 37
0.0
 76
     0
330
1A
  0
LAYOUT
  5
199
102
{ACAD_REACTORS
330
19
102
}
330
19
100
AcDbPlotSettings
  1

  2
hp deskjet 980c series
  4

  6

 40
0.0
 41
0.0
 42
0.0
 43
0.0
 44
0.0
 45
0.0
 46
0.0
 47
0.0
 48
0.0
 49
0.0
140
0.0
141
0.0
142
1.0
143
1.0
 70
  1712
 72
     0
 73
     0
 74
     0
  7

 75
     0
147
1.0
148
0.0
149
0.0
100
AcDbLayout
  1
Model
 70
     1
 71
     0
 10
0.0
 20
0.0
 11
12.0
 21
9.0
 12
0.0
 22
0.0
 32
0.0
 14
0.0
 24
0.0
 34
0.0
 15
0.0
 25
0.0
 35
0.0
146
0.0
 13
0.0
 23
0.0
 33
0.0
 16
1.0
 26
0.0
 36
0.0
 17
0.0
 27
1.0
 37
0.0
 76
     0
330
1E
  0
MLINESTYLE
  5
17
102
{ACAD_REACTORS
330
16
102
}
330
16
100
AcDbMlineStyle
  2
STANDARD
 70
     0
  3

 62
   256
 51
90.0
 52
90.0
 71
     2
 49
0.5
 62
   256
  6
BYLAYER
 49
-0.5
 62
   256
  6
BYLAYER
  0
ACDBPLACEHOLDER
  5
F
102
{ACAD_REACTORS
330
E
102
}
330
E
  0
DICTIONARYVAR
  5
146
102
{ACAD_REACTORS
330
145
102
}
330
145
100
DictionaryVariables
280
     0
  1
1
  0
ENDSEC
  0
EOF
