  0
SECTION
  2
HEADER
  9
$ACADVER
  1
AC1015
  9
$ACADMAINTVER
 70
    13
  9
$DWGCODEPAGE
  3
ANSI_1252
  9
$INSBASE
 10
0.0
 20
0.0
 30
0.0
  9
$EXTMIN
 10
0.1865
 20
-0.0000000000000148
 30
0.0
  9
$EXTMAX
 10
316.8134999999999
 20
825.0
 30
0.0
  9
$LIMMIN
 10
0.0
 20
0.0
  9
$LIMMAX
 10
12.0
 20
9.0
  9
$ORTHOMODE
 70
     0
  9
$REGENMODE
 70
     1
  9
$FILLMODE
 70
     1
  9
$QTEXTMODE
 70
     0
  9
$MIRRTEXT
 70
     1
  9
$LTSCALE
 40
1.0
  9
$ATTMODE
 70
     1
  9
$TEXTSIZE
 40
0.2
  9
$TRACEWID
 40
0.05
  9
$TEXTSTYLE
  7
Standard
  9
$CLAYER
  8
0
  9
$CELTYPE
  6
Continuous
  9
$CECOLOR
 62
   256
  9
$CELTSCALE
 40
1.0
  9
$DISPSILH
 70
     0
  9
$DIMSCALE
 40
1.0
  9
$DIMASZ
 40
0.18
  9
$DIMEXO
 40
0.0625
  9
$DIMDLI
 40
0.38
  9
$DIMRND
 40
0.0
  9
$DIMDLE
 40
0.0
  9
$DIMEXE
 40
0.18
  9
$DIMTP
 40
0.0
  9
$DIMTM
 40
0.0
  9
$DIMTXT
 40
0.18
  9
$DIMCEN
 40
0.09
  9
$DIMTSZ
 40
0.0
  9
$DIMTOL
 70
     0
  9
$DIMLIM
 70
     0
  9
$DIMTIH
 70
     1
  9
$DIMTOH
 70
     1
  9
$DIMSE1
 70
     0
  9
$DIMSE2
 70
     0
  9
$DIMTAD
 70
     0
  9
$DIMZIN
 70
     0
  9
$DIMBLK
  1

  9
$DIMASO
 70
     1
  9
$DIMSHO
 70
     1
  9
$DIMPOST
  1

  9
$DIMAPOST
  1

  9
$DIMALT
 70
     0
  9
$DIMALTD
 70
     2
  9
$DIMALTF
 40
25.4
  9
$DIMLFAC
 40
1.0
  9
$DIMTOFL
 70
     0
  9
$DIMTVP
 40
0.0
  9
$DIMTIX
 70
     0
  9
$DIMSOXD
 70
     0
  9
$DIMSAH
 70
     0
  9
$DIMBLK1
  1

  9
$DIMBLK2
  1

  9
$DIMSTYLE
  2
Standard
  9
$DIMCLRD
 70
     0
  9
$DIMCLRE
 70
     0
  9
$DIMCLRT
 70
     0
  9
$DIMTFAC
 40
1.0
  9
$DIMGAP
 40
0.09
  9
$DIMJUST
 70
     0
  9
$DIMSD1
 70
     0
  9
$DIMSD2
 70
     0
  9
$DIMTOLJ
 70
     1
  9
$DIMTZIN
 70
     0
  9
$DIMALTZ
 70
     0
  9
$DIMALTTZ
 70
     0
  9
$DIMUPT
 70
     0
  9
$DIMDEC
 70
     4
  9
$DIMTDEC
 70
     4
  9
$DIMALTU
 70
     2
  9
$DIMALTTD
 70
     2
  9
$DIMTXSTY
  7
Standard
  9
$DIMAUNIT
 70
     0
  9
$DIMADEC
 70
     0
  9
$DIMALTRND
 40
0.0
  9
$DIMAZIN
 70
     0
  9
$DIMDSEP
 70
    46
  9
$DIMATFIT
 70
     3
  9
$DIMFRAC
 70
     0
  9
$DIMLDRBLK
  1

  9
$DIMLUNIT
 70
     2
  9
$DIMLWD
 70
    -2
  9
$DIMLWE
 70
    -2
  9
$DIMTMOVE
 70
     0
  9
$LUNITS
 70
     2
  9
$LUPREC
 70
     4
  9
$SKETCHINC
 40
0.1
  9
$FILLETRAD
 40
0.0
  9
$AUNITS
 70
     0
  9
$AUPREC
 70
     0
  9
$MENU
  1
.
  9
$ELEVATION
 40
0.0
  9
$PELEVATION
 40
0.0
  9
$THICKNESS
 40
0.0
  9
$LIMCHECK
 70
     0
  9
$CHAMFERA
 40
0.0
  9
$CHAMFERB
 40
0.0
  9
$CHAMFERC
 40
0.0
  9
$CHAMFERD
 40
0.0
  9
$SKPOLY
 70
     0
  9
$TDCREATE
 40
2454745.717667639
  9
$TDUCREATE
 40
2454745.634334305
  9
$TDUPDATE
 40
2454745.812926608
  9
$TDUUPDATE
 40
2454745.729593275
  9
$TDINDWG
 40
0.0952589699
  9
$TDUSRTIMER
 40
0.0952589699
  9
$USRTIMER
 70
     1
  9
$ANGBASE
 50
0.0
  9
$ANGDIR
 70
     0
  9
$PDMODE
 70
     0
  9
$PDSIZE
 40
0.0
  9
$PLINEWID
 40
0.0
  9
$SPLFRAME
 70
     0
  9
$SPLINETYPE
 70
     6
  9
$SPLINESEGS
 70
     8
  9
$HANDSEED
  5
69C
  9
$SURFTAB1
 70
     6
  9
$SURFTAB2
 70
     6
  9
$SURFTYPE
 70
     6
  9
$SURFU
 70
     6
  9
$SURFV
 70
     6
  9
$UCSBASE
  2

  9
$UCSNAME
  2

  9
$UCSORG
 10
0.0
 20
0.0
 30
0.0
  9
$UCSXDIR
 10
1.0
 20
0.0
 30
0.0
  9
$UCSYDIR
 10
0.0
 20
1.0
 30
0.0
  9
$UCSORTHOREF
  2

  9
$UCSORTHOVIEW
 70
     1
  9
$UCSORGTOP
 10
0.0
 20
0.0
 30
0.0
  9
$UCSORGBOTTOM
 10
0.0
 20
0.0
 30
0.0
  9
$UCSORGLEFT
 10
0.0
 20
0.0
 30
0.0
  9
$UCSORGRIGHT
 10
0.0
 20
0.0
 30
0.0
  9
$UCSORGFRONT
 10
0.0
 20
0.0
 30
0.0
  9
$UCSORGBACK
 10
0.0
 20
0.0
 30
0.0
  9
$PUCSBASE
  2

  9
$PUCSNAME
  2

  9
$PUCSORG
 10
0.0
 20
0.0
 30
0.0
  9
$PUCSXDIR
 10
1.0
 20
0.0
 30
0.0
  9
$PUCSYDIR
 10
0.0
 20
1.0
 30
0.0
  9
$PUCSORTHOREF
  2

  9
$PUCSORTHOVIEW
 70
     0
  9
$PUCSORGTOP
 10
0.0
 20
0.0
 30
0.0
  9
$PUCSORGBOTTOM
 10
0.0
 20
0.0
 30
0.0
  9
$PUCSORGLEFT
 10
0.0
 20
0.0
 30
0.0
  9
$PUCSORGRIGHT
 10
0.0
 20
0.0
 30
0.0
  9
$PUCSORGFRONT
 10
0.0
 20
0.0
 30
0.0
  9
$PUCSORGBACK
 10
0.0
 20
0.0
 30
0.0
  9
$USERI1
 70
     0
  9
$USERI2
 70
     0
  9
$USERI3
 70
     0
  9
$USERI4
 70
     0
  9
$USERI5
 70
     0
  9
$USERR1
 40
0.0
  9
$USERR2
 40
0.0
  9
$USERR3
 40
0.0
  9
$USERR4
 40
0.0
  9
$USERR5
 40
0.0
  9
$WORLDVIEW
 70
     1
  9
$SHADEDGE
 70
     3
  9
$SHADEDIF
 70
    70
  9
$TILEMODE
 70
     1
  9
$MAXACTVP
 70
    64
  9
$PINSBASE
 10
0.0
 20
0.0
 30
0.0
  9
$PLIMCHECK
 70
     0
  9
$PEXTMIN
 10
1.000000000000000E+20
 20
1.000000000000000E+20
 30
1.000000000000000E+20
  9
$PEXTMAX
 10
-1.000000000000000E+20
 20
-1.000000000000000E+20
 30
-1.000000000000000E+20
  9
$PLIMMIN
 10
0.0
 20
0.0
  9
$PLIMMAX
 10
12.0
 20
9.0
  9
$UNITMODE
 70
     0
  9
$VISRETAIN
 70
     1
  9
$PLINEGEN
 70
     0
  9
$PSLTSCALE
 70
     1
  9
$TREEDEPTH
 70
  3020
  9
$CMLSTYLE
  2
Standard
  9
$CMLJUST
 70
     0
  9
$CMLSCALE
 40
1.0
  9
$PROXYGRAPHICS
 70
     1
  9
$MEASUREMENT
 70
     0
  9
$CELWEIGHT
370
    -1
  9
$ENDCAPS
280
     0
  9
$JOINSTYLE
280
     0
  9
$LWDISPLAY
290
     0
  9
$INSUNITS
 70
     0
  9
$HYPERLINKBASE
  1

  9
$STYLESHEET
  1

  9
$XEDIT
290
     1
  9
$CEPSNTYPE
380
     0
  9
$PSTYLEMODE
290
     1
  9
$FINGERPRINTGUID
  2
{54059ACF-1E1F-4CB0-BBF0-E7A9C0B5878B}
  9
$VERSIONGUID
  2
{41564F51-77BE-44F7-BB44-E9654B5A9793}
  9
$EXTNAMES
290
     1
  9
$PSVPSCALE
 40
0.0
  9
$OLESTARTUP
290
     0
  0
ENDSEC
  0
SECTION
  2
CLASSES
  0
CLASS
  1
ACDBDICTIONARYWDFLT
  2
AcDbDictionaryWithDefault
  3
AutoCAD 2000
 90
        0
280
     0
281
     0
  0
CLASS
  1
ACDBPLACEHOLDER
  2
AcDbPlaceHolder
  3
AutoCAD 2000
 90
        0
280
     0
281
     0
  0
CLASS
  1
LAYOUT
  2
AcDbLayout
  3
AutoCAD 2000
 90
        0
280
     0
281
     0
  0
CLASS
  1
DICTIONARYVAR
  2
AcDbDictionaryVar
  3
AutoCAD 2000
 90
        0
280
     0
281
     0
  0
ENDSEC
  0
SECTION
  2
TABLES
  0
TABLE
  2
VPORT
  5
8
330
0
100
AcDbSymbolTable
 70
     3
  0
VPORT
  5
69B
330
8
100
AcDbSymbolTableRecord
100
AcDbViewportTableRecord
  2
*Active
 70
     0
 10
0.0
 20
0.0
 11
1.0
 21
1.0
 12
158.4999999999999
 22
412.5
 13
0.0
 23
0.0
 14
1.0
 24
1.0
 15
0.0
 25
0.0
 16
0.0
 26
0.0
 36
1.0
 17
0.0
 27
0.0
 37
0.0
 40
831.3299232736573
 41
2.078104993597951
 42
50.0
 43
0.0
 44
0.0
 50
0.0
 51
0.0
 71
     0
 72
   100
 73
     1
 74
     3
 75
     0
 76
     0
 77
     0
 78
     0
281
     0
 65
     1
110
0.0
120
0.0
130
0.0
111
1.0
121
0.0
131
0.0
112
0.0
122
1.0
132
0.0
 79
     1
146
0.0
  0
ENDTAB
  0
TABLE
  2
LTYPE
  5
5
330
0
100
AcDbSymbolTable
 70
     1
  0
LTYPE
  5
13
330
5
100
AcDbSymbolTableRecord
100
AcDbLinetypeTableRecord
  2
ByBlock
 70
     0
  3

 72
    65
 73
     0
 40
0.0
  0
LTYPE
  5
14
330
5
100
AcDbSymbolTableRecord
100
AcDbLinetypeTableRecord
  2
ByLayer
 70
     0
  3

 72
    65
 73
     0
 40
0.0
  0
LTYPE
  5
15
330
5
100
AcDbSymbolTableRecord
100
AcDbLinetypeTableRecord
  2
Continuous
 70
     0
  3
Solid line
 72
    65
 73
     0
 40
0.0
  0
ENDTAB
  0
TABLE
  2
LAYER
  5
2
330
0
100
AcDbSymbolTable
 70
     1
  0
LAYER
  5
10
330
2
100
AcDbSymbolTableRecord
100
AcDbLayerTableRecord
  2
0
 70
     0
 62
     7
  6
Continuous
370
    -3
390
F
  0
ENDTAB
  0
TABLE
  2
STYLE
  5
3
330
0
100
AcDbSymbolTable
 70
     1
  0
STYLE
  5
11
330
3
100
AcDbSymbolTableRecord
100
AcDbTextStyleTableRecord
  2
Standard
 70
     0
 40
0.0
 41
1.0
 50
0.0
 71
     0
 42
0.2
  3
txt
  4

  0
ENDTAB
  0
TABLE
  2
VIEW
  5
6
330
0
100
AcDbSymbolTable
 70
     0
  0
ENDTAB
  0
TABLE
  2
UCS
  5
7
330
0
100
AcDbSymbolTable
 70
     0
  0
ENDTAB
  0
TABLE
  2
APPID
  5
9
330
0
100
AcDbSymbolTable
 70
     1
  0
APPID
  5
12
330
9
100
AcDbSymbolTableRecord
100
AcDbRegAppTableRecord
  2
ACAD
 70
     0
  0
ENDTAB
  0
TABLE
  2
DIMSTYLE
  5
A
330
0
100
AcDbSymbolTable
 70
     1
100
AcDbDimStyleTable
 71
     0
  0
DIMSTYLE
105
4DA
330
A
100
AcDbSymbolTableRecord
100
AcDbDimStyleTableRecord
  2
Standard
 70
     0
340
11
  0
ENDTAB
  0
TABLE
  2
BLOCK_RECORD
  5
1
330
0
100
AcDbSymbolTable
 70
     0
  0
BLOCK_RECORD
  5
1E
330
1
100
AcDbSymbolTableRecord
100
AcDbBlockTableRecord
  2
*Model_Space
340
21
  0
BLOCK_RECORD
  5
1A
330
1
100
AcDbSymbolTableRecord
100
AcDbBlockTableRecord
  2
*Paper_Space
340
1D
  0
ENDTAB
  0
ENDSEC
  0
SECTION
  2
BLOCKS
  0
BLOCK
  5
1F
330
1E
100
AcDbEntity
  8
0
100
AcDbBlockBegin
  2
*Model_Space
 70
     0
 10
0.0
 20
0.0
 30
0.0
  3
*Model_Space
  1

  0
ENDBLK
  5
20
330
1E
100
AcDbEntity
  8
0
100
AcDbBlockEnd
  0
BLOCK
  5
1B
330
1A
100
AcDbEntity
 67
     1
  8
0
100
AcDbBlockBegin
  2
*Paper_Space
 70
     0
 10
0.0
 20
0.0
 30
0.0
  3
*Paper_Space
  1

  0
ENDBLK
  5
1C
330
1A
100
AcDbEntity
 67
     1
  8
0
100
AcDbBlockEnd
  0
ENDSEC
  0
SECTION
  2
ENTITIES
  0
LINE
  5
22
330
1E
100
AcDbEntity
  8
0
100
AcDbLine
 10
63.1865
 20
14.0
 30
0.0
 11
63.1865
 21
-0.0000000000000114
 31
0.0
  0
LINE
  5
23
330
1E
100
AcDbEntity
  8
0
100
AcDbLine
 10
63.1865
 20
14.0
 30
0.0
 11
65.2745
 21
14.0
 31
0.0
  0
LINE
  5
24
330
1E
100
AcDbEntity
  8
0
100
AcDbLine
 10
106.3385
 20
-0.0000000000000147
 30
0.0
 11
121.1864999999999
 21
-0.0000000000000148
 31
0.0
  0
LINE
  5
25
330
1E
100
AcDbEntity
  8
0
100
AcDbLine
 10
121.1864999999999
 20
-0.0000000000000148
 30
0.0
 11
136.0345
 21
-0.0000000000000147
 31
0.0
  0
LINE
  5
26
330
1E
100
AcDbEntity
  8
0
100
AcDbLine
 10
92.41849999999999
 20
-0.0000000000000144
 30
0.0
 11
106.3385
 21
-0.0000000000000147
 31
0.0
  0
LINE
  5
27
330
1E
100
AcDbEntity
  8
0
100
AcDbLine
 10
80.12249999999999
 20
-0.0000000000000138
 30
0.0
 11
92.41849999999999
 21
-0.0000000000000144
 31
0.0
  0
LINE
  5
28
330
1E
100
AcDbEntity
  8
0
100
AcDbLine
 10
136.0345
 20
-0.0000000000000147
 30
0.0
 11
149.9544999999999
 21
-0.0000000000000144
 31
0.0
  0
LINE
  5
29
330
1E
100
AcDbEntity
  8
0
100
AcDbLine
 10
149.9544999999999
 20
-0.0000000000000144
 30
0.0
 11
162.2504999999999
 21
-0.0000000000000138
 31
0.0
  0
LINE
  5
2A
330
1E
100
AcDbEntity
  8
0
100
AcDbLine
 10
70.8425
 20
-0.000000000000013
 30
0.0
 11
80.12249999999999
 21
-0.0000000000000138
 31
0.0
  0
LINE
  5
2B
330
1E
100
AcDbEntity
  8
0
100
AcDbLine
 10
65.2745
 20
-0.0000000000000122
 30
0.0
 11
70.8425
 21
-0.000000000000013
 31
0.0
  0
LINE
  5
2C
330
1E
100
AcDbEntity
  8
0
100
AcDbLine
 10
162.2504999999999
 20
-0.0000000000000138
 30
0.0
 11
171.5304999999999
 21
-0.000000000000013
 31
0.0
  0
LINE
  5
2D
330
1E
100
AcDbEntity
  8
0
100
AcDbLine
 10
171.5304999999999
 20
-0.000000000000013
 30
0.0
 11
177.0985
 21
-0.0000000000000122
 31
0.0
  0
LINE
  5
2E
330
1E
100
AcDbEntity
  8
0
100
AcDbLine
 10
177.0985
 20
-0.0000000000000122
 30
0.0
 11
179.1865
 21
-0.0000000000000113
 31
0.0
  0
LINE
  5
2F
330
1E
100
AcDbEntity
  8
0
100
AcDbLine
 10
179.1865
 20
-0.0000000000000113
 30
0.0
 11
179.1865
 21
14.0
 31
0.0
  0
LINE
  5
30
330
1E
100
AcDbEntity
  8
0
100
AcDbLine
 10
177.0985
 20
-0.0000000000000104
 30
0.0
 11
179.1865
 21
-0.0000000000000113
 31
0.0
  0
LINE
  5
31
330
1E
100
AcDbEntity
  8
0
100
AcDbLine
 10
70.8425
 20
14.0
 30
0.0
 11
80.12249999999999
 21
14.0
 31
0.0
  0
LINE
  5
32
330
1E
100
AcDbEntity
  8
0
100
AcDbLine
 10
65.2745
 20
14.0
 30
0.0
 11
70.8425
 21
14.0
 31
0.0
  0
LINE
  5
33
330
1E
100
AcDbEntity
  8
0
100
AcDbLine
 10
162.2504999999999
 20
-0.0000000000000088
 30
0.0
 11
171.5304999999999
 21
-0.0000000000000095
 31
0.0
  0
LINE
  5
34
330
1E
100
AcDbEntity
  8
0
100
AcDbLine
 10
171.5304999999999
 20
-0.0000000000000095
 30
0.0
 11
177.0985
 21
-0.0000000000000104
 31
0.0
  0
LINE
  5
35
330
1E
100
AcDbEntity
  8
0
100
AcDbLine
 10
92.41849999999999
 20
14.0
 30
0.0
 11
106.3385
 21
14.0
 31
0.0
  0
LINE
  5
36
330
1E
100
AcDbEntity
  8
0
100
AcDbLine
 10
80.12249999999999
 20
14.0
 30
0.0
 11
92.41849999999999
 21
14.0
 31
0.0
  0
LINE
  5
37
330
1E
100
AcDbEntity
  8
0
100
AcDbLine
 10
136.0345
 20
-0.0000000000000079
 30
0.0
 11
149.9544999999999
 21
-0.0000000000000082
 31
0.0
  0
LINE
  5
38
330
1E
100
AcDbEntity
  8
0
100
AcDbLine
 10
149.9544999999999
 20
-0.0000000000000082
 30
0.0
 11
162.2504999999999
 21
-0.0000000000000088
 31
0.0
  0
LINE
  5
39
330
1E
100
AcDbEntity
  8
0
100
AcDbLine
 10
100.1865
 20
14.0
 30
0.0
 11
100.1865
 21
131.77488160407
 31
0.0
  0
LINE
  5
3A
330
1E
100
AcDbEntity
  8
0
100
AcDbLine
 10
142.1864999999999
 20
14.0
 30
0.0
 11
142.1864999999999
 21
98.5103476443265
 31
0.0
  0
LINE
  5
3B
330
1E
100
AcDbEntity
  8
0
100
AcDbLine
 10
162.2504999999999
 20
14.0
 30
0.0
 11
171.5304999999999
 21
14.0
 31
0.0
  0
LINE
  5
3C
330
1E
100
AcDbEntity
  8
0
100
AcDbLine
 10
121.1864999999999
 20
14.0
 30
0.0
 11
136.0345
 21
14.0
 31
0.0
  0
LINE
  5
3D
330
1E
100
AcDbEntity
  8
0
100
AcDbLine
 10
136.0345
 20
14.0
 30
0.0
 11
149.9544999999999
 21
14.0
 31
0.0
  0
LINE
  5
3E
330
1E
100
AcDbEntity
  8
0
100
AcDbLine
 10
149.9544999999999
 20
14.0
 30
0.0
 11
162.2504999999999
 21
14.0
 31
0.0
  0
LINE
  5
3F
330
1E
100
AcDbEntity
  8
0
100
AcDbLine
 10
171.5304999999999
 20
14.0
 30
0.0
 11
177.0985
 21
14.0
 31
0.0
  0
LINE
  5
40
330
1E
100
AcDbEntity
  8
0
100
AcDbLine
 10
179.1865
 20
14.0
 30
0.0
 11
179.1865
 21
-0.0000000000000114
 31
0.0
  0
LINE
  5
41
330
1E
100
AcDbEntity
  8
0
100
AcDbLine
 10
177.0985
 20
14.0
 30
0.0
 11
179.1865
 21
14.0
 31
0.0
  0
LINE
  5
42
330
1E
100
AcDbEntity
  8
0
100
AcDbLine
 10
121.1864999999999
 20
-0.0000000000000077
 30
0.0
 11
136.0345
 21
-0.0000000000000079
 31
0.0
  0
LINE
  5
43
330
1E
100
AcDbEntity
  8
0
100
AcDbLine
 10
106.3385
 20
14.0
 30
0.0
 11
121.1864999999999
 21
14.0
 31
0.0
  0
LINE
  5
44
330
1E
100
AcDbEntity
  8
0
100
AcDbLine
 10
106.3385
 20
-0.0000000000000079
 30
0.0
 11
121.1864999999999
 21
-0.0000000000000077
 31
0.0
  0
LINE
  5
45
330
1E
100
AcDbEntity
  8
0
100
AcDbLine
 10
92.41849999999999
 20
-0.0000000000000082
 30
0.0
 11
106.3385
 21
-0.0000000000000079
 31
0.0
  0
LINE
  5
46
330
1E
100
AcDbEntity
  8
0
100
AcDbLine
 10
80.12249999999999
 20
-0.0000000000000088
 30
0.0
 11
92.41849999999999
 21
-0.0000000000000082
 31
0.0
  0
LINE
  5
47
330
1E
100
AcDbEntity
  8
0
100
AcDbLine
 10
70.8425
 20
-0.0000000000000095
 30
0.0
 11
80.12249999999999
 21
-0.0000000000000088
 31
0.0
  0
LINE
  5
48
330
1E
100
AcDbEntity
  8
0
100
AcDbLine
 10
65.2745
 20
-0.0000000000000104
 30
0.0
 11
70.8425
 21
-0.0000000000000095
 31
0.0
  0
LINE
  5
49
330
1E
100
AcDbEntity
  8
0
100
AcDbLine
 10
63.1865
 20
-0.0000000000000113
 30
0.0
 11
65.2745
 21
-0.0000000000000104
 31
0.0
  0
LINE
  5
4A
330
1E
100
AcDbEntity
  8
0
100
AcDbLine
 10
63.1865
 20
-0.0000000000000113
 30
0.0
 11
65.2745
 21
-0.0000000000000122
 31
0.0
  0
LINE
  5
4B
330
1E
100
AcDbEntity
  8
0
100
AcDbLine
 10
63.1865
 20
-0.0000000000000113
 30
0.0
 11
63.1865
 21
14.0
 31
0.0
  0
LINE
  5
4C
330
1E
100
AcDbEntity
  8
0
100
AcDbLine
 10
142.1864999999999
 20
98.5103476443264
 30
0.0
 11
142.1864999999999
 21
14.0
 31
0.0
  0
LINE
  5
4D
330
1E
100
AcDbEntity
  8
0
100
AcDbLine
 10
100.1865
 20
131.77488160407
 30
0.0
 11
100.1865
 21
14.0
 31
0.0
  0
LINE
  5
4E
330
1E
100
AcDbEntity
  8
0
100
AcDbLine
 10
100.1865
 20
158.899733892567
 30
0.0
 11
100.1865
 21
341.1001026869369
 31
0.0
  0
LINE
  5
4F
330
1E
100
AcDbEntity
  8
0
100
AcDbLine
 10
76.0716
 20
251.6859999999999
 30
0.0
 11
76.983
 21
232.559
 31
0.0
  0
LINE
  5
50
330
1E
100
AcDbEntity
  8
0
100
AcDbLine
 10
76.0716
 20
251.6859999999999
 30
0.0
 11
77.5281
 21
270.813
 31
0.0
  0
LINE
  5
51
330
1E
100
AcDbEntity
  8
0
100
AcDbLine
 10
61.7531
 20
271.61
 30
0.0
 11
65.9332
 21
294.9209999999999
 31
0.0
  0
LINE
  5
52
330
1E
100
AcDbEntity
  8
0
100
AcDbLine
 10
0.1865
 20
611.0
 30
0.0
 11
1.1865
 21
610.0
 31
0.0
  0
LINE
  5
53
330
1E
100
AcDbEntity
  8
0
100
AcDbLine
 10
0.1865
 20
611.0
 30
0.0
 11
0.1865
 21
657.0
 31
0.0
  0
LINE
  5
5D
330
1E
100
AcDbEntity
  8
0
100
AcDbLine
 10
1.186500000000019
 20
658.0
 30
0.0
 11
241.1865
 21
658.0
 31
0.0
  0
LINE
  5
5E
330
1E
100
AcDbEntity
  8
0
100
AcDbLine
 10
1.186500000000019
 20
610.0
 30
0.0
 11
90.18649999999999
 21
610.0
 31
0.0
  0
LINE
  5
5F
330
1E
100
AcDbEntity
  8
0
100
AcDbLine
 10
1.186500000000019
 20
610.0
 30
0.0
 11
241.1865
 21
610.0
 31
0.0
  0
LINE
  5
60
330
1E
100
AcDbEntity
  8
0
100
AcDbLine
 10
1.1865
 20
610.0
 30
0.0
 11
90.18649999999999
 21
610.0
 31
0.0
  0
LINE
  5
61
330
1E
100
AcDbEntity
  8
0
100
AcDbLine
 10
1.1865
 20
610.0
 30
0.0
 11
241.1865
 21
610.0
 31
0.0
  0
LINE
  5
64
330
1E
100
AcDbEntity
  8
0
100
AcDbLine
 10
1.1865
 20
658.0
 30
0.0
 11
241.1865
 21
658.0
 31
0.0
  0
LINE
  5
65
330
1E
100
AcDbEntity
  8
0
100
AcDbLine
 10
0.1865
 20
657.0
 30
0.0
 11
1.1865
 21
658.0
 31
0.0
  0
LINE
  5
66
330
1E
100
AcDbEntity
  8
0
100
AcDbLine
 10
0.1865
 20
657.0
 30
0.0
 11
0.1865
 21
611.0
 31
0.0
  0
LINE
  5
68
330
1E
100
AcDbEntity
  8
0
100
AcDbLine
 10
65.9332
 20
294.9209999999999
 30
0.0
 11
72.68429999999999
 21
318.6309999999999
 31
0.0
  0
LINE
  5
69
330
1E
100
AcDbEntity
  8
0
100
AcDbLine
 10
72.68429999999999
 20
318.6309999999999
 30
0.0
 11
83.57779999999999
 21
342.24
 31
0.0
  0
LINE
  5
6A
330
1E
100
AcDbEntity
  8
0
100
AcDbLine
 10
60.2852
 20
251.6859999999999
 30
0.0
 11
61.18529999999999
 21
231.762
 31
0.0
  0
LINE
  5
6B
330
1E
100
AcDbEntity
  8
0
100
AcDbLine
 10
60.2852
 20
251.6859999999999
 30
0.0
 11
61.7531
 21
271.61
 31
0.0
  0
LINE
  5
6C
330
1E
100
AcDbEntity
  8
0
100
AcDbLine
 10
77.5281
 20
270.813
 30
0.0
 11
81.4825
 21
292.132
 31
0.0
  0
LINE
  5
6D
330
1E
100
AcDbEntity
  8
0
100
AcDbLine
 10
76.983
 20
232.559
 30
0.0
 11
80.3298
 21
211.2409999999999
 31
0.0
  0
LINE
  5
6E
330
1E
100
AcDbEntity
  8
0
100
AcDbLine
 10
61.18529999999999
 20
231.762
 30
0.0
 11
64.70100000000001
 21
208.4509999999999
 31
0.0
  0
LINE
  5
6F
330
1E
100
AcDbEntity
  8
0
100
AcDbLine
 10
81.4825
 20
292.132
 30
0.0
 11
87.4059
 21
313.152
 31
0.0
  0
LINE
  5
70
330
1E
100
AcDbEntity
  8
0
100
AcDbLine
 10
83.57779999999999
 20
342.24
 30
0.0
 11
127.0695
 21
440.32
 31
0.0
  0
LINE
  5
71
330
1E
100
AcDbEntity
  8
0
100
AcDbLine
 10
80.3298
 20
211.2409999999999
 30
0.0
 11
85.65409999999999
 21
190.2209999999999
 31
0.0
  0
LINE
  5
72
330
1E
100
AcDbEntity
  8
0
100
AcDbLine
 10
64.70100000000001
 20
208.4509999999999
 30
0.0
 11
70.77639999999999
 21
184.742
 31
0.0
  0
LINE
  5
73
330
1E
100
AcDbEntity
  8
0
100
AcDbLine
 10
86.1865
 20
661.5
 30
0.0
 11
87.1865
 21
661.5
 31
0.0
  0
LINE
  5
74
330
1E
100
AcDbEntity
  8
0
100
AcDbLine
 10
86.1865
 20
661.5
 30
0.0
 11
87.68649999999999
 21
660.0
 31
0.0
  0
LINE
  5
75
330
1E
100
AcDbEntity
  8
0
100
AcDbLine
 10
86.1865
 20
661.5
 30
0.0
 11
86.1865
 21
693.5
 31
0.0
  0
LINE
  5
76
330
1E
100
AcDbEntity
  8
0
100
AcDbLine
 10
86.1865
 20
693.5
 30
0.0
 11
86.48650000000001
 21
694.2
 31
0.0
  0
LINE
  5
77
330
1E
100
AcDbEntity
  8
0
100
AcDbLine
 10
86.1865
 20
693.5
 30
0.0
 11
86.1865
 21
661.5
 31
0.0
  0
LINE
  5
78
330
1E
100
AcDbEntity
  8
0
100
AcDbLine
 10
87.68649999999999
 20
660.0
 30
0.0
 11
88.5865
 21
660.0
 31
0.0
  0
LINE
  5
79
330
1E
100
AcDbEntity
  8
0
100
AcDbLine
 10
87.1865
 20
661.5
 30
0.0
 11
89.98650000000001
 21
661.5
 31
0.0
  0
LINE
  5
7A
330
1E
100
AcDbEntity
  8
0
100
AcDbLine
 10
86.48650000000001
 20
694.2
 30
0.0
 11
86.9865
 21
694.7
 31
0.0
  0
LINE
  5
7B
330
1E
100
AcDbEntity
  8
0
100
AcDbLine
 10
86.9865
 20
694.7
 30
0.0
 11
87.68649999999999
 21
695.0
 31
0.0
  0
LINE
  5
7C
330
1E
100
AcDbEntity
  8
0
100
AcDbLine
 10
88.5865
 20
660.0
 30
0.0
 11
91.1865
 21
660.0
 31
0.0
  0
LINE
  5
7D
330
1E
100
AcDbEntity
  8
0
100
AcDbLine
 10
87.68649999999999
 20
695.0
 30
0.0
 11
140.6864999999999
 21
695.0
 31
0.0
  0
LINE
  5
7E
330
1E
100
AcDbEntity
  8
0
100
AcDbLine
 10
89.6865
 20
658.0
 30
0.0
 11
89.6865
 21
659.0
 31
0.0
  0
LINE
  5
7F
330
1E
100
AcDbEntity
  8
0
100
AcDbLine
 10
90.88649999999999
 20
606.0
 30
0.0
 11
91.68649999999999
 21
606.0
 31
0.0
  0
LINE
  5
80
330
1E
100
AcDbEntity
  8
0
100
AcDbLine
 10
90.3865
 20
606.0
 30
0.0
 11
90.88649999999999
 21
606.0
 31
0.0
  0
LINE
  5
81
330
1E
100
AcDbEntity
  8
0
100
AcDbLine
 10
90.18649999999999
 20
610.0
 30
0.0
 11
90.18649999999999
 21
606.0
 31
0.0
  0
LINE
  5
82
330
1E
100
AcDbEntity
  8
0
100
AcDbLine
 10
90.18649999999999
 20
606.0
 30
0.0
 11
90.3865
 21
606.0
 31
0.0
  0
LINE
  5
83
330
1E
100
AcDbEntity
  8
0
100
AcDbLine
 10
90.18649999999999
 20
606.0
 30
0.0
 11
90.18649999999999
 21
610.0
 31
0.0
  0
LINE
  5
84
330
1E
100
AcDbEntity
  8
0
100
AcDbLine
 10
93.93649999999999
 20
606.0
 30
0.0
 11
95.18649999999999
 21
606.0
 31
0.0
  0
LINE
  5
85
330
1E
100
AcDbEntity
  8
0
100
AcDbLine
 10
92.7453
 20
606.0
 30
0.0
 11
93.93649999999999
 21
606.0
 31
0.0
  0
LINE
  5
86
330
1E
100
AcDbEntity
  8
0
100
AcDbLine
 10
91.68649999999999
 20
606.0
 30
0.0
 11
92.7453
 21
606.0
 31
0.0
  0
LINE
  5
87
330
1E
100
AcDbEntity
  8
0
100
AcDbLine
 10
91.1865
 20
660.0
 30
0.0
 11
95.3865
 21
660.0
 31
0.0
  0
LINE
  5
88
330
1E
100
AcDbEntity
  8
0
100
AcDbLine
 10
94.3865
 20
661.5
 30
0.0
 11
100.2865
 21
661.5
 31
0.0
  0
LINE
  5
89
330
1E
100
AcDbEntity
  8
0
100
AcDbLine
 10
89.98650000000001
 20
661.5
 30
0.0
 11
94.3865
 21
661.5
 31
0.0
  0
LINE
  5
8B
330
1E
100
AcDbEntity
  8
0
100
AcDbLine
 10
89.6865
 20
659.0
 30
0.0
 11
89.6865
 21
658.0
 31
0.0
  0
LINE
  5
8C
330
1E
100
AcDbEntity
  8
0
100
AcDbLine
 10
89.6865
 20
659.0
 30
0.0
 11
89.85316666666669
 21
660.0
 31
0.0
  0
LINE
  5
8D
330
1E
100
AcDbEntity
  8
0
100
AcDbLine
 10
87.4059
 20
313.152
 30
0.0
 11
97.17870000000001
 21
334.2709999999999
 31
0.0
  0
LINE
  5
8E
330
1E
100
AcDbEntity
  8
0
100
AcDbLine
 10
85.65409999999999
 20
190.2209999999999
 30
0.0
 11
94.82499999999999
 21
169.1019999999999
 31
0.0
  0
LINE
  5
8F
330
1E
100
AcDbEntity
  8
0
100
AcDbLine
 10
70.77639999999999
 20
184.742
 30
0.0
 11
80.997
 21
161.132
 31
0.0
  0
LINE
  5
90
330
1E
100
AcDbEntity
  8
0
100
AcDbLine
 10
95.18649999999999
 20
606.0
 30
0.0
 11
114.1864999999999
 21
606.0
 31
0.0
  0
LINE
  5
91
330
1E
100
AcDbEntity
  8
0
100
AcDbLine
 10
100.1865
 20
379.694992469828
 30
0.0
 11
100.1865
 21
606.0
 31
0.0
  0
LINE
  5
92
330
1E
100
AcDbEntity
  8
0
100
AcDbLine
 10
100.1865
 20
606.0
 30
0.0
 11
100.1865
 21
379.694992469828
 31
0.0
  0
LINE
  5
93
330
1E
100
AcDbEntity
  8
0
100
AcDbLine
 10
100.1865
 20
341.1001026869369
 30
0.0
 11
100.1865
 21
158.899733892567
 31
0.0
  0
LINE
  5
94
330
1E
100
AcDbEntity
  8
0
100
AcDbLine
 10
95.3865
 20
660.0
 30
0.0
 11
100.9865
 21
660.0
 31
0.0
  0
LINE
  5
95
330
1E
100
AcDbEntity
  8
0
100
AcDbLine
 10
100.9865
 20
660.0
 30
0.0
 11
107.2864999999999
 21
660.0
 31
0.0
  0
LINE
  5
96
330
1E
100
AcDbEntity
  8
0
100
AcDbLine
 10
100.2865
 20
661.5
 30
0.0
 11
106.9865
 21
661.5
 31
0.0
  0
LINE
  5
97
330
1E
100
AcDbEntity
  8
0
100
AcDbLine
 10
97.17870000000001
 20
334.2709999999999
 30
0.0
 11
139.7624999999999
 21
430.9559999999999
 31
0.0
  0
LINE
  5
98
330
1E
100
AcDbEntity
  8
0
100
AcDbLine
 10
94.82499999999999
 20
169.1019999999999
 30
0.0
 11
104.7194999999999
 21
150.274
 31
0.0
  0
LINE
  5
99
330
1E
100
AcDbEntity
  8
0
100
AcDbLine
 10
80.997
 20
161.132
 30
0.0
 11
92.53579999999999
 21
140.013
 31
0.0
  0
LINE
  5
9A
330
1E
100
AcDbEntity
  8
0
100
AcDbLine
 10
114.1864999999999
 20
606.0
 30
0.0
 11
133.1865
 21
606.0
 31
0.0
  0
LINE
  5
9B
330
1E
100
AcDbEntity
  8
0
100
AcDbLine
 10
114.1864999999999
 20
660.0
 30
0.0
 11
121.0865
 21
660.0
 31
0.0
  0
LINE
  5
9C
330
1E
100
AcDbEntity
  8
0
100
AcDbLine
 10
112.9064999999999
 20
682.1799999999999
 30
0.0
 11
114.1864999999999
 21
682.0
 31
0.0
  0
LINE
  5
9D
330
1E
100
AcDbEntity
  8
0
100
AcDbLine
 10
111.7064999999999
 20
682.66
 30
0.0
 11
112.9064999999999
 21
682.1799999999999
 31
0.0
  0
LINE
  5
9E
330
1E
100
AcDbEntity
  8
0
100
AcDbLine
 10
110.6465
 20
683.46
 30
0.0
 11
111.7064999999999
 21
682.66
 31
0.0
  0
LINE
  5
9F
330
1E
100
AcDbEntity
  8
0
100
AcDbLine
 10
109.8465
 20
684.52
 30
0.0
 11
110.6465
 21
683.46
 31
0.0
  0
LINE
  5
A0
330
1E
100
AcDbEntity
  8
0
100
AcDbLine
 10
109.3665
 20
685.72
 30
0.0
 11
109.8465
 21
684.52
 31
0.0
  0
LINE
  5
A1
330
1E
100
AcDbEntity
  8
0
100
AcDbLine
 10
114.1864999999999
 20
682.0
 30
0.0
 11
115.4665
 21
682.1799999999999
 31
0.0
  0
LINE
  5
A2
330
1E
100
AcDbEntity
  8
0
100
AcDbLine
 10
114.1864999999999
 20
692.0
 30
0.0
 11
115.4665
 21
691.82
 31
0.0
  0
LINE
  5
A3
330
1E
100
AcDbEntity
  8
0
100
AcDbLine
 10
112.9064999999999
 20
691.82
 30
0.0
 11
114.1864999999999
 21
692.0
 31
0.0
  0
LINE
  5
A4
330
1E
100
AcDbEntity
  8
0
100
AcDbLine
 10
111.7064999999999
 20
691.34
 30
0.0
 11
112.9064999999999
 21
691.82
 31
0.0
  0
LINE
  5
A5
330
1E
100
AcDbEntity
  8
0
100
AcDbLine
 10
110.6465
 20
690.54
 30
0.0
 11
111.7064999999999
 21
691.34
 31
0.0
  0
LINE
  5
A6
330
1E
100
AcDbEntity
  8
0
100
AcDbLine
 10
109.8465
 20
689.48
 30
0.0
 11
110.6465
 21
690.54
 31
0.0
  0
LINE
  5
A7
330
1E
100
AcDbEntity
  8
0
100
AcDbLine
 10
109.3665
 20
688.2799999999999
 30
0.0
 11
109.8465
 21
689.48
 31
0.0
  0
LINE
  5
A8
330
1E
100
AcDbEntity
  8
0
100
AcDbLine
 10
109.1865
 20
687.0
 30
0.0
 11
109.3665
 21
688.2799999999999
 31
0.0
  0
LINE
  5
A9
330
1E
100
AcDbEntity
  8
0
100
AcDbLine
 10
109.1865
 20
687.0
 30
0.0
 11
109.3665
 21
685.72
 31
0.0
  0
LINE
  5
AA
330
1E
100
AcDbEntity
  8
0
100
AcDbLine
 10
115.4665
 20
682.1799999999999
 30
0.0
 11
116.6665
 21
682.66
 31
0.0
  0
LINE
  5
AB
330
1E
100
AcDbEntity
  8
0
100
AcDbLine
 10
116.6665
 20
682.66
 30
0.0
 11
117.7265
 21
683.46
 31
0.0
  0
LINE
  5
AC
330
1E
100
AcDbEntity
  8
0
100
AcDbLine
 10
117.7265
 20
683.46
 30
0.0
 11
118.5265
 21
684.52
 31
0.0
  0
LINE
  5
AD
330
1E
100
AcDbEntity
  8
0
100
AcDbLine
 10
115.4665
 20
691.82
 30
0.0
 11
116.6665
 21
691.34
 31
0.0
  0
LINE
  5
AE
330
1E
100
AcDbEntity
  8
0
100
AcDbLine
 10
116.6665
 20
691.34
 30
0.0
 11
117.7265
 21
690.54
 31
0.0
  0
LINE
  5
AF
330
1E
100
AcDbEntity
  8
0
100
AcDbLine
 10
117.7265
 20
690.54
 30
0.0
 11
118.5265
 21
689.48
 31
0.0
  0
LINE
  5
B0
330
1E
100
AcDbEntity
  8
0
100
AcDbLine
 10
114.1864999999999
 20
661.5
 30
0.0
 11
121.3864999999999
 21
661.5
 31
0.0
  0
LINE
  5
B1
330
1E
100
AcDbEntity
  8
0
100
AcDbLine
 10
107.2864999999999
 20
660.0
 30
0.0
 11
114.1864999999999
 21
660.0
 31
0.0
  0
LINE
  5
B2
330
1E
100
AcDbEntity
  8
0
100
AcDbLine
 10
106.9865
 20
661.5
 30
0.0
 11
114.1864999999999
 21
661.5
 31
0.0
  0
LINE
  5
B4
330
1E
100
AcDbEntity
  8
0
100
AcDbLine
 10
104.7194999999999
 20
150.274
 30
0.0
 11
118.3194999999999
 21
135.331
 31
0.0
  0
LINE
  5
B5
330
1E
100
AcDbEntity
  8
0
100
AcDbLine
 10
92.53579999999999
 20
140.013
 30
0.0
 11
107.9865
 21
123.3759999999999
 31
0.0
  0
LINE
  5
B6
330
1E
100
AcDbEntity
  8
0
100
AcDbLine
 10
118.5265
 20
684.52
 30
0.0
 11
119.0065
 21
685.72
 31
0.0
  0
LINE
  5
B7
330
1E
100
AcDbEntity
  8
0
100
AcDbLine
 10
119.0065
 20
685.72
 30
0.0
 11
119.1864999999999
 21
687.0
 31
0.0
  0
LINE
  5
B8
330
1E
100
AcDbEntity
  8
0
100
AcDbLine
 10
118.5265
 20
689.48
 30
0.0
 11
119.0065
 21
688.2799999999999
 31
0.0
  0
LINE
  5
B9
330
1E
100
AcDbEntity
  8
0
100
AcDbLine
 10
119.0065
 20
688.2799999999999
 30
0.0
 11
119.1864999999999
 21
687.0
 31
0.0
  0
LINE
  5
BA
330
1E
100
AcDbEntity
  8
0
100
AcDbLine
 10
121.0865
 20
660.0
 30
0.0
 11
127.3865
 21
660.0
 31
0.0
  0
LINE
  5
BB
330
1E
100
AcDbEntity
  8
0
100
AcDbLine
 10
127.3865
 20
660.0
 30
0.0
 11
132.9865
 21
660.0
 31
0.0
  0
LINE
  5
BC
330
1E
100
AcDbEntity
  8
0
100
AcDbLine
 10
132.9865
 20
660.0
 30
0.0
 11
137.1864999999999
 21
660.0
 31
0.0
  0
LINE
  5
BD
330
1E
100
AcDbEntity
  8
0
100
AcDbLine
 10
121.3864999999999
 20
661.5
 30
0.0
 11
128.0865
 21
661.5
 31
0.0
  0
LINE
  5
BE
330
1E
100
AcDbEntity
  8
0
100
AcDbLine
 10
128.0865
 20
661.5
 30
0.0
 11
133.9865
 21
661.5
 31
0.0
  0
LINE
  5
C1
330
1E
100
AcDbEntity
  8
0
100
AcDbLine
 10
133.1865
 20
606.0
 30
0.0
 11
134.4365
 21
606.0
 31
0.0
  0
LINE
  5
C2
330
1E
100
AcDbEntity
  8
0
100
AcDbLine
 10
134.4365
 20
606.0
 30
0.0
 11
135.6274999999999
 21
606.0
 31
0.0
  0
LINE
  5
C3
330
1E
100
AcDbEntity
  8
0
100
AcDbLine
 10
135.6274999999999
 20
606.0
 30
0.0
 11
136.6864999999999
 21
606.0
 31
0.0
  0
LINE
  5
C4
330
1E
100
AcDbEntity
  8
0
100
AcDbLine
 10
133.9865
 20
661.5
 30
0.0
 11
138.3865
 21
661.5
 31
0.0
  0
LINE
  5
C6
330
1E
100
AcDbEntity
  8
0
100
AcDbLine
 10
127.0695
 20
440.32
 30
0.0
 11
136.040533852337
 21
459.446385233336
 31
0.0
  0
LINE
  5
C7
330
1E
100
AcDbEntity
  8
0
100
AcDbLine
 10
118.3194999999999
 20
135.331
 30
0.0
 11
135.6605
 21
119.79
 31
0.0
  0
LINE
  5
C8
330
1E
100
AcDbEntity
  8
0
100
AcDbLine
 10
107.9865
 20
123.3759999999999
 30
0.0
 11
127.5695
 21
105.943
 31
0.0
  0
LINE
  5
C9
330
1E
100
AcDbEntity
  8
0
100
AcDbLine
 10
142.1864999999999
 20
116.4141019896139
 30
0.0
 11
142.1864999999999
 21
436.0818107288509
 31
0.0
  0
LINE
  5
CA
330
1E
100
AcDbEntity
  8
0
100
AcDbLine
 10
142.1864999999999
 20
436.0818107288509
 30
0.0
 11
142.1864999999999
 21
116.4141019896139
 31
0.0
  0
LINE
  5
CB
330
1E
100
AcDbEntity
  8
0
100
AcDbLine
 10
136.6864999999999
 20
606.0
 30
0.0
 11
137.4865
 21
606.0
 31
0.0
  0
LINE
  5
CC
330
1E
100
AcDbEntity
  8
0
100
AcDbLine
 10
138.1864999999999
 20
606.0
 30
0.0
 11
138.1864999999999
 21
610.0
 31
0.0
  0
LINE
  5
CD
330
1E
100
AcDbEntity
  8
0
100
AcDbLine
 10
137.4865
 20
606.0
 30
0.0
 11
137.9865
 21
606.0
 31
0.0
  0
LINE
  5
CE
330
1E
100
AcDbEntity
  8
0
100
AcDbLine
 10
137.9865
 20
606.0
 30
0.0
 11
138.1864999999999
 21
606.0
 31
0.0
  0
LINE
  5
CF
330
1E
100
AcDbEntity
  8
0
100
AcDbLine
 10
139.4144999999999
 20
610.0
 30
0.0
 11
141.4304999999999
 21
610.0
 31
0.0
  0
LINE
  5
D0
330
1E
100
AcDbEntity
  8
0
100
AcDbLine
 10
141.4304999999999
 20
610.0
 30
0.0
 11
142.1864999999999
 21
610.0
 31
0.0
  0
LINE
  5
D1
330
1E
100
AcDbEntity
  8
0
100
AcDbLine
 10
142.1864999999999
 20
476.518161616162
 30
0.0
 11
142.1864999999999
 21
610.0
 31
0.0
  0
LINE
  5
D2
330
1E
100
AcDbEntity
  8
0
100
AcDbLine
 10
142.1864999999999
 20
610.0
 30
0.0
 11
157.2659305953729
 21
610.0
 31
0.0
  0
LINE
  5
D3
330
1E
100
AcDbEntity
  8
0
100
AcDbLine
 10
142.1864999999999
 20
610.0
 30
0.0
 11
157.2659305953729
 21
610.0
 31
0.0
  0
LINE
  5
D4
330
1E
100
AcDbEntity
  8
0
100
AcDbLine
 10
142.1864999999999
 20
610.0
 30
0.0
 11
142.1864999999999
 21
476.518161616162
 31
0.0
  0
LINE
  5
D5
330
1E
100
AcDbEntity
  8
0
100
AcDbLine
 10
138.1864999999999
 20
610.0
 30
0.0
 11
157.2659305953729
 21
610.0
 31
0.0
  0
LINE
  5
D6
330
1E
100
AcDbEntity
  8
0
100
AcDbLine
 10
138.1864999999999
 20
610.0
 30
0.0
 11
157.2659305953729
 21
610.0
 31
0.0
  0
LINE
  5
D7
330
1E
100
AcDbEntity
  8
0
100
AcDbLine
 10
138.1864999999999
 20
610.0
 30
0.0
 11
139.4144999999999
 21
610.0
 31
0.0
  0
LINE
  5
D8
330
1E
100
AcDbEntity
  8
0
100
AcDbLine
 10
138.1864999999999
 20
610.0
 30
0.0
 11
138.1864999999999
 21
606.0
 31
0.0
  0
LINE
  5
D9
330
1E
100
AcDbEntity
  8
0
100
AcDbLine
 10
137.1864999999999
 20
660.0
 30
0.0
 11
139.7864999999999
 21
660.0
 31
0.0
  0
LINE
  5
DA
330
1E
100
AcDbEntity
  8
0
100
AcDbLine
 10
138.3865
 20
661.5
 30
0.0
 11
141.1864999999999
 21
661.5
 31
0.0
  0
LINE
  5
DC
330
1E
100
AcDbEntity
  8
0
100
AcDbLine
 10
139.7864999999999
 20
660.0
 30
0.0
 11
140.6864999999999
 21
660.0
 31
0.0
  0
LINE
  5
DD
330
1E
100
AcDbEntity
  8
0
100
AcDbLine
 10
140.6864999999999
 20
660.0
 30
0.0
 11
142.1864999999999
 21
661.5
 31
0.0
  0
LINE
  5
DE
330
1E
100
AcDbEntity
  8
0
100
AcDbLine
 10
141.1864999999999
 20
661.5
 30
0.0
 11
142.1864999999999
 21
661.5
 31
0.0
  0
LINE
  5
DF
330
1E
100
AcDbEntity
  8
0
100
AcDbLine
 10
142.1864999999999
 20
661.5
 30
0.0
 11
142.1864999999999
 21
693.5
 31
0.0
  0
LINE
  5
E0
330
1E
100
AcDbEntity
  8
0
100
AcDbLine
 10
142.1864999999999
 20
693.5
 30
0.0
 11
142.1864999999999
 21
661.5
 31
0.0
  0
LINE
  5
E1
330
1E
100
AcDbEntity
  8
0
100
AcDbLine
 10
141.8865
 20
694.2
 30
0.0
 11
142.1864999999999
 21
693.5
 31
0.0
  0
LINE
  5
E2
330
1E
100
AcDbEntity
  8
0
100
AcDbLine
 10
141.3865
 20
694.7
 30
0.0
 11
141.8865
 21
694.2
 31
0.0
  0
LINE
  5
E3
330
1E
100
AcDbEntity
  8
0
100
AcDbLine
 10
140.6864999999999
 20
695.0
 30
0.0
 11
141.3865
 21
694.7
 31
0.0
  0
LINE
  5
E4
330
1E
100
AcDbEntity
  8
0
100
AcDbLine
 10
138.6865
 20
659.0
 30
0.0
 11
138.6865
 21
658.0
 31
0.0
  0
LINE
  5
E5
330
1E
100
AcDbEntity
  8
0
100
AcDbLine
 10
138.5198333333329
 20
660.0
 30
0.0
 11
138.6865
 21
659.0
 31
0.0
  0
LINE
  5
E6
330
1E
100
AcDbEntity
  8
0
100
AcDbLine
 10
138.6865
 20
658.0
 30
0.0
 11
138.6865
 21
659.0
 31
0.0
  0
LINE
  5
E7
330
1E
100
AcDbEntity
  8
0
100
AcDbLine
 10
144.3454999999999
 20
482.559
 30
0.0
 11
156.561003440228
 21
536.905226212497
 31
0.0
  0
LINE
  5
E8
330
1E
100
AcDbEntity
  8
0
100
AcDbLine
 10
149.3254999999999
 20
451.178
 30
0.0
 11
157.9464999999999
 21
474.589
 31
0.0
  0
LINE
  5
E9
330
1E
100
AcDbEntity
  8
0
100
AcDbLine
 10
136.040533852337
 20
459.446385233336
 30
0.0
 11
144.3454999999999
 21
482.559
 31
0.0
  0
LINE
  5
EA
330
1E
100
AcDbEntity
  8
0
100
AcDbLine
 10
139.7624999999999
 20
430.9559999999999
 30
0.0
 11
149.3254999999999
 21
451.178
 31
0.0
  0
LINE
  5
EB
330
1E
100
AcDbEntity
  8
0
100
AcDbLine
 10
135.6605
 20
119.79
 30
0.0
 11
152.7994999999999
 21
110.924
 31
0.0
  0
LINE
  5
EC
330
1E
100
AcDbEntity
  8
0
100
AcDbLine
 10
127.5695
 20
105.943
 30
0.0
 11
147.1605
 21
95.9811
 31
0.0
  0
LINE
  5
ED
330
1E
100
AcDbEntity
  8
0
100
AcDbLine
 10
157.2659305953729
 20
610.0
 30
0.0
 11
160.7895
 21
580.099
 31
0.0
  0
LINE
  5
EE
330
1E
100
AcDbEntity
  8
0
100
AcDbLine
 10
160.7895
 20
580.099
 30
0.0
 11
160.8754819183639
 21
580.099
 31
0.0
  0
LINE
  5
EF
330
1E
100
AcDbEntity
  8
0
100
AcDbLine
 10
164.0864999999999
 20
661.0
 30
0.0
 11
166.1864999999999
 21
661.0
 31
0.0
  0
LINE
  5
F0
330
1E
100
AcDbEntity
  8
0
100
AcDbLine
 10
164.0864999999999
 20
661.0
 30
0.0
 11
164.1864999999999
 21
661.0
 31
0.0
  0
LINE
  5
F1
330
1E
100
AcDbEntity
  8
0
100
AcDbLine
 10
162.4864999999999
 20
661.0
 30
0.0
 11
164.0864999999999
 21
661.0
 31
0.0
  0
LINE
  5
F2
330
1E
100
AcDbEntity
  8
0
100
AcDbLine
 10
161.5865
 20
661.0
 30
0.0
 11
162.4864999999999
 21
661.0
 31
0.0
  0
LINE
  5
F3
330
1E
100
AcDbEntity
  8
0
100
AcDbLine
 10
162.6865
 20
672.7
 30
0.0
 11
171.1864999999999
 21
673.0
 31
0.0
  0
LINE
  5
F5
330
1E
100
AcDbEntity
  8
0
100
AcDbLine
 10
161.6864999999999
 20
672.0
 30
0.0
 11
162.6865
 21
672.7
 31
0.0
  0
LINE
  5
F6
330
1E
100
AcDbEntity
  8
0
100
AcDbLine
 10
161.1864999999999
 20
671.0
 30
0.0
 11
161.6864999999999
 21
672.0
 31
0.0
  0
LINE
  5
F7
330
1E
100
AcDbEntity
  8
0
100
AcDbLine
 10
161.1864999999999
 20
671.0
 30
0.0
 11
161.1864999999999
 21
661.0
 31
0.0
  0
LINE
  5
F8
330
1E
100
AcDbEntity
  8
0
100
AcDbLine
 10
161.1864999999999
 20
661.0
 30
0.0
 11
161.5865
 21
661.0
 31
0.0
  0
LINE
  5
F9
330
1E
100
AcDbEntity
  8
0
100
AcDbLine
 10
161.1864999999999
 20
661.0
 30
0.0
 11
161.1864999999999
 21
671.0
 31
0.0
  0
LINE
  5
FA
330
1E
100
AcDbEntity
  8
0
100
AcDbLine
 10
164.4865
 20
661.0
 30
0.0
 11
165.0865
 21
661.0
 31
0.0
  0
LINE
  5
FB
330
1E
100
AcDbEntity
  8
0
100
AcDbLine
 10
164.1864999999999
 20
661.0
 30
0.0
 11
164.4865
 21
661.0
 31
0.0
  0
LINE
  5
FC
330
1E
100
AcDbEntity
  8
0
100
AcDbLine
 10
164.1864999999999
 20
661.0
 30
0.0
 11
164.1864999999999
 21
658.0
 31
0.0
  0
LINE
  5
FD
330
1E
100
AcDbEntity
  8
0
100
AcDbLine
 10
164.1864999999999
 20
658.0
 30
0.0
 11
164.1864999999999
 21
661.0
 31
0.0
  0
LINE
  5
FE
330
1E
100
AcDbEntity
  8
0
100
AcDbLine
 10
158.8605
 20
552.591
 30
0.0
 11
160.8047598475219
 21
580.099
 31
0.0
  0
LINE
  5
FF
330
1E
100
AcDbEntity
  8
0
100
AcDbLine
 10
156.561003440228
 20
536.905226212497
 30
0.0
 11
158.8605
 21
552.591
 31
0.0
  0
LINE
  5
100
330
1E
100
AcDbEntity
  8
0
100
AcDbLine
 10
166.1864999999999
 20
661.0
 30
0.0
 11
168.5864999999999
 21
661.0
 31
0.0
  0
LINE
  5
101
330
1E
100
AcDbEntity
  8
0
100
AcDbLine
 10
171.1864999999999
 20
661.0
 30
0.0
 11
172.9865
 21
661.0
 31
0.0
  0
LINE
  5
102
330
1E
100
AcDbEntity
  8
0
100
AcDbLine
 10
171.1864999999999
 20
661.0
 30
0.0
 11
173.7865
 21
661.0
 31
0.0
  0
LINE
  5
103
330
1E
100
AcDbEntity
  8
0
100
AcDbLine
 10
168.5864999999999
 20
661.0
 30
0.0
 11
171.1864999999999
 21
661.0
 31
0.0
  0
LINE
  5
104
330
1E
100
AcDbEntity
  8
0
100
AcDbLine
 10
169.3865
 20
661.0
 30
0.0
 11
171.1864999999999
 21
661.0
 31
0.0
  0
LINE
  5
105
330
1E
100
AcDbEntity
  8
0
100
AcDbLine
 10
167.6865
 20
661.0
 30
0.0
 11
169.3865
 21
661.0
 31
0.0
  0
LINE
  5
106
330
1E
100
AcDbEntity
  8
0
100
AcDbLine
 10
171.1864999999999
 20
673.0
 30
0.0
 11
179.6864999999999
 21
672.7
 31
0.0
  0
LINE
  5
108
330
1E
100
AcDbEntity
  8
0
100
AcDbLine
 10
166.2865
 20
661.0
 30
0.0
 11
167.6865
 21
661.0
 31
0.0
  0
LINE
  5
109
330
1E
100
AcDbEntity
  8
0
100
AcDbLine
 10
165.0865
 20
661.0
 30
0.0
 11
166.2865
 21
661.0
 31
0.0
  0
LINE
  5
10A
330
1E
100
AcDbEntity
  8
0
100
AcDbLine
 10
170.4134999999999
 20
525.494
 30
0.0
 11
174.4105
 21
549.802
 31
0.0
  0
LINE
  5
10B
330
1E
100
AcDbEntity
  8
0
100
AcDbLine
 10
165.0204999999999
 20
500.1909999999999
 30
0.0
 11
170.4134999999999
 21
525.494
 31
0.0
  0
LINE
  5
10C
330
1E
100
AcDbEntity
  8
0
100
AcDbLine
 10
157.9464999999999
 20
474.589
 30
0.0
 11
165.0204999999999
 21
500.1909999999999
 31
0.0
  0
LINE
  5
10D
330
1E
100
AcDbEntity
  8
0
100
AcDbLine
 10
152.7994999999999
 20
110.924
 30
0.0
 11
172.4464999999999
 21
104.847
 31
0.0
  0
LINE
  5
10E
330
1E
100
AcDbEntity
  8
0
100
AcDbLine
 10
147.1605
 20
95.9811
 30
0.0
 11
169.4594999999999
 21
89.10729999999999
 31
0.0
  0
LINE
  5
10F
330
1E
100
AcDbEntity
  8
0
100
AcDbLine
 10
173.7865
 20
661.0
 30
0.0
 11
176.1865
 21
661.0
 31
0.0
  0
LINE
  5
110
330
1E
100
AcDbEntity
  8
0
100
AcDbLine
 10
172.9865
 20
661.0
 30
0.0
 11
174.6864999999999
 21
661.0
 31
0.0
  0
LINE
  5
113
330
1E
100
AcDbEntity
  8
0
100
AcDbLine
 10
176.7125
 20
580.0969999999999
 30
0.0
 11
180.2431652221739
 21
610.0
 31
0.0
  0
LINE
  5
115
330
1E
100
AcDbEntity
  8
0
100
AcDbLine
 10
176.1865
 20
661.0
 30
0.0
 11
178.2864999999999
 21
661.0
 31
0.0
  0
LINE
  5
116
330
1E
100
AcDbEntity
  8
0
100
AcDbLine
 10
174.6864999999999
 20
661.0
 30
0.0
 11
176.0865
 21
661.0
 31
0.0
  0
LINE
  5
117
330
1E
100
AcDbEntity
  8
0
100
AcDbLine
 10
176.0865
 20
661.0
 30
0.0
 11
177.2864999999999
 21
661.0
 31
0.0
  0
LINE
  5
118
330
1E
100
AcDbEntity
  8
0
100
AcDbLine
 10
178.1864999999999
 20
658.0
 30
0.0
 11
178.1864999999999
 21
661.0
 31
0.0
  0
LINE
  5
119
330
1E
100
AcDbEntity
  8
0
100
AcDbLine
 10
177.2864999999999
 20
661.0
 30
0.0
 11
177.8865
 21
661.0
 31
0.0
  0
LINE
  5
11C
330
1E
100
AcDbEntity
  8
0
100
AcDbLine
 10
177.8865
 20
661.0
 30
0.0
 11
178.1864999999999
 21
661.0
 31
0.0
  0
LINE
  5
11D
330
1E
100
AcDbEntity
  8
0
100
AcDbLine
 10
178.2864999999999
 20
661.0
 30
0.0
 11
179.8865
 21
661.0
 31
0.0
  0
LINE
  5
11E
330
1E
100
AcDbEntity
  8
0
100
AcDbLine
 10
180.2431652221739
 20
610.0
 30
0.0
 11
228.311814469709
 21
610.0
 31
0.0
  0
LINE
  5
11F
330
1E
100
AcDbEntity
  8
0
100
AcDbLine
 10
181.1865
 20
661.0
 30
0.0
 11
181.1865
 21
671.0
 31
0.0
  0
LINE
  5
120
330
1E
100
AcDbEntity
  8
0
100
AcDbLine
 10
179.8865
 20
661.0
 30
0.0
 11
180.7864999999999
 21
661.0
 31
0.0
  0
LINE
  5
121
330
1E
100
AcDbEntity
  8
0
100
AcDbLine
 10
179.6864999999999
 20
672.7
 30
0.0
 11
180.6864999999999
 21
672.0
 31
0.0
  0
LINE
  5
122
330
1E
100
AcDbEntity
  8
0
100
AcDbLine
 10
180.6864999999999
 20
672.0
 30
0.0
 11
181.1865
 21
671.0
 31
0.0
  0
LINE
  5
123
330
1E
100
AcDbEntity
  8
0
100
AcDbLine
 10
181.1865
 20
671.0
 30
0.0
 11
181.1865
 21
661.0
 31
0.0
  0
LINE
  5
124
330
1E
100
AcDbEntity
  8
0
100
AcDbLine
 10
180.7864999999999
 20
661.0
 30
0.0
 11
181.1865
 21
661.0
 31
0.0
  0
LINE
  5
125
330
1E
100
AcDbEntity
  8
0
100
AcDbLine
 10
178.1864999999999
 20
661.0
 30
0.0
 11
178.1864999999999
 21
658.0
 31
0.0
  0
LINE
  5
126
330
1E
100
AcDbEntity
  8
0
100
AcDbLine
 10
178.1864999999999
 20
661.0
 30
0.0
 11
178.2864999999999
 21
661.0
 31
0.0
  0
LINE
  5
127
330
1E
100
AcDbEntity
  8
0
100
AcDbLine
 10
174.4105
 20
549.802
 30
0.0
 11
176.7125
 21
580.0969999999999
 31
0.0
  0
LINE
  5
128
330
1E
100
AcDbEntity
  8
0
100
AcDbLine
 10
172.4464999999999
 20
104.847
 30
0.0
 11
186.4335
 21
103.2529999999999
 31
0.0
  0
LINE
  5
129
330
1E
100
AcDbEntity
  8
0
100
AcDbLine
 10
169.4594999999999
 20
89.10729999999999
 30
0.0
 11
186.2065
 21
87.31419999999999
 31
0.0
  0
LINE
  5
12A
330
1E
100
AcDbEntity
  8
0
100
AcDbLine
 10
225.5005
 20
95.9811
 30
0.0
 11
245.3755
 21
105.943
 31
0.0
  0
LINE
  5
12B
330
1E
100
AcDbEntity
  8
0
100
AcDbLine
 10
203.0054999999999
 20
89.10729999999999
 30
0.0
 11
225.5005
 21
95.9811
 31
0.0
  0
LINE
  5
12C
330
1E
100
AcDbEntity
  8
0
100
AcDbLine
 10
245.3755
 20
105.943
 30
0.0
 11
265.4554999999999
 21
123.3759999999999
 31
0.0
  0
LINE
  5
12D
330
1E
100
AcDbEntity
  8
0
100
AcDbLine
 10
225.5865
 20
610.0
 30
0.0
 11
228.6865
 21
610.0
 31
0.0
  0
LINE
  5
12E
330
1E
100
AcDbEntity
  8
0
100
AcDbLine
 10
225.5865
 20
610.0
 30
0.0
 11
228.311814469709
 21
610.0
 31
0.0
  0
LINE
  5
12F
330
1E
100
AcDbEntity
  8
0
100
AcDbLine
 10
223.1864999999999
 20
610.0
 30
0.0
 11
225.5865
 21
610.0
 31
0.0
  0
LINE
  5
130
330
1E
100
AcDbEntity
  8
0
100
AcDbLine
 10
221.6864999999999
 20
610.0
 30
0.0
 11
223.1864999999999
 21
610.0
 31
0.0
  0
LINE
  5
131
330
1E
100
AcDbEntity
  8
0
100
AcDbLine
 10
224.1865
 20
658.0
 30
0.0
 11
224.1865
 21
804.4999999999999
 31
0.0
  0
LINE
  5
136
330
1E
100
AcDbEntity
  8
0
100
AcDbLine
 10
224.1865
 20
824.5
 30
0.0
 11
224.1865
 21
805.4999999999999
 31
0.0
  0
LINE
  5
137
330
1E
100
AcDbEntity
  8
0
100
AcDbLine
 10
224.1865
 20
824.5
 30
0.0
 11
224.5865
 21
824.5
 31
0.0
  0
LINE
  5
138
330
1E
100
AcDbEntity
  8
0
100
AcDbLine
 10
224.1865
 20
824.5
 30
0.0
 11
224.6865
 21
825.0
 31
0.0
  0
LINE
  5
139
330
1E
100
AcDbEntity
  8
0
100
AcDbLine
 10
224.1865
 20
805.4999999999999
 30
0.0
 11
224.5865
 21
805.4999999999999
 31
0.0
  0
LINE
  5
13A
330
1E
100
AcDbEntity
  8
0
100
AcDbLine
 10
224.1865
 20
805.4999999999999
 30
0.0
 11
225.1865
 21
805.0
 31
0.0
  0
LINE
  5
13B
330
1E
100
AcDbEntity
  8
0
100
AcDbLine
 10
224.1865
 20
805.4999999999999
 30
0.0
 11
224.1865
 21
824.5
 31
0.0
  0
LINE
  5
13C
330
1E
100
AcDbEntity
  8
0
100
AcDbLine
 10
225.7864999999999
 20
804.4999999999999
 30
0.0
 11
227.6864999999999
 21
804.4999999999999
 31
0.0
  0
LINE
  5
13D
330
1E
100
AcDbEntity
  8
0
100
AcDbLine
 10
225.0865
 20
825.0
 30
0.0
 11
226.1864999999999
 21
825.0
 31
0.0
  0
LINE
  5
13E
330
1E
100
AcDbEntity
  8
0
100
AcDbLine
 10
224.6865
 20
825.0
 30
0.0
 11
225.0865
 21
825.0
 31
0.0
  0
LINE
  5
13F
330
1E
100
AcDbEntity
  8
0
100
AcDbLine
 10
224.5865
 20
824.5
 30
0.0
 11
225.7864999999999
 21
824.5
 31
0.0
  0
LINE
  5
140
330
1E
100
AcDbEntity
  8
0
100
AcDbLine
 10
224.5865
 20
805.4999999999999
 30
0.0
 11
225.7864999999999
 21
805.4999999999999
 31
0.0
  0
LINE
  5
141
330
1E
100
AcDbEntity
  8
0
100
AcDbLine
 10
226.6865
 20
805.0
 30
0.0
 11
228.3865
 21
805.0
 31
0.0
  0
LINE
  5
142
330
1E
100
AcDbEntity
  8
0
100
AcDbLine
 10
225.7864999999999
 20
824.5
 30
0.0
 11
227.6864999999999
 21
824.5
 31
0.0
  0
LINE
  5
143
330
1E
100
AcDbEntity
  8
0
100
AcDbLine
 10
226.1864999999999
 20
825.0
 30
0.0
 11
228.0864999999999
 21
825.0
 31
0.0
  0
LINE
  5
144
330
1E
100
AcDbEntity
  8
0
100
AcDbLine
 10
225.7864999999999
 20
805.4999999999999
 30
0.0
 11
227.6864999999999
 21
805.4999999999999
 31
0.0
  0
LINE
  5
145
330
1E
100
AcDbEntity
  8
0
100
AcDbLine
 10
225.5865
 20
805.0
 30
0.0
 11
226.6865
 21
805.0
 31
0.0
  0
LINE
  5
146
330
1E
100
AcDbEntity
  8
0
100
AcDbLine
 10
225.1865
 20
805.0
 30
0.0
 11
225.5865
 21
805.0
 31
0.0
  0
LINE
  5
147
330
1E
100
AcDbEntity
  8
0
100
AcDbLine
 10
224.5865
 20
804.4999999999999
 30
0.0
 11
225.7864999999999
 21
804.4999999999999
 31
0.0
  0
LINE
  5
148
330
1E
100
AcDbEntity
  8
0
100
AcDbLine
 10
224.1865
 20
804.4999999999999
 30
0.0
 11
224.1865
 21
658.0
 31
0.0
  0
LINE
  5
149
330
1E
100
AcDbEntity
  8
0
100
AcDbLine
 10
224.1865
 20
804.4999999999999
 30
0.0
 11
224.5865
 21
804.4999999999999
 31
0.0
  0
LINE
  5
14A
330
1E
100
AcDbEntity
  8
0
100
AcDbLine
 10
224.1865
 20
804.4999999999999
 30
0.0
 11
225.1865
 21
805.0
 31
0.0
  0
LINE
  5
173
330
1E
100
AcDbEntity
  8
0
100
AcDbLine
 10
221.1864999999999
 20
610.0
 30
0.0
 11
221.6864999999999
 21
610.0
 31
0.0
  0
LINE
  5
19E
330
1E
100
AcDbEntity
  8
0
100
AcDbLine
 10
227.6864999999999
 20
824.5
 30
0.0
 11
230.1864999999999
 21
824.5
 31
0.0
  0
LINE
  5
19F
330
1E
100
AcDbEntity
  8
0
100
AcDbLine
 10
227.6864999999999
 20
805.4999999999999
 30
0.0
 11
230.1864999999999
 21
805.4999999999999
 31
0.0
  0
LINE
  5
1A0
330
1E
100
AcDbEntity
  8
0
100
AcDbLine
 10
227.6864999999999
 20
804.4999999999999
 30
0.0
 11
230.1864999999999
 21
804.4999999999999
 31
0.0
  0
LINE
  5
1CD
330
1E
100
AcDbEntity
  8
0
100
AcDbLine
 10
228.0864999999999
 20
825.0
 30
0.0
 11
230.4864999999999
 21
825.0
 31
0.0
  0
LINE
  5
1F0
330
1E
100
AcDbEntity
  8
0
100
AcDbLine
 10
230.4864999999999
 20
825.0
 30
0.0
 11
233.1865
 21
825.0
 31
0.0
  0
LINE
  5
1F1
330
1E
100
AcDbEntity
  8
0
100
AcDbLine
 10
230.1864999999999
 20
824.5
 30
0.0
 11
233.0865
 21
824.5
 31
0.0
  0
LINE
  5
1F2
330
1E
100
AcDbEntity
  8
0
100
AcDbLine
 10
230.1864999999999
 20
805.4999999999999
 30
0.0
 11
233.0865
 21
805.4999999999999
 31
0.0
  0
LINE
  5
1F3
330
1E
100
AcDbEntity
  8
0
100
AcDbLine
 10
228.3865
 20
805.0
 30
0.0
 11
230.6865
 21
805.0
 31
0.0
  0
LINE
  5
1F4
330
1E
100
AcDbEntity
  8
0
100
AcDbLine
 10
230.1864999999999
 20
804.4999999999999
 30
0.0
 11
233.0865
 21
804.4999999999999
 31
0.0
  0
LINE
  5
22D
330
1E
100
AcDbEntity
  8
0
100
AcDbLine
 10
230.6865
 20
805.0
 30
0.0
 11
233.3865
 21
805.0
 31
0.0
  0
LINE
  5
270
330
1E
100
AcDbEntity
  8
0
100
AcDbLine
 10
228.6865
 20
610.0
 30
0.0
 11
232.2864999999999
 21
610.0
 31
0.0
  0
LINE
  5
271
330
1E
100
AcDbEntity
  8
0
100
AcDbLine
 10
227.0285
 20
529.628
 30
0.0
 11
228.5134999999999
 21
495.359
 31
0.0
  0
LINE
  5
272
330
1E
100
AcDbEntity
  8
0
100
AcDbLine
 10
227.0285
 20
529.628
 30
0.0
 11
228.311814469709
 21
610.0
 31
0.0
  0
LINE
  5
273
330
1E
100
AcDbEntity
  8
0
100
AcDbLine
 10
228.5134999999999
 20
495.359
 30
0.0
 11
231.8175
 21
471.0519999999999
 31
0.0
  0
LINE
  5
274
330
1E
100
AcDbEntity
  8
0
100
AcDbLine
 10
236.1864999999999
 20
610.0
 30
0.0
 11
241.1865
 21
610.0
 31
0.0
  0
LINE
  5
29F
330
1E
100
AcDbEntity
  8
0
100
AcDbLine
 10
235.3295
 20
740.2999999999999
 30
0.0
 11
235.7575
 21
739.7999999999999
 31
0.0
  0
LINE
  5
2A0
330
1E
100
AcDbEntity
  8
0
100
AcDbLine
 10
235.3295
 20
740.2999999999999
 30
0.0
 11
235.3295
 21
741.2999999999999
 31
0.0
  0
LINE
  5
2A1
330
1E
100
AcDbEntity
  8
0
100
AcDbLine
 10
235.3295
 20
788.9
 30
0.0
 11
235.7575
 21
789.4
 31
0.0
  0
LINE
  5
2A2
330
1E
100
AcDbEntity
  8
0
100
AcDbLine
 10
235.3295
 20
788.9
 30
0.0
 11
235.3295
 21
787.8999999999999
 31
0.0
  0
LINE
  5
2A3
330
1E
100
AcDbEntity
  8
0
100
AcDbLine
 10
235.3295
 20
801.5
 30
0.0
 11
235.3295
 21
802.5
 31
0.0
  0
LINE
  5
2A4
330
1E
100
AcDbEntity
  8
0
100
AcDbLine
 10
235.3295
 20
801.5
 30
0.0
 11
235.7575
 21
801.0
 31
0.0
  0
LINE
  5
2A5
330
1E
100
AcDbEntity
  8
0
100
AcDbLine
 10
233.0865
 20
824.5
 30
0.0
 11
236.1864999999999
 21
824.5
 31
0.0
  0
LINE
  5
2A6
330
1E
100
AcDbEntity
  8
0
100
AcDbLine
 10
233.0865
 20
805.4999999999999
 30
0.0
 11
236.1864999999999
 21
805.4999999999999
 31
0.0
  0
LINE
  5
2A7
330
1E
100
AcDbEntity
  8
0
100
AcDbLine
 10
233.1865
 20
825.0
 30
0.0
 11
236.1864999999999
 21
825.0
 31
0.0
  0
LINE
  5
2A8
330
1E
100
AcDbEntity
  8
0
100
AcDbLine
 10
233.3865
 20
805.0
 30
0.0
 11
236.1864999999999
 21
805.0
 31
0.0
  0
LINE
  5
2A9
330
1E
100
AcDbEntity
  8
0
100
AcDbLine
 10
233.0865
 20
804.4999999999999
 30
0.0
 11
236.1864999999999
 21
804.4999999999999
 31
0.0
  0
LINE
  5
2AA
330
1E
100
AcDbEntity
  8
0
100
AcDbLine
 10
235.3295
 20
802.5
 30
0.0
 11
235.7575
 21
803.0
 31
0.0
  0
LINE
  5
2AB
330
1E
100
AcDbEntity
  8
0
100
AcDbLine
 10
235.3295
 20
802.5
 30
0.0
 11
235.3295
 21
801.5
 31
0.0
  0
LINE
  5
2AC
330
1E
100
AcDbEntity
  8
0
100
AcDbLine
 10
235.3295
 20
795.7
 30
0.0
 11
235.3295
 21
794.7
 31
0.0
  0
LINE
  5
2AD
330
1E
100
AcDbEntity
  8
0
100
AcDbLine
 10
235.3295
 20
795.7
 30
0.0
 11
235.7575
 21
796.2
 31
0.0
  0
LINE
  5
2AE
330
1E
100
AcDbEntity
  8
0
100
AcDbLine
 10
235.3295
 20
794.7
 30
0.0
 11
235.7575
 21
794.2000000000001
 31
0.0
  0
LINE
  5
2AF
330
1E
100
AcDbEntity
  8
0
100
AcDbLine
 10
235.3295
 20
794.7
 30
0.0
 11
235.3295
 21
795.7
 31
0.0
  0
LINE
  5
2B0
330
1E
100
AcDbEntity
  8
0
100
AcDbLine
 10
235.3295
 20
787.8999999999999
 30
0.0
 11
235.7575
 21
787.3999999999999
 31
0.0
  0
LINE
  5
2B1
330
1E
100
AcDbEntity
  8
0
100
AcDbLine
 10
235.3295
 20
787.8999999999999
 30
0.0
 11
235.3295
 21
788.9
 31
0.0
  0
LINE
  5
2B2
330
1E
100
AcDbEntity
  8
0
100
AcDbLine
 10
235.3295
 20
781.1
 30
0.0
 11
235.7575
 21
780.6
 31
0.0
  0
LINE
  5
2B3
330
1E
100
AcDbEntity
  8
0
100
AcDbLine
 10
235.3295
 20
781.1
 30
0.0
 11
235.3295
 21
782.1
 31
0.0
  0
LINE
  5
2B4
330
1E
100
AcDbEntity
  8
0
100
AcDbLine
 10
235.3295
 20
782.1
 30
0.0
 11
235.7575
 21
782.6
 31
0.0
  0
LINE
  5
2B5
330
1E
100
AcDbEntity
  8
0
100
AcDbLine
 10
235.3295
 20
782.1
 30
0.0
 11
235.3295
 21
781.1
 31
0.0
  0
LINE
  5
2B6
330
1E
100
AcDbEntity
  8
0
100
AcDbLine
 10
235.3295
 20
774.2999999999999
 30
0.0
 11
235.3295
 21
775.3
 31
0.0
  0
LINE
  5
2B7
330
1E
100
AcDbEntity
  8
0
100
AcDbLine
 10
235.3295
 20
774.2999999999999
 30
0.0
 11
235.7575
 21
773.7999999999999
 31
0.0
  0
LINE
  5
2B8
330
1E
100
AcDbEntity
  8
0
100
AcDbLine
 10
235.3295
 20
775.3
 30
0.0
 11
235.7575
 21
775.8
 31
0.0
  0
LINE
  5
2B9
330
1E
100
AcDbEntity
  8
0
100
AcDbLine
 10
235.3295
 20
775.3
 30
0.0
 11
235.3295
 21
774.2999999999999
 31
0.0
  0
LINE
  5
2BA
330
1E
100
AcDbEntity
  8
0
100
AcDbLine
 10
235.3295
 20
767.4999999999999
 30
0.0
 11
235.3295
 21
768.5
 31
0.0
  0
LINE
  5
2BB
330
1E
100
AcDbEntity
  8
0
100
AcDbLine
 10
235.3295
 20
767.4999999999999
 30
0.0
 11
235.7575
 21
767.0
 31
0.0
  0
LINE
  5
2BC
330
1E
100
AcDbEntity
  8
0
100
AcDbLine
 10
235.3295
 20
768.5
 30
0.0
 11
235.7575
 21
769.0
 31
0.0
  0
LINE
  5
2BD
330
1E
100
AcDbEntity
  8
0
100
AcDbLine
 10
235.3295
 20
768.5
 30
0.0
 11
235.3295
 21
767.4999999999999
 31
0.0
  0
LINE
  5
2BE
330
1E
100
AcDbEntity
  8
0
100
AcDbLine
 10
235.3295
 20
760.7
 30
0.0
 11
235.7575
 21
760.2
 31
0.0
  0
LINE
  5
2BF
330
1E
100
AcDbEntity
  8
0
100
AcDbLine
 10
235.3295
 20
760.7
 30
0.0
 11
235.3295
 21
761.7
 31
0.0
  0
LINE
  5
2C0
330
1E
100
AcDbEntity
  8
0
100
AcDbLine
 10
235.3295
 20
761.7
 30
0.0
 11
235.7575
 21
762.2
 31
0.0
  0
LINE
  5
2C1
330
1E
100
AcDbEntity
  8
0
100
AcDbLine
 10
235.3295
 20
761.7
 30
0.0
 11
235.3295
 21
760.7
 31
0.0
  0
LINE
  5
2C2
330
1E
100
AcDbEntity
  8
0
100
AcDbLine
 10
235.3295
 20
753.8999999999999
 30
0.0
 11
235.3295
 21
754.8999999999999
 31
0.0
  0
LINE
  5
2C3
330
1E
100
AcDbEntity
  8
0
100
AcDbLine
 10
235.3295
 20
753.8999999999999
 30
0.0
 11
235.7575
 21
753.3999999999999
 31
0.0
  0
LINE
  5
2C4
330
1E
100
AcDbEntity
  8
0
100
AcDbLine
 10
235.3295
 20
754.8999999999999
 30
0.0
 11
235.7575
 21
755.4
 31
0.0
  0
LINE
  5
2C5
330
1E
100
AcDbEntity
  8
0
100
AcDbLine
 10
235.3295
 20
754.8999999999999
 30
0.0
 11
235.3295
 21
753.8999999999999
 31
0.0
  0
LINE
  5
2C6
330
1E
100
AcDbEntity
  8
0
100
AcDbLine
 10
235.3295
 20
747.1
 30
0.0
 11
235.7575
 21
746.6
 31
0.0
  0
LINE
  5
2C7
330
1E
100
AcDbEntity
  8
0
100
AcDbLine
 10
235.3295
 20
747.1
 30
0.0
 11
235.3295
 21
748.1
 31
0.0
  0
LINE
  5
2C8
330
1E
100
AcDbEntity
  8
0
100
AcDbLine
 10
235.3295
 20
748.1
 30
0.0
 11
235.7575
 21
748.6
 31
0.0
  0
LINE
  5
2C9
330
1E
100
AcDbEntity
  8
0
100
AcDbLine
 10
235.3295
 20
748.1
 30
0.0
 11
235.3295
 21
747.1
 31
0.0
  0
LINE
  5
2CA
330
1E
100
AcDbEntity
  8
0
100
AcDbLine
 10
235.3295
 20
741.2999999999999
 30
0.0
 11
235.7575
 21
741.7999999999999
 31
0.0
  0
LINE
  5
2CB
330
1E
100
AcDbEntity
  8
0
100
AcDbLine
 10
235.3295
 20
741.2999999999999
 30
0.0
 11
235.3295
 21
740.2999999999999
 31
0.0
  0
LINE
  5
2CE
330
1E
100
AcDbEntity
  8
0
100
AcDbLine
 10
235.3295
 20
734.4999999999999
 30
0.0
 11
235.7575
 21
735.0
 31
0.0
  0
LINE
  5
2CF
330
1E
100
AcDbEntity
  8
0
100
AcDbLine
 10
235.3295
 20
734.4999999999999
 30
0.0
 11
235.3295
 21
733.4999999999999
 31
0.0
  0
LINE
  5
2D0
330
1E
100
AcDbEntity
  8
0
100
AcDbLine
 10
236.6155
 20
733.0
 30
0.0
 11
237.0435
 21
733.4999999999999
 31
0.0
  0
LINE
  5
2D1
330
1E
100
AcDbEntity
  8
0
100
AcDbLine
 10
237.0435
 20
733.4999999999999
 30
0.0
 11
237.0435
 21
734.4999999999999
 31
0.0
  0
LINE
  5
2D2
330
1E
100
AcDbEntity
  8
0
100
AcDbLine
 10
235.7575
 20
735.0
 30
0.0
 11
236.6155
 21
735.0
 31
0.0
  0
LINE
  5
2D3
330
1E
100
AcDbEntity
  8
0
100
AcDbLine
 10
235.7575
 20
789.4
 30
0.0
 11
236.6155
 21
789.4
 31
0.0
  0
LINE
  5
2D4
330
1E
100
AcDbEntity
  8
0
100
AcDbLine
 10
235.7575
 20
801.0
 30
0.0
 11
236.6155
 21
801.0
 31
0.0
  0
LINE
  5
2D5
330
1E
100
AcDbEntity
  8
0
100
AcDbLine
 10
235.7575
 20
803.0
 30
0.0
 11
236.6155
 21
803.0
 31
0.0
  0
LINE
  5
2D6
330
1E
100
AcDbEntity
  8
0
100
AcDbLine
 10
235.7575
 20
796.2
 30
0.0
 11
236.6155
 21
796.2
 31
0.0
  0
LINE
  5
2D7
330
1E
100
AcDbEntity
  8
0
100
AcDbLine
 10
235.7575
 20
794.2000000000001
 30
0.0
 11
236.6155
 21
794.2000000000001
 31
0.0
  0
LINE
  5
2D8
330
1E
100
AcDbEntity
  8
0
100
AcDbLine
 10
235.7575
 20
787.3999999999999
 30
0.0
 11
236.6155
 21
787.3999999999999
 31
0.0
  0
LINE
  5
2D9
330
1E
100
AcDbEntity
  8
0
100
AcDbLine
 10
235.7575
 20
780.6
 30
0.0
 11
236.6155
 21
780.6
 31
0.0
  0
LINE
  5
2DA
330
1E
100
AcDbEntity
  8
0
100
AcDbLine
 10
235.7575
 20
782.6
 30
0.0
 11
236.6155
 21
782.6
 31
0.0
  0
LINE
  5
2DB
330
1E
100
AcDbEntity
  8
0
100
AcDbLine
 10
235.7575
 20
773.7999999999999
 30
0.0
 11
236.6155
 21
773.7999999999999
 31
0.0
  0
LINE
  5
2DC
330
1E
100
AcDbEntity
  8
0
100
AcDbLine
 10
235.7575
 20
775.8
 30
0.0
 11
236.6155
 21
775.8
 31
0.0
  0
LINE
  5
2DD
330
1E
100
AcDbEntity
  8
0
100
AcDbLine
 10
235.7575
 20
767.0
 30
0.0
 11
236.6155
 21
767.0
 31
0.0
  0
LINE
  5
2DE
330
1E
100
AcDbEntity
  8
0
100
AcDbLine
 10
235.7575
 20
769.0
 30
0.0
 11
236.6155
 21
769.0
 31
0.0
  0
LINE
  5
2DF
330
1E
100
AcDbEntity
  8
0
100
AcDbLine
 10
235.7575
 20
760.2
 30
0.0
 11
236.6155
 21
760.2
 31
0.0
  0
LINE
  5
2E0
330
1E
100
AcDbEntity
  8
0
100
AcDbLine
 10
235.7575
 20
762.2
 30
0.0
 11
236.6155
 21
762.2
 31
0.0
  0
LINE
  5
2E1
330
1E
100
AcDbEntity
  8
0
100
AcDbLine
 10
235.7575
 20
753.3999999999999
 30
0.0
 11
236.6155
 21
753.3999999999999
 31
0.0
  0
LINE
  5
2E2
330
1E
100
AcDbEntity
  8
0
100
AcDbLine
 10
235.7575
 20
755.4
 30
0.0
 11
236.6155
 21
755.4
 31
0.0
  0
LINE
  5
2E3
330
1E
100
AcDbEntity
  8
0
100
AcDbLine
 10
235.7575
 20
746.6
 30
0.0
 11
236.6155
 21
746.6
 31
0.0
  0
LINE
  5
2E4
330
1E
100
AcDbEntity
  8
0
100
AcDbLine
 10
235.7575
 20
748.6
 30
0.0
 11
236.6155
 21
748.6
 31
0.0
  0
LINE
  5
2E5
330
1E
100
AcDbEntity
  8
0
100
AcDbLine
 10
235.7575
 20
739.7999999999999
 30
0.0
 11
236.6155
 21
739.7999999999999
 31
0.0
  0
LINE
  5
2E6
330
1E
100
AcDbEntity
  8
0
100
AcDbLine
 10
237.0435
 20
740.2999999999999
 30
0.0
 11
237.0435
 21
741.2999999999999
 31
0.0
  0
LINE
  5
2E7
330
1E
100
AcDbEntity
  8
0
100
AcDbLine
 10
237.0435
 20
741.2999999999999
 30
0.0
 11
237.0435
 21
740.2999999999999
 31
0.0
  0
LINE
  5
2E8
330
1E
100
AcDbEntity
  8
0
100
AcDbLine
 10
236.6155
 20
739.7999999999999
 30
0.0
 11
237.0435
 21
740.2999999999999
 31
0.0
  0
LINE
  5
2E9
330
1E
100
AcDbEntity
  8
0
100
AcDbLine
 10
236.6155
 20
789.4
 30
0.0
 11
237.0435
 21
788.9
 31
0.0
  0
LINE
  5
2EA
330
1E
100
AcDbEntity
  8
0
100
AcDbLine
 10
236.6155
 20
801.0
 30
0.0
 11
237.0435
 21
801.5
 31
0.0
  0
LINE
  5
2EB
330
1E
100
AcDbEntity
  8
0
100
AcDbLine
 10
236.1864999999999
 20
825.0
 30
0.0
 11
239.1865
 21
825.0
 31
0.0
  0
LINE
  5
2EC
330
1E
100
AcDbEntity
  8
0
100
AcDbLine
 10
236.1864999999999
 20
824.5
 30
0.0
 11
239.2865
 21
824.5
 31
0.0
  0
LINE
  5
2ED
330
1E
100
AcDbEntity
  8
0
100
AcDbLine
 10
236.1864999999999
 20
805.4999999999999
 30
0.0
 11
239.2865
 21
805.4999999999999
 31
0.0
  0
LINE
  5
2EE
330
1E
100
AcDbEntity
  8
0
100
AcDbLine
 10
236.1864999999999
 20
805.0
 30
0.0
 11
238.9864999999999
 21
805.0
 31
0.0
  0
LINE
  5
2EF
330
1E
100
AcDbEntity
  8
0
100
AcDbLine
 10
236.1864999999999
 20
804.4999999999999
 30
0.0
 11
239.2865
 21
804.4999999999999
 31
0.0
  0
LINE
  5
2F0
330
1E
100
AcDbEntity
  8
0
100
AcDbLine
 10
236.6155
 20
803.0
 30
0.0
 11
237.0435
 21
802.5
 31
0.0
  0
LINE
  5
2F1
330
1E
100
AcDbEntity
  8
0
100
AcDbLine
 10
236.6155
 20
796.2
 30
0.0
 11
237.0435
 21
795.7
 31
0.0
  0
LINE
  5
2F2
330
1E
100
AcDbEntity
  8
0
100
AcDbLine
 10
236.6155
 20
794.2000000000001
 30
0.0
 11
237.0435
 21
794.7
 31
0.0
  0
LINE
  5
2F3
330
1E
100
AcDbEntity
  8
0
100
AcDbLine
 10
236.6155
 20
787.3999999999999
 30
0.0
 11
237.0435
 21
787.8999999999999
 31
0.0
  0
LINE
  5
2F4
330
1E
100
AcDbEntity
  8
0
100
AcDbLine
 10
236.6155
 20
780.6
 30
0.0
 11
237.0435
 21
781.1
 31
0.0
  0
LINE
  5
2F5
330
1E
100
AcDbEntity
  8
0
100
AcDbLine
 10
236.6155
 20
782.6
 30
0.0
 11
237.0435
 21
782.1
 31
0.0
  0
LINE
  5
2F6
330
1E
100
AcDbEntity
  8
0
100
AcDbLine
 10
236.6155
 20
773.7999999999999
 30
0.0
 11
237.0435
 21
774.2999999999999
 31
0.0
  0
LINE
  5
2F7
330
1E
100
AcDbEntity
  8
0
100
AcDbLine
 10
236.6155
 20
775.8
 30
0.0
 11
237.0435
 21
775.3
 31
0.0
  0
LINE
  5
2F8
330
1E
100
AcDbEntity
  8
0
100
AcDbLine
 10
236.6155
 20
767.0
 30
0.0
 11
237.0435
 21
767.4999999999999
 31
0.0
  0
LINE
  5
2F9
330
1E
100
AcDbEntity
  8
0
100
AcDbLine
 10
236.6155
 20
769.0
 30
0.0
 11
237.0435
 21
768.5
 31
0.0
  0
LINE
  5
2FA
330
1E
100
AcDbEntity
  8
0
100
AcDbLine
 10
236.6155
 20
760.2
 30
0.0
 11
237.0435
 21
760.7
 31
0.0
  0
LINE
  5
2FB
330
1E
100
AcDbEntity
  8
0
100
AcDbLine
 10
236.6155
 20
762.2
 30
0.0
 11
237.0435
 21
761.7
 31
0.0
  0
LINE
  5
2FC
330
1E
100
AcDbEntity
  8
0
100
AcDbLine
 10
236.6155
 20
753.3999999999999
 30
0.0
 11
237.0435
 21
753.8999999999999
 31
0.0
  0
LINE
  5
2FD
330
1E
100
AcDbEntity
  8
0
100
AcDbLine
 10
236.6155
 20
755.4
 30
0.0
 11
237.0435
 21
754.8999999999999
 31
0.0
  0
LINE
  5
2FE
330
1E
100
AcDbEntity
  8
0
100
AcDbLine
 10
236.6155
 20
746.6
 30
0.0
 11
237.0435
 21
747.1
 31
0.0
  0
LINE
  5
2FF
330
1E
100
AcDbEntity
  8
0
100
AcDbLine
 10
237.0435
 20
747.1
 30
0.0
 11
237.0435
 21
748.1
 31
0.0
  0
LINE
  5
300
330
1E
100
AcDbEntity
  8
0
100
AcDbLine
 10
237.0435
 20
787.8999999999999
 30
0.0
 11
237.0435
 21
788.9
 31
0.0
  0
LINE
  5
301
330
1E
100
AcDbEntity
  8
0
100
AcDbLine
 10
237.0435
 20
788.9
 30
0.0
 11
237.0435
 21
787.8999999999999
 31
0.0
  0
LINE
  5
302
330
1E
100
AcDbEntity
  8
0
100
AcDbLine
 10
237.0435
 20
802.5
 30
0.0
 11
237.0435
 21
801.5
 31
0.0
  0
LINE
  5
303
330
1E
100
AcDbEntity
  8
0
100
AcDbLine
 10
237.0435
 20
801.5
 30
0.0
 11
237.0435
 21
802.5
 31
0.0
  0
LINE
  5
304
330
1E
100
AcDbEntity
  8
0
100
AcDbLine
 10
237.0435
 20
794.7
 30
0.0
 11
237.0435
 21
795.7
 31
0.0
  0
LINE
  5
305
330
1E
100
AcDbEntity
  8
0
100
AcDbLine
 10
237.0435
 20
795.7
 30
0.0
 11
237.0435
 21
794.7
 31
0.0
  0
LINE
  5
306
330
1E
100
AcDbEntity
  8
0
100
AcDbLine
 10
237.0435
 20
781.1
 30
0.0
 11
237.0435
 21
782.1
 31
0.0
  0
LINE
  5
307
330
1E
100
AcDbEntity
  8
0
100
AcDbLine
 10
237.0435
 20
782.1
 30
0.0
 11
237.0435
 21
781.1
 31
0.0
  0
LINE
  5
308
330
1E
100
AcDbEntity
  8
0
100
AcDbLine
 10
237.0435
 20
775.3
 30
0.0
 11
237.0435
 21
774.2999999999999
 31
0.0
  0
LINE
  5
309
330
1E
100
AcDbEntity
  8
0
100
AcDbLine
 10
237.0435
 20
774.2999999999999
 30
0.0
 11
237.0435
 21
775.3
 31
0.0
  0
LINE
  5
30A
330
1E
100
AcDbEntity
  8
0
100
AcDbLine
 10
237.0435
 20
768.5
 30
0.0
 11
237.0435
 21
767.4999999999999
 31
0.0
  0
LINE
  5
30B
330
1E
100
AcDbEntity
  8
0
100
AcDbLine
 10
237.0435
 20
767.4999999999999
 30
0.0
 11
237.0435
 21
768.5
 31
0.0
  0
LINE
  5
30C
330
1E
100
AcDbEntity
  8
0
100
AcDbLine
 10
237.0435
 20
760.7
 30
0.0
 11
237.0435
 21
761.7
 31
0.0
  0
LINE
  5
30D
330
1E
100
AcDbEntity
  8
0
100
AcDbLine
 10
237.0435
 20
761.7
 30
0.0
 11
237.0435
 21
760.7
 31
0.0
  0
LINE
  5
30E
330
1E
100
AcDbEntity
  8
0
100
AcDbLine
 10
237.0435
 20
754.8999999999999
 30
0.0
 11
237.0435
 21
753.8999999999999
 31
0.0
  0
LINE
  5
30F
330
1E
100
AcDbEntity
  8
0
100
AcDbLine
 10
237.0435
 20
753.8999999999999
 30
0.0
 11
237.0435
 21
754.8999999999999
 31
0.0
  0
LINE
  5
310
330
1E
100
AcDbEntity
  8
0
100
AcDbLine
 10
237.0435
 20
748.1
 30
0.0
 11
237.0435
 21
747.1
 31
0.0
  0
LINE
  5
311
330
1E
100
AcDbEntity
  8
0
100
AcDbLine
 10
236.6155
 20
748.6
 30
0.0
 11
237.0435
 21
748.1
 31
0.0
  0
LINE
  5
312
330
1E
100
AcDbEntity
  8
0
100
AcDbLine
 10
236.6155
 20
741.7999999999999
 30
0.0
 11
237.0435
 21
741.2999999999999
 31
0.0
  0
LINE
  5
313
330
1E
100
AcDbEntity
  8
0
100
AcDbLine
 10
235.7575
 20
741.7999999999999
 30
0.0
 11
236.6155
 21
741.7999999999999
 31
0.0
  0
LINE
  5
314
330
1E
100
AcDbEntity
  8
0
100
AcDbLine
 10
236.6155
 20
735.0
 30
0.0
 11
237.0435
 21
734.4999999999999
 31
0.0
  0
LINE
  5
315
330
1E
100
AcDbEntity
  8
0
100
AcDbLine
 10
237.0435
 20
734.4999999999999
 30
0.0
 11
237.0435
 21
733.4999999999999
 31
0.0
  0
LINE
  5
316
330
1E
100
AcDbEntity
  8
0
100
AcDbLine
 10
235.7575
 20
733.0
 30
0.0
 11
236.6155
 21
733.0
 31
0.0
  0
LINE
  5
317
330
1E
100
AcDbEntity
  8
0
100
AcDbLine
 10
235.3295
 20
733.4999999999999
 30
0.0
 11
235.7575
 21
733.0
 31
0.0
  0
LINE
  5
318
330
1E
100
AcDbEntity
  8
0
100
AcDbLine
 10
235.3295
 20
733.4999999999999
 30
0.0
 11
235.3295
 21
734.4999999999999
 31
0.0
  0
LINE
  5
319
330
1E
100
AcDbEntity
  8
0
100
AcDbLine
 10
232.2864999999999
 20
610.0
 30
0.0
 11
236.1864999999999
 21
610.0
 31
0.0
  0
LINE
  5
31A
330
1E
100
AcDbEntity
  8
0
100
AcDbLine
 10
231.8175
 20
471.0519999999999
 30
0.0
 11
236.4885
 21
445.7489999999999
 31
0.0
  0
LINE
  5
31B
330
1E
100
AcDbEntity
  8
0
100
AcDbLine
 10
236.4885
 20
445.7489999999999
 30
0.0
 11
242.8335
 21
420.1469999999999
 31
0.0
  0
LINE
  5
31C
330
1E
100
AcDbEntity
  8
0
100
AcDbLine
 10
265.5675
 20
123.405
 30
0.0
 11
280.031616459159
 21
138.604764728148
 31
0.0
  0
LINE
  5
31D
330
1E
100
AcDbEntity
  8
0
100
AcDbLine
 10
265.4554999999999
 20
123.3759999999999
 30
0.0
 11
265.5675
 21
123.405
 31
0.0
  0
LINE
  5
321
330
1E
100
AcDbEntity
  8
0
100
AcDbLine
 10
272.3794999999999
 20
353.099
 30
0.0
 11
282.2735
 21
334.2709999999999
 31
0.0
  0
LINE
  5
32A
330
1E
100
AcDbEntity
  8
0
100
AcDbLine
 10
259.7735
 20
376.513
 30
0.0
 11
272.3794999999999
 21
353.099
 31
0.0
  0
LINE
  5
330
330
1E
100
AcDbEntity
  8
0
100
AcDbLine
 10
242.1864999999999
 20
611.0
 30
0.0
 11
242.1864999999999
 21
657.0
 31
0.0
  0
LINE
  5
331
330
1E
100
AcDbEntity
  8
0
100
AcDbLine
 10
241.1865
 20
610.0
 30
0.0
 11
242.1864999999999
 21
611.0
 31
0.0
  0
LINE
  5
33E
330
1E
100
AcDbEntity
  8
0
100
AcDbLine
 10
239.1865
 20
825.0
 30
0.0
 11
241.8865
 21
825.0
 31
0.0
  0
LINE
  5
33F
330
1E
100
AcDbEntity
  8
0
100
AcDbLine
 10
239.2865
 20
824.5
 30
0.0
 11
242.1864999999999
 21
824.5
 31
0.0
  0
LINE
  5
340
330
1E
100
AcDbEntity
  8
0
100
AcDbLine
 10
239.2865
 20
805.4999999999999
 30
0.0
 11
242.1864999999999
 21
805.4999999999999
 31
0.0
  0
LINE
  5
341
330
1E
100
AcDbEntity
  8
0
100
AcDbLine
 10
238.9864999999999
 20
805.0
 30
0.0
 11
241.6865
 21
805.0
 31
0.0
  0
LINE
  5
342
330
1E
100
AcDbEntity
  8
0
100
AcDbLine
 10
239.2865
 20
804.4999999999999
 30
0.0
 11
242.1864999999999
 21
804.4999999999999
 31
0.0
  0
LINE
  5
3B4
330
1E
100
AcDbEntity
  8
0
100
AcDbLine
 10
242.1864999999999
 20
650.313613776467
 30
0.0
 11
244.4764999999999
 21
650.3129999999999
 31
0.0
  0
LINE
  5
3B5
330
1E
100
AcDbEntity
  8
0
100
AcDbLine
 10
242.1864999999999
 20
651.0
 30
0.0
 11
244.6864999999999
 21
651.0
 31
0.0
  0
LINE
  5
3CD
330
1E
100
AcDbEntity
  8
0
100
AcDbLine
 10
241.6865
 20
805.0
 30
0.0
 11
243.9865
 21
805.0
 31
0.0
  0
LINE
  5
3E1
330
1E
100
AcDbEntity
  8
0
100
AcDbLine
 10
241.8865
 20
825.0
 30
0.0
 11
244.2864999999999
 21
825.0
 31
0.0
  0
LINE
  5
3E2
330
1E
100
AcDbEntity
  8
0
100
AcDbLine
 10
242.1864999999999
 20
824.5
 30
0.0
 11
244.6864999999999
 21
824.5
 31
0.0
  0
LINE
  5
3E3
330
1E
100
AcDbEntity
  8
0
100
AcDbLine
 10
242.1864999999999
 20
805.4999999999999
 30
0.0
 11
244.6864999999999
 21
805.4999999999999
 31
0.0
  0
LINE
  5
3E4
330
1E
100
AcDbEntity
  8
0
100
AcDbLine
 10
242.1864999999999
 20
804.4999999999999
 30
0.0
 11
244.6864999999999
 21
804.4999999999999
 31
0.0
  0
LINE
  5
3E7
330
1E
100
AcDbEntity
  8
0
100
AcDbLine
 10
241.1865
 20
658.0
 30
0.0
 11
242.1864999999999
 21
657.0
 31
0.0
  0
LINE
  5
3E9
330
1E
100
AcDbEntity
  8
0
100
AcDbLine
 10
242.1864999999999
 20
620.3139999999999
 30
0.0
 11
243.1665
 21
620.3139999999999
 31
0.0
  0
LINE
  5
41B
330
1E
100
AcDbEntity
  8
0
100
AcDbLine
 10
243.9865
 20
805.0
 30
0.0
 11
245.6865
 21
805.0
 31
0.0
  0
LINE
  5
443
330
1E
100
AcDbEntity
  8
0
100
AcDbLine
 10
243.1665
 20
620.3139999999999
 30
0.0
 11
244.2614999999999
 21
620.3139999999999
 31
0.0
  0
LINE
  5
444
330
1E
100
AcDbEntity
  8
0
100
AcDbLine
 10
243.1665
 20
620.3139999999999
 30
0.0
 11
243.6964999999999
 21
620.3139999999999
 31
0.0
  0
LINE
  5
445
330
1E
100
AcDbEntity
  8
0
100
AcDbLine
 10
242.8145
 20
529.628
 30
0.0
 11
244.1415
 21
498.1489999999999
 31
0.0
  0
LINE
  5
446
330
1E
100
AcDbEntity
  8
0
100
AcDbLine
 10
242.8145
 20
529.628
 30
0.0
 11
244.2614999999999
 21
620.3139999999999
 31
0.0
  0
LINE
  5
447
330
1E
100
AcDbEntity
  8
0
100
AcDbLine
 10
244.3025
 20
620.3139999999999
 30
0.0
 11
247.8445
 21
650.3129999999999
 31
0.0
  0
LINE
  5
448
330
1E
100
AcDbEntity
  8
0
100
AcDbLine
 10
244.4764999999999
 20
650.3129999999999
 30
0.0
 11
246.9695
 21
650.3129999999999
 31
0.0
  0
LINE
  5
449
330
1E
100
AcDbEntity
  8
0
100
AcDbLine
 10
244.6864999999999
 20
651.0
 30
0.0
 11
246.5864999999999
 21
651.0
 31
0.0
  0
LINE
  5
44B
330
1E
100
AcDbEntity
  8
0
100
AcDbLine
 10
246.9695
 20
650.3129999999999
 30
0.0
 11
247.8445
 21
650.3129999999999
 31
0.0
  0
LINE
  5
44C
330
1E
100
AcDbEntity
  8
0
100
AcDbLine
 10
246.5864999999999
 20
651.0
 30
0.0
 11
247.7864999999999
 21
651.0
 31
0.0
  0
LINE
  5
44D
330
1E
100
AcDbEntity
  8
0
100
AcDbLine
 10
248.1864999999999
 20
651.0
 30
0.0
 11
248.1864999999999
 21
804.4999999999999
 31
0.0
  0
LINE
  5
44E
330
1E
100
AcDbEntity
  8
0
100
AcDbLine
 10
247.4995
 20
650.3129999999999
 30
0.0
 11
248.1864999999999
 21
651.0
 31
0.0
  0
LINE
  5
44F
330
1E
100
AcDbEntity
  8
0
100
AcDbLine
 10
247.7864999999999
 20
651.0
 30
0.0
 11
248.1864999999999
 21
651.0
 31
0.0
  0
LINE
  5
455
330
1E
100
AcDbEntity
  8
0
100
AcDbLine
 10
244.2864999999999
 20
825.0
 30
0.0
 11
246.1864999999999
 21
825.0
 31
0.0
  0
LINE
  5
472
330
1E
100
AcDbEntity
  8
0
100
AcDbLine
 10
244.6864999999999
 20
824.5
 30
0.0
 11
246.5864999999999
 21
824.5
 31
0.0
  0
LINE
  5
473
330
1E
100
AcDbEntity
  8
0
100
AcDbLine
 10
244.6864999999999
 20
805.4999999999999
 30
0.0
 11
246.5864999999999
 21
805.4999999999999
 31
0.0
  0
LINE
  5
474
330
1E
100
AcDbEntity
  8
0
100
AcDbLine
 10
244.6864999999999
 20
804.4999999999999
 30
0.0
 11
246.5864999999999
 21
804.4999999999999
 31
0.0
  0
LINE
  5
49E
330
1E
100
AcDbEntity
  8
0
100
AcDbLine
 10
248.1864999999999
 20
804.4999999999999
 30
0.0
 11
248.1864999999999
 21
651.0
 31
0.0
  0
LINE
  5
49F
330
1E
100
AcDbEntity
  8
0
100
AcDbLine
 10
246.5864999999999
 20
804.4999999999999
 30
0.0
 11
247.7864999999999
 21
804.4999999999999
 31
0.0
  0
LINE
  5
4A0
330
1E
100
AcDbEntity
  8
0
100
AcDbLine
 10
246.1864999999999
 20
825.0
 30
0.0
 11
247.2865
 21
825.0
 31
0.0
  0
LINE
  5
4A1
330
1E
100
AcDbEntity
  8
0
100
AcDbLine
 10
246.5864999999999
 20
824.5
 30
0.0
 11
247.7864999999999
 21
824.5
 31
0.0
  0
LINE
  5
4A2
330
1E
100
AcDbEntity
  8
0
100
AcDbLine
 10
246.5864999999999
 20
805.4999999999999
 30
0.0
 11
247.7864999999999
 21
805.4999999999999
 31
0.0
  0
LINE
  5
4A3
330
1E
100
AcDbEntity
  8
0
100
AcDbLine
 10
245.6865
 20
805.0
 30
0.0
 11
246.7864999999999
 21
805.0
 31
0.0
  0
LINE
  5
4A4
330
1E
100
AcDbEntity
  8
0
100
AcDbLine
 10
247.6865
 20
825.0
 30
0.0
 11
248.1864999999999
 21
824.5
 31
0.0
  0
LINE
  5
4A5
330
1E
100
AcDbEntity
  8
0
100
AcDbLine
 10
247.2865
 20
825.0
 30
0.0
 11
247.6865
 21
825.0
 31
0.0
  0
LINE
  5
4A6
330
1E
100
AcDbEntity
  8
0
100
AcDbLine
 10
247.7864999999999
 20
824.5
 30
0.0
 11
248.1864999999999
 21
824.5
 31
0.0
  0
LINE
  5
4A7
330
1E
100
AcDbEntity
  8
0
100
AcDbLine
 10
248.1864999999999
 20
824.5
 30
0.0
 11
248.1864999999999
 21
805.4999999999999
 31
0.0
  0
LINE
  5
4A8
330
1E
100
AcDbEntity
  8
0
100
AcDbLine
 10
248.1864999999999
 20
805.4999999999999
 30
0.0
 11
248.1864999999999
 21
824.5
 31
0.0
  0
LINE
  5
4A9
330
1E
100
AcDbEntity
  8
0
100
AcDbLine
 10
247.7864999999999
 20
805.4999999999999
 30
0.0
 11
248.1864999999999
 21
805.4999999999999
 31
0.0
  0
LINE
  5
4AA
330
1E
100
AcDbEntity
  8
0
100
AcDbLine
 10
247.1865
 20
805.0
 30
0.0
 11
248.1864999999999
 21
804.4999999999999
 31
0.0
  0
LINE
  5
4AB
330
1E
100
AcDbEntity
  8
0
100
AcDbLine
 10
247.1865
 20
805.0
 30
0.0
 11
248.1864999999999
 21
805.4999999999999
 31
0.0
  0
LINE
  5
4AC
330
1E
100
AcDbEntity
  8
0
100
AcDbLine
 10
246.7864999999999
 20
805.0
 30
0.0
 11
247.1865
 21
805.0
 31
0.0
  0
LINE
  5
4AD
330
1E
100
AcDbEntity
  8
0
100
AcDbLine
 10
247.7864999999999
 20
804.4999999999999
 30
0.0
 11
248.1864999999999
 21
804.4999999999999
 31
0.0
  0
LINE
  5
4B0
330
1E
100
AcDbEntity
  8
0
100
AcDbLine
 10
244.1415
 20
498.1489999999999
 30
0.0
 11
246.6955
 21
476.531
 31
0.0
  0
LINE
  5
4B1
330
1E
100
AcDbEntity
  8
0
100
AcDbLine
 10
246.6955
 20
476.531
 30
0.0
 11
250.8904999999999
 21
452.423
 31
0.0
  0
LINE
  5
4B2
330
1E
100
AcDbEntity
  8
0
100
AcDbLine
 10
250.8904999999999
 20
452.423
 30
0.0
 11
256.6615
 21
428.1159999999999
 31
0.0
  0
LINE
  5
4B3
330
1E
100
AcDbEntity
  8
0
100
AcDbLine
 10
242.8335
 20
420.1469999999999
 30
0.0
 11
250.7874999999999
 21
396.7359999999999
 31
0.0
  0
LINE
  5
4B4
330
1E
100
AcDbEntity
  8
0
100
AcDbLine
 10
256.6615
 20
428.1159999999999
 30
0.0
 11
264.1315
 21
405.403
 31
0.0
  0
LINE
  5
4B5
330
1E
100
AcDbEntity
  8
0
100
AcDbLine
 10
250.7874999999999
 20
396.7359999999999
 30
0.0
 11
259.7735
 21
376.513
 31
0.0
  0
LINE
  5
4B6
330
1E
100
AcDbEntity
  8
0
100
AcDbLine
 10
264.1315
 20
405.403
 30
0.0
 11
272.7335
 21
385.878
 31
0.0
  0
LINE
  5
4B7
330
1E
100
AcDbEntity
  8
0
100
AcDbLine
 10
272.7335
 20
385.878
 30
0.0
 11
284.5625
 21
364.36
 31
0.0
  0
LINE
  5
4B8
330
1E
100
AcDbEntity
  8
0
100
AcDbLine
 10
279.9195
 20
169.1019999999999
 30
0.0
 11
286.604450081425
 21
183.5478672638499
 31
0.0
  0
LINE
  5
4B9
330
1E
100
AcDbEntity
  8
0
100
AcDbLine
 10
279.9195
 20
169.1019999999999
 30
0.0
 11
286.604450081425
 21
183.5478672638499
 31
0.0
  0
LINE
  5
4BA
330
1E
100
AcDbEntity
  8
0
100
AcDbLine
 10
269.4884999999999
 20
150.274
 30
0.0
 11
279.9195
 21
169.1019999999999
 31
0.0
  0
LINE
  5
4BD
330
1E
100
AcDbEntity
  8
0
100
AcDbLine
 10
291.4445
 20
313.152
 30
0.0
 11
296.7685
 21
292.132
 31
0.0
  0
LINE
  5
4BE
330
1E
100
AcDbEntity
  8
0
100
AcDbLine
 10
282.2735
 20
334.2709999999999
 30
0.0
 11
291.4445
 21
313.152
 31
0.0
  0
LINE
  5
4C0
330
1E
100
AcDbEntity
  8
0
100
AcDbLine
 10
284.5625
 20
364.36
 30
0.0
 11
296.1014999999999
 21
342.24
 31
0.0
  0
LINE
  5
4C5
330
1E
100
AcDbEntity
  8
0
100
AcDbLine
 10
300.1155
 20
270.813
 30
0.0
 11
301.0264999999999
 21
251.6859999999999
 31
0.0
  0
LINE
  5
4C6
330
1E
100
AcDbEntity
  8
0
100
AcDbLine
 10
296.7685
 20
292.132
 30
0.0
 11
300.1155
 21
270.813
 31
0.0
  0
LINE
  5
4C7
330
1E
100
AcDbEntity
  8
0
100
AcDbLine
 10
296.1014999999999
 20
342.24
 30
0.0
 11
306.3215
 21
318.6309999999999
 31
0.0
  0
LINE
  5
4C8
330
1E
100
AcDbEntity
  8
0
100
AcDbLine
 10
299.5705
 20
232.559
 30
0.0
 11
301.0264999999999
 21
251.6859999999999
 31
0.0
  0
LINE
  5
4C9
330
1E
100
AcDbEntity
  8
0
100
AcDbLine
 10
295.6154999999999
 20
211.2409999999999
 30
0.0
 11
299.5705
 21
232.559
 31
0.0
  0
LINE
  5
4CA
330
1E
100
AcDbEntity
  8
0
100
AcDbLine
 10
292.3993308468539
 20
199.827210434049
 30
0.0
 11
295.6154999999999
 21
211.2409999999999
 31
0.0
  0
LINE
  5
4CB
330
1E
100
AcDbEntity
  8
0
100
AcDbLine
 10
312.3974999999999
 20
294.9209999999999
 30
0.0
 11
315.9135
 21
271.61
 31
0.0
  0
LINE
  5
4CC
330
1E
100
AcDbEntity
  8
0
100
AcDbLine
 10
306.3215
 20
318.6309999999999
 30
0.0
 11
312.3974999999999
 21
294.9209999999999
 31
0.0
  0
LINE
  5
4CD
330
1E
100
AcDbEntity
  8
0
100
AcDbLine
 10
315.9135
 20
271.61
 30
0.0
 11
316.8134999999999
 21
251.6859999999999
 31
0.0
  0
LINE
  5
4CE
330
1E
100
AcDbEntity
  8
0
100
AcDbLine
 10
315.3455
 20
231.762
 30
0.0
 11
316.8134999999999
 21
251.6859999999999
 31
0.0
  0
LINE
  5
4CF
330
1E
100
AcDbEntity
  8
0
100
AcDbLine
 10
311.1655
 20
208.4509999999999
 30
0.0
 11
315.3455
 21
231.762
 31
0.0
  0
LINE
  5
4D0
330
1E
100
AcDbEntity
  8
0
100
AcDbLine
 10
304.4144999999999
 20
184.742
 30
0.0
 11
311.1655
 21
208.4509999999999
 31
0.0
  0
LINE
  5
4D1
330
1E
100
AcDbEntity
  8
0
100
AcDbLine
 10
293.5205
 20
161.132
 30
0.0
 11
304.4144999999999
 21
184.742
 31
0.0
  0
LINE
  5
4D2
330
1E
100
AcDbEntity
  8
0
100
AcDbLine
 10
281.3795
 20
140.013
 30
0.0
 11
293.5205
 21
161.132
 31
0.0
  0
LINE
  5
4D4
330
1E
100
AcDbEntity
  8
0
100
AcDbLine
 10
255.4625
 20
135.331
 30
0.0
 11
269.4884999999999
 21
150.274
 31
0.0
  0
LINE
  5
4D5
330
1E
100
AcDbEntity
  8
0
100
AcDbLine
 10
237.6794999999999
 20
119.79
 30
0.0
 11
255.4625
 21
135.331
 31
0.0
  0
LINE
  5
4D6
330
1E
100
AcDbEntity
  8
0
100
AcDbLine
 10
220.2865
 20
110.924
 30
0.0
 11
237.6794999999999
 21
119.79
 31
0.0
  0
LINE
  5
4D7
330
1E
100
AcDbEntity
  8
0
100
AcDbLine
 10
200.4675
 20
104.847
 30
0.0
 11
220.2865
 21
110.924
 31
0.0
  0
LINE
  5
4D8
330
1E
100
AcDbEntity
  8
0
100
AcDbLine
 10
186.4335
 20
103.2529999999999
 30
0.0
 11
200.4675
 21
104.847
 31
0.0
  0
LINE
  5
4D9
330
1E
100
AcDbEntity
  8
0
100
AcDbLine
 10
186.2065
 20
87.31419999999999
 30
0.0
 11
203.0054999999999
 21
89.10729999999999
 31
0.0
  0
LINE
  5
4E1
330
1E
100
AcDbEntity
  8
0
100
AcDbLine
 10
292.3993308468539
 20
199.827210434049
 30
0.0
 11
286.604450081425
 21
183.5478672638499
 31
0.0
  0
LINE
  5
4E2
330
1E
100
AcDbEntity
  8
0
100
AcDbLine
 10
281.3795
 20
140.013
 30
0.0
 11
280.031616459159
 21
138.604764728148
 31
0.0
  0
LINE
  5
4E3
330
1E
100
AcDbEntity
  8
0
100
AcDbLine
 10
241.1154999999999
 20
735.0
 30
0.0
 11
241.5434999999999
 21
734.4999999999999
 31
0.0
  0
LINE
  5
4E4
330
1E
100
AcDbEntity
  8
0
100
AcDbLine
 10
239.8295
 20
734.4999999999999
 30
0.0
 11
240.2575
 21
735.0
 31
0.0
  0
LINE
  5
4E5
330
1E
100
AcDbEntity
  8
0
100
AcDbLine
 10
239.8295
 20
733.4999999999999
 30
0.0
 11
240.2575
 21
733.0
 31
0.0
  0
LINE
  5
4E6
330
1E
100
AcDbEntity
  8
0
100
AcDbLine
 10
239.8295
 20
733.4999999999999
 30
0.0
 11
239.8295
 21
734.4999999999999
 31
0.0
  0
LINE
  5
4E7
330
1E
100
AcDbEntity
  8
0
100
AcDbLine
 10
239.8295
 20
734.4999999999999
 30
0.0
 11
239.8295
 21
733.4999999999999
 31
0.0
  0
LINE
  5
4E8
330
1E
100
AcDbEntity
  8
0
100
AcDbLine
 10
240.2575
 20
733.0
 30
0.0
 11
241.1154999999999
 21
733.0
 31
0.0
  0
LINE
  5
4E9
330
1E
100
AcDbEntity
  8
0
100
AcDbLine
 10
241.5434999999999
 20
734.4999999999999
 30
0.0
 11
241.5434999999999
 21
733.4999999999999
 31
0.0
  0
LINE
  5
4EA
330
1E
100
AcDbEntity
  8
0
100
AcDbLine
 10
241.5434999999999
 20
733.4999999999999
 30
0.0
 11
241.5434999999999
 21
734.4999999999999
 31
0.0
  0
LINE
  5
4EB
330
1E
100
AcDbEntity
  8
0
100
AcDbLine
 10
241.1154999999999
 20
733.0
 30
0.0
 11
241.5434999999999
 21
733.4999999999999
 31
0.0
  0
LINE
  5
4EC
330
1E
100
AcDbEntity
  8
0
100
AcDbLine
 10
239.8295
 20
741.2999999999999
 30
0.0
 11
240.2575
 21
741.7999999999999
 31
0.0
  0
LINE
  5
4ED
330
1E
100
AcDbEntity
  8
0
100
AcDbLine
 10
239.8295
 20
748.1
 30
0.0
 11
240.2575
 21
748.6
 31
0.0
  0
LINE
  5
4EE
330
1E
100
AcDbEntity
  8
0
100
AcDbLine
 10
239.8295
 20
747.1
 30
0.0
 11
240.2575
 21
746.6
 31
0.0
  0
LINE
  5
4EF
330
1E
100
AcDbEntity
  8
0
100
AcDbLine
 10
239.8295
 20
740.2999999999999
 30
0.0
 11
240.2575
 21
739.7999999999999
 31
0.0
  0
LINE
  5
4F0
330
1E
100
AcDbEntity
  8
0
100
AcDbLine
 10
239.8295
 20
741.2999999999999
 30
0.0
 11
239.8295
 21
740.2999999999999
 31
0.0
  0
LINE
  5
4F1
330
1E
100
AcDbEntity
  8
0
100
AcDbLine
 10
239.8295
 20
748.1
 30
0.0
 11
239.8295
 21
747.1
 31
0.0
  0
LINE
  5
4F2
330
1E
100
AcDbEntity
  8
0
100
AcDbLine
 10
239.8295
 20
747.1
 30
0.0
 11
239.8295
 21
748.1
 31
0.0
  0
LINE
  5
4F3
330
1E
100
AcDbEntity
  8
0
100
AcDbLine
 10
239.8295
 20
740.2999999999999
 30
0.0
 11
239.8295
 21
741.2999999999999
 31
0.0
  0
LINE
  5
4F4
330
1E
100
AcDbEntity
  8
0
100
AcDbLine
 10
240.2575
 20
741.7999999999999
 30
0.0
 11
241.1154999999999
 21
741.7999999999999
 31
0.0
  0
LINE
  5
4F5
330
1E
100
AcDbEntity
  8
0
100
AcDbLine
 10
241.1154999999999
 20
741.7999999999999
 30
0.0
 11
241.5434999999999
 21
741.2999999999999
 31
0.0
  0
LINE
  5
4F6
330
1E
100
AcDbEntity
  8
0
100
AcDbLine
 10
241.1154999999999
 20
748.6
 30
0.0
 11
241.5434999999999
 21
748.1
 31
0.0
  0
LINE
  5
4F7
330
1E
100
AcDbEntity
  8
0
100
AcDbLine
 10
241.5434999999999
 20
748.1
 30
0.0
 11
241.5434999999999
 21
747.1
 31
0.0
  0
LINE
  5
4F8
330
1E
100
AcDbEntity
  8
0
100
AcDbLine
 10
241.5434999999999
 20
747.1
 30
0.0
 11
241.5434999999999
 21
748.1
 31
0.0
  0
LINE
  5
4F9
330
1E
100
AcDbEntity
  8
0
100
AcDbLine
 10
241.1154999999999
 20
746.6
 30
0.0
 11
241.5434999999999
 21
747.1
 31
0.0
  0
LINE
  5
4FA
330
1E
100
AcDbEntity
  8
0
100
AcDbLine
 10
241.1154999999999
 20
739.7999999999999
 30
0.0
 11
241.5434999999999
 21
740.2999999999999
 31
0.0
  0
LINE
  5
4FB
330
1E
100
AcDbEntity
  8
0
100
AcDbLine
 10
241.5434999999999
 20
741.2999999999999
 30
0.0
 11
241.5434999999999
 21
740.2999999999999
 31
0.0
  0
LINE
  5
4FC
330
1E
100
AcDbEntity
  8
0
100
AcDbLine
 10
241.5434999999999
 20
740.2999999999999
 30
0.0
 11
241.5434999999999
 21
741.2999999999999
 31
0.0
  0
LINE
  5
4FD
330
1E
100
AcDbEntity
  8
0
100
AcDbLine
 10
240.2575
 20
739.7999999999999
 30
0.0
 11
241.1154999999999
 21
739.7999999999999
 31
0.0
  0
LINE
  5
4FE
330
1E
100
AcDbEntity
  8
0
100
AcDbLine
 10
240.2575
 20
748.6
 30
0.0
 11
241.1154999999999
 21
748.6
 31
0.0
  0
LINE
  5
4FF
330
1E
100
AcDbEntity
  8
0
100
AcDbLine
 10
240.2575
 20
746.6
 30
0.0
 11
241.1154999999999
 21
746.6
 31
0.0
  0
LINE
  5
500
330
1E
100
AcDbEntity
  8
0
100
AcDbLine
 10
240.2575
 20
735.0
 30
0.0
 11
241.1154999999999
 21
735.0
 31
0.0
  0
LINE
  5
501
330
1E
100
AcDbEntity
  8
0
100
AcDbLine
 10
239.8295
 20
754.8999999999999
 30
0.0
 11
240.2575
 21
755.4
 31
0.0
  0
LINE
  5
502
330
1E
100
AcDbEntity
  8
0
100
AcDbLine
 10
239.8295
 20
753.8999999999999
 30
0.0
 11
240.2575
 21
753.3999999999999
 31
0.0
  0
LINE
  5
503
330
1E
100
AcDbEntity
  8
0
100
AcDbLine
 10
239.8295
 20
761.7
 30
0.0
 11
240.2575
 21
762.2
 31
0.0
  0
LINE
  5
504
330
1E
100
AcDbEntity
  8
0
100
AcDbLine
 10
239.8295
 20
760.7
 30
0.0
 11
240.2575
 21
760.2
 31
0.0
  0
LINE
  5
505
330
1E
100
AcDbEntity
  8
0
100
AcDbLine
 10
239.8295
 20
754.8999999999999
 30
0.0
 11
239.8295
 21
753.8999999999999
 31
0.0
  0
LINE
  5
506
330
1E
100
AcDbEntity
  8
0
100
AcDbLine
 10
239.8295
 20
753.8999999999999
 30
0.0
 11
239.8295
 21
754.8999999999999
 31
0.0
  0
LINE
  5
507
330
1E
100
AcDbEntity
  8
0
100
AcDbLine
 10
239.8295
 20
761.7
 30
0.0
 11
239.8295
 21
760.7
 31
0.0
  0
LINE
  5
508
330
1E
100
AcDbEntity
  8
0
100
AcDbLine
 10
239.8295
 20
760.7
 30
0.0
 11
239.8295
 21
761.7
 31
0.0
  0
LINE
  5
509
330
1E
100
AcDbEntity
  8
0
100
AcDbLine
 10
241.5434999999999
 20
753.8999999999999
 30
0.0
 11
241.5434999999999
 21
754.8999999999999
 31
0.0
  0
LINE
  5
50A
330
1E
100
AcDbEntity
  8
0
100
AcDbLine
 10
241.5434999999999
 20
754.8999999999999
 30
0.0
 11
241.5434999999999
 21
753.8999999999999
 31
0.0
  0
LINE
  5
50B
330
1E
100
AcDbEntity
  8
0
100
AcDbLine
 10
241.5434999999999
 20
761.7
 30
0.0
 11
241.5434999999999
 21
760.7
 31
0.0
  0
LINE
  5
50C
330
1E
100
AcDbEntity
  8
0
100
AcDbLine
 10
241.5434999999999
 20
760.7
 30
0.0
 11
241.5434999999999
 21
761.7
 31
0.0
  0
LINE
  5
50D
330
1E
100
AcDbEntity
  8
0
100
AcDbLine
 10
241.1154999999999
 20
755.4
 30
0.0
 11
241.5434999999999
 21
754.8999999999999
 31
0.0
  0
LINE
  5
50E
330
1E
100
AcDbEntity
  8
0
100
AcDbLine
 10
241.1154999999999
 20
753.3999999999999
 30
0.0
 11
241.5434999999999
 21
753.8999999999999
 31
0.0
  0
LINE
  5
50F
330
1E
100
AcDbEntity
  8
0
100
AcDbLine
 10
241.1154999999999
 20
762.2
 30
0.0
 11
241.5434999999999
 21
761.7
 31
0.0
  0
LINE
  5
510
330
1E
100
AcDbEntity
  8
0
100
AcDbLine
 10
241.1154999999999
 20
760.2
 30
0.0
 11
241.5434999999999
 21
760.7
 31
0.0
  0
LINE
  5
511
330
1E
100
AcDbEntity
  8
0
100
AcDbLine
 10
240.2575
 20
755.4
 30
0.0
 11
241.1154999999999
 21
755.4
 31
0.0
  0
LINE
  5
512
330
1E
100
AcDbEntity
  8
0
100
AcDbLine
 10
240.2575
 20
753.3999999999999
 30
0.0
 11
241.1154999999999
 21
753.3999999999999
 31
0.0
  0
LINE
  5
513
330
1E
100
AcDbEntity
  8
0
100
AcDbLine
 10
240.2575
 20
762.2
 30
0.0
 11
241.1154999999999
 21
762.2
 31
0.0
  0
LINE
  5
514
330
1E
100
AcDbEntity
  8
0
100
AcDbLine
 10
240.2575
 20
760.2
 30
0.0
 11
241.1154999999999
 21
760.2
 31
0.0
  0
LINE
  5
515
330
1E
100
AcDbEntity
  8
0
100
AcDbLine
 10
239.8295
 20
768.5
 30
0.0
 11
240.2575
 21
769.0
 31
0.0
  0
LINE
  5
516
330
1E
100
AcDbEntity
  8
0
100
AcDbLine
 10
239.8295
 20
767.4999999999999
 30
0.0
 11
240.2575
 21
767.0
 31
0.0
  0
LINE
  5
517
330
1E
100
AcDbEntity
  8
0
100
AcDbLine
 10
239.8295
 20
775.3
 30
0.0
 11
240.2575
 21
775.8
 31
0.0
  0
LINE
  5
518
330
1E
100
AcDbEntity
  8
0
100
AcDbLine
 10
239.8295
 20
774.2999999999999
 30
0.0
 11
240.2575
 21
773.7999999999999
 31
0.0
  0
LINE
  5
519
330
1E
100
AcDbEntity
  8
0
100
AcDbLine
 10
239.8295
 20
782.1
 30
0.0
 11
240.2575
 21
782.6
 31
0.0
  0
LINE
  5
51A
330
1E
100
AcDbEntity
  8
0
100
AcDbLine
 10
239.8295
 20
781.1
 30
0.0
 11
240.2575
 21
780.6
 31
0.0
  0
LINE
  5
51B
330
1E
100
AcDbEntity
  8
0
100
AcDbLine
 10
239.8295
 20
768.5
 30
0.0
 11
239.8295
 21
767.4999999999999
 31
0.0
  0
LINE
  5
51C
330
1E
100
AcDbEntity
  8
0
100
AcDbLine
 10
239.8295
 20
767.4999999999999
 30
0.0
 11
239.8295
 21
768.5
 31
0.0
  0
LINE
  5
51D
330
1E
100
AcDbEntity
  8
0
100
AcDbLine
 10
239.8295
 20
775.3
 30
0.0
 11
239.8295
 21
774.2999999999999
 31
0.0
  0
LINE
  5
51E
330
1E
100
AcDbEntity
  8
0
100
AcDbLine
 10
239.8295
 20
774.2999999999999
 30
0.0
 11
239.8295
 21
775.3
 31
0.0
  0
LINE
  5
51F
330
1E
100
AcDbEntity
  8
0
100
AcDbLine
 10
239.8295
 20
782.1
 30
0.0
 11
239.8295
 21
781.1
 31
0.0
  0
LINE
  5
520
330
1E
100
AcDbEntity
  8
0
100
AcDbLine
 10
239.8295
 20
781.1
 30
0.0
 11
239.8295
 21
782.1
 31
0.0
  0
LINE
  5
521
330
1E
100
AcDbEntity
  8
0
100
AcDbLine
 10
241.5434999999999
 20
767.4999999999999
 30
0.0
 11
241.5434999999999
 21
768.5
 31
0.0
  0
LINE
  5
522
330
1E
100
AcDbEntity
  8
0
100
AcDbLine
 10
241.5434999999999
 20
768.5
 30
0.0
 11
241.5434999999999
 21
767.4999999999999
 31
0.0
  0
LINE
  5
523
330
1E
100
AcDbEntity
  8
0
100
AcDbLine
 10
241.5434999999999
 20
774.2999999999999
 30
0.0
 11
241.5434999999999
 21
775.3
 31
0.0
  0
LINE
  5
524
330
1E
100
AcDbEntity
  8
0
100
AcDbLine
 10
241.5434999999999
 20
775.3
 30
0.0
 11
241.5434999999999
 21
774.2999999999999
 31
0.0
  0
LINE
  5
525
330
1E
100
AcDbEntity
  8
0
100
AcDbLine
 10
241.5434999999999
 20
782.1
 30
0.0
 11
241.5434999999999
 21
781.1
 31
0.0
  0
LINE
  5
526
330
1E
100
AcDbEntity
  8
0
100
AcDbLine
 10
241.5434999999999
 20
781.1
 30
0.0
 11
241.5434999999999
 21
782.1
 31
0.0
  0
LINE
  5
527
330
1E
100
AcDbEntity
  8
0
100
AcDbLine
 10
241.1154999999999
 20
769.0
 30
0.0
 11
241.5434999999999
 21
768.5
 31
0.0
  0
LINE
  5
528
330
1E
100
AcDbEntity
  8
0
100
AcDbLine
 10
241.1154999999999
 20
767.0
 30
0.0
 11
241.5434999999999
 21
767.4999999999999
 31
0.0
  0
LINE
  5
529
330
1E
100
AcDbEntity
  8
0
100
AcDbLine
 10
241.1154999999999
 20
775.8
 30
0.0
 11
241.5434999999999
 21
775.3
 31
0.0
  0
LINE
  5
52A
330
1E
100
AcDbEntity
  8
0
100
AcDbLine
 10
241.1154999999999
 20
773.7999999999999
 30
0.0
 11
241.5434999999999
 21
774.2999999999999
 31
0.0
  0
LINE
  5
52B
330
1E
100
AcDbEntity
  8
0
100
AcDbLine
 10
241.1154999999999
 20
782.6
 30
0.0
 11
241.5434999999999
 21
782.1
 31
0.0
  0
LINE
  5
52C
330
1E
100
AcDbEntity
  8
0
100
AcDbLine
 10
241.1154999999999
 20
780.6
 30
0.0
 11
241.5434999999999
 21
781.1
 31
0.0
  0
LINE
  5
52D
330
1E
100
AcDbEntity
  8
0
100
AcDbLine
 10
240.2575
 20
769.0
 30
0.0
 11
241.1154999999999
 21
769.0
 31
0.0
  0
LINE
  5
52E
330
1E
100
AcDbEntity
  8
0
100
AcDbLine
 10
240.2575
 20
767.0
 30
0.0
 11
241.1154999999999
 21
767.0
 31
0.0
  0
LINE
  5
52F
330
1E
100
AcDbEntity
  8
0
100
AcDbLine
 10
240.2575
 20
775.8
 30
0.0
 11
241.1154999999999
 21
775.8
 31
0.0
  0
LINE
  5
530
330
1E
100
AcDbEntity
  8
0
100
AcDbLine
 10
240.2575
 20
773.7999999999999
 30
0.0
 11
241.1154999999999
 21
773.7999999999999
 31
0.0
  0
LINE
  5
531
330
1E
100
AcDbEntity
  8
0
100
AcDbLine
 10
240.2575
 20
782.6
 30
0.0
 11
241.1154999999999
 21
782.6
 31
0.0
  0
LINE
  5
532
330
1E
100
AcDbEntity
  8
0
100
AcDbLine
 10
240.2575
 20
780.6
 30
0.0
 11
241.1154999999999
 21
780.6
 31
0.0
  0
LINE
  5
533
330
1E
100
AcDbEntity
  8
0
100
AcDbLine
 10
239.8295
 20
787.8999999999999
 30
0.0
 11
240.2575
 21
787.3999999999999
 31
0.0
  0
LINE
  5
534
330
1E
100
AcDbEntity
  8
0
100
AcDbLine
 10
239.8295
 20
794.7
 30
0.0
 11
240.2575
 21
794.2000000000001
 31
0.0
  0
LINE
  5
535
330
1E
100
AcDbEntity
  8
0
100
AcDbLine
 10
239.8295
 20
795.7
 30
0.0
 11
240.2575
 21
796.2
 31
0.0
  0
LINE
  5
536
330
1E
100
AcDbEntity
  8
0
100
AcDbLine
 10
239.8295
 20
788.9
 30
0.0
 11
240.2575
 21
789.4
 31
0.0
  0
LINE
  5
537
330
1E
100
AcDbEntity
  8
0
100
AcDbLine
 10
239.8295
 20
787.8999999999999
 30
0.0
 11
239.8295
 21
788.9
 31
0.0
  0
LINE
  5
538
330
1E
100
AcDbEntity
  8
0
100
AcDbLine
 10
239.8295
 20
794.7
 30
0.0
 11
239.8295
 21
795.7
 31
0.0
  0
LINE
  5
539
330
1E
100
AcDbEntity
  8
0
100
AcDbLine
 10
239.8295
 20
795.7
 30
0.0
 11
239.8295
 21
794.7
 31
0.0
  0
LINE
  5
53A
330
1E
100
AcDbEntity
  8
0
100
AcDbLine
 10
239.8295
 20
788.9
 30
0.0
 11
239.8295
 21
787.8999999999999
 31
0.0
  0
LINE
  5
53B
330
1E
100
AcDbEntity
  8
0
100
AcDbLine
 10
241.5434999999999
 20
795.7
 30
0.0
 11
241.5434999999999
 21
794.7
 31
0.0
  0
LINE
  5
53C
330
1E
100
AcDbEntity
  8
0
100
AcDbLine
 10
241.5434999999999
 20
794.7
 30
0.0
 11
241.5434999999999
 21
795.7
 31
0.0
  0
LINE
  5
53D
330
1E
100
AcDbEntity
  8
0
100
AcDbLine
 10
241.5434999999999
 20
788.9
 30
0.0
 11
241.5434999999999
 21
787.8999999999999
 31
0.0
  0
LINE
  5
53E
330
1E
100
AcDbEntity
  8
0
100
AcDbLine
 10
241.5434999999999
 20
787.8999999999999
 30
0.0
 11
241.5434999999999
 21
788.9
 31
0.0
  0
LINE
  5
53F
330
1E
100
AcDbEntity
  8
0
100
AcDbLine
 10
241.1154999999999
 20
787.3999999999999
 30
0.0
 11
241.5434999999999
 21
787.8999999999999
 31
0.0
  0
LINE
  5
540
330
1E
100
AcDbEntity
  8
0
100
AcDbLine
 10
241.1154999999999
 20
794.2000000000001
 30
0.0
 11
241.5434999999999
 21
794.7
 31
0.0
  0
LINE
  5
541
330
1E
100
AcDbEntity
  8
0
100
AcDbLine
 10
241.1154999999999
 20
796.2
 30
0.0
 11
241.5434999999999
 21
795.7
 31
0.0
  0
LINE
  5
542
330
1E
100
AcDbEntity
  8
0
100
AcDbLine
 10
241.1154999999999
 20
789.4
 30
0.0
 11
241.5434999999999
 21
788.9
 31
0.0
  0
LINE
  5
543
330
1E
100
AcDbEntity
  8
0
100
AcDbLine
 10
240.2575
 20
787.3999999999999
 30
0.0
 11
241.1154999999999
 21
787.3999999999999
 31
0.0
  0
LINE
  5
544
330
1E
100
AcDbEntity
  8
0
100
AcDbLine
 10
240.2575
 20
794.2000000000001
 30
0.0
 11
241.1154999999999
 21
794.2000000000001
 31
0.0
  0
LINE
  5
545
330
1E
100
AcDbEntity
  8
0
100
AcDbLine
 10
240.2575
 20
796.2
 30
0.0
 11
241.1154999999999
 21
796.2
 31
0.0
  0
LINE
  5
546
330
1E
100
AcDbEntity
  8
0
100
AcDbLine
 10
240.2575
 20
789.4
 30
0.0
 11
241.1154999999999
 21
789.4
 31
0.0
  0
LINE
  5
547
330
1E
100
AcDbEntity
  8
0
100
AcDbLine
 10
239.8295
 20
802.5
 30
0.0
 11
240.2575
 21
803.0
 31
0.0
  0
LINE
  5
548
330
1E
100
AcDbEntity
  8
0
100
AcDbLine
 10
239.8295
 20
801.5
 30
0.0
 11
240.2575
 21
801.0
 31
0.0
  0
LINE
  5
549
330
1E
100
AcDbEntity
  8
0
100
AcDbLine
 10
239.8295
 20
802.5
 30
0.0
 11
239.8295
 21
801.5
 31
0.0
  0
LINE
  5
54A
330
1E
100
AcDbEntity
  8
0
100
AcDbLine
 10
239.8295
 20
801.5
 30
0.0
 11
239.8295
 21
802.5
 31
0.0
  0
LINE
  5
54B
330
1E
100
AcDbEntity
  8
0
100
AcDbLine
 10
241.5434999999999
 20
801.5
 30
0.0
 11
241.5434999999999
 21
802.5
 31
0.0
  0
LINE
  5
54C
330
1E
100
AcDbEntity
  8
0
100
AcDbLine
 10
241.5434999999999
 20
802.5
 30
0.0
 11
241.5434999999999
 21
801.5
 31
0.0
  0
LINE
  5
54D
330
1E
100
AcDbEntity
  8
0
100
AcDbLine
 10
241.1154999999999
 20
803.0
 30
0.0
 11
241.5434999999999
 21
802.5
 31
0.0
  0
LINE
  5
54E
330
1E
100
AcDbEntity
  8
0
100
AcDbLine
 10
241.1154999999999
 20
801.0
 30
0.0
 11
241.5434999999999
 21
801.5
 31
0.0
  0
LINE
  5
54F
330
1E
100
AcDbEntity
  8
0
100
AcDbLine
 10
240.2575
 20
803.0
 30
0.0
 11
241.1154999999999
 21
803.0
 31
0.0
  0
LINE
  5
550
330
1E
100
AcDbEntity
  8
0
100
AcDbLine
 10
240.2575
 20
801.0
 30
0.0
 11
241.1154999999999
 21
801.0
 31
0.0
  0
LINE
  5
551
330
1E
100
AcDbEntity
  8
0
100
AcDbLine
 10
244.3294999999999
 20
734.4999999999999
 30
0.0
 11
244.7575
 21
735.0
 31
0.0
  0
LINE
  5
552
330
1E
100
AcDbEntity
  8
0
100
AcDbLine
 10
245.6154999999999
 20
735.0
 30
0.0
 11
246.0434999999999
 21
734.4999999999999
 31
0.0
  0
LINE
  5
553
330
1E
100
AcDbEntity
  8
0
100
AcDbLine
 10
245.6154999999999
 20
733.0
 30
0.0
 11
246.0434999999999
 21
733.4999999999999
 31
0.0
  0
LINE
  5
554
330
1E
100
AcDbEntity
  8
0
100
AcDbLine
 10
246.0434999999999
 20
733.4999999999999
 30
0.0
 11
246.0434999999999
 21
734.4999999999999
 31
0.0
  0
LINE
  5
555
330
1E
100
AcDbEntity
  8
0
100
AcDbLine
 10
246.0434999999999
 20
734.4999999999999
 30
0.0
 11
246.0434999999999
 21
733.4999999999999
 31
0.0
  0
LINE
  5
556
330
1E
100
AcDbEntity
  8
0
100
AcDbLine
 10
244.7575
 20
733.0
 30
0.0
 11
245.6154999999999
 21
733.0
 31
0.0
  0
LINE
  5
557
330
1E
100
AcDbEntity
  8
0
100
AcDbLine
 10
244.3294999999999
 20
734.4999999999999
 30
0.0
 11
244.3294999999999
 21
733.4999999999999
 31
0.0
  0
LINE
  5
558
330
1E
100
AcDbEntity
  8
0
100
AcDbLine
 10
244.3294999999999
 20
733.4999999999999
 30
0.0
 11
244.3294999999999
 21
734.4999999999999
 31
0.0
  0
LINE
  5
559
330
1E
100
AcDbEntity
  8
0
100
AcDbLine
 10
244.3294999999999
 20
733.4999999999999
 30
0.0
 11
244.7575
 21
733.0
 31
0.0
  0
LINE
  5
55A
330
1E
100
AcDbEntity
  8
0
100
AcDbLine
 10
244.7575
 20
735.0
 30
0.0
 11
245.6154999999999
 21
735.0
 31
0.0
  0
LINE
  5
55B
330
1E
100
AcDbEntity
  8
0
100
AcDbLine
 10
244.7575
 20
746.6
 30
0.0
 11
245.6154999999999
 21
746.6
 31
0.0
  0
LINE
  5
55C
330
1E
100
AcDbEntity
  8
0
100
AcDbLine
 10
244.7575
 20
748.6
 30
0.0
 11
245.6154999999999
 21
748.6
 31
0.0
  0
LINE
  5
55D
330
1E
100
AcDbEntity
  8
0
100
AcDbLine
 10
244.7575
 20
739.7999999999999
 30
0.0
 11
245.6154999999999
 21
739.7999999999999
 31
0.0
  0
LINE
  5
55E
330
1E
100
AcDbEntity
  8
0
100
AcDbLine
 10
246.0434999999999
 20
740.2999999999999
 30
0.0
 11
246.0434999999999
 21
741.2999999999999
 31
0.0
  0
LINE
  5
55F
330
1E
100
AcDbEntity
  8
0
100
AcDbLine
 10
246.0434999999999
 20
741.2999999999999
 30
0.0
 11
246.0434999999999
 21
740.2999999999999
 31
0.0
  0
LINE
  5
560
330
1E
100
AcDbEntity
  8
0
100
AcDbLine
 10
245.6154999999999
 20
739.7999999999999
 30
0.0
 11
246.0434999999999
 21
740.2999999999999
 31
0.0
  0
LINE
  5
561
330
1E
100
AcDbEntity
  8
0
100
AcDbLine
 10
245.6154999999999
 20
746.6
 30
0.0
 11
246.0434999999999
 21
747.1
 31
0.0
  0
LINE
  5
562
330
1E
100
AcDbEntity
  8
0
100
AcDbLine
 10
246.0434999999999
 20
747.1
 30
0.0
 11
246.0434999999999
 21
748.1
 31
0.0
  0
LINE
  5
563
330
1E
100
AcDbEntity
  8
0
100
AcDbLine
 10
246.0434999999999
 20
748.1
 30
0.0
 11
246.0434999999999
 21
747.1
 31
0.0
  0
LINE
  5
564
330
1E
100
AcDbEntity
  8
0
100
AcDbLine
 10
245.6154999999999
 20
748.6
 30
0.0
 11
246.0434999999999
 21
748.1
 31
0.0
  0
LINE
  5
565
330
1E
100
AcDbEntity
  8
0
100
AcDbLine
 10
245.6154999999999
 20
741.7999999999999
 30
0.0
 11
246.0434999999999
 21
741.2999999999999
 31
0.0
  0
LINE
  5
566
330
1E
100
AcDbEntity
  8
0
100
AcDbLine
 10
244.7575
 20
741.7999999999999
 30
0.0
 11
245.6154999999999
 21
741.7999999999999
 31
0.0
  0
LINE
  5
567
330
1E
100
AcDbEntity
  8
0
100
AcDbLine
 10
244.3294999999999
 20
740.2999999999999
 30
0.0
 11
244.3294999999999
 21
741.2999999999999
 31
0.0
  0
LINE
  5
568
330
1E
100
AcDbEntity
  8
0
100
AcDbLine
 10
244.3294999999999
 20
747.1
 30
0.0
 11
244.3294999999999
 21
748.1
 31
0.0
  0
LINE
  5
569
330
1E
100
AcDbEntity
  8
0
100
AcDbLine
 10
244.3294999999999
 20
748.1
 30
0.0
 11
244.3294999999999
 21
747.1
 31
0.0
  0
LINE
  5
56A
330
1E
100
AcDbEntity
  8
0
100
AcDbLine
 10
244.3294999999999
 20
741.2999999999999
 30
0.0
 11
244.3294999999999
 21
740.2999999999999
 31
0.0
  0
LINE
  5
56B
330
1E
100
AcDbEntity
  8
0
100
AcDbLine
 10
244.3294999999999
 20
740.2999999999999
 30
0.0
 11
244.7575
 21
739.7999999999999
 31
0.0
  0
LINE
  5
56C
330
1E
100
AcDbEntity
  8
0
100
AcDbLine
 10
244.3294999999999
 20
747.1
 30
0.0
 11
244.7575
 21
746.6
 31
0.0
  0
LINE
  5
56D
330
1E
100
AcDbEntity
  8
0
100
AcDbLine
 10
244.3294999999999
 20
748.1
 30
0.0
 11
244.7575
 21
748.6
 31
0.0
  0
LINE
  5
56E
330
1E
100
AcDbEntity
  8
0
100
AcDbLine
 10
244.3294999999999
 20
741.2999999999999
 30
0.0
 11
244.7575
 21
741.7999999999999
 31
0.0
  0
LINE
  5
56F
330
1E
100
AcDbEntity
  8
0
100
AcDbLine
 10
244.7575
 20
760.2
 30
0.0
 11
245.6154999999999
 21
760.2
 31
0.0
  0
LINE
  5
570
330
1E
100
AcDbEntity
  8
0
100
AcDbLine
 10
244.7575
 20
762.2
 30
0.0
 11
245.6154999999999
 21
762.2
 31
0.0
  0
LINE
  5
571
330
1E
100
AcDbEntity
  8
0
100
AcDbLine
 10
244.7575
 20
753.3999999999999
 30
0.0
 11
245.6154999999999
 21
753.3999999999999
 31
0.0
  0
LINE
  5
572
330
1E
100
AcDbEntity
  8
0
100
AcDbLine
 10
244.7575
 20
755.4
 30
0.0
 11
245.6154999999999
 21
755.4
 31
0.0
  0
LINE
  5
573
330
1E
100
AcDbEntity
  8
0
100
AcDbLine
 10
245.6154999999999
 20
760.2
 30
0.0
 11
246.0434999999999
 21
760.7
 31
0.0
  0
LINE
  5
574
330
1E
100
AcDbEntity
  8
0
100
AcDbLine
 10
245.6154999999999
 20
762.2
 30
0.0
 11
246.0434999999999
 21
761.7
 31
0.0
  0
LINE
  5
575
330
1E
100
AcDbEntity
  8
0
100
AcDbLine
 10
245.6154999999999
 20
753.3999999999999
 30
0.0
 11
246.0434999999999
 21
753.8999999999999
 31
0.0
  0
LINE
  5
576
330
1E
100
AcDbEntity
  8
0
100
AcDbLine
 10
245.6154999999999
 20
755.4
 30
0.0
 11
246.0434999999999
 21
754.8999999999999
 31
0.0
  0
LINE
  5
577
330
1E
100
AcDbEntity
  8
0
100
AcDbLine
 10
246.0434999999999
 20
760.7
 30
0.0
 11
246.0434999999999
 21
761.7
 31
0.0
  0
LINE
  5
578
330
1E
100
AcDbEntity
  8
0
100
AcDbLine
 10
246.0434999999999
 20
761.7
 30
0.0
 11
246.0434999999999
 21
760.7
 31
0.0
  0
LINE
  5
579
330
1E
100
AcDbEntity
  8
0
100
AcDbLine
 10
246.0434999999999
 20
754.8999999999999
 30
0.0
 11
246.0434999999999
 21
753.8999999999999
 31
0.0
  0
LINE
  5
57A
330
1E
100
AcDbEntity
  8
0
100
AcDbLine
 10
246.0434999999999
 20
753.8999999999999
 30
0.0
 11
246.0434999999999
 21
754.8999999999999
 31
0.0
  0
LINE
  5
57B
330
1E
100
AcDbEntity
  8
0
100
AcDbLine
 10
244.3294999999999
 20
760.7
 30
0.0
 11
244.3294999999999
 21
761.7
 31
0.0
  0
LINE
  5
57C
330
1E
100
AcDbEntity
  8
0
100
AcDbLine
 10
244.3294999999999
 20
761.7
 30
0.0
 11
244.3294999999999
 21
760.7
 31
0.0
  0
LINE
  5
57D
330
1E
100
AcDbEntity
  8
0
100
AcDbLine
 10
244.3294999999999
 20
753.8999999999999
 30
0.0
 11
244.3294999999999
 21
754.8999999999999
 31
0.0
  0
LINE
  5
57E
330
1E
100
AcDbEntity
  8
0
100
AcDbLine
 10
244.3294999999999
 20
754.8999999999999
 30
0.0
 11
244.3294999999999
 21
753.8999999999999
 31
0.0
  0
LINE
  5
57F
330
1E
100
AcDbEntity
  8
0
100
AcDbLine
 10
244.3294999999999
 20
760.7
 30
0.0
 11
244.7575
 21
760.2
 31
0.0
  0
LINE
  5
580
330
1E
100
AcDbEntity
  8
0
100
AcDbLine
 10
244.3294999999999
 20
761.7
 30
0.0
 11
244.7575
 21
762.2
 31
0.0
  0
LINE
  5
581
330
1E
100
AcDbEntity
  8
0
100
AcDbLine
 10
244.3294999999999
 20
753.8999999999999
 30
0.0
 11
244.7575
 21
753.3999999999999
 31
0.0
  0
LINE
  5
582
330
1E
100
AcDbEntity
  8
0
100
AcDbLine
 10
244.3294999999999
 20
754.8999999999999
 30
0.0
 11
244.7575
 21
755.4
 31
0.0
  0
LINE
  5
583
330
1E
100
AcDbEntity
  8
0
100
AcDbLine
 10
244.7575
 20
780.6
 30
0.0
 11
245.6154999999999
 21
780.6
 31
0.0
  0
LINE
  5
584
330
1E
100
AcDbEntity
  8
0
100
AcDbLine
 10
244.7575
 20
782.6
 30
0.0
 11
245.6154999999999
 21
782.6
 31
0.0
  0
LINE
  5
585
330
1E
100
AcDbEntity
  8
0
100
AcDbLine
 10
244.7575
 20
773.7999999999999
 30
0.0
 11
245.6154999999999
 21
773.7999999999999
 31
0.0
  0
LINE
  5
586
330
1E
100
AcDbEntity
  8
0
100
AcDbLine
 10
244.7575
 20
775.8
 30
0.0
 11
245.6154999999999
 21
775.8
 31
0.0
  0
LINE
  5
587
330
1E
100
AcDbEntity
  8
0
100
AcDbLine
 10
244.7575
 20
767.0
 30
0.0
 11
245.6154999999999
 21
767.0
 31
0.0
  0
LINE
  5
588
330
1E
100
AcDbEntity
  8
0
100
AcDbLine
 10
244.7575
 20
769.0
 30
0.0
 11
245.6154999999999
 21
769.0
 31
0.0
  0
LINE
  5
589
330
1E
100
AcDbEntity
  8
0
100
AcDbLine
 10
245.6154999999999
 20
780.6
 30
0.0
 11
246.0434999999999
 21
781.1
 31
0.0
  0
LINE
  5
58A
330
1E
100
AcDbEntity
  8
0
100
AcDbLine
 10
245.6154999999999
 20
782.6
 30
0.0
 11
246.0434999999999
 21
782.1
 31
0.0
  0
LINE
  5
58B
330
1E
100
AcDbEntity
  8
0
100
AcDbLine
 10
245.6154999999999
 20
773.7999999999999
 30
0.0
 11
246.0434999999999
 21
774.2999999999999
 31
0.0
  0
LINE
  5
58C
330
1E
100
AcDbEntity
  8
0
100
AcDbLine
 10
245.6154999999999
 20
775.8
 30
0.0
 11
246.0434999999999
 21
775.3
 31
0.0
  0
LINE
  5
58D
330
1E
100
AcDbEntity
  8
0
100
AcDbLine
 10
245.6154999999999
 20
767.0
 30
0.0
 11
246.0434999999999
 21
767.4999999999999
 31
0.0
  0
LINE
  5
58E
330
1E
100
AcDbEntity
  8
0
100
AcDbLine
 10
245.6154999999999
 20
769.0
 30
0.0
 11
246.0434999999999
 21
768.5
 31
0.0
  0
LINE
  5
58F
330
1E
100
AcDbEntity
  8
0
100
AcDbLine
 10
246.0434999999999
 20
781.1
 30
0.0
 11
246.0434999999999
 21
782.1
 31
0.0
  0
LINE
  5
590
330
1E
100
AcDbEntity
  8
0
100
AcDbLine
 10
246.0434999999999
 20
782.1
 30
0.0
 11
246.0434999999999
 21
781.1
 31
0.0
  0
LINE
  5
591
330
1E
100
AcDbEntity
  8
0
100
AcDbLine
 10
246.0434999999999
 20
775.3
 30
0.0
 11
246.0434999999999
 21
774.2999999999999
 31
0.0
  0
LINE
  5
592
330
1E
100
AcDbEntity
  8
0
100
AcDbLine
 10
246.0434999999999
 20
774.2999999999999
 30
0.0
 11
246.0434999999999
 21
775.3
 31
0.0
  0
LINE
  5
593
330
1E
100
AcDbEntity
  8
0
100
AcDbLine
 10
246.0434999999999
 20
768.5
 30
0.0
 11
246.0434999999999
 21
767.4999999999999
 31
0.0
  0
LINE
  5
594
330
1E
100
AcDbEntity
  8
0
100
AcDbLine
 10
246.0434999999999
 20
767.4999999999999
 30
0.0
 11
246.0434999999999
 21
768.5
 31
0.0
  0
LINE
  5
595
330
1E
100
AcDbEntity
  8
0
100
AcDbLine
 10
244.3294999999999
 20
781.1
 30
0.0
 11
244.3294999999999
 21
782.1
 31
0.0
  0
LINE
  5
596
330
1E
100
AcDbEntity
  8
0
100
AcDbLine
 10
244.3294999999999
 20
782.1
 30
0.0
 11
244.3294999999999
 21
781.1
 31
0.0
  0
LINE
  5
597
330
1E
100
AcDbEntity
  8
0
100
AcDbLine
 10
244.3294999999999
 20
774.2999999999999
 30
0.0
 11
244.3294999999999
 21
775.3
 31
0.0
  0
LINE
  5
598
330
1E
100
AcDbEntity
  8
0
100
AcDbLine
 10
244.3294999999999
 20
775.3
 30
0.0
 11
244.3294999999999
 21
774.2999999999999
 31
0.0
  0
LINE
  5
599
330
1E
100
AcDbEntity
  8
0
100
AcDbLine
 10
244.3294999999999
 20
767.4999999999999
 30
0.0
 11
244.3294999999999
 21
768.5
 31
0.0
  0
LINE
  5
59A
330
1E
100
AcDbEntity
  8
0
100
AcDbLine
 10
244.3294999999999
 20
768.5
 30
0.0
 11
244.3294999999999
 21
767.4999999999999
 31
0.0
  0
LINE
  5
59B
330
1E
100
AcDbEntity
  8
0
100
AcDbLine
 10
244.3294999999999
 20
781.1
 30
0.0
 11
244.7575
 21
780.6
 31
0.0
  0
LINE
  5
59C
330
1E
100
AcDbEntity
  8
0
100
AcDbLine
 10
244.3294999999999
 20
782.1
 30
0.0
 11
244.7575
 21
782.6
 31
0.0
  0
LINE
  5
59D
330
1E
100
AcDbEntity
  8
0
100
AcDbLine
 10
244.3294999999999
 20
774.2999999999999
 30
0.0
 11
244.7575
 21
773.7999999999999
 31
0.0
  0
LINE
  5
59E
330
1E
100
AcDbEntity
  8
0
100
AcDbLine
 10
244.3294999999999
 20
775.3
 30
0.0
 11
244.7575
 21
775.8
 31
0.0
  0
LINE
  5
59F
330
1E
100
AcDbEntity
  8
0
100
AcDbLine
 10
244.3294999999999
 20
767.4999999999999
 30
0.0
 11
244.7575
 21
767.0
 31
0.0
  0
LINE
  5
5A0
330
1E
100
AcDbEntity
  8
0
100
AcDbLine
 10
244.3294999999999
 20
768.5
 30
0.0
 11
244.7575
 21
769.0
 31
0.0
  0
LINE
  5
5A1
330
1E
100
AcDbEntity
  8
0
100
AcDbLine
 10
244.7575
 20
789.4
 30
0.0
 11
245.6154999999999
 21
789.4
 31
0.0
  0
LINE
  5
5A2
330
1E
100
AcDbEntity
  8
0
100
AcDbLine
 10
244.7575
 20
796.2
 30
0.0
 11
245.6154999999999
 21
796.2
 31
0.0
  0
LINE
  5
5A3
330
1E
100
AcDbEntity
  8
0
100
AcDbLine
 10
244.7575
 20
794.2000000000001
 30
0.0
 11
245.6154999999999
 21
794.2000000000001
 31
0.0
  0
LINE
  5
5A4
330
1E
100
AcDbEntity
  8
0
100
AcDbLine
 10
244.7575
 20
787.3999999999999
 30
0.0
 11
245.6154999999999
 21
787.3999999999999
 31
0.0
  0
LINE
  5
5A5
330
1E
100
AcDbEntity
  8
0
100
AcDbLine
 10
245.6154999999999
 20
789.4
 30
0.0
 11
246.0434999999999
 21
788.9
 31
0.0
  0
LINE
  5
5A6
330
1E
100
AcDbEntity
  8
0
100
AcDbLine
 10
245.6154999999999
 20
796.2
 30
0.0
 11
246.0434999999999
 21
795.7
 31
0.0
  0
LINE
  5
5A7
330
1E
100
AcDbEntity
  8
0
100
AcDbLine
 10
245.6154999999999
 20
794.2000000000001
 30
0.0
 11
246.0434999999999
 21
794.7
 31
0.0
  0
LINE
  5
5A8
330
1E
100
AcDbEntity
  8
0
100
AcDbLine
 10
245.6154999999999
 20
787.3999999999999
 30
0.0
 11
246.0434999999999
 21
787.8999999999999
 31
0.0
  0
LINE
  5
5A9
330
1E
100
AcDbEntity
  8
0
100
AcDbLine
 10
246.0434999999999
 20
787.8999999999999
 30
0.0
 11
246.0434999999999
 21
788.9
 31
0.0
  0
LINE
  5
5AA
330
1E
100
AcDbEntity
  8
0
100
AcDbLine
 10
246.0434999999999
 20
788.9
 30
0.0
 11
246.0434999999999
 21
787.8999999999999
 31
0.0
  0
LINE
  5
5AB
330
1E
100
AcDbEntity
  8
0
100
AcDbLine
 10
246.0434999999999
 20
794.7
 30
0.0
 11
246.0434999999999
 21
795.7
 31
0.0
  0
LINE
  5
5AC
330
1E
100
AcDbEntity
  8
0
100
AcDbLine
 10
246.0434999999999
 20
795.7
 30
0.0
 11
246.0434999999999
 21
794.7
 31
0.0
  0
LINE
  5
5AD
330
1E
100
AcDbEntity
  8
0
100
AcDbLine
 10
244.3294999999999
 20
788.9
 30
0.0
 11
244.3294999999999
 21
787.8999999999999
 31
0.0
  0
LINE
  5
5AE
330
1E
100
AcDbEntity
  8
0
100
AcDbLine
 10
244.3294999999999
 20
795.7
 30
0.0
 11
244.3294999999999
 21
794.7
 31
0.0
  0
LINE
  5
5AF
330
1E
100
AcDbEntity
  8
0
100
AcDbLine
 10
244.3294999999999
 20
794.7
 30
0.0
 11
244.3294999999999
 21
795.7
 31
0.0
  0
LINE
  5
5B0
330
1E
100
AcDbEntity
  8
0
100
AcDbLine
 10
244.3294999999999
 20
787.8999999999999
 30
0.0
 11
244.3294999999999
 21
788.9
 31
0.0
  0
LINE
  5
5B1
330
1E
100
AcDbEntity
  8
0
100
AcDbLine
 10
244.3294999999999
 20
788.9
 30
0.0
 11
244.7575
 21
789.4
 31
0.0
  0
LINE
  5
5B2
330
1E
100
AcDbEntity
  8
0
100
AcDbLine
 10
244.3294999999999
 20
795.7
 30
0.0
 11
244.7575
 21
796.2
 31
0.0
  0
LINE
  5
5B3
330
1E
100
AcDbEntity
  8
0
100
AcDbLine
 10
244.3294999999999
 20
794.7
 30
0.0
 11
244.7575
 21
794.2000000000001
 31
0.0
  0
LINE
  5
5B4
330
1E
100
AcDbEntity
  8
0
100
AcDbLine
 10
244.3294999999999
 20
787.8999999999999
 30
0.0
 11
244.7575
 21
787.3999999999999
 31
0.0
  0
LINE
  5
5B5
330
1E
100
AcDbEntity
  8
0
100
AcDbLine
 10
244.7575
 20
801.0
 30
0.0
 11
245.6154999999999
 21
801.0
 31
0.0
  0
LINE
  5
5B6
330
1E
100
AcDbEntity
  8
0
100
AcDbLine
 10
244.7575
 20
803.0
 30
0.0
 11
245.6154999999999
 21
803.0
 31
0.0
  0
LINE
  5
5B7
330
1E
100
AcDbEntity
  8
0
100
AcDbLine
 10
245.6154999999999
 20
801.0
 30
0.0
 11
246.0434999999999
 21
801.5
 31
0.0
  0
LINE
  5
5B8
330
1E
100
AcDbEntity
  8
0
100
AcDbLine
 10
245.6154999999999
 20
803.0
 30
0.0
 11
246.0434999999999
 21
802.5
 31
0.0
  0
LINE
  5
5B9
330
1E
100
AcDbEntity
  8
0
100
AcDbLine
 10
246.0434999999999
 20
802.5
 30
0.0
 11
246.0434999999999
 21
801.5
 31
0.0
  0
LINE
  5
5BA
330
1E
100
AcDbEntity
  8
0
100
AcDbLine
 10
246.0434999999999
 20
801.5
 30
0.0
 11
246.0434999999999
 21
802.5
 31
0.0
  0
LINE
  5
5BB
330
1E
100
AcDbEntity
  8
0
100
AcDbLine
 10
244.3294999999999
 20
801.5
 30
0.0
 11
244.3294999999999
 21
802.5
 31
0.0
  0
LINE
  5
5BC
330
1E
100
AcDbEntity
  8
0
100
AcDbLine
 10
244.3294999999999
 20
802.5
 30
0.0
 11
244.3294999999999
 21
801.5
 31
0.0
  0
LINE
  5
5BD
330
1E
100
AcDbEntity
  8
0
100
AcDbLine
 10
244.3294999999999
 20
801.5
 30
0.0
 11
244.7575
 21
801.0
 31
0.0
  0
LINE
  5
5BE
330
1E
100
AcDbEntity
  8
0
100
AcDbLine
 10
244.3294999999999
 20
802.5
 30
0.0
 11
244.7575
 21
803.0
 31
0.0
  0
LINE
  5
5BF
330
1E
100
AcDbEntity
  8
0
100
AcDbLine
 10
230.8295
 20
734.4999999999999
 30
0.0
 11
231.2574999999999
 21
735.0
 31
0.0
  0
LINE
  5
5C0
330
1E
100
AcDbEntity
  8
0
100
AcDbLine
 10
232.1155
 20
735.0
 30
0.0
 11
232.5435
 21
734.4999999999999
 31
0.0
  0
LINE
  5
5C1
330
1E
100
AcDbEntity
  8
0
100
AcDbLine
 10
227.6155
 20
735.0
 30
0.0
 11
228.0435
 21
734.4999999999999
 31
0.0
  0
LINE
  5
5C2
330
1E
100
AcDbEntity
  8
0
100
AcDbLine
 10
226.3294999999999
 20
734.4999999999999
 30
0.0
 11
226.7574999999999
 21
735.0
 31
0.0
  0
LINE
  5
5C3
330
1E
100
AcDbEntity
  8
0
100
AcDbLine
 10
226.3294999999999
 20
733.4999999999999
 30
0.0
 11
226.7574999999999
 21
733.0
 31
0.0
  0
LINE
  5
5C4
330
1E
100
AcDbEntity
  8
0
100
AcDbLine
 10
226.3294999999999
 20
733.4999999999999
 30
0.0
 11
226.3294999999999
 21
734.4999999999999
 31
0.0
  0
LINE
  5
5C5
330
1E
100
AcDbEntity
  8
0
100
AcDbLine
 10
226.3294999999999
 20
734.4999999999999
 30
0.0
 11
226.3294999999999
 21
733.4999999999999
 31
0.0
  0
LINE
  5
5C6
330
1E
100
AcDbEntity
  8
0
100
AcDbLine
 10
226.7574999999999
 20
733.0
 30
0.0
 11
227.6155
 21
733.0
 31
0.0
  0
LINE
  5
5C7
330
1E
100
AcDbEntity
  8
0
100
AcDbLine
 10
228.0435
 20
734.4999999999999
 30
0.0
 11
228.0435
 21
733.4999999999999
 31
0.0
  0
LINE
  5
5C8
330
1E
100
AcDbEntity
  8
0
100
AcDbLine
 10
228.0435
 20
733.4999999999999
 30
0.0
 11
228.0435
 21
734.4999999999999
 31
0.0
  0
LINE
  5
5C9
330
1E
100
AcDbEntity
  8
0
100
AcDbLine
 10
227.6155
 20
733.0
 30
0.0
 11
228.0435
 21
733.4999999999999
 31
0.0
  0
LINE
  5
5CA
330
1E
100
AcDbEntity
  8
0
100
AcDbLine
 10
232.1155
 20
733.0
 30
0.0
 11
232.5435
 21
733.4999999999999
 31
0.0
  0
LINE
  5
5CB
330
1E
100
AcDbEntity
  8
0
100
AcDbLine
 10
232.5435
 20
733.4999999999999
 30
0.0
 11
232.5435
 21
734.4999999999999
 31
0.0
  0
LINE
  5
5CC
330
1E
100
AcDbEntity
  8
0
100
AcDbLine
 10
232.5435
 20
734.4999999999999
 30
0.0
 11
232.5435
 21
733.4999999999999
 31
0.0
  0
LINE
  5
5CD
330
1E
100
AcDbEntity
  8
0
100
AcDbLine
 10
231.2574999999999
 20
733.0
 30
0.0
 11
232.1155
 21
733.0
 31
0.0
  0
LINE
  5
5CE
330
1E
100
AcDbEntity
  8
0
100
AcDbLine
 10
230.8295
 20
734.4999999999999
 30
0.0
 11
230.8295
 21
733.4999999999999
 31
0.0
  0
LINE
  5
5CF
330
1E
100
AcDbEntity
  8
0
100
AcDbLine
 10
230.8295
 20
733.4999999999999
 30
0.0
 11
230.8295
 21
734.4999999999999
 31
0.0
  0
LINE
  5
5D0
330
1E
100
AcDbEntity
  8
0
100
AcDbLine
 10
230.8295
 20
733.4999999999999
 30
0.0
 11
231.2574999999999
 21
733.0
 31
0.0
  0
LINE
  5
5D1
330
1E
100
AcDbEntity
  8
0
100
AcDbLine
 10
226.3294999999999
 20
741.2999999999999
 30
0.0
 11
226.7574999999999
 21
741.7999999999999
 31
0.0
  0
LINE
  5
5D2
330
1E
100
AcDbEntity
  8
0
100
AcDbLine
 10
226.3294999999999
 20
748.1
 30
0.0
 11
226.7574999999999
 21
748.6
 31
0.0
  0
LINE
  5
5D3
330
1E
100
AcDbEntity
  8
0
100
AcDbLine
 10
226.3294999999999
 20
747.1
 30
0.0
 11
226.7574999999999
 21
746.6
 31
0.0
  0
LINE
  5
5D4
330
1E
100
AcDbEntity
  8
0
100
AcDbLine
 10
226.3294999999999
 20
740.2999999999999
 30
0.0
 11
226.7574999999999
 21
739.7999999999999
 31
0.0
  0
LINE
  5
5D5
330
1E
100
AcDbEntity
  8
0
100
AcDbLine
 10
226.3294999999999
 20
741.2999999999999
 30
0.0
 11
226.3294999999999
 21
740.2999999999999
 31
0.0
  0
LINE
  5
5D6
330
1E
100
AcDbEntity
  8
0
100
AcDbLine
 10
226.3294999999999
 20
748.1
 30
0.0
 11
226.3294999999999
 21
747.1
 31
0.0
  0
LINE
  5
5D7
330
1E
100
AcDbEntity
  8
0
100
AcDbLine
 10
226.3294999999999
 20
747.1
 30
0.0
 11
226.3294999999999
 21
748.1
 31
0.0
  0
LINE
  5
5D8
330
1E
100
AcDbEntity
  8
0
100
AcDbLine
 10
226.3294999999999
 20
740.2999999999999
 30
0.0
 11
226.3294999999999
 21
741.2999999999999
 31
0.0
  0
LINE
  5
5D9
330
1E
100
AcDbEntity
  8
0
100
AcDbLine
 10
226.7574999999999
 20
741.7999999999999
 30
0.0
 11
227.6155
 21
741.7999999999999
 31
0.0
  0
LINE
  5
5DA
330
1E
100
AcDbEntity
  8
0
100
AcDbLine
 10
227.6155
 20
741.7999999999999
 30
0.0
 11
228.0435
 21
741.2999999999999
 31
0.0
  0
LINE
  5
5DB
330
1E
100
AcDbEntity
  8
0
100
AcDbLine
 10
227.6155
 20
748.6
 30
0.0
 11
228.0435
 21
748.1
 31
0.0
  0
LINE
  5
5DC
330
1E
100
AcDbEntity
  8
0
100
AcDbLine
 10
228.0435
 20
748.1
 30
0.0
 11
228.0435
 21
747.1
 31
0.0
  0
LINE
  5
5DD
330
1E
100
AcDbEntity
  8
0
100
AcDbLine
 10
228.0435
 20
747.1
 30
0.0
 11
228.0435
 21
748.1
 31
0.0
  0
LINE
  5
5DE
330
1E
100
AcDbEntity
  8
0
100
AcDbLine
 10
227.6155
 20
746.6
 30
0.0
 11
228.0435
 21
747.1
 31
0.0
  0
LINE
  5
5DF
330
1E
100
AcDbEntity
  8
0
100
AcDbLine
 10
227.6155
 20
739.7999999999999
 30
0.0
 11
228.0435
 21
740.2999999999999
 31
0.0
  0
LINE
  5
5E0
330
1E
100
AcDbEntity
  8
0
100
AcDbLine
 10
228.0435
 20
741.2999999999999
 30
0.0
 11
228.0435
 21
740.2999999999999
 31
0.0
  0
LINE
  5
5E1
330
1E
100
AcDbEntity
  8
0
100
AcDbLine
 10
228.0435
 20
740.2999999999999
 30
0.0
 11
228.0435
 21
741.2999999999999
 31
0.0
  0
LINE
  5
5E2
330
1E
100
AcDbEntity
  8
0
100
AcDbLine
 10
226.7574999999999
 20
739.7999999999999
 30
0.0
 11
227.6155
 21
739.7999999999999
 31
0.0
  0
LINE
  5
5E3
330
1E
100
AcDbEntity
  8
0
100
AcDbLine
 10
226.7574999999999
 20
748.6
 30
0.0
 11
227.6155
 21
748.6
 31
0.0
  0
LINE
  5
5E4
330
1E
100
AcDbEntity
  8
0
100
AcDbLine
 10
226.7574999999999
 20
746.6
 30
0.0
 11
227.6155
 21
746.6
 31
0.0
  0
LINE
  5
5E5
330
1E
100
AcDbEntity
  8
0
100
AcDbLine
 10
226.7574999999999
 20
735.0
 30
0.0
 11
227.6155
 21
735.0
 31
0.0
  0
LINE
  5
5E6
330
1E
100
AcDbEntity
  8
0
100
AcDbLine
 10
226.3294999999999
 20
754.8999999999999
 30
0.0
 11
226.7574999999999
 21
755.4
 31
0.0
  0
LINE
  5
5E7
330
1E
100
AcDbEntity
  8
0
100
AcDbLine
 10
226.3294999999999
 20
753.8999999999999
 30
0.0
 11
226.7574999999999
 21
753.3999999999999
 31
0.0
  0
LINE
  5
5E8
330
1E
100
AcDbEntity
  8
0
100
AcDbLine
 10
226.3294999999999
 20
761.7
 30
0.0
 11
226.7574999999999
 21
762.2
 31
0.0
  0
LINE
  5
5E9
330
1E
100
AcDbEntity
  8
0
100
AcDbLine
 10
226.3294999999999
 20
760.7
 30
0.0
 11
226.7574999999999
 21
760.2
 31
0.0
  0
LINE
  5
5EA
330
1E
100
AcDbEntity
  8
0
100
AcDbLine
 10
226.3294999999999
 20
754.8999999999999
 30
0.0
 11
226.3294999999999
 21
753.8999999999999
 31
0.0
  0
LINE
  5
5EB
330
1E
100
AcDbEntity
  8
0
100
AcDbLine
 10
226.3294999999999
 20
753.8999999999999
 30
0.0
 11
226.3294999999999
 21
754.8999999999999
 31
0.0
  0
LINE
  5
5EC
330
1E
100
AcDbEntity
  8
0
100
AcDbLine
 10
226.3294999999999
 20
761.7
 30
0.0
 11
226.3294999999999
 21
760.7
 31
0.0
  0
LINE
  5
5ED
330
1E
100
AcDbEntity
  8
0
100
AcDbLine
 10
226.3294999999999
 20
760.7
 30
0.0
 11
226.3294999999999
 21
761.7
 31
0.0
  0
LINE
  5
5EE
330
1E
100
AcDbEntity
  8
0
100
AcDbLine
 10
228.0435
 20
753.8999999999999
 30
0.0
 11
228.0435
 21
754.8999999999999
 31
0.0
  0
LINE
  5
5EF
330
1E
100
AcDbEntity
  8
0
100
AcDbLine
 10
228.0435
 20
754.8999999999999
 30
0.0
 11
228.0435
 21
753.8999999999999
 31
0.0
  0
LINE
  5
5F0
330
1E
100
AcDbEntity
  8
0
100
AcDbLine
 10
228.0435
 20
761.7
 30
0.0
 11
228.0435
 21
760.7
 31
0.0
  0
LINE
  5
5F1
330
1E
100
AcDbEntity
  8
0
100
AcDbLine
 10
228.0435
 20
760.7
 30
0.0
 11
228.0435
 21
761.7
 31
0.0
  0
LINE
  5
5F2
330
1E
100
AcDbEntity
  8
0
100
AcDbLine
 10
227.6155
 20
755.4
 30
0.0
 11
228.0435
 21
754.8999999999999
 31
0.0
  0
LINE
  5
5F3
330
1E
100
AcDbEntity
  8
0
100
AcDbLine
 10
227.6155
 20
753.3999999999999
 30
0.0
 11
228.0435
 21
753.8999999999999
 31
0.0
  0
LINE
  5
5F4
330
1E
100
AcDbEntity
  8
0
100
AcDbLine
 10
227.6155
 20
762.2
 30
0.0
 11
228.0435
 21
761.7
 31
0.0
  0
LINE
  5
5F5
330
1E
100
AcDbEntity
  8
0
100
AcDbLine
 10
227.6155
 20
760.2
 30
0.0
 11
228.0435
 21
760.7
 31
0.0
  0
LINE
  5
5F6
330
1E
100
AcDbEntity
  8
0
100
AcDbLine
 10
226.7574999999999
 20
755.4
 30
0.0
 11
227.6155
 21
755.4
 31
0.0
  0
LINE
  5
5F7
330
1E
100
AcDbEntity
  8
0
100
AcDbLine
 10
226.7574999999999
 20
753.3999999999999
 30
0.0
 11
227.6155
 21
753.3999999999999
 31
0.0
  0
LINE
  5
5F8
330
1E
100
AcDbEntity
  8
0
100
AcDbLine
 10
226.7574999999999
 20
762.2
 30
0.0
 11
227.6155
 21
762.2
 31
0.0
  0
LINE
  5
5F9
330
1E
100
AcDbEntity
  8
0
100
AcDbLine
 10
226.7574999999999
 20
760.2
 30
0.0
 11
227.6155
 21
760.2
 31
0.0
  0
LINE
  5
5FA
330
1E
100
AcDbEntity
  8
0
100
AcDbLine
 10
231.2574999999999
 20
735.0
 30
0.0
 11
232.1155
 21
735.0
 31
0.0
  0
LINE
  5
5FB
330
1E
100
AcDbEntity
  8
0
100
AcDbLine
 10
231.2574999999999
 20
746.6
 30
0.0
 11
232.1155
 21
746.6
 31
0.0
  0
LINE
  5
5FC
330
1E
100
AcDbEntity
  8
0
100
AcDbLine
 10
231.2574999999999
 20
748.6
 30
0.0
 11
232.1155
 21
748.6
 31
0.0
  0
LINE
  5
5FD
330
1E
100
AcDbEntity
  8
0
100
AcDbLine
 10
231.2574999999999
 20
739.7999999999999
 30
0.0
 11
232.1155
 21
739.7999999999999
 31
0.0
  0
LINE
  5
5FE
330
1E
100
AcDbEntity
  8
0
100
AcDbLine
 10
232.5435
 20
740.2999999999999
 30
0.0
 11
232.5435
 21
741.2999999999999
 31
0.0
  0
LINE
  5
5FF
330
1E
100
AcDbEntity
  8
0
100
AcDbLine
 10
232.5435
 20
741.2999999999999
 30
0.0
 11
232.5435
 21
740.2999999999999
 31
0.0
  0
LINE
  5
600
330
1E
100
AcDbEntity
  8
0
100
AcDbLine
 10
232.1155
 20
739.7999999999999
 30
0.0
 11
232.5435
 21
740.2999999999999
 31
0.0
  0
LINE
  5
601
330
1E
100
AcDbEntity
  8
0
100
AcDbLine
 10
232.1155
 20
746.6
 30
0.0
 11
232.5435
 21
747.1
 31
0.0
  0
LINE
  5
602
330
1E
100
AcDbEntity
  8
0
100
AcDbLine
 10
232.5435
 20
747.1
 30
0.0
 11
232.5435
 21
748.1
 31
0.0
  0
LINE
  5
603
330
1E
100
AcDbEntity
  8
0
100
AcDbLine
 10
232.5435
 20
748.1
 30
0.0
 11
232.5435
 21
747.1
 31
0.0
  0
LINE
  5
604
330
1E
100
AcDbEntity
  8
0
100
AcDbLine
 10
232.1155
 20
748.6
 30
0.0
 11
232.5435
 21
748.1
 31
0.0
  0
LINE
  5
605
330
1E
100
AcDbEntity
  8
0
100
AcDbLine
 10
232.1155
 20
741.7999999999999
 30
0.0
 11
232.5435
 21
741.2999999999999
 31
0.0
  0
LINE
  5
606
330
1E
100
AcDbEntity
  8
0
100
AcDbLine
 10
231.2574999999999
 20
741.7999999999999
 30
0.0
 11
232.1155
 21
741.7999999999999
 31
0.0
  0
LINE
  5
607
330
1E
100
AcDbEntity
  8
0
100
AcDbLine
 10
230.8295
 20
740.2999999999999
 30
0.0
 11
230.8295
 21
741.2999999999999
 31
0.0
  0
LINE
  5
608
330
1E
100
AcDbEntity
  8
0
100
AcDbLine
 10
230.8295
 20
747.1
 30
0.0
 11
230.8295
 21
748.1
 31
0.0
  0
LINE
  5
609
330
1E
100
AcDbEntity
  8
0
100
AcDbLine
 10
230.8295
 20
748.1
 30
0.0
 11
230.8295
 21
747.1
 31
0.0
  0
LINE
  5
60A
330
1E
100
AcDbEntity
  8
0
100
AcDbLine
 10
230.8295
 20
741.2999999999999
 30
0.0
 11
230.8295
 21
740.2999999999999
 31
0.0
  0
LINE
  5
60B
330
1E
100
AcDbEntity
  8
0
100
AcDbLine
 10
230.8295
 20
740.2999999999999
 30
0.0
 11
231.2574999999999
 21
739.7999999999999
 31
0.0
  0
LINE
  5
60C
330
1E
100
AcDbEntity
  8
0
100
AcDbLine
 10
230.8295
 20
747.1
 30
0.0
 11
231.2574999999999
 21
746.6
 31
0.0
  0
LINE
  5
60D
330
1E
100
AcDbEntity
  8
0
100
AcDbLine
 10
230.8295
 20
748.1
 30
0.0
 11
231.2574999999999
 21
748.6
 31
0.0
  0
LINE
  5
60E
330
1E
100
AcDbEntity
  8
0
100
AcDbLine
 10
230.8295
 20
741.2999999999999
 30
0.0
 11
231.2574999999999
 21
741.7999999999999
 31
0.0
  0
LINE
  5
60F
330
1E
100
AcDbEntity
  8
0
100
AcDbLine
 10
231.2574999999999
 20
760.2
 30
0.0
 11
232.1155
 21
760.2
 31
0.0
  0
LINE
  5
610
330
1E
100
AcDbEntity
  8
0
100
AcDbLine
 10
231.2574999999999
 20
762.2
 30
0.0
 11
232.1155
 21
762.2
 31
0.0
  0
LINE
  5
611
330
1E
100
AcDbEntity
  8
0
100
AcDbLine
 10
231.2574999999999
 20
753.3999999999999
 30
0.0
 11
232.1155
 21
753.3999999999999
 31
0.0
  0
LINE
  5
612
330
1E
100
AcDbEntity
  8
0
100
AcDbLine
 10
231.2574999999999
 20
755.4
 30
0.0
 11
232.1155
 21
755.4
 31
0.0
  0
LINE
  5
613
330
1E
100
AcDbEntity
  8
0
100
AcDbLine
 10
232.1155
 20
760.2
 30
0.0
 11
232.5435
 21
760.7
 31
0.0
  0
LINE
  5
614
330
1E
100
AcDbEntity
  8
0
100
AcDbLine
 10
232.1155
 20
762.2
 30
0.0
 11
232.5435
 21
761.7
 31
0.0
  0
LINE
  5
615
330
1E
100
AcDbEntity
  8
0
100
AcDbLine
 10
232.1155
 20
753.3999999999999
 30
0.0
 11
232.5435
 21
753.8999999999999
 31
0.0
  0
LINE
  5
616
330
1E
100
AcDbEntity
  8
0
100
AcDbLine
 10
232.1155
 20
755.4
 30
0.0
 11
232.5435
 21
754.8999999999999
 31
0.0
  0
LINE
  5
617
330
1E
100
AcDbEntity
  8
0
100
AcDbLine
 10
232.5435
 20
760.7
 30
0.0
 11
232.5435
 21
761.7
 31
0.0
  0
LINE
  5
618
330
1E
100
AcDbEntity
  8
0
100
AcDbLine
 10
232.5435
 20
761.7
 30
0.0
 11
232.5435
 21
760.7
 31
0.0
  0
LINE
  5
619
330
1E
100
AcDbEntity
  8
0
100
AcDbLine
 10
232.5435
 20
754.8999999999999
 30
0.0
 11
232.5435
 21
753.8999999999999
 31
0.0
  0
LINE
  5
61A
330
1E
100
AcDbEntity
  8
0
100
AcDbLine
 10
232.5435
 20
753.8999999999999
 30
0.0
 11
232.5435
 21
754.8999999999999
 31
0.0
  0
LINE
  5
61B
330
1E
100
AcDbEntity
  8
0
100
AcDbLine
 10
230.8295
 20
760.7
 30
0.0
 11
230.8295
 21
761.7
 31
0.0
  0
LINE
  5
61C
330
1E
100
AcDbEntity
  8
0
100
AcDbLine
 10
230.8295
 20
761.7
 30
0.0
 11
230.8295
 21
760.7
 31
0.0
  0
LINE
  5
61D
330
1E
100
AcDbEntity
  8
0
100
AcDbLine
 10
230.8295
 20
753.8999999999999
 30
0.0
 11
230.8295
 21
754.8999999999999
 31
0.0
  0
LINE
  5
61E
330
1E
100
AcDbEntity
  8
0
100
AcDbLine
 10
230.8295
 20
754.8999999999999
 30
0.0
 11
230.8295
 21
753.8999999999999
 31
0.0
  0
LINE
  5
61F
330
1E
100
AcDbEntity
  8
0
100
AcDbLine
 10
230.8295
 20
760.7
 30
0.0
 11
231.2574999999999
 21
760.2
 31
0.0
  0
LINE
  5
620
330
1E
100
AcDbEntity
  8
0
100
AcDbLine
 10
230.8295
 20
761.7
 30
0.0
 11
231.2574999999999
 21
762.2
 31
0.0
  0
LINE
  5
621
330
1E
100
AcDbEntity
  8
0
100
AcDbLine
 10
230.8295
 20
753.8999999999999
 30
0.0
 11
231.2574999999999
 21
753.3999999999999
 31
0.0
  0
LINE
  5
622
330
1E
100
AcDbEntity
  8
0
100
AcDbLine
 10
230.8295
 20
754.8999999999999
 30
0.0
 11
231.2574999999999
 21
755.4
 31
0.0
  0
LINE
  5
623
330
1E
100
AcDbEntity
  8
0
100
AcDbLine
 10
226.3294999999999
 20
768.5
 30
0.0
 11
226.7574999999999
 21
769.0
 31
0.0
  0
LINE
  5
624
330
1E
100
AcDbEntity
  8
0
100
AcDbLine
 10
226.3294999999999
 20
767.4999999999999
 30
0.0
 11
226.7574999999999
 21
767.0
 31
0.0
  0
LINE
  5
625
330
1E
100
AcDbEntity
  8
0
100
AcDbLine
 10
226.3294999999999
 20
775.3
 30
0.0
 11
226.7574999999999
 21
775.8
 31
0.0
  0
LINE
  5
626
330
1E
100
AcDbEntity
  8
0
100
AcDbLine
 10
226.3294999999999
 20
774.2999999999999
 30
0.0
 11
226.7574999999999
 21
773.7999999999999
 31
0.0
  0
LINE
  5
627
330
1E
100
AcDbEntity
  8
0
100
AcDbLine
 10
226.3294999999999
 20
782.1
 30
0.0
 11
226.7574999999999
 21
782.6
 31
0.0
  0
LINE
  5
628
330
1E
100
AcDbEntity
  8
0
100
AcDbLine
 10
226.3294999999999
 20
781.1
 30
0.0
 11
226.7574999999999
 21
780.6
 31
0.0
  0
LINE
  5
629
330
1E
100
AcDbEntity
  8
0
100
AcDbLine
 10
226.3294999999999
 20
768.5
 30
0.0
 11
226.3294999999999
 21
767.4999999999999
 31
0.0
  0
LINE
  5
62A
330
1E
100
AcDbEntity
  8
0
100
AcDbLine
 10
226.3294999999999
 20
767.4999999999999
 30
0.0
 11
226.3294999999999
 21
768.5
 31
0.0
  0
LINE
  5
62B
330
1E
100
AcDbEntity
  8
0
100
AcDbLine
 10
226.3294999999999
 20
775.3
 30
0.0
 11
226.3294999999999
 21
774.2999999999999
 31
0.0
  0
LINE
  5
62C
330
1E
100
AcDbEntity
  8
0
100
AcDbLine
 10
226.3294999999999
 20
774.2999999999999
 30
0.0
 11
226.3294999999999
 21
775.3
 31
0.0
  0
LINE
  5
62D
330
1E
100
AcDbEntity
  8
0
100
AcDbLine
 10
226.3294999999999
 20
782.1
 30
0.0
 11
226.3294999999999
 21
781.1
 31
0.0
  0
LINE
  5
62E
330
1E
100
AcDbEntity
  8
0
100
AcDbLine
 10
226.3294999999999
 20
781.1
 30
0.0
 11
226.3294999999999
 21
782.1
 31
0.0
  0
LINE
  5
62F
330
1E
100
AcDbEntity
  8
0
100
AcDbLine
 10
228.0435
 20
767.4999999999999
 30
0.0
 11
228.0435
 21
768.5
 31
0.0
  0
LINE
  5
630
330
1E
100
AcDbEntity
  8
0
100
AcDbLine
 10
228.0435
 20
768.5
 30
0.0
 11
228.0435
 21
767.4999999999999
 31
0.0
  0
LINE
  5
631
330
1E
100
AcDbEntity
  8
0
100
AcDbLine
 10
228.0435
 20
774.2999999999999
 30
0.0
 11
228.0435
 21
775.3
 31
0.0
  0
LINE
  5
632
330
1E
100
AcDbEntity
  8
0
100
AcDbLine
 10
228.0435
 20
775.3
 30
0.0
 11
228.0435
 21
774.2999999999999
 31
0.0
  0
LINE
  5
633
330
1E
100
AcDbEntity
  8
0
100
AcDbLine
 10
228.0435
 20
782.1
 30
0.0
 11
228.0435
 21
781.1
 31
0.0
  0
LINE
  5
634
330
1E
100
AcDbEntity
  8
0
100
AcDbLine
 10
228.0435
 20
781.1
 30
0.0
 11
228.0435
 21
782.1
 31
0.0
  0
LINE
  5
635
330
1E
100
AcDbEntity
  8
0
100
AcDbLine
 10
227.6155
 20
769.0
 30
0.0
 11
228.0435
 21
768.5
 31
0.0
  0
LINE
  5
636
330
1E
100
AcDbEntity
  8
0
100
AcDbLine
 10
227.6155
 20
767.0
 30
0.0
 11
228.0435
 21
767.4999999999999
 31
0.0
  0
LINE
  5
637
330
1E
100
AcDbEntity
  8
0
100
AcDbLine
 10
227.6155
 20
775.8
 30
0.0
 11
228.0435
 21
775.3
 31
0.0
  0
LINE
  5
638
330
1E
100
AcDbEntity
  8
0
100
AcDbLine
 10
227.6155
 20
773.7999999999999
 30
0.0
 11
228.0435
 21
774.2999999999999
 31
0.0
  0
LINE
  5
639
330
1E
100
AcDbEntity
  8
0
100
AcDbLine
 10
227.6155
 20
782.6
 30
0.0
 11
228.0435
 21
782.1
 31
0.0
  0
LINE
  5
63A
330
1E
100
AcDbEntity
  8
0
100
AcDbLine
 10
227.6155
 20
780.6
 30
0.0
 11
228.0435
 21
781.1
 31
0.0
  0
LINE
  5
63B
330
1E
100
AcDbEntity
  8
0
100
AcDbLine
 10
226.7574999999999
 20
769.0
 30
0.0
 11
227.6155
 21
769.0
 31
0.0
  0
LINE
  5
63C
330
1E
100
AcDbEntity
  8
0
100
AcDbLine
 10
226.7574999999999
 20
767.0
 30
0.0
 11
227.6155
 21
767.0
 31
0.0
  0
LINE
  5
63D
330
1E
100
AcDbEntity
  8
0
100
AcDbLine
 10
226.7574999999999
 20
775.8
 30
0.0
 11
227.6155
 21
775.8
 31
0.0
  0
LINE
  5
63E
330
1E
100
AcDbEntity
  8
0
100
AcDbLine
 10
226.7574999999999
 20
773.7999999999999
 30
0.0
 11
227.6155
 21
773.7999999999999
 31
0.0
  0
LINE
  5
63F
330
1E
100
AcDbEntity
  8
0
100
AcDbLine
 10
226.7574999999999
 20
782.6
 30
0.0
 11
227.6155
 21
782.6
 31
0.0
  0
LINE
  5
640
330
1E
100
AcDbEntity
  8
0
100
AcDbLine
 10
226.7574999999999
 20
780.6
 30
0.0
 11
227.6155
 21
780.6
 31
0.0
  0
LINE
  5
641
330
1E
100
AcDbEntity
  8
0
100
AcDbLine
 10
226.3294999999999
 20
787.8999999999999
 30
0.0
 11
226.7574999999999
 21
787.3999999999999
 31
0.0
  0
LINE
  5
642
330
1E
100
AcDbEntity
  8
0
100
AcDbLine
 10
226.3294999999999
 20
794.7
 30
0.0
 11
226.7574999999999
 21
794.2000000000001
 31
0.0
  0
LINE
  5
643
330
1E
100
AcDbEntity
  8
0
100
AcDbLine
 10
226.3294999999999
 20
795.7
 30
0.0
 11
226.7574999999999
 21
796.2
 31
0.0
  0
LINE
  5
644
330
1E
100
AcDbEntity
  8
0
100
AcDbLine
 10
226.3294999999999
 20
788.9
 30
0.0
 11
226.7574999999999
 21
789.4
 31
0.0
  0
LINE
  5
645
330
1E
100
AcDbEntity
  8
0
100
AcDbLine
 10
226.3294999999999
 20
787.8999999999999
 30
0.0
 11
226.3294999999999
 21
788.9
 31
0.0
  0
LINE
  5
646
330
1E
100
AcDbEntity
  8
0
100
AcDbLine
 10
226.3294999999999
 20
794.7
 30
0.0
 11
226.3294999999999
 21
795.7
 31
0.0
  0
LINE
  5
647
330
1E
100
AcDbEntity
  8
0
100
AcDbLine
 10
226.3294999999999
 20
795.7
 30
0.0
 11
226.3294999999999
 21
794.7
 31
0.0
  0
LINE
  5
648
330
1E
100
AcDbEntity
  8
0
100
AcDbLine
 10
226.3294999999999
 20
788.9
 30
0.0
 11
226.3294999999999
 21
787.8999999999999
 31
0.0
  0
LINE
  5
649
330
1E
100
AcDbEntity
  8
0
100
AcDbLine
 10
228.0435
 20
795.7
 30
0.0
 11
228.0435
 21
794.7
 31
0.0
  0
LINE
  5
64A
330
1E
100
AcDbEntity
  8
0
100
AcDbLine
 10
228.0435
 20
794.7
 30
0.0
 11
228.0435
 21
795.7
 31
0.0
  0
LINE
  5
64B
330
1E
100
AcDbEntity
  8
0
100
AcDbLine
 10
228.0435
 20
788.9
 30
0.0
 11
228.0435
 21
787.8999999999999
 31
0.0
  0
LINE
  5
64C
330
1E
100
AcDbEntity
  8
0
100
AcDbLine
 10
228.0435
 20
787.8999999999999
 30
0.0
 11
228.0435
 21
788.9
 31
0.0
  0
LINE
  5
64D
330
1E
100
AcDbEntity
  8
0
100
AcDbLine
 10
227.6155
 20
787.3999999999999
 30
0.0
 11
228.0435
 21
787.8999999999999
 31
0.0
  0
LINE
  5
64E
330
1E
100
AcDbEntity
  8
0
100
AcDbLine
 10
227.6155
 20
794.2000000000001
 30
0.0
 11
228.0435
 21
794.7
 31
0.0
  0
LINE
  5
64F
330
1E
100
AcDbEntity
  8
0
100
AcDbLine
 10
227.6155
 20
796.2
 30
0.0
 11
228.0435
 21
795.7
 31
0.0
  0
LINE
  5
650
330
1E
100
AcDbEntity
  8
0
100
AcDbLine
 10
227.6155
 20
789.4
 30
0.0
 11
228.0435
 21
788.9
 31
0.0
  0
LINE
  5
651
330
1E
100
AcDbEntity
  8
0
100
AcDbLine
 10
226.7574999999999
 20
787.3999999999999
 30
0.0
 11
227.6155
 21
787.3999999999999
 31
0.0
  0
LINE
  5
652
330
1E
100
AcDbEntity
  8
0
100
AcDbLine
 10
226.7574999999999
 20
794.2000000000001
 30
0.0
 11
227.6155
 21
794.2000000000001
 31
0.0
  0
LINE
  5
653
330
1E
100
AcDbEntity
  8
0
100
AcDbLine
 10
226.7574999999999
 20
796.2
 30
0.0
 11
227.6155
 21
796.2
 31
0.0
  0
LINE
  5
654
330
1E
100
AcDbEntity
  8
0
100
AcDbLine
 10
226.7574999999999
 20
789.4
 30
0.0
 11
227.6155
 21
789.4
 31
0.0
  0
LINE
  5
655
330
1E
100
AcDbEntity
  8
0
100
AcDbLine
 10
231.2574999999999
 20
780.6
 30
0.0
 11
232.1155
 21
780.6
 31
0.0
  0
LINE
  5
656
330
1E
100
AcDbEntity
  8
0
100
AcDbLine
 10
231.2574999999999
 20
782.6
 30
0.0
 11
232.1155
 21
782.6
 31
0.0
  0
LINE
  5
657
330
1E
100
AcDbEntity
  8
0
100
AcDbLine
 10
231.2574999999999
 20
773.7999999999999
 30
0.0
 11
232.1155
 21
773.7999999999999
 31
0.0
  0
LINE
  5
658
330
1E
100
AcDbEntity
  8
0
100
AcDbLine
 10
231.2574999999999
 20
775.8
 30
0.0
 11
232.1155
 21
775.8
 31
0.0
  0
LINE
  5
659
330
1E
100
AcDbEntity
  8
0
100
AcDbLine
 10
231.2574999999999
 20
767.0
 30
0.0
 11
232.1155
 21
767.0
 31
0.0
  0
LINE
  5
65A
330
1E
100
AcDbEntity
  8
0
100
AcDbLine
 10
231.2574999999999
 20
769.0
 30
0.0
 11
232.1155
 21
769.0
 31
0.0
  0
LINE
  5
65B
330
1E
100
AcDbEntity
  8
0
100
AcDbLine
 10
232.1155
 20
780.6
 30
0.0
 11
232.5435
 21
781.1
 31
0.0
  0
LINE
  5
65C
330
1E
100
AcDbEntity
  8
0
100
AcDbLine
 10
232.1155
 20
782.6
 30
0.0
 11
232.5435
 21
782.1
 31
0.0
  0
LINE
  5
65D
330
1E
100
AcDbEntity
  8
0
100
AcDbLine
 10
232.1155
 20
773.7999999999999
 30
0.0
 11
232.5435
 21
774.2999999999999
 31
0.0
  0
LINE
  5
65E
330
1E
100
AcDbEntity
  8
0
100
AcDbLine
 10
232.1155
 20
775.8
 30
0.0
 11
232.5435
 21
775.3
 31
0.0
  0
LINE
  5
65F
330
1E
100
AcDbEntity
  8
0
100
AcDbLine
 10
232.1155
 20
767.0
 30
0.0
 11
232.5435
 21
767.4999999999999
 31
0.0
  0
LINE
  5
660
330
1E
100
AcDbEntity
  8
0
100
AcDbLine
 10
232.1155
 20
769.0
 30
0.0
 11
232.5435
 21
768.5
 31
0.0
  0
LINE
  5
661
330
1E
100
AcDbEntity
  8
0
100
AcDbLine
 10
232.5435
 20
781.1
 30
0.0
 11
232.5435
 21
782.1
 31
0.0
  0
LINE
  5
662
330
1E
100
AcDbEntity
  8
0
100
AcDbLine
 10
232.5435
 20
782.1
 30
0.0
 11
232.5435
 21
781.1
 31
0.0
  0
LINE
  5
663
330
1E
100
AcDbEntity
  8
0
100
AcDbLine
 10
232.5435
 20
775.3
 30
0.0
 11
232.5435
 21
774.2999999999999
 31
0.0
  0
LINE
  5
664
330
1E
100
AcDbEntity
  8
0
100
AcDbLine
 10
232.5435
 20
774.2999999999999
 30
0.0
 11
232.5435
 21
775.3
 31
0.0
  0
LINE
  5
665
330
1E
100
AcDbEntity
  8
0
100
AcDbLine
 10
232.5435
 20
768.5
 30
0.0
 11
232.5435
 21
767.4999999999999
 31
0.0
  0
LINE
  5
666
330
1E
100
AcDbEntity
  8
0
100
AcDbLine
 10
232.5435
 20
767.4999999999999
 30
0.0
 11
232.5435
 21
768.5
 31
0.0
  0
LINE
  5
667
330
1E
100
AcDbEntity
  8
0
100
AcDbLine
 10
230.8295
 20
781.1
 30
0.0
 11
230.8295
 21
782.1
 31
0.0
  0
LINE
  5
668
330
1E
100
AcDbEntity
  8
0
100
AcDbLine
 10
230.8295
 20
782.1
 30
0.0
 11
230.8295
 21
781.1
 31
0.0
  0
LINE
  5
669
330
1E
100
AcDbEntity
  8
0
100
AcDbLine
 10
230.8295
 20
774.2999999999999
 30
0.0
 11
230.8295
 21
775.3
 31
0.0
  0
LINE
  5
66A
330
1E
100
AcDbEntity
  8
0
100
AcDbLine
 10
230.8295
 20
775.3
 30
0.0
 11
230.8295
 21
774.2999999999999
 31
0.0
  0
LINE
  5
66B
330
1E
100
AcDbEntity
  8
0
100
AcDbLine
 10
230.8295
 20
767.4999999999999
 30
0.0
 11
230.8295
 21
768.5
 31
0.0
  0
LINE
  5
66C
330
1E
100
AcDbEntity
  8
0
100
AcDbLine
 10
230.8295
 20
768.5
 30
0.0
 11
230.8295
 21
767.4999999999999
 31
0.0
  0
LINE
  5
66D
330
1E
100
AcDbEntity
  8
0
100
AcDbLine
 10
230.8295
 20
781.1
 30
0.0
 11
231.2574999999999
 21
780.6
 31
0.0
  0
LINE
  5
66E
330
1E
100
AcDbEntity
  8
0
100
AcDbLine
 10
230.8295
 20
782.1
 30
0.0
 11
231.2574999999999
 21
782.6
 31
0.0
  0
LINE
  5
66F
330
1E
100
AcDbEntity
  8
0
100
AcDbLine
 10
230.8295
 20
774.2999999999999
 30
0.0
 11
231.2574999999999
 21
773.7999999999999
 31
0.0
  0
LINE
  5
670
330
1E
100
AcDbEntity
  8
0
100
AcDbLine
 10
230.8295
 20
775.3
 30
0.0
 11
231.2574999999999
 21
775.8
 31
0.0
  0
LINE
  5
671
330
1E
100
AcDbEntity
  8
0
100
AcDbLine
 10
230.8295
 20
767.4999999999999
 30
0.0
 11
231.2574999999999
 21
767.0
 31
0.0
  0
LINE
  5
672
330
1E
100
AcDbEntity
  8
0
100
AcDbLine
 10
230.8295
 20
768.5
 30
0.0
 11
231.2574999999999
 21
769.0
 31
0.0
  0
LINE
  5
673
330
1E
100
AcDbEntity
  8
0
100
AcDbLine
 10
231.2574999999999
 20
789.4
 30
0.0
 11
232.1155
 21
789.4
 31
0.0
  0
LINE
  5
674
330
1E
100
AcDbEntity
  8
0
100
AcDbLine
 10
231.2574999999999
 20
796.2
 30
0.0
 11
232.1155
 21
796.2
 31
0.0
  0
LINE
  5
675
330
1E
100
AcDbEntity
  8
0
100
AcDbLine
 10
231.2574999999999
 20
794.2000000000001
 30
0.0
 11
232.1155
 21
794.2000000000001
 31
0.0
  0
LINE
  5
676
330
1E
100
AcDbEntity
  8
0
100
AcDbLine
 10
231.2574999999999
 20
787.3999999999999
 30
0.0
 11
232.1155
 21
787.3999999999999
 31
0.0
  0
LINE
  5
677
330
1E
100
AcDbEntity
  8
0
100
AcDbLine
 10
232.1155
 20
789.4
 30
0.0
 11
232.5435
 21
788.9
 31
0.0
  0
LINE
  5
678
330
1E
100
AcDbEntity
  8
0
100
AcDbLine
 10
232.1155
 20
796.2
 30
0.0
 11
232.5435
 21
795.7
 31
0.0
  0
LINE
  5
679
330
1E
100
AcDbEntity
  8
0
100
AcDbLine
 10
232.1155
 20
794.2000000000001
 30
0.0
 11
232.5435
 21
794.7
 31
0.0
  0
LINE
  5
67A
330
1E
100
AcDbEntity
  8
0
100
AcDbLine
 10
232.1155
 20
787.3999999999999
 30
0.0
 11
232.5435
 21
787.8999999999999
 31
0.0
  0
LINE
  5
67B
330
1E
100
AcDbEntity
  8
0
100
AcDbLine
 10
232.5435
 20
787.8999999999999
 30
0.0
 11
232.5435
 21
788.9
 31
0.0
  0
LINE
  5
67C
330
1E
100
AcDbEntity
  8
0
100
AcDbLine
 10
232.5435
 20
788.9
 30
0.0
 11
232.5435
 21
787.8999999999999
 31
0.0
  0
LINE
  5
67D
330
1E
100
AcDbEntity
  8
0
100
AcDbLine
 10
232.5435
 20
794.7
 30
0.0
 11
232.5435
 21
795.7
 31
0.0
  0
LINE
  5
67E
330
1E
100
AcDbEntity
  8
0
100
AcDbLine
 10
232.5435
 20
795.7
 30
0.0
 11
232.5435
 21
794.7
 31
0.0
  0
LINE
  5
67F
330
1E
100
AcDbEntity
  8
0
100
AcDbLine
 10
230.8295
 20
788.9
 30
0.0
 11
230.8295
 21
787.8999999999999
 31
0.0
  0
LINE
  5
680
330
1E
100
AcDbEntity
  8
0
100
AcDbLine
 10
230.8295
 20
795.7
 30
0.0
 11
230.8295
 21
794.7
 31
0.0
  0
LINE
  5
681
330
1E
100
AcDbEntity
  8
0
100
AcDbLine
 10
230.8295
 20
794.7
 30
0.0
 11
230.8295
 21
795.7
 31
0.0
  0
LINE
  5
682
330
1E
100
AcDbEntity
  8
0
100
AcDbLine
 10
230.8295
 20
787.8999999999999
 30
0.0
 11
230.8295
 21
788.9
 31
0.0
  0
LINE
  5
683
330
1E
100
AcDbEntity
  8
0
100
AcDbLine
 10
230.8295
 20
788.9
 30
0.0
 11
231.2574999999999
 21
789.4
 31
0.0
  0
LINE
  5
684
330
1E
100
AcDbEntity
  8
0
100
AcDbLine
 10
230.8295
 20
795.7
 30
0.0
 11
231.2574999999999
 21
796.2
 31
0.0
  0
LINE
  5
685
330
1E
100
AcDbEntity
  8
0
100
AcDbLine
 10
230.8295
 20
794.7
 30
0.0
 11
231.2574999999999
 21
794.2000000000001
 31
0.0
  0
LINE
  5
686
330
1E
100
AcDbEntity
  8
0
100
AcDbLine
 10
230.8295
 20
787.8999999999999
 30
0.0
 11
231.2574999999999
 21
787.3999999999999
 31
0.0
  0
LINE
  5
687
330
1E
100
AcDbEntity
  8
0
100
AcDbLine
 10
226.3294999999999
 20
802.5
 30
0.0
 11
226.7574999999999
 21
803.0
 31
0.0
  0
LINE
  5
688
330
1E
100
AcDbEntity
  8
0
100
AcDbLine
 10
226.3294999999999
 20
801.5
 30
0.0
 11
226.7574999999999
 21
801.0
 31
0.0
  0
LINE
  5
689
330
1E
100
AcDbEntity
  8
0
100
AcDbLine
 10
226.3294999999999
 20
802.5
 30
0.0
 11
226.3294999999999
 21
801.5
 31
0.0
  0
LINE
  5
68A
330
1E
100
AcDbEntity
  8
0
100
AcDbLine
 10
226.3294999999999
 20
801.5
 30
0.0
 11
226.3294999999999
 21
802.5
 31
0.0
  0
LINE
  5
68B
330
1E
100
AcDbEntity
  8
0
100
AcDbLine
 10
228.0435
 20
801.5
 30
0.0
 11
228.0435
 21
802.5
 31
0.0
  0
LINE
  5
68C
330
1E
100
AcDbEntity
  8
0
100
AcDbLine
 10
228.0435
 20
802.5
 30
0.0
 11
228.0435
 21
801.5
 31
0.0
  0
LINE
  5
68D
330
1E
100
AcDbEntity
  8
0
100
AcDbLine
 10
227.6155
 20
803.0
 30
0.0
 11
228.0435
 21
802.5
 31
0.0
  0
LINE
  5
68E
330
1E
100
AcDbEntity
  8
0
100
AcDbLine
 10
227.6155
 20
801.0
 30
0.0
 11
228.0435
 21
801.5
 31
0.0
  0
LINE
  5
68F
330
1E
100
AcDbEntity
  8
0
100
AcDbLine
 10
226.7574999999999
 20
803.0
 30
0.0
 11
227.6155
 21
803.0
 31
0.0
  0
LINE
  5
690
330
1E
100
AcDbEntity
  8
0
100
AcDbLine
 10
226.7574999999999
 20
801.0
 30
0.0
 11
227.6155
 21
801.0
 31
0.0
  0
LINE
  5
691
330
1E
100
AcDbEntity
  8
0
100
AcDbLine
 10
231.2574999999999
 20
801.0
 30
0.0
 11
232.1155
 21
801.0
 31
0.0
  0
LINE
  5
692
330
1E
100
AcDbEntity
  8
0
100
AcDbLine
 10
231.2574999999999
 20
803.0
 30
0.0
 11
232.1155
 21
803.0
 31
0.0
  0
LINE
  5
693
330
1E
100
AcDbEntity
  8
0
100
AcDbLine
 10
232.1155
 20
801.0
 30
0.0
 11
232.5435
 21
801.5
 31
0.0
  0
LINE
  5
694
330
1E
100
AcDbEntity
  8
0
100
AcDbLine
 10
232.1155
 20
803.0
 30
0.0
 11
232.5435
 21
802.5
 31
0.0
  0
LINE
  5
695
330
1E
100
AcDbEntity
  8
0
100
AcDbLine
 10
232.5435
 20
802.5
 30
0.0
 11
232.5435
 21
801.5
 31
0.0
  0
LINE
  5
696
330
1E
100
AcDbEntity
  8
0
100
AcDbLine
 10
232.5435
 20
801.5
 30
0.0
 11
232.5435
 21
802.5
 31
0.0
  0
LINE
  5
697
330
1E
100
AcDbEntity
  8
0
100
AcDbLine
 10
230.8295
 20
801.5
 30
0.0
 11
230.8295
 21
802.5
 31
0.0
  0
LINE
  5
698
330
1E
100
AcDbEntity
  8
0
100
AcDbLine
 10
230.8295
 20
802.5
 30
0.0
 11
230.8295
 21
801.5
 31
0.0
  0
LINE
  5
699
330
1E
100
AcDbEntity
  8
0
100
AcDbLine
 10
230.8295
 20
801.5
 30
0.0
 11
231.2574999999999
 21
801.0
 31
0.0
  0
LINE
  5
69A
330
1E
100
AcDbEntity
  8
0
100
AcDbLine
 10
230.8295
 20
802.5
 30
0.0
 11
231.2574999999999
 21
803.0
 31
0.0
  0
ENDSEC
  0
SECTION
  2
OBJECTS
  0
DICTIONARY
  5
C
330
0
100
AcDbDictionary
281
     1
  3
ACAD_GROUP
350
D
  3
ACAD_LAYOUT
350
19
  3
ACAD_MLINESTYLE
350
16
  3
ACAD_PLOTSETTINGS
350
18
  3
ACAD_PLOTSTYLENAME
350
E
  3
AcDbVariableDictionary
350
4DF
  0
DICTIONARY
  5
D
102
{ACAD_REACTORS
330
C
102
}
330
C
100
AcDbDictionary
281
     1
  0
DICTIONARY
  5
19
102
{ACAD_REACTORS
330
C
102
}
330
C
100
AcDbDictionary
281
     1
  3
Layout1
350
1D
  3
Model
350
21
  0
DICTIONARY
  5
16
102
{ACAD_REACTORS
330
C
102
}
330
C
100
AcDbDictionary
281
     1
  3
Standard
350
17
  0
DICTIONARY
  5
18
102
{ACAD_REACTORS
330
C
102
}
330
C
100
AcDbDictionary
281
     1
  0
ACDBDICTIONARYWDFLT
  5
E
102
{ACAD_REACTORS
330
C
102
}
330
C
100
AcDbDictionary
281
     1
  3
Normal
350
F
100
AcDbDictionaryWithDefault
340
F
  0
DICTIONARY
  5
4DF
102
{ACAD_REACTORS
330
C
102
}
330
C
100
AcDbDictionary
281
     1
  3
DIMASSOC
350
4E0
  0
LAYOUT
  5
1D
102
{ACAD_REACTORS
330
19
102
}
330
19
100
AcDbPlotSettings
  1

  2
hp deskjet 980c series
  4

  6

 40
0.0
 41
0.0
 42
0.0
 43
0.0
 44
0.0
 45
0.0
 46
0.0
 47
0.0
 48
0.0
 49
0.0
140
0.0
141
0.0
142
1.0
143
1.0
 70
   688
 72
     0
 73
     0
 74
     5
  7

 75
    16
147
1.0
148
0.0
149
0.0
100
AcDbLayout
  1
Layout1
 70
     1
 71
     1
 10
0.0
 20
0.0
 11
12.0
 21
9.0
 12
0.0
 22
0.0
 32
0.0
 14
1.000000000000000E+20
 24
1.000000000000000E+20
 34
1.000000000000000E+20
 15
-1.000000000000000E+20
 25
-1.000000000000000E+20
 35
-1.000000000000000E+20
146
0.0
 13
0.0
 23
0.0
 33
0.0
 16
1.0
 26
0.0
 36
0.0
 17
0.0
 27
1.0
 37
0.0
 76
     0
330
1A
  0
LAYOUT
  5
21
102
{ACAD_REACTORS
330
19
102
}
330
19
100
AcDbPlotSettings
  1

  2
hp deskjet 980c series
  4

  6

 40
0.0
 41
0.0
 42
0.0
 43
0.0
 44
0.0
 45
0.0
 46
0.0
 47
0.0
 48
0.0
 49
0.0
140
0.0
141
0.0
142
1.0
143
1.0
 70
  1712
 72
     0
 73
     0
 74
     0
  7

 75
     0
147
1.0
148
0.0
149
0.0
100
AcDbLayout
  1
Model
 70
     1
 71
     0
 10
0.0
 20
0.0
 11
12.0
 21
9.0
 12
0.0
 22
0.0
 32
0.0
 14
0.0
 24
0.0
 34
0.0
 15
0.0
 25
0.0
 35
0.0
146
0.0
 13
0.0
 23
0.0
 33
0.0
 16
1.0
 26
0.0
 36
0.0
 17
0.0
 27
1.0
 37
0.0
 76
     0
330
1E
  0
MLINESTYLE
  5
17
102
{ACAD_REACTORS
330
16
102
}
330
16
100
AcDbMlineStyle
  2
STANDARD
 70
     0
  3

 62
   256
 51
90.0
 52
90.0
 71
     2
 49
0.5
 62
   256
  6
BYLAYER
 49
-0.5
 62
   256
  6
BYLAYER
  0
ACDBPLACEHOLDER
  5
F
102
{ACAD_REACTORS
330
E
102
}
330
E
  0
DICTIONARYVAR
  5
4E0
102
{ACAD_REACTORS
330
4DF
102
}
330
4DF
100
DictionaryVariables
280
     0
  1
1
  0
ENDSEC
  0
EOF
