  0
SECTION
  2
HEADER
  9
$ACADVER
  1
AC1015
  9
$ACADMAINTVER
 70
    13
  9
$DWGCODEPAGE
  3
ANSI_1252
  9
$INSBASE
 10
0.0
 20
0.0
 30
0.0
  9
$EXTMIN
 10
-0.0000000000000044
 20
0.0000000000000036
 30
0.0
  9
$EXTMAX
 10
160.0
 20
138.0
 30
0.0
  9
$LIMMIN
 10
0.0
 20
0.0
  9
$LIMMAX
 10
12.0
 20
9.0
  9
$ORTHOMODE
 70
     0
  9
$REGENMODE
 70
     1
  9
$FILLMODE
 70
     1
  9
$QTEXTMODE
 70
     0
  9
$MIRRTEXT
 70
     1
  9
$LTSCALE
 40
1.0
  9
$ATTMODE
 70
     1
  9
$TEXTSIZE
 40
0.2
  9
$TRACEWID
 40
0.05
  9
$TEXTSTYLE
  7
Standard
  9
$CLAYER
  8
0
  9
$CELTYPE
  6
Continuous
  9
$CECOLOR
 62
   256
  9
$CELTSCALE
 40
1.0
  9
$DISPSILH
 70
     0
  9
$DIMSCALE
 40
1.0
  9
$DIMASZ
 40
0.18
  9
$DIMEXO
 40
0.0625
  9
$DIMDLI
 40
0.38
  9
$DIMRND
 40
0.0
  9
$DIMDLE
 40
0.0
  9
$DIMEXE
 40
0.18
  9
$DIMTP
 40
0.0
  9
$DIMTM
 40
0.0
  9
$DIMTXT
 40
0.18
  9
$DIMCEN
 40
0.09
  9
$DIMTSZ
 40
0.0
  9
$DIMTOL
 70
     0
  9
$DIMLIM
 70
     0
  9
$DIMTIH
 70
     1
  9
$DIMTOH
 70
     1
  9
$DIMSE1
 70
     0
  9
$DIMSE2
 70
     0
  9
$DIMTAD
 70
     0
  9
$DIMZIN
 70
     0
  9
$DIMBLK
  1

  9
$DIMASO
 70
     1
  9
$DIMSHO
 70
     1
  9
$DIMPOST
  1

  9
$DIMAPOST
  1

  9
$DIMALT
 70
     0
  9
$DIMALTD
 70
     2
  9
$DIMALTF
 40
25.4
  9
$DIMLFAC
 40
1.0
  9
$DIMTOFL
 70
     0
  9
$DIMTVP
 40
0.0
  9
$DIMTIX
 70
     0
  9
$DIMSOXD
 70
     0
  9
$DIMSAH
 70
     0
  9
$DIMBLK1
  1

  9
$DIMBLK2
  1

  9
$DIMSTYLE
  2
Standard
  9
$DIMCLRD
 70
     0
  9
$DIMCLRE
 70
     0
  9
$DIMCLRT
 70
     0
  9
$DIMTFAC
 40
1.0
  9
$DIMGAP
 40
0.09
  9
$DIMJUST
 70
     0
  9
$DIMSD1
 70
     0
  9
$DIMSD2
 70
     0
  9
$DIMTOLJ
 70
     1
  9
$DIMTZIN
 70
     0
  9
$DIMALTZ
 70
     0
  9
$DIMALTTZ
 70
     0
  9
$DIMUPT
 70
     0
  9
$DIMDEC
 70
     4
  9
$DIMTDEC
 70
     4
  9
$DIMALTU
 70
     2
  9
$DIMALTTD
 70
     2
  9
$DIMTXSTY
  7
Standard
  9
$DIMAUNIT
 70
     0
  9
$DIMADEC
 70
     0
  9
$DIMALTRND
 40
0.0
  9
$DIMAZIN
 70
     0
  9
$DIMDSEP
 70
    46
  9
$DIMATFIT
 70
     3
  9
$DIMFRAC
 70
     0
  9
$DIMLDRBLK
  1

  9
$DIMLUNIT
 70
     2
  9
$DIMLWD
 70
    -2
  9
$DIMLWE
 70
    -2
  9
$DIMTMOVE
 70
     0
  9
$LUNITS
 70
     2
  9
$LUPREC
 70
     4
  9
$SKETCHINC
 40
0.1
  9
$FILLETRAD
 40
0.0
  9
$AUNITS
 70
     0
  9
$AUPREC
 70
     0
  9
$MENU
  1
.
  9
$ELEVATION
 40
0.0
  9
$PELEVATION
 40
0.0
  9
$THICKNESS
 40
0.0
  9
$LIMCHECK
 70
     0
  9
$CHAMFERA
 40
0.0
  9
$CHAMFERB
 40
0.0
  9
$CHAMFERC
 40
0.0
  9
$CHAMFERD
 40
0.0
  9
$SKPOLY
 70
     0
  9
$TDCREATE
 40
2454748.406925949
  9
$TDUCREATE
 40
2454748.323592616
  9
$TDUPDATE
 40
2454748.417264132
  9
$TDUUPDATE
 40
2454748.333930798
  9
$TDINDWG
 40
0.0103381829
  9
$TDUSRTIMER
 40
0.0103381829
  9
$USRTIMER
 70
     1
  9
$ANGBASE
 50
0.0
  9
$ANGDIR
 70
     0
  9
$PDMODE
 70
     0
  9
$PDSIZE
 40
0.0
  9
$PLINEWID
 40
0.0
  9
$SPLFRAME
 70
     0
  9
$SPLINETYPE
 70
     6
  9
$SPLINESEGS
 70
     8
  9
$HANDSEED
  5
178
  9
$SURFTAB1
 70
     6
  9
$SURFTAB2
 70
     6
  9
$SURFTYPE
 70
     6
  9
$SURFU
 70
     6
  9
$SURFV
 70
     6
  9
$UCSBASE
  2

  9
$UCSNAME
  2

  9
$UCSORG
 10
0.0
 20
0.0
 30
0.0
  9
$UCSXDIR
 10
1.0
 20
0.0
 30
0.0
  9
$UCSYDIR
 10
0.0
 20
1.0
 30
0.0
  9
$UCSORTHOREF
  2

  9
$UCSORTHOVIEW
 70
     1
  9
$UCSORGTOP
 10
0.0
 20
0.0
 30
0.0
  9
$UCSORGBOTTOM
 10
0.0
 20
0.0
 30
0.0
  9
$UCSORGLEFT
 10
0.0
 20
0.0
 30
0.0
  9
$UCSORGRIGHT
 10
0.0
 20
0.0
 30
0.0
  9
$UCSORGFRONT
 10
0.0
 20
0.0
 30
0.0
  9
$UCSORGBACK
 10
0.0
 20
0.0
 30
0.0
  9
$PUCSBASE
  2

  9
$PUCSNAME
  2

  9
$PUCSORG
 10
0.0
 20
0.0
 30
0.0
  9
$PUCSXDIR
 10
1.0
 20
0.0
 30
0.0
  9
$PUCSYDIR
 10
0.0
 20
1.0
 30
0.0
  9
$PUCSORTHOREF
  2

  9
$PUCSORTHOVIEW
 70
     0
  9
$PUCSORGTOP
 10
0.0
 20
0.0
 30
0.0
  9
$PUCSORGBOTTOM
 10
0.0
 20
0.0
 30
0.0
  9
$PUCSORGLEFT
 10
0.0
 20
0.0
 30
0.0
  9
$PUCSORGRIGHT
 10
0.0
 20
0.0
 30
0.0
  9
$PUCSORGFRONT
 10
0.0
 20
0.0
 30
0.0
  9
$PUCSORGBACK
 10
0.0
 20
0.0
 30
0.0
  9
$USERI1
 70
     0
  9
$USERI2
 70
     0
  9
$USERI3
 70
     0
  9
$USERI4
 70
     0
  9
$USERI5
 70
     0
  9
$USERR1
 40
0.0
  9
$USERR2
 40
0.0
  9
$USERR3
 40
0.0
  9
$USERR4
 40
0.0
  9
$USERR5
 40
0.0
  9
$WORLDVIEW
 70
     1
  9
$SHADEDGE
 70
     3
  9
$SHADEDIF
 70
    70
  9
$TILEMODE
 70
     1
  9
$MAXACTVP
 70
    64
  9
$PINSBASE
 10
0.0
 20
0.0
 30
0.0
  9
$PLIMCHECK
 70
     0
  9
$PEXTMIN
 10
1.000000000000000E+20
 20
1.000000000000000E+20
 30
1.000000000000000E+20
  9
$PEXTMAX
 10
-1.000000000000000E+20
 20
-1.000000000000000E+20
 30
-1.000000000000000E+20
  9
$PLIMMIN
 10
0.0
 20
0.0
  9
$PLIMMAX
 10
12.0
 20
9.0
  9
$UNITMODE
 70
     0
  9
$VISRETAIN
 70
     1
  9
$PLINEGEN
 70
     0
  9
$PSLTSCALE
 70
     1
  9
$TREEDEPTH
 70
  3020
  9
$CMLSTYLE
  2
Standard
  9
$CMLJUST
 70
     0
  9
$CMLSCALE
 40
1.0
  9
$PROXYGRAPHICS
 70
     1
  9
$MEASUREMENT
 70
     0
  9
$CELWEIGHT
370
    -1
  9
$ENDCAPS
280
     0
  9
$JOINSTYLE
280
     0
  9
$LWDISPLAY
290
     0
  9
$INSUNITS
 70
     0
  9
$HYPERLINKBASE
  1

  9
$STYLESHEET
  1

  9
$XEDIT
290
     1
  9
$CEPSNTYPE
380
     0
  9
$PSTYLEMODE
290
     1
  9
$FINGERPRINTGUID
  2
{2BEF3DF8-1D47-41C0-8B29-DC9BDAB9EFDF}
  9
$VERSIONGUID
  2
{632A4427-FB5B-49F6-8F34-488C1931CA17}
  9
$EXTNAMES
290
     1
  9
$PSVPSCALE
 40
0.0
  9
$OLESTARTUP
290
     0
  0
ENDSEC
  0
SECTION
  2
CLASSES
  0
CLASS
  1
ACDBDICTIONARYWDFLT
  2
AcDbDictionaryWithDefault
  3
AutoCAD 2000
 90
        0
280
     0
281
     0
  0
CLASS
  1
ACDBPLACEHOLDER
  2
AcDbPlaceHolder
  3
AutoCAD 2000
 90
        0
280
     0
281
     0
  0
CLASS
  1
LAYOUT
  2
AcDbLayout
  3
AutoCAD 2000
 90
        0
280
     0
281
     0
  0
CLASS
  1
DICTIONARYVAR
  2
AcDbDictionaryVar
  3
AutoCAD 2000
 90
        0
280
     0
281
     0
  0
ENDSEC
  0
SECTION
  2
TABLES
  0
TABLE
  2
VPORT
  5
8
330
0
100
AcDbSymbolTable
 70
     2
  0
VPORT
  5
177
330
8
100
AcDbSymbolTableRecord
100
AcDbViewportTableRecord
  2
*Active
 70
     0
 10
0.0
 20
0.0
 11
1.0
 21
1.0
 12
80.0
 22
69.0
 13
0.0
 23
0.0
 14
1.0
 24
1.0
 15
0.0
 25
0.0
 16
0.0
 26
0.0
 36
1.0
 17
0.0
 27
0.0
 37
0.0
 40
139.0588235294117
 41
2.078104993597951
 42
50.0
 43
0.0
 44
0.0
 50
0.0
 51
0.0
 71
     0
 72
   100
 73
     1
 74
     3
 75
     0
 76
     0
 77
     0
 78
     0
281
     0
 65
     1
110
0.0
120
0.0
130
0.0
111
1.0
121
0.0
131
0.0
112
0.0
122
1.0
132
0.0
 79
     1
146
0.0
  0
ENDTAB
  0
TABLE
  2
LTYPE
  5
5
330
0
100
AcDbSymbolTable
 70
     1
  0
LTYPE
  5
13
330
5
100
AcDbSymbolTableRecord
100
AcDbLinetypeTableRecord
  2
ByBlock
 70
     0
  3

 72
    65
 73
     0
 40
0.0
  0
LTYPE
  5
14
330
5
100
AcDbSymbolTableRecord
100
AcDbLinetypeTableRecord
  2
ByLayer
 70
     0
  3

 72
    65
 73
     0
 40
0.0
  0
LTYPE
  5
15
330
5
100
AcDbSymbolTableRecord
100
AcDbLinetypeTableRecord
  2
Continuous
 70
     0
  3
Solid line
 72
    65
 73
     0
 40
0.0
  0
ENDTAB
  0
TABLE
  2
LAYER
  5
2
330
0
100
AcDbSymbolTable
 70
     1
  0
LAYER
  5
10
330
2
100
AcDbSymbolTableRecord
100
AcDbLayerTableRecord
  2
0
 70
     0
 62
     7
  6
Continuous
370
    -3
390
F
  0
ENDTAB
  0
TABLE
  2
STYLE
  5
3
330
0
100
AcDbSymbolTable
 70
     1
  0
STYLE
  5
11
330
3
100
AcDbSymbolTableRecord
100
AcDbTextStyleTableRecord
  2
Standard
 70
     0
 40
0.0
 41
1.0
 50
0.0
 71
     0
 42
0.2
  3
txt
  4

  0
ENDTAB
  0
TABLE
  2
VIEW
  5
6
330
0
100
AcDbSymbolTable
 70
     0
  0
ENDTAB
  0
TABLE
  2
UCS
  5
7
330
0
100
AcDbSymbolTable
 70
     0
  0
ENDTAB
  0
TABLE
  2
APPID
  5
9
330
0
100
AcDbSymbolTable
 70
     1
  0
APPID
  5
12
330
9
100
AcDbSymbolTableRecord
100
AcDbRegAppTableRecord
  2
ACAD
 70
     0
  0
ENDTAB
  0
TABLE
  2
DIMSTYLE
  5
A
330
0
100
AcDbSymbolTable
 70
     1
100
AcDbDimStyleTable
 71
     0
  0
DIMSTYLE
105
171
330
A
100
AcDbSymbolTableRecord
100
AcDbDimStyleTableRecord
  2
Standard
 70
     0
340
11
  0
ENDTAB
  0
TABLE
  2
BLOCK_RECORD
  5
1
330
0
100
AcDbSymbolTable
 70
     0
  0
BLOCK_RECORD
  5
1E
330
1
100
AcDbSymbolTableRecord
100
AcDbBlockTableRecord
  2
*Model_Space
340
21
  0
BLOCK_RECORD
  5
1A
330
1
100
AcDbSymbolTableRecord
100
AcDbBlockTableRecord
  2
*Paper_Space
340
1D
  0
ENDTAB
  0
ENDSEC
  0
SECTION
  2
BLOCKS
  0
BLOCK
  5
1F
330
1E
100
AcDbEntity
  8
0
100
AcDbBlockBegin
  2
*Model_Space
 70
     0
 10
0.0
 20
0.0
 30
0.0
  3
*Model_Space
  1

  0
ENDBLK
  5
20
330
1E
100
AcDbEntity
  8
0
100
AcDbBlockEnd
  0
BLOCK
  5
1B
330
1A
100
AcDbEntity
 67
     1
  8
0
100
AcDbBlockBegin
  2
*Paper_Space
 70
     0
 10
0.0
 20
0.0
 30
0.0
  3
*Paper_Space
  1

  0
ENDBLK
  5
1C
330
1A
100
AcDbEntity
 67
     1
  8
0
100
AcDbBlockEnd
  0
ENDSEC
  0
SECTION
  2
ENTITIES
  0
LINE
  5
22
330
1E
100
AcDbEntity
  8
0
100
AcDbLine
 10
1.78889
 20
38.91199999999999
 30
0.0
 11
7.033669999999999
 21
26.25
 31
0.0
  0
LINE
  5
23
330
1E
100
AcDbEntity
  8
0
100
AcDbLine
 10
7.033669999999999
 20
26.25
 30
0.0
 11
15.3769
 21
15.3769
 31
0.0
  0
LINE
  5
24
330
1E
100
AcDbEntity
  8
0
100
AcDbLine
 10
1.78889
 20
38.91199999999999
 30
0.0
 11
7.033669999999999
 21
26.25
 31
0.0
  0
LINE
  5
25
330
1E
100
AcDbEntity
  8
0
100
AcDbLine
 10
11.44819999999999
 20
41.5002
 30
0.0
 11
15.6939
 21
31.25
 31
0.0
  0
LINE
  5
26
330
1E
100
AcDbEntity
  8
0
100
AcDbLine
 10
10.0
 20
52.5
 30
0.0
 11
11.44819999999999
 21
63.4998
 31
0.0
  0
LINE
  5
27
330
1E
100
AcDbEntity
  8
0
100
AcDbLine
 10
10.0
 20
52.5
 30
0.0
 11
11.44819999999999
 21
41.5002
 31
0.0
  0
LINE
  5
28
330
1E
100
AcDbEntity
  8
0
100
AcDbLine
 10
1.78889
 20
66.08800000000001
 30
0.0
 11
7.033669999999999
 21
78.75
 31
0.0
  0
LINE
  5
29
330
1E
100
AcDbEntity
  8
0
100
AcDbLine
 10
-0.0000000000000044
 20
52.5
 30
0.0
 11
1.78889
 21
66.08800000000001
 31
0.0
  0
LINE
  5
2A
330
1E
100
AcDbEntity
  8
0
100
AcDbLine
 10
-0.0000000000000044
 20
52.5
 30
0.0
 11
1.78889
 21
38.91199999999999
 31
0.0
  0
LINE
  5
2B
330
1E
100
AcDbEntity
  8
0
100
AcDbLine
 10
15.3769
 20
15.3769
 30
0.0
 11
26.25
 21
7.033669999999999
 31
0.0
  0
LINE
  5
2C
330
1E
100
AcDbEntity
  8
0
100
AcDbLine
 10
13.0
 20
37.7537599877523
 30
0.0
 11
13.0
 21
67.24624001224771
 31
0.0
  0
LINE
  5
2D
330
1E
100
AcDbEntity
  8
0
100
AcDbLine
 10
15.6939
 20
31.25
 30
0.0
 11
22.448
 21
22.448
 31
0.0
  0
LINE
  5
2E
330
1E
100
AcDbEntity
  8
0
100
AcDbLine
 10
11.44819999999999
 20
63.4998
 30
0.0
 11
15.6939
 21
73.75
 31
0.0
  0
LINE
  5
2F
330
1E
100
AcDbEntity
  8
0
100
AcDbLine
 10
13.0
 20
67.24624001224771
 30
0.0
 11
13.0
 21
37.7537599877523
 31
0.0
  0
LINE
  5
30
330
1E
100
AcDbEntity
  8
0
100
AcDbLine
 10
1.78889
 20
66.08800000000001
 30
0.0
 11
7.033669999999999
 21
78.75
 31
0.0
  0
LINE
  5
31
330
1E
100
AcDbEntity
  8
0
100
AcDbLine
 10
43.0
 20
11.25074092256219
 30
0.0
 11
43.0
 21
11.5
 31
0.0
  0
LINE
  5
32
330
1E
100
AcDbEntity
  8
0
100
AcDbLine
 10
52.5
 20
10.0
 30
0.0
 11
107.4999999999999
 21
10.0
 31
0.0
  0
LINE
  5
33
330
1E
100
AcDbEntity
  8
0
100
AcDbLine
 10
52.5
 20
0.0000000000000037
 30
0.0
 11
107.4999999999999
 21
0.0000000000000037
 31
0.0
  0
LINE
  5
34
330
1E
100
AcDbEntity
  8
0
100
AcDbLine
 10
43.0
 20
14.6354
 30
0.0
 11
43.0
 21
11.5
 31
0.0
  0
LINE
  5
35
330
1E
100
AcDbEntity
  8
0
100
AcDbLine
 10
43.0
 20
14.6354
 30
0.0
 11
43.0
 21
18.0
 31
0.0
  0
LINE
  5
36
330
1E
100
AcDbEntity
  8
0
100
AcDbLine
 10
39.0
 20
12.4837992214786
 30
0.0
 11
39.0
 21
14.6354
 31
0.0
  0
LINE
  5
37
330
1E
100
AcDbEntity
  8
0
100
AcDbLine
 10
39.0
 20
14.6354
 30
0.0
 11
39.0
 21
18.0
 31
0.0
  0
LINE
  5
38
330
1E
100
AcDbEntity
  8
0
100
AcDbLine
 10
39.0
 20
14.6354
 30
0.0
 11
39.0
 21
12.4837992214786
 31
0.0
  0
LINE
  5
39
330
1E
100
AcDbEntity
  8
0
100
AcDbLine
 10
43.0
 20
11.5
 30
0.0
 11
43.0
 21
11.25074092256219
 31
0.0
  0
LINE
  5
3A
330
1E
100
AcDbEntity
  8
0
100
AcDbLine
 10
43.0
 20
11.5
 30
0.0
 11
43.0
 21
14.6354
 31
0.0
  0
LINE
  5
3B
330
1E
100
AcDbEntity
  8
0
100
AcDbLine
 10
41.5002
 20
11.44819999999999
 30
0.0
 11
52.5
 21
10.0
 31
0.0
  0
LINE
  5
3C
330
1E
100
AcDbEntity
  8
0
100
AcDbLine
 10
38.91199999999999
 20
1.78889
 30
0.0
 11
52.5
 21
0.0000000000000036
 31
0.0
  0
LINE
  5
3D
330
1E
100
AcDbEntity
  8
0
100
AcDbLine
 10
38.91199999999999
 20
1.78889
 30
0.0
 11
52.5
 21
0.0000000000000037
 31
0.0
  0
LINE
  5
3E
330
1E
100
AcDbEntity
  8
0
100
AcDbLine
 10
39.0
 20
18.0
 30
0.0
 11
39.0
 21
87.0
 31
0.0
  0
LINE
  5
3F
330
1E
100
AcDbEntity
  8
0
100
AcDbLine
 10
39.0
 20
18.0
 30
0.0
 11
39.0
 21
14.6354
 31
0.0
  0
LINE
  5
40
330
1E
100
AcDbEntity
  8
0
100
AcDbLine
 10
43.0
 20
18.0
 30
0.0
 11
43.0
 21
87.0
 31
0.0
  0
LINE
  5
41
330
1E
100
AcDbEntity
  8
0
100
AcDbLine
 10
43.0
 20
18.0
 30
0.0
 11
43.0
 21
14.6354
 31
0.0
  0
LINE
  5
42
330
1E
100
AcDbEntity
  8
0
100
AcDbLine
 10
31.25
 20
15.6939
 30
0.0
 11
41.5002
 21
11.44819999999999
 31
0.0
  0
LINE
  5
43
330
1E
100
AcDbEntity
  8
0
100
AcDbLine
 10
26.25
 20
7.033669999999999
 30
0.0
 11
38.91199999999999
 21
1.78889
 31
0.0
  0
LINE
  5
44
330
1E
100
AcDbEntity
  8
0
100
AcDbLine
 10
26.25
 20
7.033669999999999
 30
0.0
 11
38.91199999999999
 21
1.78889
 31
0.0
  0
LINE
  5
45
330
1E
100
AcDbEntity
  8
0
100
AcDbLine
 10
17.0
 20
29.5478794806118
 30
0.0
 11
17.0
 21
30.5
 31
0.0
  0
LINE
  5
46
330
1E
100
AcDbEntity
  8
0
100
AcDbLine
 10
17.0
 20
30.5
 30
0.0
 11
17.0
 21
33.63539999999999
 31
0.0
  0
LINE
  5
47
330
1E
100
AcDbEntity
  8
0
100
AcDbLine
 10
17.0
 20
30.5
 30
0.0
 11
17.0
 21
29.5478794806118
 31
0.0
  0
LINE
  5
48
330
1E
100
AcDbEntity
  8
0
100
AcDbLine
 10
17.0
 20
68.0
 30
0.0
 11
17.0
 21
71.36459999999999
 31
0.0
  0
LINE
  5
49
330
1E
100
AcDbEntity
  8
0
100
AcDbLine
 10
17.0
 20
68.0
 30
0.0
 11
17.0
 21
37.0
 31
0.0
  0
LINE
  5
4A
330
1E
100
AcDbEntity
  8
0
100
AcDbLine
 10
17.0
 20
75.4521205193882
 30
0.0
 11
17.0
 21
74.5
 31
0.0
  0
LINE
  5
4B
330
1E
100
AcDbEntity
  8
0
100
AcDbLine
 10
17.0
 20
74.5
 30
0.0
 11
17.0
 21
71.36459999999999
 31
0.0
  0
LINE
  5
4C
330
1E
100
AcDbEntity
  8
0
100
AcDbLine
 10
17.0
 20
74.5
 30
0.0
 11
17.0
 21
75.4521205193882
 31
0.0
  0
LINE
  5
4D
330
1E
100
AcDbEntity
  8
0
100
AcDbLine
 10
17.0
 20
71.36459999999999
 30
0.0
 11
17.0
 21
74.5
 31
0.0
  0
LINE
  5
4E
330
1E
100
AcDbEntity
  8
0
100
AcDbLine
 10
17.0
 20
71.36459999999999
 30
0.0
 11
17.0
 21
68.0
 31
0.0
  0
LINE
  5
4F
330
1E
100
AcDbEntity
  8
0
100
AcDbLine
 10
17.0
 20
37.0
 30
0.0
 11
17.0
 21
33.63539999999999
 31
0.0
  0
LINE
  5
50
330
1E
100
AcDbEntity
  8
0
100
AcDbLine
 10
17.0
 20
37.0
 30
0.0
 11
17.0
 21
68.0
 31
0.0
  0
LINE
  5
51
330
1E
100
AcDbEntity
  8
0
100
AcDbLine
 10
17.0
 20
33.63539999999999
 30
0.0
 11
17.0
 21
37.0
 31
0.0
  0
LINE
  5
52
330
1E
100
AcDbEntity
  8
0
100
AcDbLine
 10
17.0
 20
33.63539999999999
 30
0.0
 11
17.0
 21
30.5
 31
0.0
  0
LINE
  5
53
330
1E
100
AcDbEntity
  8
0
100
AcDbLine
 10
22.448
 20
22.448
 30
0.0
 11
31.25
 21
15.6939
 31
0.0
  0
LINE
  5
54
330
1E
100
AcDbEntity
  8
0
100
AcDbLine
 10
15.6939
 20
73.75
 30
0.0
 11
22.448
 21
82.552
 31
0.0
  0
LINE
  5
55
330
1E
100
AcDbEntity
  8
0
100
AcDbLine
 10
22.448
 20
82.552
 30
0.0
 11
31.25
 21
89.30609999999999
 31
0.0
  0
LINE
  5
56
330
1E
100
AcDbEntity
  8
0
100
AcDbLine
 10
15.3769
 20
89.6231
 30
0.0
 11
26.25
 21
97.9663
 31
0.0
  0
LINE
  5
57
330
1E
100
AcDbEntity
  8
0
100
AcDbLine
 10
39.0
 20
87.0
 30
0.0
 11
39.0
 21
18.0
 31
0.0
  0
LINE
  5
58
330
1E
100
AcDbEntity
  8
0
100
AcDbLine
 10
39.0
 20
87.0
 30
0.0
 11
39.0
 21
90.36459999999999
 31
0.0
  0
LINE
  5
59
330
1E
100
AcDbEntity
  8
0
100
AcDbLine
 10
43.0
 20
87.0
 30
0.0
 11
43.0
 21
18.0
 31
0.0
  0
LINE
  5
5A
330
1E
100
AcDbEntity
  8
0
100
AcDbLine
 10
43.0
 20
87.0
 30
0.0
 11
43.0
 21
90.36459999999999
 31
0.0
  0
LINE
  5
5B
330
1E
100
AcDbEntity
  8
0
100
AcDbLine
 10
39.0
 20
92.51620077852141
 30
0.0
 11
39.0
 21
90.36459999999999
 31
0.0
  0
LINE
  5
5C
330
1E
100
AcDbEntity
  8
0
100
AcDbLine
 10
43.0
 20
93.49999999999999
 30
0.0
 11
43.0
 21
90.36459999999999
 31
0.0
  0
LINE
  5
5D
330
1E
100
AcDbEntity
  8
0
100
AcDbLine
 10
43.0
 20
93.49999999999999
 30
0.0
 11
43.0
 21
93.74925907743779
 31
0.0
  0
LINE
  5
5E
330
1E
100
AcDbEntity
  8
0
100
AcDbLine
 10
43.0
 20
90.36459999999999
 30
0.0
 11
43.0
 21
87.0
 31
0.0
  0
LINE
  5
5F
330
1E
100
AcDbEntity
  8
0
100
AcDbLine
 10
43.0
 20
90.36459999999999
 30
0.0
 11
43.0
 21
93.49999999999999
 31
0.0
  0
LINE
  5
60
330
1E
100
AcDbEntity
  8
0
100
AcDbLine
 10
39.0
 20
90.36459999999999
 30
0.0
 11
39.0
 21
92.51620077852141
 31
0.0
  0
LINE
  5
61
330
1E
100
AcDbEntity
  8
0
100
AcDbLine
 10
39.0
 20
90.36459999999999
 30
0.0
 11
39.0
 21
87.0
 31
0.0
  0
LINE
  5
62
330
1E
100
AcDbEntity
  8
0
100
AcDbLine
 10
43.0
 20
93.74925907743779
 30
0.0
 11
43.0
 21
93.49999999999999
 31
0.0
  0
LINE
  5
63
330
1E
100
AcDbEntity
  8
0
100
AcDbLine
 10
52.5
 20
95.0
 30
0.0
 11
107.4999999999999
 21
95.0
 31
0.0
  0
LINE
  5
64
330
1E
100
AcDbEntity
  8
0
100
AcDbLine
 10
52.5
 20
105.0
 30
0.0
 11
76.0
 21
105.0
 31
0.0
  0
LINE
  5
65
330
1E
100
AcDbEntity
  8
0
100
AcDbLine
 10
41.5002
 20
93.5518
 30
0.0
 11
52.5
 21
95.0
 31
0.0
  0
LINE
  5
66
330
1E
100
AcDbEntity
  8
0
100
AcDbLine
 10
38.91199999999999
 20
103.211
 30
0.0
 11
52.5
 21
105.0
 31
0.0
  0
LINE
  5
67
330
1E
100
AcDbEntity
  8
0
100
AcDbLine
 10
31.25
 20
89.30609999999999
 30
0.0
 11
41.5002
 21
93.5518
 31
0.0
  0
LINE
  5
68
330
1E
100
AcDbEntity
  8
0
100
AcDbLine
 10
26.25
 20
97.9663
 30
0.0
 11
38.91199999999999
 21
103.211
 31
0.0
  0
LINE
  5
69
330
1E
100
AcDbEntity
  8
0
100
AcDbLine
 10
7.033669999999999
 20
78.75
 30
0.0
 11
15.3769
 21
89.6231
 31
0.0
  0
LINE
  5
6A
330
1E
100
AcDbEntity
  8
0
100
AcDbLine
 10
62.0
 20
124.6149999999999
 30
0.0
 11
62.0
 21
123.5
 31
0.0
  0
LINE
  5
6B
330
1E
100
AcDbEntity
  8
0
100
AcDbLine
 10
63.1
 20
121.827
 30
0.0
 11
64.8
 21
121.827
 31
0.0
  0
LINE
  5
6C
330
1E
100
AcDbEntity
  8
0
100
AcDbLine
 10
65.0
 20
14.6354
 30
0.0
 11
65.0
 21
18.0
 31
0.0
  0
LINE
  5
6D
330
1E
100
AcDbEntity
  8
0
100
AcDbLine
 10
65.0
 20
14.6354
 30
0.0
 11
65.0
 21
11.5
 31
0.0
  0
LINE
  5
6E
330
1E
100
AcDbEntity
  8
0
100
AcDbLine
 10
65.0
 20
11.5
 30
0.0
 11
65.0
 21
10.0
 31
0.0
  0
LINE
  5
6F
330
1E
100
AcDbEntity
  8
0
100
AcDbLine
 10
65.0
 20
11.5
 30
0.0
 11
65.0
 21
14.6354
 31
0.0
  0
LINE
  5
70
330
1E
100
AcDbEntity
  8
0
100
AcDbLine
 10
65.0
 20
10.0
 30
0.0
 11
65.0
 21
11.5
 31
0.0
  0
LINE
  5
71
330
1E
100
AcDbEntity
  8
0
100
AcDbLine
 10
65.0
 20
95.0
 30
0.0
 11
65.0
 21
93.49999999999999
 31
0.0
  0
LINE
  5
72
330
1E
100
AcDbEntity
  8
0
100
AcDbLine
 10
65.0
 20
93.49999999999999
 30
0.0
 11
65.0
 21
90.36459999999999
 31
0.0
  0
LINE
  5
73
330
1E
100
AcDbEntity
  8
0
100
AcDbLine
 10
65.0
 20
93.49999999999999
 30
0.0
 11
65.0
 21
95.0
 31
0.0
  0
LINE
  5
74
330
1E
100
AcDbEntity
  8
0
100
AcDbLine
 10
65.0
 20
90.36459999999999
 30
0.0
 11
65.0
 21
93.49999999999999
 31
0.0
  0
LINE
  5
75
330
1E
100
AcDbEntity
  8
0
100
AcDbLine
 10
65.0
 20
90.36459999999999
 30
0.0
 11
65.0
 21
87.0
 31
0.0
  0
LINE
  5
76
330
1E
100
AcDbEntity
  8
0
100
AcDbLine
 10
65.0
 20
87.0
 30
0.0
 11
65.0
 21
18.0
 31
0.0
  0
LINE
  5
77
330
1E
100
AcDbEntity
  8
0
100
AcDbLine
 10
65.0
 20
87.0
 30
0.0
 11
65.0
 21
90.36459999999999
 31
0.0
  0
LINE
  5
78
330
1E
100
AcDbEntity
  8
0
100
AcDbLine
 10
65.0
 20
18.0
 30
0.0
 11
65.0
 21
87.0
 31
0.0
  0
LINE
  5
79
330
1E
100
AcDbEntity
  8
0
100
AcDbLine
 10
65.0
 20
18.0
 30
0.0
 11
65.0
 21
14.6354
 31
0.0
  0
LINE
  5
7A
330
1E
100
AcDbEntity
  8
0
100
AcDbLine
 10
69.0
 20
14.6354
 30
0.0
 11
69.0
 21
11.5
 31
0.0
  0
LINE
  5
7B
330
1E
100
AcDbEntity
  8
0
100
AcDbLine
 10
69.0
 20
14.6354
 30
0.0
 11
69.0
 21
18.0
 31
0.0
  0
LINE
  5
7C
330
1E
100
AcDbEntity
  8
0
100
AcDbLine
 10
69.0
 20
10.0
 30
0.0
 11
69.0
 21
11.5
 31
0.0
  0
LINE
  5
7D
330
1E
100
AcDbEntity
  8
0
100
AcDbLine
 10
69.0
 20
11.5
 30
0.0
 11
69.0
 21
10.0
 31
0.0
  0
LINE
  5
7E
330
1E
100
AcDbEntity
  8
0
100
AcDbLine
 10
69.0
 20
11.5
 30
0.0
 11
69.0
 21
14.6354
 31
0.0
  0
LINE
  5
7F
330
1E
100
AcDbEntity
  8
0
100
AcDbLine
 10
69.0
 20
95.0
 30
0.0
 11
69.0
 21
93.49999999999999
 31
0.0
  0
LINE
  5
80
330
1E
100
AcDbEntity
  8
0
100
AcDbLine
 10
69.0
 20
93.49999999999999
 30
0.0
 11
69.0
 21
90.36459999999999
 31
0.0
  0
LINE
  5
81
330
1E
100
AcDbEntity
  8
0
100
AcDbLine
 10
69.0
 20
93.49999999999999
 30
0.0
 11
69.0
 21
95.0
 31
0.0
  0
LINE
  5
82
330
1E
100
AcDbEntity
  8
0
100
AcDbLine
 10
69.0
 20
90.36459999999999
 30
0.0
 11
69.0
 21
87.0
 31
0.0
  0
LINE
  5
83
330
1E
100
AcDbEntity
  8
0
100
AcDbLine
 10
69.0
 20
90.36459999999999
 30
0.0
 11
69.0
 21
93.49999999999999
 31
0.0
  0
LINE
  5
84
330
1E
100
AcDbEntity
  8
0
100
AcDbLine
 10
69.0
 20
18.0
 30
0.0
 11
69.0
 21
87.0
 31
0.0
  0
LINE
  5
85
330
1E
100
AcDbEntity
  8
0
100
AcDbLine
 10
69.0
 20
18.0
 30
0.0
 11
69.0
 21
14.6354
 31
0.0
  0
LINE
  5
86
330
1E
100
AcDbEntity
  8
0
100
AcDbLine
 10
69.0
 20
87.0
 30
0.0
 11
69.0
 21
18.0
 31
0.0
  0
LINE
  5
87
330
1E
100
AcDbEntity
  8
0
100
AcDbLine
 10
69.0
 20
87.0
 30
0.0
 11
69.0
 21
90.36459999999999
 31
0.0
  0
LINE
  5
88
330
1E
100
AcDbEntity
  8
0
100
AcDbLine
 10
68.7
 20
109.0
 30
0.0
 11
70.0
 21
109.0
 31
0.0
  0
LINE
  5
89
330
1E
100
AcDbEntity
  8
0
100
AcDbLine
 10
67.5
 20
109.0
 30
0.0
 11
68.7
 21
109.0
 31
0.0
  0
LINE
  5
8A
330
1E
100
AcDbEntity
  8
0
100
AcDbLine
 10
67.40000000000001
 20
109.5579999999999
 30
0.0
 11
69.8
 21
109.5579999999999
 31
0.0
  0
LINE
  5
8B
330
1E
100
AcDbEntity
  8
0
100
AcDbLine
 10
66.0
 20
109.5579999999999
 30
0.0
 11
67.40000000000001
 21
109.5579999999999
 31
0.0
  0
LINE
  5
8C
330
1E
100
AcDbEntity
  8
0
100
AcDbLine
 10
69.8
 20
109.5579999999999
 30
0.0
 11
72.8
 21
109.5579999999999
 31
0.0
  0
LINE
  5
8D
330
1E
100
AcDbEntity
  8
0
100
AcDbLine
 10
67.0
 20
109.0
 30
0.0
 11
67.5
 21
109.0
 31
0.0
  0
LINE
  5
8E
330
1E
100
AcDbEntity
  8
0
100
AcDbLine
 10
65.5
 20
109.5579999999999
 30
0.0
 11
67.0
 21
109.0
 31
0.0
  0
LINE
  5
8F
330
1E
100
AcDbEntity
  8
0
100
AcDbLine
 10
65.5
 20
109.5579999999999
 30
0.0
 11
66.0
 21
109.5579999999999
 31
0.0
  0
LINE
  5
90
330
1E
100
AcDbEntity
  8
0
100
AcDbLine
 10
67.0
 20
120.154
 30
0.0
 11
69.40000000000001
 21
120.154
 31
0.0
  0
LINE
  5
91
330
1E
100
AcDbEntity
  8
0
100
AcDbLine
 10
65.5
 20
120.154
 30
0.0
 11
67.0
 21
120.154
 31
0.0
  0
LINE
  5
92
330
1E
100
AcDbEntity
  8
0
100
AcDbLine
 10
65.0
 20
120.154
 30
0.0
 11
65.5
 21
120.154
 31
0.0
  0
LINE
  5
93
330
1E
100
AcDbEntity
  8
0
100
AcDbLine
 10
65.0
 20
120.154
 30
0.0
 11
65.0
 21
111.231
 31
0.0
  0
LINE
  5
94
330
1E
100
AcDbEntity
  8
0
100
AcDbLine
 10
64.8
 20
121.827
 30
0.0
 11
67.59999999999999
 21
121.827
 31
0.0
  0
LINE
  5
95
330
1E
100
AcDbEntity
  8
0
100
AcDbLine
 10
69.40000000000001
 20
120.154
 30
0.0
 11
72.5
 21
120.154
 31
0.0
  0
LINE
  5
96
330
1E
100
AcDbEntity
  8
0
100
AcDbLine
 10
67.59999999999999
 20
121.827
 30
0.0
 11
71.29999999999999
 21
121.827
 31
0.0
  0
LINE
  5
97
330
1E
100
AcDbEntity
  8
0
100
AcDbLine
 10
65.0
 20
111.231
 30
0.0
 11
65.0
 21
120.154
 31
0.0
  0
LINE
  5
98
330
1E
100
AcDbEntity
  8
0
100
AcDbLine
 10
65.0
 20
111.231
 30
0.0
 11
65.5
 21
109.5579999999999
 31
0.0
  0
LINE
  5
99
330
1E
100
AcDbEntity
  8
0
100
AcDbLine
 10
64.0
 20
121.269
 30
0.0
 11
65.0
 21
120.154
 31
0.0
  0
LINE
  5
9A
330
1E
100
AcDbEntity
  8
0
100
AcDbLine
 10
62.5
 20
121.827
 30
0.0
 11
64.0
 21
121.269
 31
0.0
  0
LINE
  5
9B
330
1E
100
AcDbEntity
  8
0
100
AcDbLine
 10
62.5
 20
121.827
 30
0.0
 11
63.1
 21
121.827
 31
0.0
  0
LINE
  5
9C
330
1E
100
AcDbEntity
  8
0
100
AcDbLine
 10
62.0
 20
123.5
 30
0.0
 11
62.0
 21
124.6149999999999
 31
0.0
  0
LINE
  5
9D
330
1E
100
AcDbEntity
  8
0
100
AcDbLine
 10
62.0
 20
123.5
 30
0.0
 11
62.5
 21
121.827
 31
0.0
  0
LINE
  5
9E
330
1E
100
AcDbEntity
  8
0
100
AcDbLine
 10
60.5
 20
129.0769999999999
 30
0.0
 11
62.0
 21
124.6149999999999
 31
0.0
  0
LINE
  5
9F
330
1E
100
AcDbEntity
  8
0
100
AcDbLine
 10
57.5
 20
132.9809999999999
 30
0.0
 11
60.5
 21
129.0769999999999
 31
0.0
  0
LINE
  5
A0
330
1E
100
AcDbEntity
  8
0
100
AcDbLine
 10
57.0
 20
135.212
 30
0.0
 11
61.29999999999999
 21
135.212
 31
0.0
  0
LINE
  5
A1
330
1E
100
AcDbEntity
  8
0
100
AcDbLine
 10
54.5
 20
135.212
 30
0.0
 11
57.0
 21
135.212
 31
0.0
  0
LINE
  5
A2
330
1E
100
AcDbEntity
  8
0
100
AcDbLine
 10
61.29999999999999
 20
135.212
 30
0.0
 11
66.79999999999999
 21
135.212
 31
0.0
  0
LINE
  5
A3
330
1E
100
AcDbEntity
  8
0
100
AcDbLine
 10
66.79999999999999
 20
135.212
 30
0.0
 11
73.2
 21
135.212
 31
0.0
  0
LINE
  5
A4
330
1E
100
AcDbEntity
  8
0
100
AcDbLine
 10
55.0
 20
134.654
 30
0.0
 11
57.5
 21
132.9809999999999
 31
0.0
  0
LINE
  5
A5
330
1E
100
AcDbEntity
  8
0
100
AcDbLine
 10
53.5
 20
135.212
 30
0.0
 11
55.0
 21
134.654
 31
0.0
  0
LINE
  5
A6
330
1E
100
AcDbEntity
  8
0
100
AcDbLine
 10
53.5
 20
135.212
 30
0.0
 11
54.5
 21
135.212
 31
0.0
  0
LINE
  5
A7
330
1E
100
AcDbEntity
  8
0
100
AcDbLine
 10
56.6
 20
138.0
 30
0.0
 11
60.89999999999999
 21
138.0
 31
0.0
  0
LINE
  5
A8
330
1E
100
AcDbEntity
  8
0
100
AcDbLine
 10
54.0
 20
138.0
 30
0.0
 11
56.6
 21
138.0
 31
0.0
  0
LINE
  5
A9
330
1E
100
AcDbEntity
  8
0
100
AcDbLine
 10
53.0
 20
138.0
 30
0.0
 11
54.0
 21
138.0
 31
0.0
  0
LINE
  5
AA
330
1E
100
AcDbEntity
  8
0
100
AcDbLine
 10
53.0
 20
138.0
 30
0.0
 11
53.0
 21
136.8849999999999
 31
0.0
  0
LINE
  5
AB
330
1E
100
AcDbEntity
  8
0
100
AcDbLine
 10
60.89999999999999
 20
138.0
 30
0.0
 11
66.6
 21
138.0
 31
0.0
  0
LINE
  5
AC
330
1E
100
AcDbEntity
  8
0
100
AcDbLine
 10
66.6
 20
138.0
 30
0.0
 11
73.09999999999999
 21
138.0
 31
0.0
  0
LINE
  5
AD
330
1E
100
AcDbEntity
  8
0
100
AcDbLine
 10
53.0
 20
136.8849999999999
 30
0.0
 11
53.0
 21
138.0
 31
0.0
  0
LINE
  5
AE
330
1E
100
AcDbEntity
  8
0
100
AcDbLine
 10
53.0
 20
136.8849999999999
 30
0.0
 11
53.5
 21
135.212
 31
0.0
  0
LINE
  5
AF
330
1E
100
AcDbEntity
  8
0
100
AcDbLine
 10
71.5
 20
106.4999999999999
 30
0.0
 11
73.0
 21
106.0
 31
0.0
  0
LINE
  5
B0
330
1E
100
AcDbEntity
  8
0
100
AcDbLine
 10
76.0
 20
105.0
 30
0.0
 11
76.0
 21
106.0
 31
0.0
  0
LINE
  5
B1
330
1E
100
AcDbEntity
  8
0
100
AcDbLine
 10
84.0
 20
105.0
 30
0.0
 11
84.0
 21
106.0
 31
0.0
  0
LINE
  5
B2
330
1E
100
AcDbEntity
  8
0
100
AcDbLine
 10
80.0
 20
106.0
 30
0.0
 11
81.02400000000001
 21
106.0
 31
0.0
  0
LINE
  5
B3
330
1E
100
AcDbEntity
  8
0
100
AcDbLine
 10
81.02400000000001
 20
106.0
 30
0.0
 11
81.98399999999999
 21
106.0
 31
0.0
  0
LINE
  5
B4
330
1E
100
AcDbEntity
  8
0
100
AcDbLine
 10
81.98399999999999
 20
106.0
 30
0.0
 11
82.832
 21
106.0
 31
0.0
  0
LINE
  5
B5
330
1E
100
AcDbEntity
  8
0
100
AcDbLine
 10
82.832
 20
106.0
 30
0.0
 11
83.472
 21
106.0
 31
0.0
  0
LINE
  5
B6
330
1E
100
AcDbEntity
  8
0
100
AcDbLine
 10
83.472
 20
106.0
 30
0.0
 11
83.85600000000001
 21
106.0
 31
0.0
  0
LINE
  5
B7
330
1E
100
AcDbEntity
  8
0
100
AcDbLine
 10
83.85600000000001
 20
106.0
 30
0.0
 11
84.0
 21
106.0
 31
0.0
  0
LINE
  5
B8
330
1E
100
AcDbEntity
  8
0
100
AcDbLine
 10
78.976
 20
106.0
 30
0.0
 11
80.0
 21
106.0
 31
0.0
  0
LINE
  5
B9
330
1E
100
AcDbEntity
  8
0
100
AcDbLine
 10
78.016
 20
106.0
 30
0.0
 11
78.976
 21
106.0
 31
0.0
  0
LINE
  5
BA
330
1E
100
AcDbEntity
  8
0
100
AcDbLine
 10
77.168
 20
106.0
 30
0.0
 11
78.016
 21
106.0
 31
0.0
  0
LINE
  5
BB
330
1E
100
AcDbEntity
  8
0
100
AcDbLine
 10
76.528
 20
106.0
 30
0.0
 11
77.168
 21
106.0
 31
0.0
  0
LINE
  5
BC
330
1E
100
AcDbEntity
  8
0
100
AcDbLine
 10
76.14399999999999
 20
106.0
 30
0.0
 11
76.528
 21
106.0
 31
0.0
  0
LINE
  5
BD
330
1E
100
AcDbEntity
  8
0
100
AcDbLine
 10
76.0
 20
106.0
 30
0.0
 11
76.0
 21
105.0
 31
0.0
  0
LINE
  5
BE
330
1E
100
AcDbEntity
  8
0
100
AcDbLine
 10
76.0
 20
106.0
 30
0.0
 11
76.14399999999999
 21
106.0
 31
0.0
  0
LINE
  5
BF
330
1E
100
AcDbEntity
  8
0
100
AcDbLine
 10
83.976
 20
105.0
 30
0.0
 11
107.4999999999999
 21
105.0
 31
0.0
  0
LINE
  5
C0
330
1E
100
AcDbEntity
  8
0
100
AcDbLine
 10
84.9
 20
106.0
 30
0.0
 11
86.09999999999999
 21
106.0
 31
0.0
  0
LINE
  5
C1
330
1E
100
AcDbEntity
  8
0
100
AcDbLine
 10
86.09999999999999
 20
106.0
 30
0.0
 11
86.69999999999999
 21
106.0
 31
0.0
  0
LINE
  5
C2
330
1E
100
AcDbEntity
  8
0
100
AcDbLine
 10
95.0
 20
10.0
 30
0.0
 11
95.0
 21
11.5
 31
0.0
  0
LINE
  5
C3
330
1E
100
AcDbEntity
  8
0
100
AcDbLine
 10
91.0
 20
10.0
 30
0.0
 11
91.0
 21
11.5
 31
0.0
  0
LINE
  5
C4
330
1E
100
AcDbEntity
  8
0
100
AcDbLine
 10
107.4999999999999
 20
0.0000000000000036
 30
0.0
 11
121.0879999999999
 21
1.78889
 31
0.0
  0
LINE
  5
C5
330
1E
100
AcDbEntity
  8
0
100
AcDbLine
 10
91.0
 20
14.6354
 30
0.0
 11
91.0
 21
11.5
 31
0.0
  0
LINE
  5
C6
330
1E
100
AcDbEntity
  8
0
100
AcDbLine
 10
91.0
 20
14.6354
 30
0.0
 11
91.0
 21
18.0
 31
0.0
  0
LINE
  5
C7
330
1E
100
AcDbEntity
  8
0
100
AcDbLine
 10
91.0
 20
11.5
 30
0.0
 11
91.0
 21
10.0
 31
0.0
  0
LINE
  5
C8
330
1E
100
AcDbEntity
  8
0
100
AcDbLine
 10
91.0
 20
11.5
 30
0.0
 11
91.0
 21
14.6354
 31
0.0
  0
LINE
  5
C9
330
1E
100
AcDbEntity
  8
0
100
AcDbLine
 10
95.0
 20
14.6354
 30
0.0
 11
95.0
 21
18.0
 31
0.0
  0
LINE
  5
CA
330
1E
100
AcDbEntity
  8
0
100
AcDbLine
 10
95.0
 20
14.6354
 30
0.0
 11
95.0
 21
11.5
 31
0.0
  0
LINE
  5
CB
330
1E
100
AcDbEntity
  8
0
100
AcDbLine
 10
95.0
 20
11.5
 30
0.0
 11
95.0
 21
10.0
 31
0.0
  0
LINE
  5
CC
330
1E
100
AcDbEntity
  8
0
100
AcDbLine
 10
95.0
 20
11.5
 30
0.0
 11
95.0
 21
14.6354
 31
0.0
  0
LINE
  5
CD
330
1E
100
AcDbEntity
  8
0
100
AcDbLine
 10
95.0
 20
18.0
 30
0.0
 11
95.0
 21
87.0
 31
0.0
  0
LINE
  5
CE
330
1E
100
AcDbEntity
  8
0
100
AcDbLine
 10
95.0
 20
18.0
 30
0.0
 11
95.0
 21
14.6354
 31
0.0
  0
LINE
  5
CF
330
1E
100
AcDbEntity
  8
0
100
AcDbLine
 10
91.0
 20
18.0
 30
0.0
 11
91.0
 21
87.0
 31
0.0
  0
LINE
  5
D0
330
1E
100
AcDbEntity
  8
0
100
AcDbLine
 10
91.0
 20
18.0
 30
0.0
 11
91.0
 21
14.6354
 31
0.0
  0
LINE
  5
D1
330
1E
100
AcDbEntity
  8
0
100
AcDbLine
 10
107.4999999999999
 20
10.0
 30
0.0
 11
118.5
 21
11.44819999999999
 31
0.0
  0
LINE
  5
D2
330
1E
100
AcDbEntity
  8
0
100
AcDbLine
 10
121.0879999999999
 20
1.78889
 30
0.0
 11
133.75
 21
7.033669999999999
 31
0.0
  0
LINE
  5
D3
330
1E
100
AcDbEntity
  8
0
100
AcDbLine
 10
121.0879999999999
 20
1.78889
 30
0.0
 11
133.75
 21
7.033669999999999
 31
0.0
  0
LINE
  5
D4
330
1E
100
AcDbEntity
  8
0
100
AcDbLine
 10
117.0
 20
11.2507181818182
 30
0.0
 11
117.0
 21
11.5
 31
0.0
  0
LINE
  5
D5
330
1E
100
AcDbEntity
  8
0
100
AcDbLine
 10
117.0
 20
11.5
 30
0.0
 11
117.0
 21
14.6354
 31
0.0
  0
LINE
  5
D6
330
1E
100
AcDbEntity
  8
0
100
AcDbLine
 10
117.0
 20
11.5
 30
0.0
 11
117.0
 21
11.2507181818182
 31
0.0
  0
LINE
  5
D7
330
1E
100
AcDbEntity
  8
0
100
AcDbLine
 10
121.0
 20
12.4837365853659
 30
0.0
 11
121.0
 21
14.6354
 31
0.0
  0
LINE
  5
D8
330
1E
100
AcDbEntity
  8
0
100
AcDbLine
 10
121.0
 20
14.6354
 30
0.0
 11
121.0
 21
12.4837365853659
 31
0.0
  0
LINE
  5
D9
330
1E
100
AcDbEntity
  8
0
100
AcDbLine
 10
121.0
 20
14.6354
 30
0.0
 11
121.0
 21
18.0
 31
0.0
  0
LINE
  5
DA
330
1E
100
AcDbEntity
  8
0
100
AcDbLine
 10
117.0
 20
14.6354
 30
0.0
 11
117.0
 21
18.0
 31
0.0
  0
LINE
  5
DB
330
1E
100
AcDbEntity
  8
0
100
AcDbLine
 10
117.0
 20
14.6354
 30
0.0
 11
117.0
 21
11.5
 31
0.0
  0
LINE
  5
DC
330
1E
100
AcDbEntity
  8
0
100
AcDbLine
 10
117.0
 20
18.0
 30
0.0
 11
117.0
 21
87.0
 31
0.0
  0
LINE
  5
DD
330
1E
100
AcDbEntity
  8
0
100
AcDbLine
 10
117.0
 20
18.0
 30
0.0
 11
117.0
 21
14.6354
 31
0.0
  0
LINE
  5
DE
330
1E
100
AcDbEntity
  8
0
100
AcDbLine
 10
121.0
 20
18.0
 30
0.0
 11
121.0
 21
87.0
 31
0.0
  0
LINE
  5
DF
330
1E
100
AcDbEntity
  8
0
100
AcDbLine
 10
121.0
 20
18.0
 30
0.0
 11
121.0
 21
14.6354
 31
0.0
  0
LINE
  5
E0
330
1E
100
AcDbEntity
  8
0
100
AcDbLine
 10
118.5
 20
11.44819999999999
 30
0.0
 11
128.75
 21
15.6939
 31
0.0
  0
LINE
  5
E1
330
1E
100
AcDbEntity
  8
0
100
AcDbLine
 10
143.0
 20
29.5479846017175
 30
0.0
 11
143.0
 21
30.5
 31
0.0
  0
LINE
  5
E2
330
1E
100
AcDbEntity
  8
0
100
AcDbLine
 10
143.0
 20
30.5
 30
0.0
 11
143.0
 21
33.63539999999999
 31
0.0
  0
LINE
  5
E3
330
1E
100
AcDbEntity
  8
0
100
AcDbLine
 10
143.0
 20
30.5
 30
0.0
 11
143.0
 21
29.5479846017175
 31
0.0
  0
LINE
  5
E4
330
1E
100
AcDbEntity
  8
0
100
AcDbLine
 10
137.552
 20
22.448
 30
0.0
 11
144.306
 21
31.25
 31
0.0
  0
LINE
  5
E5
330
1E
100
AcDbEntity
  8
0
100
AcDbLine
 10
128.75
 20
15.6939
 30
0.0
 11
137.552
 21
22.448
 31
0.0
  0
LINE
  5
E6
330
1E
100
AcDbEntity
  8
0
100
AcDbLine
 10
133.75
 20
7.033669999999999
 30
0.0
 11
144.6229999999999
 21
15.3769
 31
0.0
  0
LINE
  5
E7
330
1E
100
AcDbEntity
  8
0
100
AcDbLine
 10
107.4999999999999
 20
0.0000000000000037
 30
0.0
 11
121.0879999999999
 21
1.78889
 31
0.0
  0
LINE
  5
E8
330
1E
100
AcDbEntity
  8
0
100
AcDbLine
 10
143.0
 20
33.63539999999999
 30
0.0
 11
143.0
 21
37.0
 31
0.0
  0
LINE
  5
E9
330
1E
100
AcDbEntity
  8
0
100
AcDbLine
 10
143.0
 20
33.63539999999999
 30
0.0
 11
143.0
 21
30.5
 31
0.0
  0
LINE
  5
EA
330
1E
100
AcDbEntity
  8
0
100
AcDbLine
 10
143.0
 20
37.0
 30
0.0
 11
143.0
 21
68.0
 31
0.0
  0
LINE
  5
EB
330
1E
100
AcDbEntity
  8
0
100
AcDbLine
 10
143.0
 20
37.0
 30
0.0
 11
143.0
 21
33.63539999999999
 31
0.0
  0
LINE
  5
EC
330
1E
100
AcDbEntity
  8
0
100
AcDbLine
 10
143.0
 20
75.4520153982825
 30
0.0
 11
143.0
 21
74.5
 31
0.0
  0
LINE
  5
ED
330
1E
100
AcDbEntity
  8
0
100
AcDbLine
 10
143.0
 20
74.5
 30
0.0
 11
143.0
 21
75.4520153982825
 31
0.0
  0
LINE
  5
EE
330
1E
100
AcDbEntity
  8
0
100
AcDbLine
 10
143.0
 20
74.5
 30
0.0
 11
143.0
 21
71.36459999999999
 31
0.0
  0
LINE
  5
EF
330
1E
100
AcDbEntity
  8
0
100
AcDbLine
 10
143.0
 20
71.36459999999999
 30
0.0
 11
143.0
 21
68.0
 31
0.0
  0
LINE
  5
F0
330
1E
100
AcDbEntity
  8
0
100
AcDbLine
 10
143.0
 20
71.36459999999999
 30
0.0
 11
143.0
 21
74.5
 31
0.0
  0
LINE
  5
F1
330
1E
100
AcDbEntity
  8
0
100
AcDbLine
 10
143.0
 20
68.0
 30
0.0
 11
143.0
 21
71.36459999999999
 31
0.0
  0
LINE
  5
F2
330
1E
100
AcDbEntity
  8
0
100
AcDbLine
 10
143.0
 20
68.0
 30
0.0
 11
143.0
 21
37.0
 31
0.0
  0
LINE
  5
F3
330
1E
100
AcDbEntity
  8
0
100
AcDbLine
 10
144.306
 20
31.25
 30
0.0
 11
148.552
 21
41.5002
 31
0.0
  0
LINE
  5
F4
330
1E
100
AcDbEntity
  8
0
100
AcDbLine
 10
147.0
 20
37.7535418747056
 30
0.0
 11
147.0
 21
67.24645812529439
 31
0.0
  0
LINE
  5
F5
330
1E
100
AcDbEntity
  8
0
100
AcDbLine
 10
144.6229999999999
 20
15.3769
 30
0.0
 11
152.9659999999999
 21
26.25
 31
0.0
  0
LINE
  5
F6
330
1E
100
AcDbEntity
  8
0
100
AcDbLine
 10
148.552
 20
41.5002
 30
0.0
 11
150.0
 21
52.5
 31
0.0
  0
LINE
  5
F7
330
1E
100
AcDbEntity
  8
0
100
AcDbLine
 10
158.211
 20
38.91199999999999
 30
0.0
 11
160.0
 21
52.5
 31
0.0
  0
LINE
  5
F8
330
1E
100
AcDbEntity
  8
0
100
AcDbLine
 10
152.9659999999999
 20
26.25
 30
0.0
 11
158.211
 21
38.91199999999999
 31
0.0
  0
LINE
  5
F9
330
1E
100
AcDbEntity
  8
0
100
AcDbLine
 10
148.552
 20
63.4998
 30
0.0
 11
150.0
 21
52.5
 31
0.0
  0
LINE
  5
FA
330
1E
100
AcDbEntity
  8
0
100
AcDbLine
 10
147.0
 20
67.24645812529439
 30
0.0
 11
147.0
 21
37.7535418747056
 31
0.0
  0
LINE
  5
FB
330
1E
100
AcDbEntity
  8
0
100
AcDbLine
 10
158.211
 20
66.08800000000001
 30
0.0
 11
160.0
 21
52.5
 31
0.0
  0
LINE
  5
FC
330
1E
100
AcDbEntity
  8
0
100
AcDbLine
 10
144.306
 20
73.75
 30
0.0
 11
148.552
 21
63.4998
 31
0.0
  0
LINE
  5
FD
330
1E
100
AcDbEntity
  8
0
100
AcDbLine
 10
95.0
 20
87.0
 30
0.0
 11
95.0
 21
18.0
 31
0.0
  0
LINE
  5
FE
330
1E
100
AcDbEntity
  8
0
100
AcDbLine
 10
95.0
 20
87.0
 30
0.0
 11
95.0
 21
90.36459999999999
 31
0.0
  0
LINE
  5
FF
330
1E
100
AcDbEntity
  8
0
100
AcDbLine
 10
91.0
 20
87.0
 30
0.0
 11
91.0
 21
18.0
 31
0.0
  0
LINE
  5
100
330
1E
100
AcDbEntity
  8
0
100
AcDbLine
 10
91.0
 20
87.0
 30
0.0
 11
91.0
 21
90.36459999999999
 31
0.0
  0
LINE
  5
101
330
1E
100
AcDbEntity
  8
0
100
AcDbLine
 10
117.0
 20
87.0
 30
0.0
 11
117.0
 21
18.0
 31
0.0
  0
LINE
  5
102
330
1E
100
AcDbEntity
  8
0
100
AcDbLine
 10
117.0
 20
87.0
 30
0.0
 11
117.0
 21
90.36459999999999
 31
0.0
  0
LINE
  5
103
330
1E
100
AcDbEntity
  8
0
100
AcDbLine
 10
121.0
 20
87.0
 30
0.0
 11
121.0
 21
18.0
 31
0.0
  0
LINE
  5
104
330
1E
100
AcDbEntity
  8
0
100
AcDbLine
 10
121.0
 20
87.0
 30
0.0
 11
121.0
 21
90.36459999999999
 31
0.0
  0
LINE
  5
105
330
1E
100
AcDbEntity
  8
0
100
AcDbLine
 10
91.0
 20
93.49999999999999
 30
0.0
 11
91.0
 21
90.36459999999999
 31
0.0
  0
LINE
  5
106
330
1E
100
AcDbEntity
  8
0
100
AcDbLine
 10
91.0
 20
93.49999999999999
 30
0.0
 11
91.0
 21
95.0
 31
0.0
  0
LINE
  5
107
330
1E
100
AcDbEntity
  8
0
100
AcDbLine
 10
91.0
 20
90.36459999999999
 30
0.0
 11
91.0
 21
87.0
 31
0.0
  0
LINE
  5
108
330
1E
100
AcDbEntity
  8
0
100
AcDbLine
 10
91.0
 20
90.36459999999999
 30
0.0
 11
91.0
 21
93.49999999999999
 31
0.0
  0
LINE
  5
109
330
1E
100
AcDbEntity
  8
0
100
AcDbLine
 10
95.0
 20
93.49999999999999
 30
0.0
 11
95.0
 21
90.36459999999999
 31
0.0
  0
LINE
  5
10A
330
1E
100
AcDbEntity
  8
0
100
AcDbLine
 10
95.0
 20
93.49999999999999
 30
0.0
 11
95.0
 21
95.0
 31
0.0
  0
LINE
  5
10B
330
1E
100
AcDbEntity
  8
0
100
AcDbLine
 10
95.0
 20
90.36459999999999
 30
0.0
 11
95.0
 21
93.49999999999999
 31
0.0
  0
LINE
  5
10C
330
1E
100
AcDbEntity
  8
0
100
AcDbLine
 10
95.0
 20
90.36459999999999
 30
0.0
 11
95.0
 21
87.0
 31
0.0
  0
LINE
  5
10D
330
1E
100
AcDbEntity
  8
0
100
AcDbLine
 10
117.0
 20
93.49999999999999
 30
0.0
 11
117.0
 21
90.36459999999999
 31
0.0
  0
LINE
  5
10E
330
1E
100
AcDbEntity
  8
0
100
AcDbLine
 10
117.0
 20
93.49999999999999
 30
0.0
 11
117.0
 21
93.7492818181818
 31
0.0
  0
LINE
  5
10F
330
1E
100
AcDbEntity
  8
0
100
AcDbLine
 10
121.0
 20
92.5162634146342
 30
0.0
 11
121.0
 21
90.36459999999999
 31
0.0
  0
LINE
  5
110
330
1E
100
AcDbEntity
  8
0
100
AcDbLine
 10
121.0
 20
90.36459999999999
 30
0.0
 11
121.0
 21
87.0
 31
0.0
  0
LINE
  5
111
330
1E
100
AcDbEntity
  8
0
100
AcDbLine
 10
121.0
 20
90.36459999999999
 30
0.0
 11
121.0
 21
92.5162634146342
 31
0.0
  0
LINE
  5
112
330
1E
100
AcDbEntity
  8
0
100
AcDbLine
 10
117.0
 20
90.36459999999999
 30
0.0
 11
117.0
 21
93.49999999999999
 31
0.0
  0
LINE
  5
113
330
1E
100
AcDbEntity
  8
0
100
AcDbLine
 10
117.0
 20
90.36459999999999
 30
0.0
 11
117.0
 21
87.0
 31
0.0
  0
LINE
  5
114
330
1E
100
AcDbEntity
  8
0
100
AcDbLine
 10
95.0
 20
95.0
 30
0.0
 11
95.0
 21
93.49999999999999
 31
0.0
  0
LINE
  5
115
330
1E
100
AcDbEntity
  8
0
100
AcDbLine
 10
91.0
 20
95.0
 30
0.0
 11
91.0
 21
93.49999999999999
 31
0.0
  0
LINE
  5
116
330
1E
100
AcDbEntity
  8
0
100
AcDbLine
 10
107.4999999999999
 20
95.0
 30
0.0
 11
118.5
 21
93.5518
 31
0.0
  0
LINE
  5
117
330
1E
100
AcDbEntity
  8
0
100
AcDbLine
 10
117.0
 20
93.7492818181818
 30
0.0
 11
117.0
 21
93.49999999999999
 31
0.0
  0
LINE
  5
118
330
1E
100
AcDbEntity
  8
0
100
AcDbLine
 10
107.4999999999999
 20
105.0
 30
0.0
 11
121.0879999999999
 21
103.211
 31
0.0
  0
LINE
  5
119
330
1E
100
AcDbEntity
  8
0
100
AcDbLine
 10
118.5
 20
93.5518
 30
0.0
 11
128.75
 21
89.30609999999999
 31
0.0
  0
LINE
  5
11A
330
1E
100
AcDbEntity
  8
0
100
AcDbLine
 10
121.0879999999999
 20
103.211
 30
0.0
 11
133.75
 21
97.9663
 31
0.0
  0
LINE
  5
11B
330
1E
100
AcDbEntity
  8
0
100
AcDbLine
 10
128.75
 20
89.30609999999999
 30
0.0
 11
137.552
 21
82.552
 31
0.0
  0
LINE
  5
11C
330
1E
100
AcDbEntity
  8
0
100
AcDbLine
 10
133.75
 20
97.9663
 30
0.0
 11
144.6229999999999
 21
89.6231
 31
0.0
  0
LINE
  5
11D
330
1E
100
AcDbEntity
  8
0
100
AcDbLine
 10
137.552
 20
82.552
 30
0.0
 11
144.306
 21
73.75
 31
0.0
  0
LINE
  5
11E
330
1E
100
AcDbEntity
  8
0
100
AcDbLine
 10
144.6229999999999
 20
89.6231
 30
0.0
 11
152.9659999999999
 21
78.75
 31
0.0
  0
LINE
  5
11F
330
1E
100
AcDbEntity
  8
0
100
AcDbLine
 10
152.9659999999999
 20
78.75
 30
0.0
 11
158.211
 21
66.08800000000001
 31
0.0
  0
LINE
  5
120
330
1E
100
AcDbEntity
  8
0
100
AcDbLine
 10
86.69999999999999
 20
106.0
 30
0.0
 11
87.0
 21
106.0
 31
0.0
  0
LINE
  5
121
330
1E
100
AcDbEntity
  8
0
100
AcDbLine
 10
87.0
 20
106.0
 30
0.0
 11
88.49999999999999
 21
106.4999999999999
 31
0.0
  0
LINE
  5
122
330
1E
100
AcDbEntity
  8
0
100
AcDbLine
 10
84.0
 20
106.0
 30
0.0
 11
84.9
 21
106.0
 31
0.0
  0
LINE
  5
123
330
1E
100
AcDbEntity
  8
0
100
AcDbLine
 10
84.0
 20
106.0
 30
0.0
 11
84.0
 21
105.0
 31
0.0
  0
LINE
  5
124
330
1E
100
AcDbEntity
  8
0
100
AcDbLine
 10
75.09999999999999
 20
106.0
 30
0.0
 11
76.0
 21
106.0
 31
0.0
  0
LINE
  5
125
330
1E
100
AcDbEntity
  8
0
100
AcDbLine
 10
73.9
 20
106.0
 30
0.0
 11
75.09999999999999
 21
106.0
 31
0.0
  0
LINE
  5
126
330
1E
100
AcDbEntity
  8
0
100
AcDbLine
 10
88.49999999999999
 20
106.4999999999999
 30
0.0
 11
89.50000000000001
 21
107.4999999999999
 31
0.0
  0
LINE
  5
127
330
1E
100
AcDbEntity
  8
0
100
AcDbLine
 10
89.50000000000001
 20
107.4999999999999
 30
0.0
 11
90.0
 21
109.0
 31
0.0
  0
LINE
  5
128
330
1E
100
AcDbEntity
  8
0
100
AcDbLine
 10
73.3
 20
106.0
 30
0.0
 11
73.9
 21
106.0
 31
0.0
  0
LINE
  5
129
330
1E
100
AcDbEntity
  8
0
100
AcDbLine
 10
73.0
 20
106.0
 30
0.0
 11
73.3
 21
106.0
 31
0.0
  0
LINE
  5
12A
330
1E
100
AcDbEntity
  8
0
100
AcDbLine
 10
71.29999999999999
 20
109.0
 30
0.0
 11
72.9
 21
109.0
 31
0.0
  0
LINE
  5
12B
330
1E
100
AcDbEntity
  8
0
100
AcDbLine
 10
70.4
 20
109.0
 30
0.0
 11
71.29999999999999
 21
109.0
 31
0.0
  0
LINE
  5
12C
330
1E
100
AcDbEntity
  8
0
100
AcDbLine
 10
72.9
 20
109.0
 30
0.0
 11
75.0
 21
109.0
 31
0.0
  0
LINE
  5
12D
330
1E
100
AcDbEntity
  8
0
100
AcDbLine
 10
72.8
 20
109.5579999999999
 30
0.0
 11
76.29999999999999
 21
109.5579999999999
 31
0.0
  0
LINE
  5
12E
330
1E
100
AcDbEntity
  8
0
100
AcDbLine
 10
72.5
 20
120.154
 30
0.0
 11
76.09999999999999
 21
120.154
 31
0.0
  0
LINE
  5
12F
330
1E
100
AcDbEntity
  8
0
100
AcDbLine
 10
71.29999999999999
 20
121.827
 30
0.0
 11
75.5
 21
121.827
 31
0.0
  0
LINE
  5
130
330
1E
100
AcDbEntity
  8
0
100
AcDbLine
 10
76.29999999999999
 20
109.5579999999999
 30
0.0
 11
80.0
 21
109.5579999999999
 31
0.0
  0
LINE
  5
131
330
1E
100
AcDbEntity
  8
0
100
AcDbLine
 10
76.09999999999999
 20
120.154
 30
0.0
 11
80.0
 21
120.154
 31
0.0
  0
LINE
  5
132
330
1E
100
AcDbEntity
  8
0
100
AcDbLine
 10
75.5
 20
121.827
 30
0.0
 11
80.0
 21
121.827
 31
0.0
  0
LINE
  5
133
330
1E
100
AcDbEntity
  8
0
100
AcDbLine
 10
73.2
 20
135.212
 30
0.0
 11
80.0
 21
135.212
 31
0.0
  0
LINE
  5
134
330
1E
100
AcDbEntity
  8
0
100
AcDbLine
 10
73.09999999999999
 20
138.0
 30
0.0
 11
80.0
 21
138.0
 31
0.0
  0
LINE
  5
135
330
1E
100
AcDbEntity
  8
0
100
AcDbLine
 10
75.0
 20
109.0
 30
0.0
 11
77.40000000000001
 21
109.0
 31
0.0
  0
LINE
  5
136
330
1E
100
AcDbEntity
  8
0
100
AcDbLine
 10
85.0
 20
109.0
 30
0.0
 11
87.09999999999999
 21
109.0
 31
0.0
  0
LINE
  5
137
330
1E
100
AcDbEntity
  8
0
100
AcDbLine
 10
82.59999999999999
 20
109.0
 30
0.0
 11
85.0
 21
109.0
 31
0.0
  0
LINE
  5
138
330
1E
100
AcDbEntity
  8
0
100
AcDbLine
 10
80.0
 20
109.0
 30
0.0
 11
82.59999999999999
 21
109.0
 31
0.0
  0
LINE
  5
139
330
1E
100
AcDbEntity
  8
0
100
AcDbLine
 10
87.09999999999999
 20
109.0
 30
0.0
 11
88.7
 21
109.0
 31
0.0
  0
LINE
  5
13A
330
1E
100
AcDbEntity
  8
0
100
AcDbLine
 10
90.0
 20
109.0
 30
0.0
 11
91.3
 21
109.0
 31
0.0
  0
LINE
  5
13B
330
1E
100
AcDbEntity
  8
0
100
AcDbLine
 10
91.3
 20
109.0
 30
0.0
 11
92.5
 21
109.0
 31
0.0
  0
LINE
  5
13C
330
1E
100
AcDbEntity
  8
0
100
AcDbLine
 10
93.0
 20
109.0
 30
0.0
 11
94.50000000000001
 21
109.5579999999999
 31
0.0
  0
LINE
  5
13D
330
1E
100
AcDbEntity
  8
0
100
AcDbLine
 10
92.5
 20
109.0
 30
0.0
 11
93.0
 21
109.0
 31
0.0
  0
LINE
  5
13E
330
1E
100
AcDbEntity
  8
0
100
AcDbLine
 10
88.7
 20
109.0
 30
0.0
 11
89.59999999999999
 21
109.0
 31
0.0
  0
LINE
  5
13F
330
1E
100
AcDbEntity
  8
0
100
AcDbLine
 10
90.20000000000001
 20
109.5579999999999
 30
0.0
 11
92.59999999999999
 21
109.5579999999999
 31
0.0
  0
LINE
  5
140
330
1E
100
AcDbEntity
  8
0
100
AcDbLine
 10
92.59999999999999
 20
109.5579999999999
 30
0.0
 11
94.0
 21
109.5579999999999
 31
0.0
  0
LINE
  5
141
330
1E
100
AcDbEntity
  8
0
100
AcDbLine
 10
94.0
 20
109.5579999999999
 30
0.0
 11
94.50000000000001
 21
109.5579999999999
 31
0.0
  0
LINE
  5
142
330
1E
100
AcDbEntity
  8
0
100
AcDbLine
 10
87.2
 20
109.5579999999999
 30
0.0
 11
90.20000000000001
 21
109.5579999999999
 31
0.0
  0
LINE
  5
143
330
1E
100
AcDbEntity
  8
0
100
AcDbLine
 10
83.7
 20
109.5579999999999
 30
0.0
 11
87.2
 21
109.5579999999999
 31
0.0
  0
LINE
  5
144
330
1E
100
AcDbEntity
  8
0
100
AcDbLine
 10
80.0
 20
109.5579999999999
 30
0.0
 11
83.7
 21
109.5579999999999
 31
0.0
  0
LINE
  5
145
330
1E
100
AcDbEntity
  8
0
100
AcDbLine
 10
90.6
 20
120.154
 30
0.0
 11
93.0
 21
120.154
 31
0.0
  0
LINE
  5
146
330
1E
100
AcDbEntity
  8
0
100
AcDbLine
 10
95.0
 20
111.231
 30
0.0
 11
95.0
 21
120.154
 31
0.0
  0
LINE
  5
147
330
1E
100
AcDbEntity
  8
0
100
AcDbLine
 10
93.0
 20
120.154
 30
0.0
 11
94.50000000000001
 21
120.154
 31
0.0
  0
LINE
  5
148
330
1E
100
AcDbEntity
  8
0
100
AcDbLine
 10
94.50000000000001
 20
120.154
 30
0.0
 11
95.0
 21
120.154
 31
0.0
  0
LINE
  5
149
330
1E
100
AcDbEntity
  8
0
100
AcDbLine
 10
87.5
 20
120.154
 30
0.0
 11
90.6
 21
120.154
 31
0.0
  0
LINE
  5
14A
330
1E
100
AcDbEntity
  8
0
100
AcDbLine
 10
83.9
 20
120.154
 30
0.0
 11
87.5
 21
120.154
 31
0.0
  0
LINE
  5
14B
330
1E
100
AcDbEntity
  8
0
100
AcDbLine
 10
80.0
 20
120.154
 30
0.0
 11
83.9
 21
120.154
 31
0.0
  0
LINE
  5
14C
330
1E
100
AcDbEntity
  8
0
100
AcDbLine
 10
94.50000000000001
 20
109.5579999999999
 30
0.0
 11
95.0
 21
111.231
 31
0.0
  0
LINE
  5
14D
330
1E
100
AcDbEntity
  8
0
100
AcDbLine
 10
95.0
 20
120.154
 30
0.0
 11
96.0
 21
121.269
 31
0.0
  0
LINE
  5
14E
330
1E
100
AcDbEntity
  8
0
100
AcDbLine
 10
95.0
 20
120.154
 30
0.0
 11
95.0
 21
111.231
 31
0.0
  0
LINE
  5
14F
330
1E
100
AcDbEntity
  8
0
100
AcDbLine
 10
92.4
 20
121.827
 30
0.0
 11
95.20000000000001
 21
121.827
 31
0.0
  0
LINE
  5
150
330
1E
100
AcDbEntity
  8
0
100
AcDbLine
 10
95.20000000000001
 20
121.827
 30
0.0
 11
96.90000000000001
 21
121.827
 31
0.0
  0
LINE
  5
151
330
1E
100
AcDbEntity
  8
0
100
AcDbLine
 10
96.90000000000001
 20
121.827
 30
0.0
 11
97.5
 21
121.827
 31
0.0
  0
LINE
  5
152
330
1E
100
AcDbEntity
  8
0
100
AcDbLine
 10
88.7
 20
121.827
 30
0.0
 11
92.4
 21
121.827
 31
0.0
  0
LINE
  5
153
330
1E
100
AcDbEntity
  8
0
100
AcDbLine
 10
84.50000000000001
 20
121.827
 30
0.0
 11
88.7
 21
121.827
 31
0.0
  0
LINE
  5
154
330
1E
100
AcDbEntity
  8
0
100
AcDbLine
 10
80.0
 20
121.827
 30
0.0
 11
84.50000000000001
 21
121.827
 31
0.0
  0
LINE
  5
155
330
1E
100
AcDbEntity
  8
0
100
AcDbLine
 10
96.0
 20
121.269
 30
0.0
 11
97.5
 21
121.827
 31
0.0
  0
LINE
  5
156
330
1E
100
AcDbEntity
  8
0
100
AcDbLine
 10
98.0
 20
123.5
 30
0.0
 11
98.0
 21
124.6149999999999
 31
0.0
  0
LINE
  5
157
330
1E
100
AcDbEntity
  8
0
100
AcDbLine
 10
97.5
 20
121.827
 30
0.0
 11
98.0
 21
123.5
 31
0.0
  0
LINE
  5
158
330
1E
100
AcDbEntity
  8
0
100
AcDbLine
 10
98.0
 20
124.6149999999999
 30
0.0
 11
99.50000000000001
 21
129.0769999999999
 31
0.0
  0
LINE
  5
159
330
1E
100
AcDbEntity
  8
0
100
AcDbLine
 10
98.0
 20
124.6149999999999
 30
0.0
 11
98.0
 21
123.5
 31
0.0
  0
LINE
  5
15A
330
1E
100
AcDbEntity
  8
0
100
AcDbLine
 10
99.50000000000001
 20
129.0769999999999
 30
0.0
 11
102.4999999999999
 21
132.9809999999999
 31
0.0
  0
LINE
  5
15B
330
1E
100
AcDbEntity
  8
0
100
AcDbLine
 10
98.7
 20
135.212
 30
0.0
 11
103.0
 21
135.212
 31
0.0
  0
LINE
  5
15C
330
1E
100
AcDbEntity
  8
0
100
AcDbLine
 10
103.0
 20
135.212
 30
0.0
 11
105.4999999999999
 21
135.212
 31
0.0
  0
LINE
  5
15D
330
1E
100
AcDbEntity
  8
0
100
AcDbLine
 10
93.2
 20
135.212
 30
0.0
 11
98.7
 21
135.212
 31
0.0
  0
LINE
  5
15E
330
1E
100
AcDbEntity
  8
0
100
AcDbLine
 10
86.79999999999999
 20
135.212
 30
0.0
 11
93.2
 21
135.212
 31
0.0
  0
LINE
  5
15F
330
1E
100
AcDbEntity
  8
0
100
AcDbLine
 10
80.0
 20
135.212
 30
0.0
 11
86.79999999999999
 21
135.212
 31
0.0
  0
LINE
  5
160
330
1E
100
AcDbEntity
  8
0
100
AcDbLine
 10
102.4999999999999
 20
132.9809999999999
 30
0.0
 11
105.0
 21
134.654
 31
0.0
  0
LINE
  5
161
330
1E
100
AcDbEntity
  8
0
100
AcDbLine
 10
105.4999999999999
 20
135.212
 30
0.0
 11
106.4999999999999
 21
135.212
 31
0.0
  0
LINE
  5
162
330
1E
100
AcDbEntity
  8
0
100
AcDbLine
 10
105.0
 20
134.654
 30
0.0
 11
106.4999999999999
 21
135.212
 31
0.0
  0
LINE
  5
163
330
1E
100
AcDbEntity
  8
0
100
AcDbLine
 10
99.1
 20
138.0
 30
0.0
 11
103.4
 21
138.0
 31
0.0
  0
LINE
  5
164
330
1E
100
AcDbEntity
  8
0
100
AcDbLine
 10
107.0
 20
136.8849999999999
 30
0.0
 11
107.0
 21
138.0
 31
0.0
  0
LINE
  5
165
330
1E
100
AcDbEntity
  8
0
100
AcDbLine
 10
103.4
 20
138.0
 30
0.0
 11
106.0
 21
138.0
 31
0.0
  0
LINE
  5
166
330
1E
100
AcDbEntity
  8
0
100
AcDbLine
 10
106.0
 20
138.0
 30
0.0
 11
107.0
 21
138.0
 31
0.0
  0
LINE
  5
167
330
1E
100
AcDbEntity
  8
0
100
AcDbLine
 10
93.40000000000001
 20
138.0
 30
0.0
 11
99.1
 21
138.0
 31
0.0
  0
LINE
  5
168
330
1E
100
AcDbEntity
  8
0
100
AcDbLine
 10
86.90000000000001
 20
138.0
 30
0.0
 11
93.40000000000001
 21
138.0
 31
0.0
  0
LINE
  5
169
330
1E
100
AcDbEntity
  8
0
100
AcDbLine
 10
80.0
 20
138.0
 30
0.0
 11
86.90000000000001
 21
138.0
 31
0.0
  0
LINE
  5
16A
330
1E
100
AcDbEntity
  8
0
100
AcDbLine
 10
106.4999999999999
 20
135.212
 30
0.0
 11
107.0
 21
136.8849999999999
 31
0.0
  0
LINE
  5
16B
330
1E
100
AcDbEntity
  8
0
100
AcDbLine
 10
107.0
 20
138.0
 30
0.0
 11
107.0
 21
136.8849999999999
 31
0.0
  0
LINE
  5
16C
330
1E
100
AcDbEntity
  8
0
100
AcDbLine
 10
89.59999999999999
 20
109.0
 30
0.0
 11
90.0
 21
109.0
 31
0.0
  0
LINE
  5
16D
330
1E
100
AcDbEntity
  8
0
100
AcDbLine
 10
77.40000000000001
 20
109.0
 30
0.0
 11
80.0
 21
109.0
 31
0.0
  0
LINE
  5
16E
330
1E
100
AcDbEntity
  8
0
100
AcDbLine
 10
70.5
 20
107.4999999999999
 30
0.0
 11
71.5
 21
106.4999999999999
 31
0.0
  0
LINE
  5
16F
330
1E
100
AcDbEntity
  8
0
100
AcDbLine
 10
70.0
 20
109.0
 30
0.0
 11
70.5
 21
107.4999999999999
 31
0.0
  0
LINE
  5
170
330
1E
100
AcDbEntity
  8
0
100
AcDbLine
 10
70.0
 20
109.0
 30
0.0
 11
70.4
 21
109.0
 31
0.0
  0
ENDSEC
  0
SECTION
  2
OBJECTS
  0
DICTIONARY
  5
C
330
0
100
AcDbDictionary
281
     1
  3
ACAD_GROUP
350
D
  3
ACAD_LAYOUT
350
19
  3
ACAD_MLINESTYLE
350
16
  3
ACAD_PLOTSETTINGS
350
18
  3
ACAD_PLOTSTYLENAME
350
E
  3
AcDbVariableDictionary
350
175
  0
DICTIONARY
  5
D
102
{ACAD_REACTORS
330
C
102
}
330
C
100
AcDbDictionary
281
     1
  0
DICTIONARY
  5
19
102
{ACAD_REACTORS
330
C
102
}
330
C
100
AcDbDictionary
281
     1
  3
Layout1
350
1D
  3
Model
350
21
  0
DICTIONARY
  5
16
102
{ACAD_REACTORS
330
C
102
}
330
C
100
AcDbDictionary
281
     1
  3
Standard
350
17
  0
DICTIONARY
  5
18
102
{ACAD_REACTORS
330
C
102
}
330
C
100
AcDbDictionary
281
     1
  0
ACDBDICTIONARYWDFLT
  5
E
102
{ACAD_REACTORS
330
C
102
}
330
C
100
AcDbDictionary
281
     1
  3
Normal
350
F
100
AcDbDictionaryWithDefault
340
F
  0
DICTIONARY
  5
175
102
{ACAD_REACTORS
330
C
102
}
330
C
100
AcDbDictionary
281
     1
  3
DIMASSOC
350
176
  0
LAYOUT
  5
1D
102
{ACAD_REACTORS
330
19
102
}
330
19
100
AcDbPlotSettings
  1

  2
hp deskjet 980c series
  4

  6

 40
0.0
 41
0.0
 42
0.0
 43
0.0
 44
0.0
 45
0.0
 46
0.0
 47
0.0
 48
0.0
 49
0.0
140
0.0
141
0.0
142
1.0
143
1.0
 70
   688
 72
     0
 73
     0
 74
     5
  7

 75
    16
147
1.0
148
0.0
149
0.0
100
AcDbLayout
  1
Layout1
 70
     1
 71
     1
 10
0.0
 20
0.0
 11
12.0
 21
9.0
 12
0.0
 22
0.0
 32
0.0
 14
1.000000000000000E+20
 24
1.000000000000000E+20
 34
1.000000000000000E+20
 15
-1.000000000000000E+20
 25
-1.000000000000000E+20
 35
-1.000000000000000E+20
146
0.0
 13
0.0
 23
0.0
 33
0.0
 16
1.0
 26
0.0
 36
0.0
 17
0.0
 27
1.0
 37
0.0
 76
     0
330
1A
  0
LAYOUT
  5
21
102
{ACAD_REACTORS
330
19
102
}
330
19
100
AcDbPlotSettings
  1

  2
hp deskjet 980c series
  4

  6

 40
0.0
 41
0.0
 42
0.0
 43
0.0
 44
0.0
 45
0.0
 46
0.0
 47
0.0
 48
0.0
 49
0.0
140
0.0
141
0.0
142
1.0
143
1.0
 70
  1712
 72
     0
 73
     0
 74
     0
  7

 75
     0
147
1.0
148
0.0
149
0.0
100
AcDbLayout
  1
Model
 70
     1
 71
     0
 10
0.0
 20
0.0
 11
12.0
 21
9.0
 12
0.0
 22
0.0
 32
0.0
 14
0.0
 24
0.0
 34
0.0
 15
0.0
 25
0.0
 35
0.0
146
0.0
 13
0.0
 23
0.0
 33
0.0
 16
1.0
 26
0.0
 36
0.0
 17
0.0
 27
1.0
 37
0.0
 76
     0
330
1E
  0
MLINESTYLE
  5
17
102
{ACAD_REACTORS
330
16
102
}
330
16
100
AcDbMlineStyle
  2
STANDARD
 70
     0
  3

 62
   256
 51
90.0
 52
90.0
 71
     2
 49
0.5
 62
   256
  6
BYLAYER
 49
-0.5
 62
   256
  6
BYLAYER
  0
ACDBPLACEHOLDER
  5
F
102
{ACAD_REACTORS
330
E
102
}
330
E
  0
DICTIONARYVAR
  5
176
102
{ACAD_REACTORS
330
175
102
}
330
175
100
DictionaryVariables
280
     0
  1
1
  0
ENDSEC
  0
EOF
