  0
SECTION
  2
HEADER
  9
$ACADVER
  1
AC1015
  9
$ACADMAINTVER
 70
    13
  9
$DWGCODEPAGE
  3
ANSI_1252
  9
$INSBASE
 10
0.0
 20
0.0
 30
0.0
  9
$EXTMIN
 10
0.0
 20
-0.109199999999995
 30
0.0
  9
$EXTMAX
 10
134.0
 20
106.1091999999999
 30
0.0
  9
$LIMMIN
 10
0.0
 20
0.0
  9
$LIMMAX
 10
12.0
 20
9.0
  9
$ORTHOMODE
 70
     0
  9
$REGENMODE
 70
     1
  9
$FILLMODE
 70
     1
  9
$QTEXTMODE
 70
     0
  9
$MIRRTEXT
 70
     1
  9
$LTSCALE
 40
1.0
  9
$ATTMODE
 70
     1
  9
$TEXTSIZE
 40
0.2
  9
$TRACEWID
 40
0.05
  9
$TEXTSTYLE
  7
Standard
  9
$CLAYER
  8
0
  9
$CELTYPE
  6
Continuous
  9
$CECOLOR
 62
   256
  9
$CELTSCALE
 40
1.0
  9
$DISPSILH
 70
     0
  9
$DIMSCALE
 40
1.0
  9
$DIMASZ
 40
0.18
  9
$DIMEXO
 40
0.0625
  9
$DIMDLI
 40
0.38
  9
$DIMRND
 40
0.0
  9
$DIMDLE
 40
0.0
  9
$DIMEXE
 40
0.18
  9
$DIMTP
 40
0.0
  9
$DIMTM
 40
0.0
  9
$DIMTXT
 40
0.18
  9
$DIMCEN
 40
0.09
  9
$DIMTSZ
 40
0.0
  9
$DIMTOL
 70
     0
  9
$DIMLIM
 70
     0
  9
$DIMTIH
 70
     1
  9
$DIMTOH
 70
     1
  9
$DIMSE1
 70
     0
  9
$DIMSE2
 70
     0
  9
$DIMTAD
 70
     0
  9
$DIMZIN
 70
     0
  9
$DIMBLK
  1

  9
$DIMASO
 70
     1
  9
$DIMSHO
 70
     1
  9
$DIMPOST
  1

  9
$DIMAPOST
  1

  9
$DIMALT
 70
     0
  9
$DIMALTD
 70
     2
  9
$DIMALTF
 40
25.4
  9
$DIMLFAC
 40
1.0
  9
$DIMTOFL
 70
     0
  9
$DIMTVP
 40
0.0
  9
$DIMTIX
 70
     0
  9
$DIMSOXD
 70
     0
  9
$DIMSAH
 70
     0
  9
$DIMBLK1
  1

  9
$DIMBLK2
  1

  9
$DIMSTYLE
  2
Standard
  9
$DIMCLRD
 70
     0
  9
$DIMCLRE
 70
     0
  9
$DIMCLRT
 70
     0
  9
$DIMTFAC
 40
1.0
  9
$DIMGAP
 40
0.09
  9
$DIMJUST
 70
     0
  9
$DIMSD1
 70
     0
  9
$DIMSD2
 70
     0
  9
$DIMTOLJ
 70
     1
  9
$DIMTZIN
 70
     0
  9
$DIMALTZ
 70
     0
  9
$DIMALTTZ
 70
     0
  9
$DIMUPT
 70
     0
  9
$DIMDEC
 70
     4
  9
$DIMTDEC
 70
     4
  9
$DIMALTU
 70
     2
  9
$DIMALTTD
 70
     2
  9
$DIMTXSTY
  7
Standard
  9
$DIMAUNIT
 70
     0
  9
$DIMADEC
 70
     0
  9
$DIMALTRND
 40
0.0
  9
$DIMAZIN
 70
     0
  9
$DIMDSEP
 70
    46
  9
$DIMATFIT
 70
     3
  9
$DIMFRAC
 70
     0
  9
$DIMLDRBLK
  1

  9
$DIMLUNIT
 70
     2
  9
$DIMLWD
 70
    -2
  9
$DIMLWE
 70
    -2
  9
$DIMTMOVE
 70
     0
  9
$LUNITS
 70
     2
  9
$LUPREC
 70
     4
  9
$SKETCHINC
 40
0.1
  9
$FILLETRAD
 40
0.0
  9
$AUNITS
 70
     0
  9
$AUPREC
 70
     0
  9
$MENU
  1
.
  9
$ELEVATION
 40
0.0
  9
$PELEVATION
 40
0.0
  9
$THICKNESS
 40
0.0
  9
$LIMCHECK
 70
     0
  9
$CHAMFERA
 40
0.0
  9
$CHAMFERB
 40
0.0
  9
$CHAMFERC
 40
0.0
  9
$CHAMFERD
 40
0.0
  9
$SKPOLY
 70
     0
  9
$TDCREATE
 40
2454748.420593125
  9
$TDUCREATE
 40
2454748.337259792
  9
$TDUPDATE
 40
2454748.431320474
  9
$TDUUPDATE
 40
2454748.347987141
  9
$TDINDWG
 40
0.0107273495
  9
$TDUSRTIMER
 40
0.0107273495
  9
$USRTIMER
 70
     1
  9
$ANGBASE
 50
0.0
  9
$ANGDIR
 70
     0
  9
$PDMODE
 70
     0
  9
$PDSIZE
 40
0.0
  9
$PLINEWID
 40
0.0
  9
$SPLFRAME
 70
     0
  9
$SPLINETYPE
 70
     6
  9
$SPLINESEGS
 70
     8
  9
$HANDSEED
  5
2E9
  9
$SURFTAB1
 70
     6
  9
$SURFTAB2
 70
     6
  9
$SURFTYPE
 70
     6
  9
$SURFU
 70
     6
  9
$SURFV
 70
     6
  9
$UCSBASE
  2

  9
$UCSNAME
  2

  9
$UCSORG
 10
0.0
 20
0.0
 30
0.0
  9
$UCSXDIR
 10
1.0
 20
0.0
 30
0.0
  9
$UCSYDIR
 10
0.0
 20
1.0
 30
0.0
  9
$UCSORTHOREF
  2

  9
$UCSORTHOVIEW
 70
     1
  9
$UCSORGTOP
 10
0.0
 20
0.0
 30
0.0
  9
$UCSORGBOTTOM
 10
0.0
 20
0.0
 30
0.0
  9
$UCSORGLEFT
 10
0.0
 20
0.0
 30
0.0
  9
$UCSORGRIGHT
 10
0.0
 20
0.0
 30
0.0
  9
$UCSORGFRONT
 10
0.0
 20
0.0
 30
0.0
  9
$UCSORGBACK
 10
0.0
 20
0.0
 30
0.0
  9
$PUCSBASE
  2

  9
$PUCSNAME
  2

  9
$PUCSORG
 10
0.0
 20
0.0
 30
0.0
  9
$PUCSXDIR
 10
1.0
 20
0.0
 30
0.0
  9
$PUCSYDIR
 10
0.0
 20
1.0
 30
0.0
  9
$PUCSORTHOREF
  2

  9
$PUCSORTHOVIEW
 70
     0
  9
$PUCSORGTOP
 10
0.0
 20
0.0
 30
0.0
  9
$PUCSORGBOTTOM
 10
0.0
 20
0.0
 30
0.0
  9
$PUCSORGLEFT
 10
0.0
 20
0.0
 30
0.0
  9
$PUCSORGRIGHT
 10
0.0
 20
0.0
 30
0.0
  9
$PUCSORGFRONT
 10
0.0
 20
0.0
 30
0.0
  9
$PUCSORGBACK
 10
0.0
 20
0.0
 30
0.0
  9
$USERI1
 70
     0
  9
$USERI2
 70
     0
  9
$USERI3
 70
     0
  9
$USERI4
 70
     0
  9
$USERI5
 70
     0
  9
$USERR1
 40
0.0
  9
$USERR2
 40
0.0
  9
$USERR3
 40
0.0
  9
$USERR4
 40
0.0
  9
$USERR5
 40
0.0
  9
$WORLDVIEW
 70
     1
  9
$SHADEDGE
 70
     3
  9
$SHADEDIF
 70
    70
  9
$TILEMODE
 70
     1
  9
$MAXACTVP
 70
    64
  9
$PINSBASE
 10
0.0
 20
0.0
 30
0.0
  9
$PLIMCHECK
 70
     0
  9
$PEXTMIN
 10
1.000000000000000E+20
 20
1.000000000000000E+20
 30
1.000000000000000E+20
  9
$PEXTMAX
 10
-1.000000000000000E+20
 20
-1.000000000000000E+20
 30
-1.000000000000000E+20
  9
$PLIMMIN
 10
0.0
 20
0.0
  9
$PLIMMAX
 10
12.0
 20
9.0
  9
$UNITMODE
 70
     0
  9
$VISRETAIN
 70
     1
  9
$PLINEGEN
 70
     0
  9
$PSLTSCALE
 70
     1
  9
$TREEDEPTH
 70
  3020
  9
$CMLSTYLE
  2
Standard
  9
$CMLJUST
 70
     0
  9
$CMLSCALE
 40
1.0
  9
$PROXYGRAPHICS
 70
     1
  9
$MEASUREMENT
 70
     0
  9
$CELWEIGHT
370
    -1
  9
$ENDCAPS
280
     0
  9
$JOINSTYLE
280
     0
  9
$LWDISPLAY
290
     0
  9
$INSUNITS
 70
     0
  9
$HYPERLINKBASE
  1

  9
$STYLESHEET
  1

  9
$XEDIT
290
     1
  9
$CEPSNTYPE
380
     0
  9
$PSTYLEMODE
290
     1
  9
$FINGERPRINTGUID
  2
{07E9E6CC-519F-4980-AC35-310EF1BBE781}
  9
$VERSIONGUID
  2
{5BF5350D-C031-4417-B91F-15ABF510C64B}
  9
$EXTNAMES
290
     1
  9
$PSVPSCALE
 40
0.0
  9
$OLESTARTUP
290
     0
  0
ENDSEC
  0
SECTION
  2
CLASSES
  0
CLASS
  1
ACDBDICTIONARYWDFLT
  2
AcDbDictionaryWithDefault
  3
AutoCAD 2000
 90
        0
280
     0
281
     0
  0
CLASS
  1
ACDBPLACEHOLDER
  2
AcDbPlaceHolder
  3
AutoCAD 2000
 90
        0
280
     0
281
     0
  0
CLASS
  1
LAYOUT
  2
AcDbLayout
  3
AutoCAD 2000
 90
        0
280
     0
281
     0
  0
CLASS
  1
DICTIONARYVAR
  2
AcDbDictionaryVar
  3
AutoCAD 2000
 90
        0
280
     0
281
     0
  0
ENDSEC
  0
SECTION
  2
TABLES
  0
TABLE
  2
VPORT
  5
8
330
0
100
AcDbSymbolTable
 70
     2
  0
VPORT
  5
2E8
330
8
100
AcDbSymbolTableRecord
100
AcDbViewportTableRecord
  2
*Active
 70
     0
 10
0.0
 20
0.0
 11
1.0
 21
1.0
 12
67.0
 22
53.0
 13
0.0
 23
0.0
 14
1.0
 24
1.0
 15
0.0
 25
0.0
 16
0.0
 26
0.0
 36
1.0
 17
0.0
 27
0.0
 37
0.0
 40
107.0333749360613
 41
2.078104993597951
 42
50.0
 43
0.0
 44
0.0
 50
0.0
 51
0.0
 71
     0
 72
   100
 73
     1
 74
     3
 75
     0
 76
     0
 77
     0
 78
     0
281
     0
 65
     1
110
0.0
120
0.0
130
0.0
111
1.0
121
0.0
131
0.0
112
0.0
122
1.0
132
0.0
 79
     1
146
0.0
  0
ENDTAB
  0
TABLE
  2
LTYPE
  5
5
330
0
100
AcDbSymbolTable
 70
     1
  0
LTYPE
  5
13
330
5
100
AcDbSymbolTableRecord
100
AcDbLinetypeTableRecord
  2
ByBlock
 70
     0
  3

 72
    65
 73
     0
 40
0.0
  0
LTYPE
  5
14
330
5
100
AcDbSymbolTableRecord
100
AcDbLinetypeTableRecord
  2
ByLayer
 70
     0
  3

 72
    65
 73
     0
 40
0.0
  0
LTYPE
  5
15
330
5
100
AcDbSymbolTableRecord
100
AcDbLinetypeTableRecord
  2
Continuous
 70
     0
  3
Solid line
 72
    65
 73
     0
 40
0.0
  0
ENDTAB
  0
TABLE
  2
LAYER
  5
2
330
0
100
AcDbSymbolTable
 70
     1
  0
LAYER
  5
10
330
2
100
AcDbSymbolTableRecord
100
AcDbLayerTableRecord
  2
0
 70
     0
 62
     7
  6
Continuous
370
    -3
390
F
  0
ENDTAB
  0
TABLE
  2
STYLE
  5
3
330
0
100
AcDbSymbolTable
 70
     1
  0
STYLE
  5
11
330
3
100
AcDbSymbolTableRecord
100
AcDbTextStyleTableRecord
  2
Standard
 70
     0
 40
0.0
 41
1.0
 50
0.0
 71
     0
 42
0.2
  3
txt
  4

  0
ENDTAB
  0
TABLE
  2
VIEW
  5
6
330
0
100
AcDbSymbolTable
 70
     0
  0
ENDTAB
  0
TABLE
  2
UCS
  5
7
330
0
100
AcDbSymbolTable
 70
     0
  0
ENDTAB
  0
TABLE
  2
APPID
  5
9
330
0
100
AcDbSymbolTable
 70
     1
  0
APPID
  5
12
330
9
100
AcDbSymbolTableRecord
100
AcDbRegAppTableRecord
  2
ACAD
 70
     0
  0
ENDTAB
  0
TABLE
  2
DIMSTYLE
  5
A
330
0
100
AcDbSymbolTable
 70
     1
100
AcDbDimStyleTable
 71
     0
  0
DIMSTYLE
105
2E1
330
A
100
AcDbSymbolTableRecord
100
AcDbDimStyleTableRecord
  2
Standard
 70
     0
340
11
  0
ENDTAB
  0
TABLE
  2
BLOCK_RECORD
  5
1
330
0
100
AcDbSymbolTable
 70
     0
  0
BLOCK_RECORD
  5
1E
330
1
100
AcDbSymbolTableRecord
100
AcDbBlockTableRecord
  2
*Model_Space
340
21
  0
BLOCK_RECORD
  5
1A
330
1
100
AcDbSymbolTableRecord
100
AcDbBlockTableRecord
  2
*Paper_Space
340
1D
  0
ENDTAB
  0
ENDSEC
  0
SECTION
  2
BLOCKS
  0
BLOCK
  5
1F
330
1E
100
AcDbEntity
  8
0
100
AcDbBlockBegin
  2
*Model_Space
 70
     0
 10
0.0
 20
0.0
 30
0.0
  3
*Model_Space
  1

  0
ENDBLK
  5
20
330
1E
100
AcDbEntity
  8
0
100
AcDbBlockEnd
  0
BLOCK
  5
1B
330
1A
100
AcDbEntity
 67
     1
  8
0
100
AcDbBlockBegin
  2
*Paper_Space
 70
     0
 10
0.0
 20
0.0
 30
0.0
  3
*Paper_Space
  1

  0
ENDBLK
  5
1C
330
1A
100
AcDbEntity
 67
     1
  8
0
100
AcDbBlockEnd
  0
ENDSEC
  0
SECTION
  2
ENTITIES
  0
LINE
  5
22
330
1E
100
AcDbEntity
  8
0
100
AcDbLine
 10
0.0000000000000013
 20
3.5207
 30
0.0
 11
0.0000000000000013
 21
12.0052
 31
0.0
  0
LINE
  5
23
330
1E
100
AcDbEntity
  8
0
100
AcDbLine
 10
0.0000000000000013
 20
10.32329999999999
 30
0.0
 11
0.0000000000000013
 21
21.7876
 31
0.0
  0
LINE
  5
24
330
1E
100
AcDbEntity
  8
0
100
AcDbLine
 10
0.0000000000000013
 20
10.32329999999999
 30
0.0
 11
0.0000000000000013
 21
1.74980000000001
 31
0.0
  0
LINE
  5
25
330
1E
100
AcDbEntity
  8
0
100
AcDbLine
 10
0.0000000000000013
 20
56.2182
 30
0.0
 11
0.0000000000000013
 21
58.8912
 31
0.0
  0
LINE
  5
26
330
1E
100
AcDbEntity
  8
0
100
AcDbLine
 10
0.0000000000000013
 20
56.2182
 30
0.0
 11
0.0000000000000013
 21
53.56819999999999
 31
0.0
  0
LINE
  5
27
330
1E
100
AcDbEntity
  8
0
100
AcDbLine
 10
0.0000000000000013
 20
56.7742
 30
0.0
 11
0.0000000000000013
 21
54.8902
 31
0.0
  0
LINE
  5
28
330
1E
100
AcDbEntity
  8
0
100
AcDbLine
 10
0.0000000000000013
 20
56.7742
 30
0.0
 11
0.0000000000000013
 21
58.8912
 31
0.0
  0
LINE
  5
29
330
1E
100
AcDbEntity
  8
0
100
AcDbLine
 10
0.0000000000000013
 20
53.56819999999999
 30
0.0
 11
0.0000000000000013
 21
56.2182
 31
0.0
  0
LINE
  5
2A
330
1E
100
AcDbEntity
  8
0
100
AcDbLine
 10
0.0000000000000013
 20
53.56819999999999
 30
0.0
 11
0.0000000000000013
 21
43.3089
 31
0.0
  0
LINE
  5
2B
330
1E
100
AcDbEntity
  8
0
100
AcDbLine
 10
0.0000000000000013
 20
54.8902
 30
0.0
 11
0.0000000000000013
 21
44.58059999999999
 31
0.0
  0
LINE
  5
2C
330
1E
100
AcDbEntity
  8
0
100
AcDbLine
 10
0.0000000000000013
 20
54.8902
 30
0.0
 11
0.0000000000000013
 21
56.7742
 31
0.0
  0
LINE
  5
2D
330
1E
100
AcDbEntity
  8
0
100
AcDbLine
 10
0.0000000000000013
 20
43.3089
 30
0.0
 11
0.0000000000000013
 21
53.56819999999999
 31
0.0
  0
LINE
  5
2E
330
1E
100
AcDbEntity
  8
0
100
AcDbLine
 10
0.0000000000000013
 20
43.3089
 30
0.0
 11
0.0000000000000013
 21
32.9395
 31
0.0
  0
LINE
  5
2F
330
1E
100
AcDbEntity
  8
0
100
AcDbLine
 10
0.0000000000000013
 20
44.58059999999999
 30
0.0
 11
0.0000000000000013
 21
34.4069
 31
0.0
  0
LINE
  5
30
330
1E
100
AcDbEntity
  8
0
100
AcDbLine
 10
0.0000000000000013
 20
44.58059999999999
 30
0.0
 11
0.0000000000000013
 21
54.8902
 31
0.0
  0
LINE
  5
31
330
1E
100
AcDbEntity
  8
0
100
AcDbLine
 10
0.0000000000000013
 20
32.9395
 30
0.0
 11
0.0000000000000013
 21
43.3089
 31
0.0
  0
LINE
  5
32
330
1E
100
AcDbEntity
  8
0
100
AcDbLine
 10
0.0000000000000013
 20
32.9395
 30
0.0
 11
0.0000000000000013
 21
21.7876
 31
0.0
  0
LINE
  5
33
330
1E
100
AcDbEntity
  8
0
100
AcDbLine
 10
0.0000000000000013
 20
34.4069
 30
0.0
 11
0.0000000000000013
 21
23.344
 31
0.0
  0
LINE
  5
34
330
1E
100
AcDbEntity
  8
0
100
AcDbLine
 10
0.0000000000000013
 20
34.4069
 30
0.0
 11
0.0000000000000013
 21
44.58059999999999
 31
0.0
  0
LINE
  5
35
330
1E
100
AcDbEntity
  8
0
100
AcDbLine
 10
0.0000000000000013
 20
21.7876
 30
0.0
 11
0.0000000000000013
 21
32.9395
 31
0.0
  0
LINE
  5
36
330
1E
100
AcDbEntity
  8
0
100
AcDbLine
 10
0.0000000000000013
 20
21.7876
 30
0.0
 11
0.0000000000000013
 21
10.32329999999999
 31
0.0
  0
LINE
  5
37
330
1E
100
AcDbEntity
  8
0
100
AcDbLine
 10
0.0000000000000013
 20
23.344
 30
0.0
 11
0.0000000000000013
 21
12.0052
 31
0.0
  0
LINE
  5
38
330
1E
100
AcDbEntity
  8
0
100
AcDbLine
 10
0.0000000000000013
 20
23.344
 30
0.0
 11
0.0000000000000013
 21
34.4069
 31
0.0
  0
LINE
  5
39
330
1E
100
AcDbEntity
  8
0
100
AcDbLine
 10
0.0000000000000013
 20
12.0052
 30
0.0
 11
0.0000000000000013
 21
3.5207
 31
0.0
  0
LINE
  5
3A
330
1E
100
AcDbEntity
  8
0
100
AcDbLine
 10
0.0000000000000013
 20
12.0052
 30
0.0
 11
0.0000000000000013
 21
23.344
 31
0.0
  0
LINE
  5
3B
330
1E
100
AcDbEntity
  8
0
100
AcDbLine
 10
0.500000000000001
 20
0.82030000000001
 30
0.0
 11
2.0
 21
0.123200000000004
 31
0.0
  0
LINE
  5
3C
330
1E
100
AcDbEntity
  8
0
100
AcDbLine
 10
2.0
 20
0.123200000000004
 30
0.0
 11
4.0
 21
-0.109199999999995
 31
0.0
  0
LINE
  5
3D
330
1E
100
AcDbEntity
  8
0
100
AcDbLine
 10
4.0
 20
-0.109199999999995
 30
0.0
 11
67.0
 21
-0.109199999999995
 31
0.0
  0
LINE
  5
3E
330
1E
100
AcDbEntity
  8
0
100
AcDbLine
 10
4.0
 20
-0.109199999999995
 30
0.0
 11
67.0
 21
-0.109199999999995
 31
0.0
  0
LINE
  5
3F
330
1E
100
AcDbEntity
  8
0
100
AcDbLine
 10
2.0
 20
0.123200000000004
 30
0.0
 11
4.0
 21
-0.109199999999995
 31
0.0
  0
LINE
  5
50
330
1E
100
AcDbEntity
  8
0
100
AcDbLine
 10
0.500000000000001
 20
0.82030000000001
 30
0.0
 11
2.0
 21
0.123200000000004
 31
0.0
  0
LINE
  5
51
330
1E
100
AcDbEntity
  8
0
100
AcDbLine
 10
0.0000000000000013
 20
1.74980000000001
 30
0.0
 11
0.500000000000001
 21
0.82030000000001
 31
0.0
  0
LINE
  5
52
330
1E
100
AcDbEntity
  8
0
100
AcDbLine
 10
0.0000000000000013
 20
1.74980000000001
 30
0.0
 11
0.0000000000000013
 21
10.32329999999999
 31
0.0
  0
LINE
  5
53
330
1E
100
AcDbEntity
  8
0
100
AcDbLine
 10
0.0000000000000013
 20
61.3902
 30
0.0
 11
0.0000000000000013
 21
63.5762
 31
0.0
  0
LINE
  5
54
330
1E
100
AcDbEntity
  8
0
100
AcDbLine
 10
0.0000000000000013
 20
61.3902
 30
0.0
 11
0.0000000000000013
 21
58.8912
 31
0.0
  0
LINE
  5
55
330
1E
100
AcDbEntity
  8
0
100
AcDbLine
 10
0.0
 20
63.5762
 30
0.0
 11
52.0
 21
63.5762
 31
0.0
  0
LINE
  5
56
330
1E
100
AcDbEntity
  8
0
100
AcDbLine
 10
0.0000000000000013
 20
63.5762
 30
0.0
 11
0.0000000000000013
 21
62.5702
 31
0.0
  0
LINE
  5
57
330
1E
100
AcDbEntity
  8
0
100
AcDbLine
 10
0.0000000000000013
 20
63.5762
 30
0.0
 11
52.0
 21
63.5762
 31
0.0
  0
LINE
  5
58
330
1E
100
AcDbEntity
  8
0
100
AcDbLine
 10
0.0000000000000013
 20
63.5762
 30
0.0
 11
0.0000000000000013
 21
61.3902
 31
0.0
  0
LINE
  5
59
330
1E
100
AcDbEntity
  8
0
100
AcDbLine
 10
0.0000000000000013
 20
62.5702
 30
0.0
 11
0.0000000000000013
 21
60.8342
 31
0.0
  0
LINE
  5
5A
330
1E
100
AcDbEntity
  8
0
100
AcDbLine
 10
0.0000000000000013
 20
62.5702
 30
0.0
 11
0.0000000000000013
 21
63.5762
 31
0.0
  0
LINE
  5
5B
330
1E
100
AcDbEntity
  8
0
100
AcDbLine
 10
0.0000000000000013
 20
60.8342
 30
0.0
 11
0.0000000000000013
 21
58.8912
 31
0.0
  0
LINE
  5
5C
330
1E
100
AcDbEntity
  8
0
100
AcDbLine
 10
0.0000000000000013
 20
60.8342
 30
0.0
 11
0.0000000000000013
 21
62.5702
 31
0.0
  0
LINE
  5
5D
330
1E
100
AcDbEntity
  8
0
100
AcDbLine
 10
0.0000000000000013
 20
58.8912
 30
0.0
 11
0.0000000000000013
 21
56.7742
 31
0.0
  0
LINE
  5
5E
330
1E
100
AcDbEntity
  8
0
100
AcDbLine
 10
0.0000000000000013
 20
58.8912
 30
0.0
 11
0.0000000000000013
 21
61.3902
 31
0.0
  0
LINE
  5
5F
330
1E
100
AcDbEntity
  8
0
100
AcDbLine
 10
0.0000000000000013
 20
58.8912
 30
0.0
 11
0.0000000000000013
 21
56.2182
 31
0.0
  0
LINE
  5
60
330
1E
100
AcDbEntity
  8
0
100
AcDbLine
 10
0.0000000000000013
 20
58.8912
 30
0.0
 11
0.0000000000000013
 21
60.8342
 31
0.0
  0
LINE
  5
61
330
1E
100
AcDbEntity
  8
0
100
AcDbLine
 10
7.0
 20
63.6092
 30
0.0
 11
8.5
 21
63.6092
 31
0.0
  0
LINE
  5
62
330
1E
100
AcDbEntity
  8
0
100
AcDbLine
 10
8.5
 20
63.6092
 30
0.0
 11
10.2
 21
63.6092
 31
0.0
  0
LINE
  5
63
330
1E
100
AcDbEntity
  8
0
100
AcDbLine
 10
10.2
 20
63.6092
 30
0.0
 11
12.0
 21
63.6092
 31
0.0
  0
LINE
  5
64
330
1E
100
AcDbEntity
  8
0
100
AcDbLine
 10
17.0
 20
63.6092
 30
0.0
 11
17.0
 21
65.81319999999999
 31
0.0
  0
LINE
  5
65
330
1E
100
AcDbEntity
  8
0
100
AcDbLine
 10
17.0
 20
63.6092
 30
0.0
 11
17.0
 21
68.17319999999999
 31
0.0
  0
LINE
  5
66
330
1E
100
AcDbEntity
  8
0
100
AcDbLine
 10
17.0
 20
63.6092
 30
0.0
 11
17.0
 21
69.8562
 31
0.0
  0
LINE
  5
67
330
1E
100
AcDbEntity
  8
0
100
AcDbLine
 10
17.0
 20
63.6092
 30
0.0
 11
17.0
 21
66.41719999999999
 31
0.0
  0
LINE
  5
68
330
1E
100
AcDbEntity
  8
0
100
AcDbLine
 10
12.0
 20
63.6092
 30
0.0
 11
52.0
 21
63.6092
 31
0.0
  0
LINE
  5
69
330
1E
100
AcDbEntity
  8
0
100
AcDbLine
 10
12.0
 20
63.6092
 30
0.0
 11
52.0
 21
63.6092
 31
0.0
  0
LINE
  5
6A
330
1E
100
AcDbEntity
  8
0
100
AcDbLine
 10
6.0
 20
63.6092
 30
0.0
 11
7.0
 21
63.6092
 31
0.0
  0
LINE
  5
6B
330
1E
100
AcDbEntity
  8
0
100
AcDbLine
 10
5.299999999999999
 20
63.6092
 30
0.0
 11
6.0
 21
63.6092
 31
0.0
  0
LINE
  5
6C
330
1E
100
AcDbEntity
  8
0
100
AcDbLine
 10
17.0
 20
69.8562
 30
0.0
 11
17.0
 21
81.7692
 31
0.0
  0
LINE
  5
6D
330
1E
100
AcDbEntity
  8
0
100
AcDbLine
 10
17.0
 20
69.8562
 30
0.0
 11
17.0
 21
63.6092
 31
0.0
  0
LINE
  5
6E
330
1E
100
AcDbEntity
  8
0
100
AcDbLine
 10
17.0
 20
66.41719999999999
 30
0.0
 11
17.0
 21
63.6092
 31
0.0
  0
LINE
  5
6F
330
1E
100
AcDbEntity
  8
0
100
AcDbLine
 10
17.0
 20
66.41719999999999
 30
0.0
 11
17.0
 21
70.46120000000001
 31
0.0
  0
LINE
  5
70
330
1E
100
AcDbEntity
  8
0
100
AcDbLine
 10
17.0
 20
73.5882
 30
0.0
 11
17.0
 21
70.46120000000001
 31
0.0
  0
LINE
  5
71
330
1E
100
AcDbEntity
  8
0
100
AcDbLine
 10
17.0
 20
73.5882
 30
0.0
 11
17.0
 21
75.50320000000001
 31
0.0
  0
LINE
  5
72
330
1E
100
AcDbEntity
  8
0
100
AcDbLine
 10
17.0
 20
70.46120000000001
 30
0.0
 11
17.0
 21
66.41719999999999
 31
0.0
  0
LINE
  5
73
330
1E
100
AcDbEntity
  8
0
100
AcDbLine
 10
17.0
 20
70.46120000000001
 30
0.0
 11
17.0
 21
73.5882
 31
0.0
  0
LINE
  5
74
330
1E
100
AcDbEntity
  8
0
100
AcDbLine
 10
17.0
 20
75.50320000000001
 30
0.0
 11
17.0
 21
73.5882
 31
0.0
  0
LINE
  5
75
330
1E
100
AcDbEntity
  8
0
100
AcDbLine
 10
17.0
 20
75.50320000000001
 30
0.0
 11
17.0
 21
76.11419999999999
 31
0.0
  0
LINE
  5
76
330
1E
100
AcDbEntity
  8
0
100
AcDbLine
 10
17.0
 20
76.11419999999999
 30
0.0
 11
17.0
 21
75.32519999999999
 31
0.0
  0
LINE
  5
77
330
1E
100
AcDbEntity
  8
0
100
AcDbLine
 10
17.0
 20
76.11419999999999
 30
0.0
 11
17.0
 21
75.50320000000001
 31
0.0
  0
LINE
  5
78
330
1E
100
AcDbEntity
  8
0
100
AcDbLine
 10
17.0
 20
75.32519999999999
 30
0.0
 11
17.0
 21
76.11419999999999
 31
0.0
  0
LINE
  5
79
330
1E
100
AcDbEntity
  8
0
100
AcDbLine
 10
17.0
 20
75.32519999999999
 30
0.0
 11
17.0
 21
73.2392
 31
0.0
  0
LINE
  5
7A
330
1E
100
AcDbEntity
  8
0
100
AcDbLine
 10
17.0
 20
73.2392
 30
0.0
 11
17.0
 21
75.32519999999999
 31
0.0
  0
LINE
  5
7B
330
1E
100
AcDbEntity
  8
0
100
AcDbLine
 10
17.0
 20
73.2392
 30
0.0
 11
17.0
 21
69.96819999999999
 31
0.0
  0
LINE
  5
7C
330
1E
100
AcDbEntity
  8
0
100
AcDbLine
 10
17.0
 20
69.96819999999999
 30
0.0
 11
17.0
 21
73.2392
 31
0.0
  0
LINE
  5
7D
330
1E
100
AcDbEntity
  8
0
100
AcDbLine
 10
17.0
 20
69.96819999999999
 30
0.0
 11
17.0
 21
65.81319999999999
 31
0.0
  0
LINE
  5
7E
330
1E
100
AcDbEntity
  8
0
100
AcDbLine
 10
17.0
 20
65.81319999999999
 30
0.0
 11
17.0
 21
69.96819999999999
 31
0.0
  0
LINE
  5
7F
330
1E
100
AcDbEntity
  8
0
100
AcDbLine
 10
17.0
 20
65.81319999999999
 30
0.0
 11
17.0
 21
63.6092
 31
0.0
  0
LINE
  5
80
330
1E
100
AcDbEntity
  8
0
100
AcDbLine
 10
17.0
 20
92.02719999999999
 30
0.0
 11
17.0
 21
99.84520000000001
 31
0.0
  0
LINE
  5
81
330
1E
100
AcDbEntity
  8
0
100
AcDbLine
 10
17.0
 20
92.02719999999999
 30
0.0
 11
17.0
 21
81.7692
 31
0.0
  0
LINE
  5
82
330
1E
100
AcDbEntity
  8
0
100
AcDbLine
 10
17.0
 20
81.7692
 30
0.0
 11
17.0
 21
92.02719999999999
 31
0.0
  0
LINE
  5
83
330
1E
100
AcDbEntity
  8
0
100
AcDbLine
 10
17.0
 20
81.7692
 30
0.0
 11
17.0
 21
69.8562
 31
0.0
  0
LINE
  5
84
330
1E
100
AcDbEntity
  8
0
100
AcDbLine
 10
17.0
 20
99.84520000000001
 30
0.0
 11
17.0
 21
104.5341999999999
 31
0.0
  0
LINE
  5
85
330
1E
100
AcDbEntity
  8
0
100
AcDbLine
 10
17.0
 20
99.84520000000001
 30
0.0
 11
17.0
 21
92.02719999999999
 31
0.0
  0
LINE
  5
86
330
1E
100
AcDbEntity
  8
0
100
AcDbLine
 10
17.0
 20
104.0842
 30
0.0
 11
17.0
 21
98.9752
 31
0.0
  0
LINE
  5
87
330
1E
100
AcDbEntity
  8
0
100
AcDbLine
 10
17.0
 20
104.0842
 30
0.0
 11
17.0
 21
106.1091999999999
 31
0.0
  0
LINE
  5
88
330
1E
100
AcDbEntity
  8
0
100
AcDbLine
 10
17.0
 20
98.9752
 30
0.0
 11
17.0
 21
90.7952
 31
0.0
  0
LINE
  5
89
330
1E
100
AcDbEntity
  8
0
100
AcDbLine
 10
17.0
 20
98.9752
 30
0.0
 11
17.0
 21
104.0842
 31
0.0
  0
LINE
  5
8A
330
1E
100
AcDbEntity
  8
0
100
AcDbLine
 10
17.0
 20
90.7952
 30
0.0
 11
17.0
 21
80.25719999999999
 31
0.0
  0
LINE
  5
8B
330
1E
100
AcDbEntity
  8
0
100
AcDbLine
 10
17.0
 20
90.7952
 30
0.0
 11
17.0
 21
98.9752
 31
0.0
  0
LINE
  5
8C
330
1E
100
AcDbEntity
  8
0
100
AcDbLine
 10
17.0
 20
80.25719999999999
 30
0.0
 11
17.0
 21
68.17319999999999
 31
0.0
  0
LINE
  5
8D
330
1E
100
AcDbEntity
  8
0
100
AcDbLine
 10
17.0
 20
80.25719999999999
 30
0.0
 11
17.0
 21
90.7952
 31
0.0
  0
LINE
  5
8E
330
1E
100
AcDbEntity
  8
0
100
AcDbLine
 10
17.0
 20
68.17319999999999
 30
0.0
 11
17.0
 21
63.6092
 31
0.0
  0
LINE
  5
8F
330
1E
100
AcDbEntity
  8
0
100
AcDbLine
 10
17.0
 20
68.17319999999999
 30
0.0
 11
17.0
 21
80.25719999999999
 31
0.0
  0
LINE
  5
90
330
1E
100
AcDbEntity
  8
0
100
AcDbLine
 10
5.0
 20
63.6092
 30
0.0
 11
5.299999999999999
 21
63.6092
 31
0.0
  0
LINE
  5
91
330
1E
100
AcDbEntity
  8
0
100
AcDbLine
 10
4.785500000000089
 20
63.5762
 30
0.0
 11
5.0
 21
63.6092
 31
0.0
  0
LINE
  5
92
330
1E
100
AcDbEntity
  8
0
100
AcDbLine
 10
49.0
 20
92.22419999999999
 30
0.0
 11
49.0
 21
91.1092
 31
0.0
  0
LINE
  5
93
330
1E
100
AcDbEntity
  8
0
100
AcDbLine
 10
50.1
 20
89.43620000000001
 30
0.0
 11
51.79999999999999
 21
89.43620000000001
 31
0.0
  0
LINE
  5
94
330
1E
100
AcDbEntity
  8
0
100
AcDbLine
 10
52.0
 20
47.9712
 30
0.0
 11
52.5
 21
46.6682
 31
0.0
  0
LINE
  5
95
330
1E
100
AcDbEntity
  8
0
100
AcDbLine
 10
52.0
 20
47.9712
 30
0.0
 11
52.0
 21
53.56819999999999
 31
0.0
  0
LINE
  5
96
330
1E
100
AcDbEntity
  8
0
100
AcDbLine
 10
52.0
 20
50.3762
 30
0.0
 11
52.0
 21
51.8492
 31
0.0
  0
LINE
  5
97
330
1E
100
AcDbEntity
  8
0
100
AcDbLine
 10
52.0
 20
50.3762
 30
0.0
 11
52.0
 21
49.42219999999999
 31
0.0
  0
LINE
  5
98
330
1E
100
AcDbEntity
  8
0
100
AcDbLine
 10
52.0
 20
49.42219999999999
 30
0.0
 11
52.0
 21
50.3762
 31
0.0
  0
LINE
  5
99
330
1E
100
AcDbEntity
  8
0
100
AcDbLine
 10
52.0
 20
49.42219999999999
 30
0.0
 11
52.0
 21
49.0762
 31
0.0
  0
LINE
  5
9A
330
1E
100
AcDbEntity
  8
0
100
AcDbLine
 10
52.0
 20
49.0762
 30
0.0
 11
52.0
 21
49.42219999999999
 31
0.0
  0
LINE
  5
9B
330
1E
100
AcDbEntity
  8
0
100
AcDbLine
 10
52.0
 20
49.0762
 30
0.0
 11
52.4167
 21
48.2092
 31
0.0
  0
LINE
  5
9C
330
1E
100
AcDbEntity
  8
0
100
AcDbLine
 10
52.0
 20
53.56819999999999
 30
0.0
 11
52.0
 21
47.9712
 31
0.0
  0
LINE
  5
9D
330
1E
100
AcDbEntity
  8
0
100
AcDbLine
 10
52.0
 20
53.56819999999999
 30
0.0
 11
52.0
 21
56.2182
 31
0.0
  0
LINE
  5
9E
330
1E
100
AcDbEntity
  8
0
100
AcDbLine
 10
52.0
 20
51.8492
 30
0.0
 11
52.0
 21
53.8422
 31
0.0
  0
LINE
  5
9F
330
1E
100
AcDbEntity
  8
0
100
AcDbLine
 10
52.0
 20
51.8492
 30
0.0
 11
52.0
 21
50.3762
 31
0.0
  0
LINE
  5
A0
330
1E
100
AcDbEntity
  8
0
100
AcDbLine
 10
52.4167
 20
49.59620000000001
 30
0.0
 11
52.4167
 21
51.2422
 31
0.0
  0
LINE
  5
A1
330
1E
100
AcDbEntity
  8
0
100
AcDbLine
 10
52.4167
 20
49.59620000000001
 30
0.0
 11
52.4167
 21
48.5562
 31
0.0
  0
LINE
  5
A2
330
1E
100
AcDbEntity
  8
0
100
AcDbLine
 10
52.4167
 20
48.5562
 30
0.0
 11
52.4167
 21
49.59620000000001
 31
0.0
  0
LINE
  5
A3
330
1E
100
AcDbEntity
  8
0
100
AcDbLine
 10
52.4167
 20
48.5562
 30
0.0
 11
52.4167
 21
48.2092
 31
0.0
  0
LINE
  5
A4
330
1E
100
AcDbEntity
  8
0
100
AcDbLine
 10
52.4167
 20
48.2092
 30
0.0
 11
52.4167
 21
48.5562
 31
0.0
  0
LINE
  5
A6
330
1E
100
AcDbEntity
  8
0
100
AcDbLine
 10
52.4167
 20
51.2422
 30
0.0
 11
52.4167
 21
53.4092
 31
0.0
  0
LINE
  5
A7
330
1E
100
AcDbEntity
  8
0
100
AcDbLine
 10
52.4167
 20
51.2422
 30
0.0
 11
52.4167
 21
49.59620000000001
 31
0.0
  0
LINE
  5
A8
330
1E
100
AcDbEntity
  8
0
100
AcDbLine
 10
52.5
 20
46.6682
 30
0.0
 11
54.0
 21
45.6902
 31
0.0
  0
LINE
  5
A9
330
1E
100
AcDbEntity
  8
0
100
AcDbLine
 10
52.4167
 20
53.4092
 30
0.0
 11
52.4167
 21
55.9222
 31
0.0
  0
LINE
  5
AA
330
1E
100
AcDbEntity
  8
0
100
AcDbLine
 10
52.4167
 20
53.4092
 30
0.0
 11
52.4167
 21
51.2422
 31
0.0
  0
LINE
  5
AB
330
1E
100
AcDbEntity
  8
0
100
AcDbLine
 10
52.4167
 20
55.9222
 30
0.0
 11
52.4167
 21
58.6092
 31
0.0
  0
LINE
  5
AC
330
1E
100
AcDbEntity
  8
0
100
AcDbLine
 10
52.4167
 20
55.9222
 30
0.0
 11
52.4167
 21
53.4092
 31
0.0
  0
LINE
  5
AD
330
1E
100
AcDbEntity
  8
0
100
AcDbLine
 10
52.0
 20
53.8422
 30
0.0
 11
52.0
 21
56.1822
 31
0.0
  0
LINE
  5
AE
330
1E
100
AcDbEntity
  8
0
100
AcDbLine
 10
52.0
 20
53.8422
 30
0.0
 11
52.0
 21
51.8492
 31
0.0
  0
LINE
  5
AF
330
1E
100
AcDbEntity
  8
0
100
AcDbLine
 10
52.0
 20
58.8912
 30
0.0
 11
52.0
 21
56.2182
 31
0.0
  0
LINE
  5
B0
330
1E
100
AcDbEntity
  8
0
100
AcDbLine
 10
52.0
 20
58.8912
 30
0.0
 11
52.0
 21
61.3902
 31
0.0
  0
LINE
  5
B1
330
1E
100
AcDbEntity
  8
0
100
AcDbLine
 10
52.0
 20
56.2182
 30
0.0
 11
52.0
 21
53.56819999999999
 31
0.0
  0
LINE
  5
B2
330
1E
100
AcDbEntity
  8
0
100
AcDbLine
 10
52.0
 20
56.2182
 30
0.0
 11
52.0
 21
58.8912
 31
0.0
  0
LINE
  5
B3
330
1E
100
AcDbEntity
  8
0
100
AcDbLine
 10
52.0
 20
63.5762
 30
0.0
 11
52.0
 21
61.3902
 31
0.0
  0
LINE
  5
B4
330
1E
100
AcDbEntity
  8
0
100
AcDbLine
 10
52.0
 20
61.3902
 30
0.0
 11
52.0
 21
58.8912
 31
0.0
  0
LINE
  5
B5
330
1E
100
AcDbEntity
  8
0
100
AcDbLine
 10
52.0
 20
61.3902
 30
0.0
 11
52.0
 21
63.5762
 31
0.0
  0
LINE
  5
B6
330
1E
100
AcDbEntity
  8
0
100
AcDbLine
 10
52.0
 20
63.3762
 30
0.0
 11
52.0
 21
65.36920000000001
 31
0.0
  0
LINE
  5
B7
330
1E
100
AcDbEntity
  8
0
100
AcDbLine
 10
52.0
 20
63.3762
 30
0.0
 11
52.0
 21
61.0362
 31
0.0
  0
LINE
  5
B8
330
1E
100
AcDbEntity
  8
0
100
AcDbLine
 10
52.0
 20
61.0362
 30
0.0
 11
52.0
 21
63.3762
 31
0.0
  0
LINE
  5
B9
330
1E
100
AcDbEntity
  8
0
100
AcDbLine
 10
52.0
 20
61.0362
 30
0.0
 11
52.0
 21
58.6092
 31
0.0
  0
LINE
  5
BA
330
1E
100
AcDbEntity
  8
0
100
AcDbLine
 10
52.0
 20
65.36920000000001
 30
0.0
 11
52.0
 21
66.8422
 31
0.0
  0
LINE
  5
BB
330
1E
100
AcDbEntity
  8
0
100
AcDbLine
 10
52.0
 20
65.36920000000001
 30
0.0
 11
52.0
 21
63.3762
 31
0.0
  0
LINE
  5
BC
330
1E
100
AcDbEntity
  8
0
100
AcDbLine
 10
52.0
 20
66.8422
 30
0.0
 11
52.0
 21
67.7962
 31
0.0
  0
LINE
  5
BD
330
1E
100
AcDbEntity
  8
0
100
AcDbLine
 10
52.0
 20
66.8422
 30
0.0
 11
52.0
 21
65.36920000000001
 31
0.0
  0
LINE
  5
BE
330
1E
100
AcDbEntity
  8
0
100
AcDbLine
 10
52.0
 20
67.7962
 30
0.0
 11
52.0
 21
68.1422
 31
0.0
  0
LINE
  5
BF
330
1E
100
AcDbEntity
  8
0
100
AcDbLine
 10
52.0
 20
67.7962
 30
0.0
 11
52.0
 21
66.8422
 31
0.0
  0
LINE
  5
C0
330
1E
100
AcDbEntity
  8
0
100
AcDbLine
 10
52.0
 20
68.1422
 30
0.0
 11
52.4167
 21
69.00920000000001
 31
0.0
  0
LINE
  5
C1
330
1E
100
AcDbEntity
  8
0
100
AcDbLine
 10
52.0
 20
68.1422
 30
0.0
 11
52.0
 21
67.7962
 31
0.0
  0
LINE
  5
C2
330
1E
100
AcDbEntity
  8
0
100
AcDbLine
 10
52.4167
 20
63.80919999999999
 30
0.0
 11
52.4167
 21
65.9762
 31
0.0
  0
LINE
  5
C3
330
1E
100
AcDbEntity
  8
0
100
AcDbLine
 10
52.4167
 20
63.80919999999999
 30
0.0
 11
52.4167
 21
61.2962
 31
0.0
  0
LINE
  5
C4
330
1E
100
AcDbEntity
  8
0
100
AcDbLine
 10
52.4167
 20
61.2962
 30
0.0
 11
52.4167
 21
63.80919999999999
 31
0.0
  0
LINE
  5
C5
330
1E
100
AcDbEntity
  8
0
100
AcDbLine
 10
52.4167
 20
61.2962
 30
0.0
 11
52.4167
 21
58.6092
 31
0.0
  0
LINE
  5
C6
330
1E
100
AcDbEntity
  8
0
100
AcDbLine
 10
52.4167
 20
65.9762
 30
0.0
 11
52.4167
 21
67.62220000000001
 31
0.0
  0
LINE
  5
C7
330
1E
100
AcDbEntity
  8
0
100
AcDbLine
 10
52.4167
 20
65.9762
 30
0.0
 11
52.4167
 21
63.80919999999999
 31
0.0
  0
LINE
  5
C8
330
1E
100
AcDbEntity
  8
0
100
AcDbLine
 10
52.4167
 20
67.62220000000001
 30
0.0
 11
52.4167
 21
68.6622
 31
0.0
  0
LINE
  5
C9
330
1E
100
AcDbEntity
  8
0
100
AcDbLine
 10
52.4167
 20
67.62220000000001
 30
0.0
 11
52.4167
 21
65.9762
 31
0.0
  0
LINE
  5
CA
330
1E
100
AcDbEntity
  8
0
100
AcDbLine
 10
52.4167
 20
68.6622
 30
0.0
 11
52.4167
 21
69.00920000000001
 31
0.0
  0
LINE
  5
CB
330
1E
100
AcDbEntity
  8
0
100
AcDbLine
 10
52.4167
 20
68.6622
 30
0.0
 11
52.4167
 21
67.62220000000001
 31
0.0
  0
LINE
  5
CC
330
1E
100
AcDbEntity
  8
0
100
AcDbLine
 10
52.4167
 20
69.00920000000001
 30
0.0
 11
53.25
 21
69.4422
 31
0.0
  0
LINE
  5
CD
330
1E
100
AcDbEntity
  8
0
100
AcDbLine
 10
52.4167
 20
69.00920000000001
 30
0.0
 11
52.4167
 21
68.6622
 31
0.0
  0
LINE
  5
CE
330
1E
100
AcDbEntity
  8
0
100
AcDbLine
 10
52.4167
 20
58.6092
 30
0.0
 11
52.4167
 21
55.9222
 31
0.0
  0
LINE
  5
CF
330
1E
100
AcDbEntity
  8
0
100
AcDbLine
 10
52.4167
 20
58.6092
 30
0.0
 11
52.4167
 21
61.2962
 31
0.0
  0
LINE
  5
D0
330
1E
100
AcDbEntity
  8
0
100
AcDbLine
 10
52.0
 20
58.6092
 30
0.0
 11
52.0
 21
56.1822
 31
0.0
  0
LINE
  5
D1
330
1E
100
AcDbEntity
  8
0
100
AcDbLine
 10
52.0
 20
58.6092
 30
0.0
 11
52.0
 21
61.0362
 31
0.0
  0
LINE
  5
D2
330
1E
100
AcDbEntity
  8
0
100
AcDbLine
 10
52.0
 20
56.1822
 30
0.0
 11
52.0
 21
58.6092
 31
0.0
  0
LINE
  5
D3
330
1E
100
AcDbEntity
  8
0
100
AcDbLine
 10
52.0
 20
56.1822
 30
0.0
 11
52.0
 21
53.8422
 31
0.0
  0
LINE
  5
D4
330
1E
100
AcDbEntity
  8
0
100
AcDbLine
 10
53.25
 20
47.34219999999999
 30
0.0
 11
53.25
 21
46.9092
 31
0.0
  0
LINE
  5
D5
330
1E
100
AcDbEntity
  8
0
100
AcDbLine
 10
53.25
 20
46.9092
 30
0.0
 11
53.25
 21
47.34219999999999
 31
0.0
  0
LINE
  5
D6
330
1E
100
AcDbEntity
  8
0
100
AcDbLine
 10
53.25
 20
46.9092
 30
0.0
 11
53.6667
 21
46.0422
 31
0.0
  0
LINE
  5
D7
330
1E
100
AcDbEntity
  8
0
100
AcDbLine
 10
52.4167
 20
48.2092
 30
0.0
 11
53.25
 21
47.69519999999999
 31
0.0
  0
LINE
  5
D8
330
1E
100
AcDbEntity
  8
0
100
AcDbLine
 10
53.25
 20
49.2492
 30
0.0
 11
53.25
 21
50.9822
 31
0.0
  0
LINE
  5
D9
330
1E
100
AcDbEntity
  8
0
100
AcDbLine
 10
53.25
 20
49.2492
 30
0.0
 11
53.25
 21
48.2092
 31
0.0
  0
LINE
  5
DA
330
1E
100
AcDbEntity
  8
0
100
AcDbLine
 10
53.25
 20
48.2092
 30
0.0
 11
53.25
 21
49.2492
 31
0.0
  0
LINE
  5
DB
330
1E
100
AcDbEntity
  8
0
100
AcDbLine
 10
53.25
 20
48.2092
 30
0.0
 11
53.25
 21
47.34219999999999
 31
0.0
  0
LINE
  5
DC
330
1E
100
AcDbEntity
  8
0
100
AcDbLine
 10
53.25
 20
47.34219999999999
 30
0.0
 11
53.25
 21
48.2092
 31
0.0
  0
LINE
  5
DD
330
1E
100
AcDbEntity
  8
0
100
AcDbLine
 10
53.25
 20
50.3762
 30
0.0
 11
53.25
 21
52.80219999999999
 31
0.0
  0
LINE
  5
DE
330
1E
100
AcDbEntity
  8
0
100
AcDbLine
 10
53.25
 20
52.80219999999999
 30
0.0
 11
53.25
 21
50.3762
 31
0.0
  0
LINE
  5
DF
330
1E
100
AcDbEntity
  8
0
100
AcDbLine
 10
53.25
 20
50.9822
 30
0.0
 11
53.25
 21
53.2362
 31
0.0
  0
LINE
  5
E0
330
1E
100
AcDbEntity
  8
0
100
AcDbLine
 10
53.25
 20
50.9822
 30
0.0
 11
53.25
 21
49.2492
 31
0.0
  0
LINE
  5
E1
330
1E
100
AcDbEntity
  8
0
100
AcDbLine
 10
53.6667
 20
47.6892
 30
0.0
 11
53.6667
 21
49.76919999999999
 31
0.0
  0
LINE
  5
E2
330
1E
100
AcDbEntity
  8
0
100
AcDbLine
 10
53.6667
 20
47.6892
 30
0.0
 11
53.6667
 21
46.47619999999999
 31
0.0
  0
LINE
  5
E3
330
1E
100
AcDbEntity
  8
0
100
AcDbLine
 10
53.6667
 20
46.47619999999999
 30
0.0
 11
53.6667
 21
47.6892
 31
0.0
  0
LINE
  5
E4
330
1E
100
AcDbEntity
  8
0
100
AcDbLine
 10
53.6667
 20
46.47619999999999
 30
0.0
 11
53.6667
 21
46.0422
 31
0.0
  0
LINE
  5
E5
330
1E
100
AcDbEntity
  8
0
100
AcDbLine
 10
53.6667
 20
46.0422
 30
0.0
 11
53.6667
 21
46.47619999999999
 31
0.0
  0
LINE
  5
E6
330
1E
100
AcDbEntity
  8
0
100
AcDbLine
 10
53.6667
 20
46.0422
 30
0.0
 11
54.5
 21
45.6092
 31
0.0
  0
LINE
  5
E7
330
1E
100
AcDbEntity
  8
0
100
AcDbLine
 10
53.6667
 20
49.76919999999999
 30
0.0
 11
53.6667
 21
52.3692
 31
0.0
  0
LINE
  5
E8
330
1E
100
AcDbEntity
  8
0
100
AcDbLine
 10
53.6667
 20
49.76919999999999
 30
0.0
 11
53.6667
 21
47.6892
 31
0.0
  0
LINE
  5
E9
330
1E
100
AcDbEntity
  8
0
100
AcDbLine
 10
54.0
 20
45.6902
 30
0.0
 11
56.0
 21
45.36389999999999
 31
0.0
  0
LINE
  5
EA
330
1E
100
AcDbEntity
  8
0
100
AcDbLine
 10
54.5
 20
45.6092
 30
0.0
 11
54.9167
 21
45.6092
 31
0.0
  0
LINE
  5
EB
330
1E
100
AcDbEntity
  8
0
100
AcDbLine
 10
53.6667
 20
52.3692
 30
0.0
 11
53.6667
 21
55.4022
 31
0.0
  0
LINE
  5
EC
330
1E
100
AcDbEntity
  8
0
100
AcDbLine
 10
53.6667
 20
52.3692
 30
0.0
 11
53.6667
 21
49.76919999999999
 31
0.0
  0
LINE
  5
ED
330
1E
100
AcDbEntity
  8
0
100
AcDbLine
 10
53.6667
 20
55.4022
 30
0.0
 11
53.6667
 21
58.6092
 31
0.0
  0
LINE
  5
EE
330
1E
100
AcDbEntity
  8
0
100
AcDbLine
 10
53.6667
 20
55.4022
 30
0.0
 11
53.6667
 21
52.3692
 31
0.0
  0
LINE
  5
EF
330
1E
100
AcDbEntity
  8
0
100
AcDbLine
 10
53.25
 20
53.2362
 30
0.0
 11
53.25
 21
55.83619999999999
 31
0.0
  0
LINE
  5
F0
330
1E
100
AcDbEntity
  8
0
100
AcDbLine
 10
53.25
 20
53.2362
 30
0.0
 11
53.25
 21
50.9822
 31
0.0
  0
LINE
  5
F1
330
1E
100
AcDbEntity
  8
0
100
AcDbLine
 10
53.25
 20
61.6422
 30
0.0
 11
53.25
 21
64.4162
 31
0.0
  0
LINE
  5
F2
330
1E
100
AcDbEntity
  8
0
100
AcDbLine
 10
53.25
 20
61.6422
 30
0.0
 11
53.25
 21
58.6092
 31
0.0
  0
LINE
  5
F3
330
1E
100
AcDbEntity
  8
0
100
AcDbLine
 10
53.25
 20
64.4162
 30
0.0
 11
53.25
 21
66.8422
 31
0.0
  0
LINE
  5
F4
330
1E
100
AcDbEntity
  8
0
100
AcDbLine
 10
53.25
 20
64.4162
 30
0.0
 11
53.25
 21
61.6422
 31
0.0
  0
LINE
  5
F5
330
1E
100
AcDbEntity
  8
0
100
AcDbLine
 10
53.25
 20
63.9822
 30
0.0
 11
53.25
 21
66.23619999999999
 31
0.0
  0
LINE
  5
F6
330
1E
100
AcDbEntity
  8
0
100
AcDbLine
 10
53.25
 20
63.9822
 30
0.0
 11
53.25
 21
61.3822
 31
0.0
  0
LINE
  5
F7
330
1E
100
AcDbEntity
  8
0
100
AcDbLine
 10
53.25
 20
61.3822
 30
0.0
 11
53.25
 21
63.9822
 31
0.0
  0
LINE
  5
F8
330
1E
100
AcDbEntity
  8
0
100
AcDbLine
 10
53.25
 20
61.3822
 30
0.0
 11
53.25
 21
58.6092
 31
0.0
  0
LINE
  5
F9
330
1E
100
AcDbEntity
  8
0
100
AcDbLine
 10
53.25
 20
66.8422
 30
0.0
 11
53.25
 21
68.7492
 31
0.0
  0
LINE
  5
FA
330
1E
100
AcDbEntity
  8
0
100
AcDbLine
 10
53.25
 20
66.8422
 30
0.0
 11
53.25
 21
64.4162
 31
0.0
  0
LINE
  5
FB
330
1E
100
AcDbEntity
  8
0
100
AcDbLine
 10
53.25
 20
66.23619999999999
 30
0.0
 11
53.25
 21
67.9692
 31
0.0
  0
LINE
  5
FC
330
1E
100
AcDbEntity
  8
0
100
AcDbLine
 10
53.25
 20
66.23619999999999
 30
0.0
 11
53.25
 21
63.9822
 31
0.0
  0
LINE
  5
FD
330
1E
100
AcDbEntity
  8
0
100
AcDbLine
 10
53.25
 20
68.7492
 30
0.0
 11
53.25
 21
69.87619999999999
 31
0.0
  0
LINE
  5
FE
330
1E
100
AcDbEntity
  8
0
100
AcDbLine
 10
53.25
 20
68.7492
 30
0.0
 11
53.25
 21
66.8422
 31
0.0
  0
LINE
  5
FF
330
1E
100
AcDbEntity
  8
0
100
AcDbLine
 10
53.25
 20
67.9692
 30
0.0
 11
53.25
 21
69.00920000000001
 31
0.0
  0
LINE
  5
100
330
1E
100
AcDbEntity
  8
0
100
AcDbLine
 10
53.25
 20
67.9692
 30
0.0
 11
53.25
 21
66.23619999999999
 31
0.0
  0
LINE
  5
101
330
1E
100
AcDbEntity
  8
0
100
AcDbLine
 10
53.25
 20
69.00920000000001
 30
0.0
 11
53.25
 21
69.4422
 31
0.0
  0
LINE
  5
102
330
1E
100
AcDbEntity
  8
0
100
AcDbLine
 10
53.25
 20
69.00920000000001
 30
0.0
 11
53.25
 21
67.9692
 31
0.0
  0
LINE
  5
103
330
1E
100
AcDbEntity
  8
0
100
AcDbLine
 10
53.25
 20
69.4422
 30
0.0
 11
53.25
 21
69.87619999999999
 31
0.0
  0
LINE
  5
104
330
1E
100
AcDbEntity
  8
0
100
AcDbLine
 10
53.25
 20
69.4422
 30
0.0
 11
53.25
 21
69.00920000000001
 31
0.0
  0
LINE
  5
105
330
1E
100
AcDbEntity
  8
0
100
AcDbLine
 10
53.25
 20
69.87619999999999
 30
0.0
 11
53.25
 21
69.4422
 31
0.0
  0
LINE
  5
106
330
1E
100
AcDbEntity
  8
0
100
AcDbLine
 10
53.25
 20
69.87619999999999
 30
0.0
 11
53.25
 21
70.3092
 31
0.0
  0
LINE
  5
107
330
1E
100
AcDbEntity
  8
0
100
AcDbLine
 10
53.25
 20
69.87619999999999
 30
0.0
 11
53.25
 21
68.7492
 31
0.0
  0
LINE
  5
108
330
1E
100
AcDbEntity
  8
0
100
AcDbLine
 10
53.25
 20
70.3092
 30
0.0
 11
53.25
 21
69.87619999999999
 31
0.0
  0
LINE
  5
109
330
1E
100
AcDbEntity
  8
0
100
AcDbLine
 10
53.25
 20
70.3092
 30
0.0
 11
53.6667
 21
71.17619999999999
 31
0.0
  0
LINE
  5
10A
330
1E
100
AcDbEntity
  8
0
100
AcDbLine
 10
53.6667
 20
64.84919999999999
 30
0.0
 11
53.6667
 21
67.4492
 31
0.0
  0
LINE
  5
10B
330
1E
100
AcDbEntity
  8
0
100
AcDbLine
 10
53.6667
 20
64.84919999999999
 30
0.0
 11
53.6667
 21
61.8162
 31
0.0
  0
LINE
  5
10C
330
1E
100
AcDbEntity
  8
0
100
AcDbLine
 10
53.6667
 20
61.8162
 30
0.0
 11
53.6667
 21
64.84919999999999
 31
0.0
  0
LINE
  5
10D
330
1E
100
AcDbEntity
  8
0
100
AcDbLine
 10
53.6667
 20
61.8162
 30
0.0
 11
53.6667
 21
58.6092
 31
0.0
  0
LINE
  5
10E
330
1E
100
AcDbEntity
  8
0
100
AcDbLine
 10
53.6667
 20
67.4492
 30
0.0
 11
53.6667
 21
69.5292
 31
0.0
  0
LINE
  5
10F
330
1E
100
AcDbEntity
  8
0
100
AcDbLine
 10
53.6667
 20
67.4492
 30
0.0
 11
53.6667
 21
64.84919999999999
 31
0.0
  0
LINE
  5
110
330
1E
100
AcDbEntity
  8
0
100
AcDbLine
 10
53.6667
 20
69.5292
 30
0.0
 11
53.6667
 21
70.7422
 31
0.0
  0
LINE
  5
111
330
1E
100
AcDbEntity
  8
0
100
AcDbLine
 10
53.6667
 20
69.5292
 30
0.0
 11
53.6667
 21
67.4492
 31
0.0
  0
LINE
  5
112
330
1E
100
AcDbEntity
  8
0
100
AcDbLine
 10
53.6667
 20
70.7422
 30
0.0
 11
53.6667
 21
71.17619999999999
 31
0.0
  0
LINE
  5
113
330
1E
100
AcDbEntity
  8
0
100
AcDbLine
 10
53.6667
 20
70.7422
 30
0.0
 11
53.6667
 21
69.5292
 31
0.0
  0
LINE
  5
114
330
1E
100
AcDbEntity
  8
0
100
AcDbLine
 10
54.5
 20
71.6092
 30
0.0
 11
54.9167
 21
71.6092
 31
0.0
  0
LINE
  5
115
330
1E
100
AcDbEntity
  8
0
100
AcDbLine
 10
53.6667
 20
71.17619999999999
 30
0.0
 11
54.5
 21
71.6092
 31
0.0
  0
LINE
  5
116
330
1E
100
AcDbEntity
  8
0
100
AcDbLine
 10
53.6667
 20
71.17619999999999
 30
0.0
 11
53.6667
 21
70.7422
 31
0.0
  0
LINE
  5
117
330
1E
100
AcDbEntity
  8
0
100
AcDbLine
 10
53.6667
 20
58.6092
 30
0.0
 11
53.6667
 21
55.4022
 31
0.0
  0
LINE
  5
118
330
1E
100
AcDbEntity
  8
0
100
AcDbLine
 10
53.6667
 20
58.6092
 30
0.0
 11
53.6667
 21
61.8162
 31
0.0
  0
LINE
  5
119
330
1E
100
AcDbEntity
  8
0
100
AcDbLine
 10
53.25
 20
58.6092
 30
0.0
 11
53.25
 21
55.83619999999999
 31
0.0
  0
LINE
  5
11A
330
1E
100
AcDbEntity
  8
0
100
AcDbLine
 10
53.25
 20
58.6092
 30
0.0
 11
53.25
 21
61.3822
 31
0.0
  0
LINE
  5
11B
330
1E
100
AcDbEntity
  8
0
100
AcDbLine
 10
53.25
 20
58.6092
 30
0.0
 11
53.25
 21
61.6422
 31
0.0
  0
LINE
  5
11C
330
1E
100
AcDbEntity
  8
0
100
AcDbLine
 10
53.25
 20
55.83619999999999
 30
0.0
 11
53.25
 21
58.6092
 31
0.0
  0
LINE
  5
11D
330
1E
100
AcDbEntity
  8
0
100
AcDbLine
 10
53.25
 20
55.83619999999999
 30
0.0
 11
53.25
 21
53.2362
 31
0.0
  0
LINE
  5
11E
330
1E
100
AcDbEntity
  8
0
100
AcDbLine
 10
54.9167
 20
45.6092
 30
0.0
 11
55.75
 21
46.0422
 31
0.0
  0
LINE
  5
11F
330
1E
100
AcDbEntity
  8
0
100
AcDbLine
 10
55.75
 20
47.6892
 30
0.0
 11
55.75
 21
49.76919999999999
 31
0.0
  0
LINE
  5
120
330
1E
100
AcDbEntity
  8
0
100
AcDbLine
 10
55.75
 20
47.6892
 30
0.0
 11
55.75
 21
46.47619999999999
 31
0.0
  0
LINE
  5
121
330
1E
100
AcDbEntity
  8
0
100
AcDbLine
 10
55.75
 20
46.47619999999999
 30
0.0
 11
55.75
 21
47.6892
 31
0.0
  0
LINE
  5
122
330
1E
100
AcDbEntity
  8
0
100
AcDbLine
 10
55.75
 20
46.47619999999999
 30
0.0
 11
55.75
 21
46.0422
 31
0.0
  0
LINE
  5
123
330
1E
100
AcDbEntity
  8
0
100
AcDbLine
 10
55.75
 20
46.0422
 30
0.0
 11
55.75
 21
46.47619999999999
 31
0.0
  0
LINE
  5
124
330
1E
100
AcDbEntity
  8
0
100
AcDbLine
 10
55.75
 20
46.0422
 30
0.0
 11
56.1667
 21
46.9092
 31
0.0
  0
LINE
  5
125
330
1E
100
AcDbEntity
  8
0
100
AcDbLine
 10
55.75
 20
49.76919999999999
 30
0.0
 11
55.75
 21
52.3692
 31
0.0
  0
LINE
  5
126
330
1E
100
AcDbEntity
  8
0
100
AcDbLine
 10
55.75
 20
49.76919999999999
 30
0.0
 11
55.75
 21
47.6892
 31
0.0
  0
LINE
  5
127
330
1E
100
AcDbEntity
  8
0
100
AcDbLine
 10
55.75
 20
64.84919999999999
 30
0.0
 11
55.75
 21
67.4492
 31
0.0
  0
LINE
  5
128
330
1E
100
AcDbEntity
  8
0
100
AcDbLine
 10
55.75
 20
64.84919999999999
 30
0.0
 11
55.75
 21
61.8162
 31
0.0
  0
LINE
  5
129
330
1E
100
AcDbEntity
  8
0
100
AcDbLine
 10
55.75
 20
61.8162
 30
0.0
 11
55.75
 21
64.84919999999999
 31
0.0
  0
LINE
  5
12A
330
1E
100
AcDbEntity
  8
0
100
AcDbLine
 10
55.75
 20
61.8162
 30
0.0
 11
55.75
 21
58.6092
 31
0.0
  0
LINE
  5
12B
330
1E
100
AcDbEntity
  8
0
100
AcDbLine
 10
55.75
 20
67.4492
 30
0.0
 11
55.75
 21
69.5292
 31
0.0
  0
LINE
  5
12C
330
1E
100
AcDbEntity
  8
0
100
AcDbLine
 10
55.75
 20
67.4492
 30
0.0
 11
55.75
 21
64.84919999999999
 31
0.0
  0
LINE
  5
12D
330
1E
100
AcDbEntity
  8
0
100
AcDbLine
 10
55.75
 20
69.5292
 30
0.0
 11
55.75
 21
70.7422
 31
0.0
  0
LINE
  5
12E
330
1E
100
AcDbEntity
  8
0
100
AcDbLine
 10
55.75
 20
69.5292
 30
0.0
 11
55.75
 21
67.4492
 31
0.0
  0
LINE
  5
12F
330
1E
100
AcDbEntity
  8
0
100
AcDbLine
 10
55.75
 20
70.7422
 30
0.0
 11
55.75
 21
71.17619999999999
 31
0.0
  0
LINE
  5
130
330
1E
100
AcDbEntity
  8
0
100
AcDbLine
 10
55.75
 20
70.7422
 30
0.0
 11
55.75
 21
69.5292
 31
0.0
  0
LINE
  5
131
330
1E
100
AcDbEntity
  8
0
100
AcDbLine
 10
55.75
 20
71.17619999999999
 30
0.0
 11
56.1667
 21
70.3092
 31
0.0
  0
LINE
  5
132
330
1E
100
AcDbEntity
  8
0
100
AcDbLine
 10
55.75
 20
71.17619999999999
 30
0.0
 11
55.75
 21
70.7422
 31
0.0
  0
LINE
  5
133
330
1E
100
AcDbEntity
  8
0
100
AcDbLine
 10
54.9167
 20
71.6092
 30
0.0
 11
55.75
 21
71.17619999999999
 31
0.0
  0
LINE
  5
134
330
1E
100
AcDbEntity
  8
0
100
AcDbLine
 10
55.75
 20
58.6092
 30
0.0
 11
55.75
 21
55.4022
 31
0.0
  0
LINE
  5
135
330
1E
100
AcDbEntity
  8
0
100
AcDbLine
 10
55.75
 20
58.6092
 30
0.0
 11
55.75
 21
61.8162
 31
0.0
  0
LINE
  5
136
330
1E
100
AcDbEntity
  8
0
100
AcDbLine
 10
55.75
 20
52.3692
 30
0.0
 11
55.75
 21
55.4022
 31
0.0
  0
LINE
  5
137
330
1E
100
AcDbEntity
  8
0
100
AcDbLine
 10
55.75
 20
52.3692
 30
0.0
 11
55.75
 21
49.76919999999999
 31
0.0
  0
LINE
  5
138
330
1E
100
AcDbEntity
  8
0
100
AcDbLine
 10
56.15276193771629
 20
46.8802
 30
0.0
 11
67.0
 21
46.8802
 31
0.0
  0
LINE
  5
139
330
1E
100
AcDbEntity
  8
0
100
AcDbLine
 10
56.0
 20
45.36389999999999
 30
0.0
 11
67.0
 21
45.36389999999999
 31
0.0
  0
LINE
  5
13A
330
1E
100
AcDbEntity
  8
0
100
AcDbLine
 10
56.1667
 20
48.4692
 30
0.0
 11
56.1667
 21
50.3762
 31
0.0
  0
LINE
  5
13B
330
1E
100
AcDbEntity
  8
0
100
AcDbLine
 10
56.1667
 20
48.4692
 30
0.0
 11
56.1667
 21
47.34219999999999
 31
0.0
  0
LINE
  5
13C
330
1E
100
AcDbEntity
  8
0
100
AcDbLine
 10
56.1667
 20
47.34219999999999
 30
0.0
 11
56.1667
 21
48.4692
 31
0.0
  0
LINE
  5
13D
330
1E
100
AcDbEntity
  8
0
100
AcDbLine
 10
56.1667
 20
47.34219999999999
 30
0.0
 11
56.1667
 21
46.9092
 31
0.0
  0
LINE
  5
13E
330
1E
100
AcDbEntity
  8
0
100
AcDbLine
 10
56.1667
 20
46.9092
 30
0.0
 11
56.1667
 21
47.34219999999999
 31
0.0
  0
LINE
  5
13F
330
1E
100
AcDbEntity
  8
0
100
AcDbLine
 10
56.1667
 20
46.9092
 30
0.0
 11
57.0
 21
47.34219999999999
 31
0.0
  0
LINE
  5
140
330
1E
100
AcDbEntity
  8
0
100
AcDbLine
 10
56.1667
 20
50.3762
 30
0.0
 11
56.1667
 21
52.80219999999999
 31
0.0
  0
LINE
  5
141
330
1E
100
AcDbEntity
  8
0
100
AcDbLine
 10
56.1667
 20
50.3762
 30
0.0
 11
56.1667
 21
48.4692
 31
0.0
  0
LINE
  5
142
330
1E
100
AcDbEntity
  8
0
100
AcDbLine
 10
57.0
 20
47.34219999999999
 30
0.0
 11
77.0
 21
47.34219999999999
 31
0.0
  0
LINE
  5
143
330
1E
100
AcDbEntity
  8
0
100
AcDbLine
 10
56.1667
 20
52.80219999999999
 30
0.0
 11
56.1667
 21
55.5762
 31
0.0
  0
LINE
  5
144
330
1E
100
AcDbEntity
  8
0
100
AcDbLine
 10
56.1667
 20
52.80219999999999
 30
0.0
 11
56.1667
 21
50.3762
 31
0.0
  0
LINE
  5
145
330
1E
100
AcDbEntity
  8
0
100
AcDbLine
 10
56.1667
 20
64.4162
 30
0.0
 11
56.1667
 21
66.8422
 31
0.0
  0
LINE
  5
146
330
1E
100
AcDbEntity
  8
0
100
AcDbLine
 10
56.1667
 20
64.4162
 30
0.0
 11
56.1667
 21
61.6422
 31
0.0
  0
LINE
  5
147
330
1E
100
AcDbEntity
  8
0
100
AcDbLine
 10
56.1667
 20
61.6422
 30
0.0
 11
56.1667
 21
64.4162
 31
0.0
  0
LINE
  5
148
330
1E
100
AcDbEntity
  8
0
100
AcDbLine
 10
56.1667
 20
61.6422
 30
0.0
 11
56.1667
 21
58.6092
 31
0.0
  0
LINE
  5
149
330
1E
100
AcDbEntity
  8
0
100
AcDbLine
 10
56.1667
 20
66.8422
 30
0.0
 11
56.1667
 21
68.7492
 31
0.0
  0
LINE
  5
14A
330
1E
100
AcDbEntity
  8
0
100
AcDbLine
 10
56.1667
 20
66.8422
 30
0.0
 11
56.1667
 21
64.4162
 31
0.0
  0
LINE
  5
14B
330
1E
100
AcDbEntity
  8
0
100
AcDbLine
 10
56.1667
 20
68.7492
 30
0.0
 11
56.1667
 21
69.87619999999999
 31
0.0
  0
LINE
  5
14C
330
1E
100
AcDbEntity
  8
0
100
AcDbLine
 10
56.1667
 20
68.7492
 30
0.0
 11
56.1667
 21
66.8422
 31
0.0
  0
LINE
  5
14D
330
1E
100
AcDbEntity
  8
0
100
AcDbLine
 10
56.1667
 20
69.87619999999999
 30
0.0
 11
56.1667
 21
70.3092
 31
0.0
  0
LINE
  5
14E
330
1E
100
AcDbEntity
  8
0
100
AcDbLine
 10
56.1667
 20
69.87619999999999
 30
0.0
 11
56.1667
 21
68.7492
 31
0.0
  0
LINE
  5
14F
330
1E
100
AcDbEntity
  8
0
100
AcDbLine
 10
56.1667
 20
70.3092
 30
0.0
 11
57.0
 21
69.87619999999999
 31
0.0
  0
LINE
  5
150
330
1E
100
AcDbEntity
  8
0
100
AcDbLine
 10
56.1667
 20
70.3092
 30
0.0
 11
56.1667
 21
69.87619999999999
 31
0.0
  0
LINE
  5
151
330
1E
100
AcDbEntity
  8
0
100
AcDbLine
 10
57.0
 20
69.87619999999999
 30
0.0
 11
62.0
 21
69.87619999999999
 31
0.0
  0
LINE
  5
152
330
1E
100
AcDbEntity
  8
0
100
AcDbLine
 10
56.1667
 20
58.6092
 30
0.0
 11
56.1667
 21
55.5762
 31
0.0
  0
LINE
  5
153
330
1E
100
AcDbEntity
  8
0
100
AcDbLine
 10
56.1667
 20
58.6092
 30
0.0
 11
56.1667
 21
61.6422
 31
0.0
  0
LINE
  5
154
330
1E
100
AcDbEntity
  8
0
100
AcDbLine
 10
56.1667
 20
55.5762
 30
0.0
 11
56.1667
 21
58.6092
 31
0.0
  0
LINE
  5
155
330
1E
100
AcDbEntity
  8
0
100
AcDbLine
 10
56.1667
 20
55.5762
 30
0.0
 11
56.1667
 21
52.80219999999999
 31
0.0
  0
LINE
  5
156
330
1E
100
AcDbEntity
  8
0
100
AcDbLine
 10
55.75
 20
55.4022
 30
0.0
 11
55.75
 21
58.6092
 31
0.0
  0
LINE
  5
157
330
1E
100
AcDbEntity
  8
0
100
AcDbLine
 10
55.75
 20
55.4022
 30
0.0
 11
55.75
 21
52.3692
 31
0.0
  0
LINE
  5
158
330
1E
100
AcDbEntity
  8
0
100
AcDbLine
 10
55.7
 20
76.6092
 30
0.0
 11
57.0
 21
76.6092
 31
0.0
  0
LINE
  5
159
330
1E
100
AcDbEntity
  8
0
100
AcDbLine
 10
54.5
 20
76.6092
 30
0.0
 11
55.7
 21
76.6092
 31
0.0
  0
LINE
  5
15A
330
1E
100
AcDbEntity
  8
0
100
AcDbLine
 10
54.4
 20
77.16719999999999
 30
0.0
 11
56.79999999999999
 21
77.16719999999999
 31
0.0
  0
LINE
  5
15B
330
1E
100
AcDbEntity
  8
0
100
AcDbLine
 10
53.0
 20
77.16719999999999
 30
0.0
 11
54.4
 21
77.16719999999999
 31
0.0
  0
LINE
  5
15C
330
1E
100
AcDbEntity
  8
0
100
AcDbLine
 10
56.79999999999999
 20
77.16719999999999
 30
0.0
 11
59.8
 21
77.16719999999999
 31
0.0
  0
LINE
  5
15D
330
1E
100
AcDbEntity
  8
0
100
AcDbLine
 10
54.0
 20
76.6092
 30
0.0
 11
54.5
 21
76.6092
 31
0.0
  0
LINE
  5
15E
330
1E
100
AcDbEntity
  8
0
100
AcDbLine
 10
52.5
 20
77.16719999999999
 30
0.0
 11
54.0
 21
76.6092
 31
0.0
  0
LINE
  5
15F
330
1E
100
AcDbEntity
  8
0
100
AcDbLine
 10
52.5
 20
77.16719999999999
 30
0.0
 11
53.0
 21
77.16719999999999
 31
0.0
  0
LINE
  5
160
330
1E
100
AcDbEntity
  8
0
100
AcDbLine
 10
54.0
 20
87.7632
 30
0.0
 11
56.4
 21
87.7632
 31
0.0
  0
LINE
  5
161
330
1E
100
AcDbEntity
  8
0
100
AcDbLine
 10
52.5
 20
87.7632
 30
0.0
 11
54.0
 21
87.7632
 31
0.0
  0
LINE
  5
162
330
1E
100
AcDbEntity
  8
0
100
AcDbLine
 10
52.0
 20
87.7632
 30
0.0
 11
52.5
 21
87.7632
 31
0.0
  0
LINE
  5
163
330
1E
100
AcDbEntity
  8
0
100
AcDbLine
 10
52.0
 20
87.7632
 30
0.0
 11
52.0
 21
78.84019999999999
 31
0.0
  0
LINE
  5
164
330
1E
100
AcDbEntity
  8
0
100
AcDbLine
 10
51.79999999999999
 20
89.43620000000001
 30
0.0
 11
54.6
 21
89.43620000000001
 31
0.0
  0
LINE
  5
165
330
1E
100
AcDbEntity
  8
0
100
AcDbLine
 10
56.4
 20
87.7632
 30
0.0
 11
59.5
 21
87.7632
 31
0.0
  0
LINE
  5
166
330
1E
100
AcDbEntity
  8
0
100
AcDbLine
 10
54.6
 20
89.43620000000001
 30
0.0
 11
58.3
 21
89.43620000000001
 31
0.0
  0
LINE
  5
167
330
1E
100
AcDbEntity
  8
0
100
AcDbLine
 10
52.0
 20
78.84019999999999
 30
0.0
 11
52.0
 21
87.7632
 31
0.0
  0
LINE
  5
168
330
1E
100
AcDbEntity
  8
0
100
AcDbLine
 10
52.0
 20
78.84019999999999
 30
0.0
 11
52.5
 21
77.16719999999999
 31
0.0
  0
LINE
  5
169
330
1E
100
AcDbEntity
  8
0
100
AcDbLine
 10
51.0
 20
88.87820000000001
 30
0.0
 11
52.0
 21
87.7632
 31
0.0
  0
LINE
  5
16A
330
1E
100
AcDbEntity
  8
0
100
AcDbLine
 10
49.5
 20
89.43620000000001
 30
0.0
 11
51.0
 21
88.87820000000001
 31
0.0
  0
LINE
  5
16B
330
1E
100
AcDbEntity
  8
0
100
AcDbLine
 10
49.5
 20
89.43620000000001
 30
0.0
 11
50.1
 21
89.43620000000001
 31
0.0
  0
LINE
  5
16C
330
1E
100
AcDbEntity
  8
0
100
AcDbLine
 10
49.0
 20
91.1092
 30
0.0
 11
49.0
 21
92.22419999999999
 31
0.0
  0
LINE
  5
16D
330
1E
100
AcDbEntity
  8
0
100
AcDbLine
 10
49.0
 20
91.1092
 30
0.0
 11
49.5
 21
89.43620000000001
 31
0.0
  0
LINE
  5
16E
330
1E
100
AcDbEntity
  8
0
100
AcDbLine
 10
47.5
 20
96.6862
 30
0.0
 11
49.0
 21
92.22419999999999
 31
0.0
  0
LINE
  5
16F
330
1E
100
AcDbEntity
  8
0
100
AcDbLine
 10
44.5
 20
100.5902
 30
0.0
 11
47.5
 21
96.6862
 31
0.0
  0
LINE
  5
170
330
1E
100
AcDbEntity
  8
0
100
AcDbLine
 10
44.0
 20
102.8212
 30
0.0
 11
48.3
 21
102.8212
 31
0.0
  0
LINE
  5
171
330
1E
100
AcDbEntity
  8
0
100
AcDbLine
 10
41.5
 20
102.8212
 30
0.0
 11
44.0
 21
102.8212
 31
0.0
  0
LINE
  5
172
330
1E
100
AcDbEntity
  8
0
100
AcDbLine
 10
48.3
 20
102.8212
 30
0.0
 11
53.79999999999999
 21
102.8212
 31
0.0
  0
LINE
  5
173
330
1E
100
AcDbEntity
  8
0
100
AcDbLine
 10
53.79999999999999
 20
102.8212
 30
0.0
 11
60.2
 21
102.8212
 31
0.0
  0
LINE
  5
174
330
1E
100
AcDbEntity
  8
0
100
AcDbLine
 10
42.0
 20
102.2631999999999
 30
0.0
 11
44.5
 21
100.5902
 31
0.0
  0
LINE
  5
175
330
1E
100
AcDbEntity
  8
0
100
AcDbLine
 10
40.49999999999999
 20
102.8212
 30
0.0
 11
42.0
 21
102.2631999999999
 31
0.0
  0
LINE
  5
176
330
1E
100
AcDbEntity
  8
0
100
AcDbLine
 10
40.49999999999999
 20
102.8212
 30
0.0
 11
41.5
 21
102.8212
 31
0.0
  0
LINE
  5
177
330
1E
100
AcDbEntity
  8
0
100
AcDbLine
 10
17.0
 20
104.5341999999999
 30
0.0
 11
17.0
 21
106.1091999999999
 31
0.0
  0
LINE
  5
178
330
1E
100
AcDbEntity
  8
0
100
AcDbLine
 10
17.0
 20
104.5341999999999
 30
0.0
 11
17.0
 21
99.84520000000001
 31
0.0
  0
LINE
  5
179
330
1E
100
AcDbEntity
  8
0
100
AcDbLine
 10
43.6
 20
105.6092
 30
0.0
 11
47.9
 21
105.6092
 31
0.0
  0
LINE
  5
17A
330
1E
100
AcDbEntity
  8
0
100
AcDbLine
 10
41.0
 20
105.6092
 30
0.0
 11
43.6
 21
105.6092
 31
0.0
  0
LINE
  5
17B
330
1E
100
AcDbEntity
  8
0
100
AcDbLine
 10
40.0
 20
105.6092
 30
0.0
 11
41.0
 21
105.6092
 31
0.0
  0
LINE
  5
17C
330
1E
100
AcDbEntity
  8
0
100
AcDbLine
 10
40.0
 20
105.6092
 30
0.0
 11
40.0
 21
104.4942
 31
0.0
  0
LINE
  5
17D
330
1E
100
AcDbEntity
  8
0
100
AcDbLine
 10
17.0
 20
106.1091999999999
 30
0.0
 11
17.0
 21
104.0842
 31
0.0
  0
LINE
  5
17E
330
1E
100
AcDbEntity
  8
0
100
AcDbLine
 10
17.0
 20
106.1091999999999
 30
0.0
 11
117.0
 21
106.1091999999999
 31
0.0
  0
LINE
  5
17F
330
1E
100
AcDbEntity
  8
0
100
AcDbLine
 10
17.0
 20
106.1091999999999
 30
0.0
 11
17.0
 21
104.5341999999999
 31
0.0
  0
LINE
  5
180
330
1E
100
AcDbEntity
  8
0
100
AcDbLine
 10
47.9
 20
105.6092
 30
0.0
 11
53.6
 21
105.6092
 31
0.0
  0
LINE
  5
181
330
1E
100
AcDbEntity
  8
0
100
AcDbLine
 10
53.6
 20
105.6092
 30
0.0
 11
60.1
 21
105.6092
 31
0.0
  0
LINE
  5
182
330
1E
100
AcDbEntity
  8
0
100
AcDbLine
 10
40.0
 20
104.4942
 30
0.0
 11
40.0
 21
105.6092
 31
0.0
  0
LINE
  5
183
330
1E
100
AcDbEntity
  8
0
100
AcDbLine
 10
40.0
 20
104.4942
 30
0.0
 11
40.49999999999999
 21
102.8212
 31
0.0
  0
LINE
  5
184
330
1E
100
AcDbEntity
  8
0
100
AcDbLine
 10
58.5
 20
74.1092
 30
0.0
 11
60.0
 21
73.6092
 31
0.0
  0
LINE
  5
187
330
1E
100
AcDbEntity
  8
0
100
AcDbLine
 10
67.0
 20
45.36389999999999
 30
0.0
 11
78.0
 21
45.36389999999999
 31
0.0
  0
LINE
  5
188
330
1E
100
AcDbEntity
  8
0
100
AcDbLine
 10
67.0
 20
46.8802
 30
0.0
 11
77.8472380622837
 21
46.8802
 31
0.0
  0
LINE
  5
189
330
1E
100
AcDbEntity
  8
0
100
AcDbLine
 10
67.0
 20
-0.109199999999995
 30
0.0
 11
130.0
 21
-0.109199999999995
 31
0.0
  0
LINE
  5
18A
330
1E
100
AcDbEntity
  8
0
100
AcDbLine
 10
72.0
 20
69.87619999999999
 30
0.0
 11
77.0
 21
69.87619999999999
 31
0.0
  0
LINE
  5
18B
330
1E
100
AcDbEntity
  8
0
100
AcDbLine
 10
72.0
 20
69.87619999999999
 30
0.0
 11
72.0
 21
73.6092
 31
0.0
  0
LINE
  5
18C
330
1E
100
AcDbEntity
  8
0
100
AcDbLine
 10
65.7
 20
73.6092
 30
0.0
 11
67.0
 21
73.6092
 31
0.0
  0
LINE
  5
18D
330
1E
100
AcDbEntity
  8
0
100
AcDbLine
 10
64.5
 20
73.6092
 30
0.0
 11
65.7
 21
73.6092
 31
0.0
  0
LINE
  5
18E
330
1E
100
AcDbEntity
  8
0
100
AcDbLine
 10
63.5
 20
73.6092
 30
0.0
 11
64.5
 21
73.6092
 31
0.0
  0
LINE
  5
18F
330
1E
100
AcDbEntity
  8
0
100
AcDbLine
 10
62.7
 20
73.6092
 30
0.0
 11
63.5
 21
73.6092
 31
0.0
  0
LINE
  5
190
330
1E
100
AcDbEntity
  8
0
100
AcDbLine
 10
62.2
 20
73.6092
 30
0.0
 11
62.7
 21
73.6092
 31
0.0
  0
LINE
  5
191
330
1E
100
AcDbEntity
  8
0
100
AcDbLine
 10
62.0
 20
73.6092
 30
0.0
 11
62.0
 21
69.87619999999999
 31
0.0
  0
LINE
  5
192
330
1E
100
AcDbEntity
  8
0
100
AcDbLine
 10
62.0
 20
73.6092
 30
0.0
 11
62.2
 21
73.6092
 31
0.0
  0
LINE
  5
193
330
1E
100
AcDbEntity
  8
0
100
AcDbLine
 10
67.0
 20
73.6092
 30
0.0
 11
68.3
 21
73.6092
 31
0.0
  0
LINE
  5
194
330
1E
100
AcDbEntity
  8
0
100
AcDbLine
 10
68.3
 20
73.6092
 30
0.0
 11
69.5
 21
73.6092
 31
0.0
  0
LINE
  5
195
330
1E
100
AcDbEntity
  8
0
100
AcDbLine
 10
69.5
 20
73.6092
 30
0.0
 11
70.5
 21
73.6092
 31
0.0
  0
LINE
  5
196
330
1E
100
AcDbEntity
  8
0
100
AcDbLine
 10
70.5
 20
73.6092
 30
0.0
 11
71.29999999999999
 21
73.6092
 31
0.0
  0
LINE
  5
197
330
1E
100
AcDbEntity
  8
0
100
AcDbLine
 10
71.29999999999999
 20
73.6092
 30
0.0
 11
71.79999999999999
 21
73.6092
 31
0.0
  0
LINE
  5
198
330
1E
100
AcDbEntity
  8
0
100
AcDbLine
 10
71.79999999999999
 20
73.6092
 30
0.0
 11
72.0
 21
73.6092
 31
0.0
  0
LINE
  5
199
330
1E
100
AcDbEntity
  8
0
100
AcDbLine
 10
62.0
 20
69.87619999999999
 30
0.0
 11
62.0
 21
73.6092
 31
0.0
  0
LINE
  5
19A
330
1E
100
AcDbEntity
  8
0
100
AcDbLine
 10
72.0
 20
73.6092
 30
0.0
 11
73.09999999999999
 21
73.6092
 31
0.0
  0
LINE
  5
19B
330
1E
100
AcDbEntity
  8
0
100
AcDbLine
 10
72.0
 20
73.6092
 30
0.0
 11
72.0
 21
69.87619999999999
 31
0.0
  0
LINE
  5
19C
330
1E
100
AcDbEntity
  8
0
100
AcDbLine
 10
73.09999999999999
 20
73.6092
 30
0.0
 11
73.7
 21
73.6092
 31
0.0
  0
LINE
  5
19D
330
1E
100
AcDbEntity
  8
0
100
AcDbLine
 10
78.0
 20
45.36389999999999
 30
0.0
 11
80.0
 21
45.6902
 31
0.0
  0
LINE
  5
19E
330
1E
100
AcDbEntity
  8
0
100
AcDbLine
 10
78.25
 20
46.0422
 30
0.0
 11
79.08329999999999
 21
45.6092
 31
0.0
  0
LINE
  5
19F
330
1E
100
AcDbEntity
  8
0
100
AcDbLine
 10
78.25
 20
46.0422
 30
0.0
 11
78.25
 21
46.47619999999999
 31
0.0
  0
LINE
  5
1A0
330
1E
100
AcDbEntity
  8
0
100
AcDbLine
 10
79.08329999999999
 20
45.6092
 30
0.0
 11
79.5
 21
45.6092
 31
0.0
  0
LINE
  5
1A1
330
1E
100
AcDbEntity
  8
0
100
AcDbLine
 10
80.0
 20
45.6902
 30
0.0
 11
81.5
 21
46.6682
 31
0.0
  0
LINE
  5
1A2
330
1E
100
AcDbEntity
  8
0
100
AcDbLine
 10
79.5
 20
45.6092
 30
0.0
 11
80.33329999999999
 21
46.0422
 31
0.0
  0
LINE
  5
1A3
330
1E
100
AcDbEntity
  8
0
100
AcDbLine
 10
77.83329999999999
 20
47.34219999999999
 30
0.0
 11
77.83329999999999
 21
46.9092
 31
0.0
  0
LINE
  5
1A4
330
1E
100
AcDbEntity
  8
0
100
AcDbLine
 10
77.83329999999999
 20
47.34219999999999
 30
0.0
 11
77.83329999999999
 21
48.4692
 31
0.0
  0
LINE
  5
1A5
330
1E
100
AcDbEntity
  8
0
100
AcDbLine
 10
77.0
 20
47.34219999999999
 30
0.0
 11
77.83329999999999
 21
46.9092
 31
0.0
  0
LINE
  5
1A6
330
1E
100
AcDbEntity
  8
0
100
AcDbLine
 10
78.25
 20
46.47619999999999
 30
0.0
 11
78.25
 21
46.0422
 31
0.0
  0
LINE
  5
1A7
330
1E
100
AcDbEntity
  8
0
100
AcDbLine
 10
78.25
 20
46.47619999999999
 30
0.0
 11
78.25
 21
47.6892
 31
0.0
  0
LINE
  5
1A8
330
1E
100
AcDbEntity
  8
0
100
AcDbLine
 10
80.75000000000001
 20
46.9092
 30
0.0
 11
80.75000000000001
 21
55.5762
 31
0.0
  0
LINE
  5
1A9
330
1E
100
AcDbEntity
  8
0
100
AcDbLine
 10
80.33329999999999
 20
46.47619999999999
 30
0.0
 11
80.33329999999999
 21
46.0422
 31
0.0
  0
LINE
  5
1AA
330
1E
100
AcDbEntity
  8
0
100
AcDbLine
 10
80.33329999999999
 20
46.47619999999999
 30
0.0
 11
80.33329999999999
 21
47.6892
 31
0.0
  0
LINE
  5
1AB
330
1E
100
AcDbEntity
  8
0
100
AcDbLine
 10
78.25
 20
47.6892
 30
0.0
 11
78.25
 21
46.47619999999999
 31
0.0
  0
LINE
  5
1AC
330
1E
100
AcDbEntity
  8
0
100
AcDbLine
 10
78.25
 20
47.6892
 30
0.0
 11
78.25
 21
49.76919999999999
 31
0.0
  0
LINE
  5
1AE
330
1E
100
AcDbEntity
  8
0
100
AcDbLine
 10
80.33329999999999
 20
47.6892
 30
0.0
 11
80.33329999999999
 21
46.47619999999999
 31
0.0
  0
LINE
  5
1AF
330
1E
100
AcDbEntity
  8
0
100
AcDbLine
 10
80.33329999999999
 20
47.6892
 30
0.0
 11
80.33329999999999
 21
49.76919999999999
 31
0.0
  0
LINE
  5
1B0
330
1E
100
AcDbEntity
  8
0
100
AcDbLine
 10
80.75000000000001
 20
55.5762
 30
0.0
 11
80.75000000000001
 21
46.9092
 31
0.0
  0
LINE
  5
1B1
330
1E
100
AcDbEntity
  8
0
100
AcDbLine
 10
77.83329999999999
 20
46.9092
 30
0.0
 11
78.25
 21
46.0422
 31
0.0
  0
LINE
  5
1B2
330
1E
100
AcDbEntity
  8
0
100
AcDbLine
 10
77.83329999999999
 20
46.9092
 30
0.0
 11
77.83329999999999
 21
47.34219999999999
 31
0.0
  0
LINE
  5
1B3
330
1E
100
AcDbEntity
  8
0
100
AcDbLine
 10
80.33329999999999
 20
46.0422
 30
0.0
 11
80.75000000000001
 21
46.9092
 31
0.0
  0
LINE
  5
1B4
330
1E
100
AcDbEntity
  8
0
100
AcDbLine
 10
80.33329999999999
 20
46.0422
 30
0.0
 11
80.33329999999999
 21
46.47619999999999
 31
0.0
  0
LINE
  5
1B5
330
1E
100
AcDbEntity
  8
0
100
AcDbLine
 10
130.0
 20
-0.109199999999995
 30
0.0
 11
132.0
 21
0.123200000000004
 31
0.0
  0
LINE
  5
1C2
330
1E
100
AcDbEntity
  8
0
100
AcDbLine
 10
82.0
 20
47.9712
 30
0.0
 11
82.0
 21
49.0762
 31
0.0
  0
LINE
  5
1C3
330
1E
100
AcDbEntity
  8
0
100
AcDbLine
 10
81.5
 20
46.6682
 30
0.0
 11
82.0
 21
47.9712
 31
0.0
  0
LINE
  5
1C4
330
1E
100
AcDbEntity
  8
0
100
AcDbLine
 10
132.0
 20
0.123200000000004
 30
0.0
 11
133.4999999999999
 21
0.82030000000001
 31
0.0
  0
LINE
  5
1C5
330
1E
100
AcDbEntity
  8
0
100
AcDbLine
 10
134.0
 20
43.3089
 30
0.0
 11
134.0
 21
32.9395
 31
0.0
  0
LINE
  5
1C6
330
1E
100
AcDbEntity
  8
0
100
AcDbLine
 10
134.0
 20
43.3089
 30
0.0
 11
134.0
 21
53.56819999999999
 31
0.0
  0
LINE
  5
1C7
330
1E
100
AcDbEntity
  8
0
100
AcDbLine
 10
134.0
 20
32.9395
 30
0.0
 11
134.0
 21
43.3089
 31
0.0
  0
LINE
  5
1C8
330
1E
100
AcDbEntity
  8
0
100
AcDbLine
 10
134.0
 20
32.9395
 30
0.0
 11
134.0
 21
21.7876
 31
0.0
  0
LINE
  5
1C9
330
1E
100
AcDbEntity
  8
0
100
AcDbLine
 10
134.0
 20
21.7876
 30
0.0
 11
134.0
 21
32.9395
 31
0.0
  0
LINE
  5
1CA
330
1E
100
AcDbEntity
  8
0
100
AcDbLine
 10
134.0
 20
21.7876
 30
0.0
 11
134.0
 21
10.32329999999999
 31
0.0
  0
LINE
  5
1CB
330
1E
100
AcDbEntity
  8
0
100
AcDbLine
 10
134.0
 20
10.32329999999999
 30
0.0
 11
134.0
 21
21.7876
 31
0.0
  0
LINE
  5
1CC
330
1E
100
AcDbEntity
  8
0
100
AcDbLine
 10
134.0
 20
10.32329999999999
 30
0.0
 11
134.0
 21
1.74980000000001
 31
0.0
  0
LINE
  5
1CD
330
1E
100
AcDbEntity
  8
0
100
AcDbLine
 10
134.0
 20
1.74980000000001
 30
0.0
 11
134.0
 21
10.32329999999999
 31
0.0
  0
LINE
  5
1CE
330
1E
100
AcDbEntity
  8
0
100
AcDbLine
 10
133.4999999999999
 20
0.82030000000001
 30
0.0
 11
134.0
 21
1.74980000000001
 31
0.0
  0
LINE
  5
1CF
330
1E
100
AcDbEntity
  8
0
100
AcDbLine
 10
132.0
 20
0.123200000000004
 30
0.0
 11
133.4999999999999
 21
0.82030000000001
 31
0.0
  0
LINE
  5
1D0
330
1E
100
AcDbEntity
  8
0
100
AcDbLine
 10
130.0
 20
-0.109199999999995
 30
0.0
 11
132.0
 21
0.123200000000004
 31
0.0
  0
LINE
  5
1D2
330
1E
100
AcDbEntity
  8
0
100
AcDbLine
 10
77.83329999999999
 20
48.4692
 30
0.0
 11
77.83329999999999
 21
47.34219999999999
 31
0.0
  0
LINE
  5
1D3
330
1E
100
AcDbEntity
  8
0
100
AcDbLine
 10
77.83329999999999
 20
48.4692
 30
0.0
 11
77.83329999999999
 21
50.3762
 31
0.0
  0
LINE
  5
1D4
330
1E
100
AcDbEntity
  8
0
100
AcDbLine
 10
77.83329999999999
 20
50.3762
 30
0.0
 11
77.83329999999999
 21
48.4692
 31
0.0
  0
LINE
  5
1D5
330
1E
100
AcDbEntity
  8
0
100
AcDbLine
 10
77.83329999999999
 20
50.3762
 30
0.0
 11
77.83329999999999
 21
52.80219999999999
 31
0.0
  0
LINE
  5
1D6
330
1E
100
AcDbEntity
  8
0
100
AcDbLine
 10
78.25
 20
49.76919999999999
 30
0.0
 11
78.25
 21
47.6892
 31
0.0
  0
LINE
  5
1D7
330
1E
100
AcDbEntity
  8
0
100
AcDbLine
 10
78.25
 20
49.76919999999999
 30
0.0
 11
78.25
 21
52.3692
 31
0.0
  0
LINE
  5
1D8
330
1E
100
AcDbEntity
  8
0
100
AcDbLine
 10
80.33329999999999
 20
49.76919999999999
 30
0.0
 11
80.33329999999999
 21
47.6892
 31
0.0
  0
LINE
  5
1D9
330
1E
100
AcDbEntity
  8
0
100
AcDbLine
 10
80.33329999999999
 20
49.76919999999999
 30
0.0
 11
80.33329999999999
 21
52.3692
 31
0.0
  0
LINE
  5
1DA
330
1E
100
AcDbEntity
  8
0
100
AcDbLine
 10
78.25
 20
52.3692
 30
0.0
 11
78.25
 21
49.76919999999999
 31
0.0
  0
LINE
  5
1DB
330
1E
100
AcDbEntity
  8
0
100
AcDbLine
 10
78.25
 20
52.3692
 30
0.0
 11
78.25
 21
55.4022
 31
0.0
  0
LINE
  5
1DC
330
1E
100
AcDbEntity
  8
0
100
AcDbLine
 10
77.83329999999999
 20
52.80219999999999
 30
0.0
 11
77.83329999999999
 21
50.3762
 31
0.0
  0
LINE
  5
1DD
330
1E
100
AcDbEntity
  8
0
100
AcDbLine
 10
77.83329999999999
 20
52.80219999999999
 30
0.0
 11
77.83329999999999
 21
55.5762
 31
0.0
  0
LINE
  5
1DE
330
1E
100
AcDbEntity
  8
0
100
AcDbLine
 10
77.83329999999999
 20
55.5762
 30
0.0
 11
77.83329999999999
 21
52.80219999999999
 31
0.0
  0
LINE
  5
1DF
330
1E
100
AcDbEntity
  8
0
100
AcDbLine
 10
77.83329999999999
 20
55.5762
 30
0.0
 11
77.83329999999999
 21
58.6092
 31
0.0
  0
LINE
  5
1E0
330
1E
100
AcDbEntity
  8
0
100
AcDbLine
 10
78.25
 20
55.4022
 30
0.0
 11
78.25
 21
52.3692
 31
0.0
  0
LINE
  5
1E1
330
1E
100
AcDbEntity
  8
0
100
AcDbLine
 10
78.25
 20
55.4022
 30
0.0
 11
78.25
 21
58.6092
 31
0.0
  0
LINE
  5
1E2
330
1E
100
AcDbEntity
  8
0
100
AcDbLine
 10
80.33329999999999
 20
52.3692
 30
0.0
 11
80.33329999999999
 21
49.76919999999999
 31
0.0
  0
LINE
  5
1E3
330
1E
100
AcDbEntity
  8
0
100
AcDbLine
 10
80.33329999999999
 20
52.3692
 30
0.0
 11
80.33329999999999
 21
55.4022
 31
0.0
  0
LINE
  5
1E4
330
1E
100
AcDbEntity
  8
0
100
AcDbLine
 10
80.33329999999999
 20
55.4022
 30
0.0
 11
80.33329999999999
 21
52.3692
 31
0.0
  0
LINE
  5
1E5
330
1E
100
AcDbEntity
  8
0
100
AcDbLine
 10
80.33329999999999
 20
55.4022
 30
0.0
 11
80.33329999999999
 21
58.6092
 31
0.0
  0
LINE
  5
1E6
330
1E
100
AcDbEntity
  8
0
100
AcDbLine
 10
80.75000000000001
 20
55.5762
 30
0.0
 11
80.75000000000001
 21
58.6092
 31
0.0
  0
LINE
  5
1E7
330
1E
100
AcDbEntity
  8
0
100
AcDbLine
 10
81.58329999999999
 20
53.4092
 30
0.0
 11
81.58329999999999
 21
51.2422
 31
0.0
  0
LINE
  5
1E8
330
1E
100
AcDbEntity
  8
0
100
AcDbLine
 10
81.58329999999999
 20
53.4092
 30
0.0
 11
81.58329999999999
 21
55.9222
 31
0.0
  0
LINE
  5
1E9
330
1E
100
AcDbEntity
  8
0
100
AcDbLine
 10
77.83329999999999
 20
58.6092
 30
0.0
 11
77.83329999999999
 21
55.5762
 31
0.0
  0
LINE
  5
1EA
330
1E
100
AcDbEntity
  8
0
100
AcDbLine
 10
77.83329999999999
 20
58.6092
 30
0.0
 11
77.83329999999999
 21
61.6422
 31
0.0
  0
LINE
  5
1EB
330
1E
100
AcDbEntity
  8
0
100
AcDbLine
 10
78.25
 20
58.6092
 30
0.0
 11
78.25
 21
55.4022
 31
0.0
  0
LINE
  5
1EC
330
1E
100
AcDbEntity
  8
0
100
AcDbLine
 10
78.25
 20
58.6092
 30
0.0
 11
78.25
 21
61.8162
 31
0.0
  0
LINE
  5
1ED
330
1E
100
AcDbEntity
  8
0
100
AcDbLine
 10
77.83329999999999
 20
64.4162
 30
0.0
 11
77.83329999999999
 21
61.6422
 31
0.0
  0
LINE
  5
1EE
330
1E
100
AcDbEntity
  8
0
100
AcDbLine
 10
77.83329999999999
 20
64.4162
 30
0.0
 11
77.83329999999999
 21
66.8422
 31
0.0
  0
LINE
  5
1EF
330
1E
100
AcDbEntity
  8
0
100
AcDbLine
 10
77.83329999999999
 20
61.6422
 30
0.0
 11
77.83329999999999
 21
58.6092
 31
0.0
  0
LINE
  5
1F0
330
1E
100
AcDbEntity
  8
0
100
AcDbLine
 10
77.83329999999999
 20
61.6422
 30
0.0
 11
77.83329999999999
 21
64.4162
 31
0.0
  0
LINE
  5
1F1
330
1E
100
AcDbEntity
  8
0
100
AcDbLine
 10
78.25
 20
64.84919999999999
 30
0.0
 11
78.25
 21
61.8162
 31
0.0
  0
LINE
  5
1F2
330
1E
100
AcDbEntity
  8
0
100
AcDbLine
 10
78.25
 20
64.84919999999999
 30
0.0
 11
78.25
 21
67.4492
 31
0.0
  0
LINE
  5
1F3
330
1E
100
AcDbEntity
  8
0
100
AcDbLine
 10
78.25
 20
61.8162
 30
0.0
 11
78.25
 21
58.6092
 31
0.0
  0
LINE
  5
1F4
330
1E
100
AcDbEntity
  8
0
100
AcDbLine
 10
78.25
 20
61.8162
 30
0.0
 11
78.25
 21
64.84919999999999
 31
0.0
  0
LINE
  5
1F5
330
1E
100
AcDbEntity
  8
0
100
AcDbLine
 10
77.83329999999999
 20
66.8422
 30
0.0
 11
77.83329999999999
 21
64.4162
 31
0.0
  0
LINE
  5
1F6
330
1E
100
AcDbEntity
  8
0
100
AcDbLine
 10
77.83329999999999
 20
66.8422
 30
0.0
 11
77.83329999999999
 21
68.7492
 31
0.0
  0
LINE
  5
1F7
330
1E
100
AcDbEntity
  8
0
100
AcDbLine
 10
80.33329999999999
 20
64.84919999999999
 30
0.0
 11
80.33329999999999
 21
61.8162
 31
0.0
  0
LINE
  5
1F8
330
1E
100
AcDbEntity
  8
0
100
AcDbLine
 10
80.33329999999999
 20
64.84919999999999
 30
0.0
 11
80.33329999999999
 21
67.4492
 31
0.0
  0
LINE
  5
1F9
330
1E
100
AcDbEntity
  8
0
100
AcDbLine
 10
80.75000000000001
 20
61.6422
 30
0.0
 11
80.75000000000001
 21
68.7492
 31
0.0
  0
LINE
  5
1FA
330
1E
100
AcDbEntity
  8
0
100
AcDbLine
 10
80.33329999999999
 20
61.8162
 30
0.0
 11
80.33329999999999
 21
58.6092
 31
0.0
  0
LINE
  5
1FB
330
1E
100
AcDbEntity
  8
0
100
AcDbLine
 10
80.33329999999999
 20
61.8162
 30
0.0
 11
80.33329999999999
 21
64.84919999999999
 31
0.0
  0
LINE
  5
1FC
330
1E
100
AcDbEntity
  8
0
100
AcDbLine
 10
77.0
 20
69.87619999999999
 30
0.0
 11
77.83329999999999
 21
70.3092
 31
0.0
  0
LINE
  5
1FD
330
1E
100
AcDbEntity
  8
0
100
AcDbLine
 10
77.83329999999999
 20
68.7492
 30
0.0
 11
77.83329999999999
 21
66.8422
 31
0.0
  0
LINE
  5
1FE
330
1E
100
AcDbEntity
  8
0
100
AcDbLine
 10
77.83329999999999
 20
68.7492
 30
0.0
 11
77.83329999999999
 21
69.87619999999999
 31
0.0
  0
LINE
  5
1FF
330
1E
100
AcDbEntity
  8
0
100
AcDbLine
 10
77.83329999999999
 20
69.87619999999999
 30
0.0
 11
77.83329999999999
 21
68.7492
 31
0.0
  0
LINE
  5
200
330
1E
100
AcDbEntity
  8
0
100
AcDbLine
 10
77.83329999999999
 20
69.87619999999999
 30
0.0
 11
77.83329999999999
 21
70.3092
 31
0.0
  0
LINE
  5
201
330
1E
100
AcDbEntity
  8
0
100
AcDbLine
 10
77.83329999999999
 20
70.3092
 30
0.0
 11
77.83329999999999
 21
69.87619999999999
 31
0.0
  0
LINE
  5
202
330
1E
100
AcDbEntity
  8
0
100
AcDbLine
 10
77.83329999999999
 20
70.3092
 30
0.0
 11
78.25
 21
71.17619999999999
 31
0.0
  0
LINE
  5
203
330
1E
100
AcDbEntity
  8
0
100
AcDbLine
 10
78.25
 20
69.5292
 30
0.0
 11
78.25
 21
67.4492
 31
0.0
  0
LINE
  5
204
330
1E
100
AcDbEntity
  8
0
100
AcDbLine
 10
78.25
 20
69.5292
 30
0.0
 11
78.25
 21
70.7422
 31
0.0
  0
LINE
  5
205
330
1E
100
AcDbEntity
  8
0
100
AcDbLine
 10
78.25
 20
70.7422
 30
0.0
 11
78.25
 21
69.5292
 31
0.0
  0
LINE
  5
206
330
1E
100
AcDbEntity
  8
0
100
AcDbLine
 10
78.25
 20
70.7422
 30
0.0
 11
78.25
 21
71.17619999999999
 31
0.0
  0
LINE
  5
207
330
1E
100
AcDbEntity
  8
0
100
AcDbLine
 10
80.33329999999999
 20
69.5292
 30
0.0
 11
80.33329999999999
 21
67.4492
 31
0.0
  0
LINE
  5
208
330
1E
100
AcDbEntity
  8
0
100
AcDbLine
 10
80.33329999999999
 20
69.5292
 30
0.0
 11
80.33329999999999
 21
70.7422
 31
0.0
  0
LINE
  5
209
330
1E
100
AcDbEntity
  8
0
100
AcDbLine
 10
78.25
 20
71.17619999999999
 30
0.0
 11
78.25
 21
70.7422
 31
0.0
  0
LINE
  5
20A
330
1E
100
AcDbEntity
  8
0
100
AcDbLine
 10
78.25
 20
71.17619999999999
 30
0.0
 11
79.08329999999999
 21
71.6092
 31
0.0
  0
LINE
  5
20B
330
1E
100
AcDbEntity
  8
0
100
AcDbLine
 10
79.08329999999999
 20
71.6092
 30
0.0
 11
79.5
 21
71.6092
 31
0.0
  0
LINE
  5
20C
330
1E
100
AcDbEntity
  8
0
100
AcDbLine
 10
79.5
 20
71.6092
 30
0.0
 11
80.33329999999999
 21
71.17619999999999
 31
0.0
  0
LINE
  5
20D
330
1E
100
AcDbEntity
  8
0
100
AcDbLine
 10
80.33329999999999
 20
70.7422
 30
0.0
 11
80.33329999999999
 21
69.5292
 31
0.0
  0
LINE
  5
20E
330
1E
100
AcDbEntity
  8
0
100
AcDbLine
 10
80.33329999999999
 20
70.7422
 30
0.0
 11
80.33329999999999
 21
71.17619999999999
 31
0.0
  0
LINE
  5
20F
330
1E
100
AcDbEntity
  8
0
100
AcDbLine
 10
80.33329999999999
 20
71.17619999999999
 30
0.0
 11
80.33329999999999
 21
70.7422
 31
0.0
  0
LINE
  5
210
330
1E
100
AcDbEntity
  8
0
100
AcDbLine
 10
80.33329999999999
 20
71.17619999999999
 30
0.0
 11
80.75000000000001
 21
70.3092
 31
0.0
  0
LINE
  5
211
330
1E
100
AcDbEntity
  8
0
100
AcDbLine
 10
78.25
 20
67.4492
 30
0.0
 11
78.25
 21
64.84919999999999
 31
0.0
  0
LINE
  5
212
330
1E
100
AcDbEntity
  8
0
100
AcDbLine
 10
78.25
 20
67.4492
 30
0.0
 11
78.25
 21
69.5292
 31
0.0
  0
LINE
  5
213
330
1E
100
AcDbEntity
  8
0
100
AcDbLine
 10
80.75000000000001
 20
68.7492
 30
0.0
 11
80.75000000000001
 21
69.87619999999999
 31
0.0
  0
LINE
  5
214
330
1E
100
AcDbEntity
  8
0
100
AcDbLine
 10
80.75000000000001
 20
69.87619999999999
 30
0.0
 11
80.75000000000001
 21
68.7492
 31
0.0
  0
LINE
  5
215
330
1E
100
AcDbEntity
  8
0
100
AcDbLine
 10
80.75000000000001
 20
69.87619999999999
 30
0.0
 11
80.75000000000001
 21
70.3092
 31
0.0
  0
LINE
  5
216
330
1E
100
AcDbEntity
  8
0
100
AcDbLine
 10
80.75000000000001
 20
70.3092
 30
0.0
 11
80.75000000000001
 21
69.87619999999999
 31
0.0
  0
LINE
  5
217
330
1E
100
AcDbEntity
  8
0
100
AcDbLine
 10
80.75000000000001
 20
69.4422
 30
0.0
 11
81.58329999999999
 21
69.00920000000001
 31
0.0
  0
LINE
  5
218
330
1E
100
AcDbEntity
  8
0
100
AcDbLine
 10
80.33329999999999
 20
67.4492
 30
0.0
 11
80.33329999999999
 21
64.84919999999999
 31
0.0
  0
LINE
  5
219
330
1E
100
AcDbEntity
  8
0
100
AcDbLine
 10
80.33329999999999
 20
67.4492
 30
0.0
 11
80.33329999999999
 21
69.5292
 31
0.0
  0
LINE
  5
21A
330
1E
100
AcDbEntity
  8
0
100
AcDbLine
 10
80.75000000000001
 20
68.7492
 30
0.0
 11
80.75000000000001
 21
61.6422
 31
0.0
  0
LINE
  5
21B
330
1E
100
AcDbEntity
  8
0
100
AcDbLine
 10
80.75000000000001
 20
61.6422
 30
0.0
 11
80.75000000000001
 21
58.6092
 31
0.0
  0
LINE
  5
21C
330
1E
100
AcDbEntity
  8
0
100
AcDbLine
 10
80.33329999999999
 20
58.6092
 30
0.0
 11
80.33329999999999
 21
55.4022
 31
0.0
  0
LINE
  5
21D
330
1E
100
AcDbEntity
  8
0
100
AcDbLine
 10
80.33329999999999
 20
58.6092
 30
0.0
 11
80.33329999999999
 21
61.8162
 31
0.0
  0
LINE
  5
21E
330
1E
100
AcDbEntity
  8
0
100
AcDbLine
 10
81.58329999999999
 20
67.62220000000001
 30
0.0
 11
81.58329999999999
 21
65.9762
 31
0.0
  0
LINE
  5
21F
330
1E
100
AcDbEntity
  8
0
100
AcDbLine
 10
81.58329999999999
 20
67.62220000000001
 30
0.0
 11
81.58329999999999
 21
68.6622
 31
0.0
  0
LINE
  5
220
330
1E
100
AcDbEntity
  8
0
100
AcDbLine
 10
81.58329999999999
 20
68.6622
 30
0.0
 11
81.58329999999999
 21
67.62220000000001
 31
0.0
  0
LINE
  5
221
330
1E
100
AcDbEntity
  8
0
100
AcDbLine
 10
81.58329999999999
 20
68.6622
 30
0.0
 11
81.58329999999999
 21
69.00920000000001
 31
0.0
  0
LINE
  5
222
330
1E
100
AcDbEntity
  8
0
100
AcDbLine
 10
81.58329999999999
 20
69.00920000000001
 30
0.0
 11
81.58329999999999
 21
68.6622
 31
0.0
  0
LINE
  5
223
330
1E
100
AcDbEntity
  8
0
100
AcDbLine
 10
81.58329999999999
 20
69.00920000000001
 30
0.0
 11
82.0
 21
68.1422
 31
0.0
  0
LINE
  5
224
330
1E
100
AcDbEntity
  8
0
100
AcDbLine
 10
81.58329999999999
 20
65.9762
 30
0.0
 11
81.58329999999999
 21
63.80919999999999
 31
0.0
  0
LINE
  5
225
330
1E
100
AcDbEntity
  8
0
100
AcDbLine
 10
81.58329999999999
 20
65.9762
 30
0.0
 11
81.58329999999999
 21
67.62220000000001
 31
0.0
  0
LINE
  5
226
330
1E
100
AcDbEntity
  8
0
100
AcDbLine
 10
81.58329999999999
 20
63.80919999999999
 30
0.0
 11
81.58329999999999
 21
61.2962
 31
0.0
  0
LINE
  5
227
330
1E
100
AcDbEntity
  8
0
100
AcDbLine
 10
81.58329999999999
 20
63.80919999999999
 30
0.0
 11
81.58329999999999
 21
65.9762
 31
0.0
  0
LINE
  5
228
330
1E
100
AcDbEntity
  8
0
100
AcDbLine
 10
81.58329999999999
 20
61.2962
 30
0.0
 11
81.58329999999999
 21
58.6092
 31
0.0
  0
LINE
  5
229
330
1E
100
AcDbEntity
  8
0
100
AcDbLine
 10
81.58329999999999
 20
61.2962
 30
0.0
 11
81.58329999999999
 21
63.80919999999999
 31
0.0
  0
LINE
  5
22A
330
1E
100
AcDbEntity
  8
0
100
AcDbLine
 10
80.75000000000001
 20
58.6092
 30
0.0
 11
80.75000000000001
 21
55.5762
 31
0.0
  0
LINE
  5
22B
330
1E
100
AcDbEntity
  8
0
100
AcDbLine
 10
80.75000000000001
 20
58.6092
 30
0.0
 11
80.75000000000001
 21
61.6422
 31
0.0
  0
LINE
  5
22C
330
1E
100
AcDbEntity
  8
0
100
AcDbLine
 10
81.58329999999999
 20
55.9222
 30
0.0
 11
81.58329999999999
 21
53.4092
 31
0.0
  0
LINE
  5
22D
330
1E
100
AcDbEntity
  8
0
100
AcDbLine
 10
81.58329999999999
 20
55.9222
 30
0.0
 11
81.58329999999999
 21
58.6092
 31
0.0
  0
LINE
  5
22E
330
1E
100
AcDbEntity
  8
0
100
AcDbLine
 10
81.58329999999999
 20
58.6092
 30
0.0
 11
81.58329999999999
 21
55.9222
 31
0.0
  0
LINE
  5
22F
330
1E
100
AcDbEntity
  8
0
100
AcDbLine
 10
81.58329999999999
 20
58.6092
 30
0.0
 11
81.58329999999999
 21
61.2962
 31
0.0
  0
LINE
  5
230
330
1E
100
AcDbEntity
  8
0
100
AcDbLine
 10
81.58329999999999
 20
51.2422
 30
0.0
 11
81.58329999999999
 21
49.59620000000001
 31
0.0
  0
LINE
  5
231
330
1E
100
AcDbEntity
  8
0
100
AcDbLine
 10
81.58329999999999
 20
51.2422
 30
0.0
 11
81.58329999999999
 21
53.4092
 31
0.0
  0
LINE
  5
232
330
1E
100
AcDbEntity
  8
0
100
AcDbLine
 10
82.0
 20
49.0762
 30
0.0
 11
82.0
 21
47.9712
 31
0.0
  0
LINE
  5
233
330
1E
100
AcDbEntity
  8
0
100
AcDbLine
 10
82.0
 20
53.8422
 30
0.0
 11
82.0
 21
51.8492
 31
0.0
  0
LINE
  5
234
330
1E
100
AcDbEntity
  8
0
100
AcDbLine
 10
82.0
 20
53.8422
 30
0.0
 11
82.0
 21
56.1822
 31
0.0
  0
LINE
  5
235
330
1E
100
AcDbEntity
  8
0
100
AcDbLine
 10
82.0
 20
63.5762
 30
0.0
 11
134.0
 21
63.5762
 31
0.0
  0
LINE
  5
236
330
1E
100
AcDbEntity
  8
0
100
AcDbLine
 10
82.0
 20
63.6092
 30
0.0
 11
119.5
 21
63.6092
 31
0.0
  0
LINE
  5
237
330
1E
100
AcDbEntity
  8
0
100
AcDbLine
 10
82.0
 20
66.8422
 30
0.0
 11
82.0
 21
67.7962
 31
0.0
  0
LINE
  5
238
330
1E
100
AcDbEntity
  8
0
100
AcDbLine
 10
82.0
 20
67.7962
 30
0.0
 11
82.0
 21
66.8422
 31
0.0
  0
LINE
  5
239
330
1E
100
AcDbEntity
  8
0
100
AcDbLine
 10
82.0
 20
67.7962
 30
0.0
 11
82.0
 21
68.1422
 31
0.0
  0
LINE
  5
23A
330
1E
100
AcDbEntity
  8
0
100
AcDbLine
 10
82.0
 20
68.1422
 30
0.0
 11
82.0
 21
67.7962
 31
0.0
  0
LINE
  5
23B
330
1E
100
AcDbEntity
  8
0
100
AcDbLine
 10
82.0
 20
66.8422
 30
0.0
 11
82.0
 21
58.6092
 31
0.0
  0
LINE
  5
23C
330
1E
100
AcDbEntity
  8
0
100
AcDbLine
 10
82.0
 20
56.1822
 30
0.0
 11
82.0
 21
53.8422
 31
0.0
  0
LINE
  5
23D
330
1E
100
AcDbEntity
  8
0
100
AcDbLine
 10
82.0
 20
56.1822
 30
0.0
 11
82.0
 21
58.6092
 31
0.0
  0
LINE
  5
23E
330
1E
100
AcDbEntity
  8
0
100
AcDbLine
 10
82.0
 20
58.6092
 30
0.0
 11
82.0
 21
56.1822
 31
0.0
  0
LINE
  5
23F
330
1E
100
AcDbEntity
  8
0
100
AcDbLine
 10
82.0
 20
58.6092
 30
0.0
 11
82.0
 21
66.8422
 31
0.0
  0
LINE
  5
240
330
1E
100
AcDbEntity
  8
0
100
AcDbLine
 10
82.0
 20
49.0762
 30
0.0
 11
82.0
 21
51.8492
 31
0.0
  0
LINE
  5
241
330
1E
100
AcDbEntity
  8
0
100
AcDbLine
 10
81.58329999999999
 20
49.59620000000001
 30
0.0
 11
81.58329999999999
 21
48.5562
 31
0.0
  0
LINE
  5
242
330
1E
100
AcDbEntity
  8
0
100
AcDbLine
 10
81.58329999999999
 20
49.59620000000001
 30
0.0
 11
81.58329999999999
 21
51.2422
 31
0.0
  0
LINE
  5
243
330
1E
100
AcDbEntity
  8
0
100
AcDbLine
 10
81.58329999999999
 20
48.5562
 30
0.0
 11
81.58329999999999
 21
48.2092
 31
0.0
  0
LINE
  5
244
330
1E
100
AcDbEntity
  8
0
100
AcDbLine
 10
81.58329999999999
 20
48.5562
 30
0.0
 11
81.58329999999999
 21
49.59620000000001
 31
0.0
  0
LINE
  5
245
330
1E
100
AcDbEntity
  8
0
100
AcDbLine
 10
117.0
 20
63.6092
 30
0.0
 11
117.0
 21
69.8562
 31
0.0
  0
LINE
  5
246
330
1E
100
AcDbEntity
  8
0
100
AcDbLine
 10
120.0
 20
63.5762
 30
0.0
 11
120.0
 21
64.74219999999999
 31
0.0
  0
LINE
  5
247
330
1E
100
AcDbEntity
  8
0
100
AcDbLine
 10
120.667
 20
63.5762
 30
0.0
 11
120.667
 21
64.9422
 31
0.0
  0
LINE
  5
248
330
1E
100
AcDbEntity
  8
0
100
AcDbLine
 10
121.0
 20
63.5762
 30
0.0
 11
121.0
 21
65.40919999999999
 31
0.0
  0
LINE
  5
249
330
1E
100
AcDbEntity
  8
0
100
AcDbLine
 10
122.667
 20
63.5762
 30
0.0
 11
122.667
 21
65.40919999999999
 31
0.0
  0
LINE
  5
24A
330
1E
100
AcDbEntity
  8
0
100
AcDbLine
 10
134.0
 20
56.2182
 30
0.0
 11
134.0
 21
58.8912
 31
0.0
  0
LINE
  5
24B
330
1E
100
AcDbEntity
  8
0
100
AcDbLine
 10
134.0
 20
56.2182
 30
0.0
 11
134.0
 21
53.56819999999999
 31
0.0
  0
LINE
  5
24C
330
1E
100
AcDbEntity
  8
0
100
AcDbLine
 10
134.0
 20
63.5762
 30
0.0
 11
134.0
 21
61.3902
 31
0.0
  0
LINE
  5
24D
330
1E
100
AcDbEntity
  8
0
100
AcDbLine
 10
134.0
 20
58.8912
 30
0.0
 11
134.0
 21
61.3902
 31
0.0
  0
LINE
  5
24E
330
1E
100
AcDbEntity
  8
0
100
AcDbLine
 10
134.0
 20
58.8912
 30
0.0
 11
134.0
 21
56.2182
 31
0.0
  0
LINE
  5
24F
330
1E
100
AcDbEntity
  8
0
100
AcDbLine
 10
134.0
 20
61.3902
 30
0.0
 11
134.0
 21
63.5762
 31
0.0
  0
LINE
  5
250
330
1E
100
AcDbEntity
  8
0
100
AcDbLine
 10
134.0
 20
61.3902
 30
0.0
 11
134.0
 21
58.8912
 31
0.0
  0
LINE
  5
251
330
1E
100
AcDbEntity
  8
0
100
AcDbLine
 10
134.0
 20
53.56819999999999
 30
0.0
 11
134.0
 21
43.3089
 31
0.0
  0
LINE
  5
252
330
1E
100
AcDbEntity
  8
0
100
AcDbLine
 10
134.0
 20
53.56819999999999
 30
0.0
 11
134.0
 21
56.2182
 31
0.0
  0
LINE
  5
253
330
1E
100
AcDbEntity
  8
0
100
AcDbLine
 10
123.6669999999999
 20
63.5762
 30
0.0
 11
123.6669999999999
 21
64.2762
 31
0.0
  0
LINE
  5
254
330
1E
100
AcDbEntity
  8
0
100
AcDbLine
 10
120.0
 20
63.6092
 30
0.0
 11
120.0
 21
64.74219999999999
 31
0.0
  0
LINE
  5
255
330
1E
100
AcDbEntity
  8
0
100
AcDbLine
 10
120.0
 20
64.74219999999999
 30
0.0
 11
120.0
 21
66.1422
 31
0.0
  0
LINE
  5
256
330
1E
100
AcDbEntity
  8
0
100
AcDbLine
 10
120.0
 20
64.74219999999999
 30
0.0
 11
120.0
 21
63.5762
 31
0.0
  0
LINE
  5
257
330
1E
100
AcDbEntity
  8
0
100
AcDbLine
 10
120.0
 20
64.74219999999999
 30
0.0
 11
120.0
 21
63.6092
 31
0.0
  0
LINE
  5
258
330
1E
100
AcDbEntity
  8
0
100
AcDbLine
 10
120.667
 20
64.9422
 30
0.0
 11
120.667
 21
66.4092
 31
0.0
  0
LINE
  5
259
330
1E
100
AcDbEntity
  8
0
100
AcDbLine
 10
120.667
 20
64.9422
 30
0.0
 11
120.667
 21
63.5762
 31
0.0
  0
LINE
  5
25A
330
1E
100
AcDbEntity
  8
0
100
AcDbLine
 10
121.0
 20
65.40919999999999
 30
0.0
 11
121.0
 21
67.0092
 31
0.0
  0
LINE
  5
25B
330
1E
100
AcDbEntity
  8
0
100
AcDbLine
 10
121.0
 20
65.40919999999999
 30
0.0
 11
121.0
 21
63.5762
 31
0.0
  0
LINE
  5
25C
330
1E
100
AcDbEntity
  8
0
100
AcDbLine
 10
120.0
 20
66.1422
 30
0.0
 11
120.0
 21
66.9422
 31
0.0
  0
LINE
  5
25D
330
1E
100
AcDbEntity
  8
0
100
AcDbLine
 10
120.0
 20
66.1422
 30
0.0
 11
120.0
 21
64.74219999999999
 31
0.0
  0
LINE
  5
25E
330
1E
100
AcDbEntity
  8
0
100
AcDbLine
 10
122.667
 20
65.40919999999999
 30
0.0
 11
122.667
 21
67.0092
 31
0.0
  0
LINE
  5
25F
330
1E
100
AcDbEntity
  8
0
100
AcDbLine
 10
122.667
 20
65.40919999999999
 30
0.0
 11
122.667
 21
63.5762
 31
0.0
  0
LINE
  5
260
330
1E
100
AcDbEntity
  8
0
100
AcDbLine
 10
123.0
 20
63.5762
 30
0.0
 11
123.0
 21
67.6092
 31
0.0
  0
LINE
  5
261
330
1E
100
AcDbEntity
  8
0
100
AcDbLine
 10
123.6669999999999
 20
64.2762
 30
0.0
 11
123.6669999999999
 21
65.54219999999999
 31
0.0
  0
LINE
  5
262
330
1E
100
AcDbEntity
  8
0
100
AcDbLine
 10
123.6669999999999
 20
64.2762
 30
0.0
 11
123.6669999999999
 21
63.5762
 31
0.0
  0
LINE
  5
263
330
1E
100
AcDbEntity
  8
0
100
AcDbLine
 10
123.6669999999999
 20
65.54219999999999
 30
0.0
 11
123.6669999999999
 21
66.3422
 31
0.0
  0
LINE
  5
264
330
1E
100
AcDbEntity
  8
0
100
AcDbLine
 10
123.6669999999999
 20
65.54219999999999
 30
0.0
 11
123.6669999999999
 21
64.2762
 31
0.0
  0
LINE
  5
265
330
1E
100
AcDbEntity
  8
0
100
AcDbLine
 10
120.0
 20
66.9422
 30
0.0
 11
120.0
 21
67.2762
 31
0.0
  0
LINE
  5
266
330
1E
100
AcDbEntity
  8
0
100
AcDbLine
 10
120.0
 20
66.9422
 30
0.0
 11
120.0
 21
66.1422
 31
0.0
  0
LINE
  5
267
330
1E
100
AcDbEntity
  8
0
100
AcDbLine
 10
120.667
 20
66.4092
 30
0.0
 11
120.667
 21
67.2762
 31
0.0
  0
LINE
  5
268
330
1E
100
AcDbEntity
  8
0
100
AcDbLine
 10
120.667
 20
66.4092
 30
0.0
 11
120.667
 21
64.9422
 31
0.0
  0
LINE
  5
269
330
1E
100
AcDbEntity
  8
0
100
AcDbLine
 10
121.0
 20
67.0092
 30
0.0
 11
121.0
 21
67.9422
 31
0.0
  0
LINE
  5
26A
330
1E
100
AcDbEntity
  8
0
100
AcDbLine
 10
121.0
 20
67.0092
 30
0.0
 11
121.0
 21
65.40919999999999
 31
0.0
  0
LINE
  5
26B
330
1E
100
AcDbEntity
  8
0
100
AcDbLine
 10
120.0
 20
67.2762
 30
0.0
 11
120.667
 21
67.6092
 31
0.0
  0
LINE
  5
26C
330
1E
100
AcDbEntity
  8
0
100
AcDbLine
 10
120.0
 20
67.2762
 30
0.0
 11
120.0
 21
66.9422
 31
0.0
  0
LINE
  5
26D
330
1E
100
AcDbEntity
  8
0
100
AcDbLine
 10
120.667
 20
67.6092
 30
0.0
 11
121.0
 21
68.2762
 31
0.0
  0
LINE
  5
26E
330
1E
100
AcDbEntity
  8
0
100
AcDbLine
 10
120.667
 20
67.6092
 30
0.0
 11
120.667
 21
67.2762
 31
0.0
  0
LINE
  5
26F
330
1E
100
AcDbEntity
  8
0
100
AcDbLine
 10
120.667
 20
67.2762
 30
0.0
 11
120.667
 21
67.6092
 31
0.0
  0
LINE
  5
270
330
1E
100
AcDbEntity
  8
0
100
AcDbLine
 10
120.667
 20
67.2762
 30
0.0
 11
120.667
 21
66.4092
 31
0.0
  0
LINE
  5
271
330
1E
100
AcDbEntity
  8
0
100
AcDbLine
 10
121.0
 20
67.9422
 30
0.0
 11
121.0
 21
68.2762
 31
0.0
  0
LINE
  5
272
330
1E
100
AcDbEntity
  8
0
100
AcDbLine
 10
121.0
 20
67.9422
 30
0.0
 11
121.0
 21
67.0092
 31
0.0
  0
LINE
  5
273
330
1E
100
AcDbEntity
  8
0
100
AcDbLine
 10
121.0
 20
68.2762
 30
0.0
 11
121.667
 21
68.6092
 31
0.0
  0
LINE
  5
274
330
1E
100
AcDbEntity
  8
0
100
AcDbLine
 10
121.0
 20
68.2762
 30
0.0
 11
121.0
 21
67.9422
 31
0.0
  0
LINE
  5
275
330
1E
100
AcDbEntity
  8
0
100
AcDbLine
 10
122.667
 20
67.0092
 30
0.0
 11
122.667
 21
67.9422
 31
0.0
  0
LINE
  5
276
330
1E
100
AcDbEntity
  8
0
100
AcDbLine
 10
122.667
 20
67.0092
 30
0.0
 11
122.667
 21
65.40919999999999
 31
0.0
  0
LINE
  5
277
330
1E
100
AcDbEntity
  8
0
100
AcDbLine
 10
123.0
 20
67.6092
 30
0.0
 11
123.0
 21
63.5762
 31
0.0
  0
LINE
  5
278
330
1E
100
AcDbEntity
  8
0
100
AcDbLine
 10
122.667
 20
67.9422
 30
0.0
 11
122.667
 21
68.2762
 31
0.0
  0
LINE
  5
279
330
1E
100
AcDbEntity
  8
0
100
AcDbLine
 10
122.667
 20
67.9422
 30
0.0
 11
122.667
 21
67.0092
 31
0.0
  0
LINE
  5
27A
330
1E
100
AcDbEntity
  8
0
100
AcDbLine
 10
117.0
 20
69.8562
 30
0.0
 11
117.0
 21
81.7692
 31
0.0
  0
LINE
  5
27B
330
1E
100
AcDbEntity
  8
0
100
AcDbLine
 10
117.0
 20
69.8562
 30
0.0
 11
117.0
 21
63.6092
 31
0.0
  0
LINE
  5
27C
330
1E
100
AcDbEntity
  8
0
100
AcDbLine
 10
121.667
 20
68.6092
 30
0.0
 11
122.0
 21
68.6092
 31
0.0
  0
LINE
  5
27D
330
1E
100
AcDbEntity
  8
0
100
AcDbLine
 10
122.0
 20
68.6092
 30
0.0
 11
122.667
 21
68.2762
 31
0.0
  0
LINE
  5
27E
330
1E
100
AcDbEntity
  8
0
100
AcDbLine
 10
122.667
 20
68.2762
 30
0.0
 11
123.0
 21
67.6092
 31
0.0
  0
LINE
  5
27F
330
1E
100
AcDbEntity
  8
0
100
AcDbLine
 10
122.667
 20
68.2762
 30
0.0
 11
122.667
 21
67.9422
 31
0.0
  0
LINE
  5
280
330
1E
100
AcDbEntity
  8
0
100
AcDbLine
 10
123.0
 20
66.9422
 30
0.0
 11
123.6669999999999
 21
66.6092
 31
0.0
  0
LINE
  5
281
330
1E
100
AcDbEntity
  8
0
100
AcDbLine
 10
123.6669999999999
 20
66.3422
 30
0.0
 11
123.6669999999999
 21
66.6092
 31
0.0
  0
LINE
  5
282
330
1E
100
AcDbEntity
  8
0
100
AcDbLine
 10
123.6669999999999
 20
66.3422
 30
0.0
 11
123.6669999999999
 21
65.54219999999999
 31
0.0
  0
LINE
  5
283
330
1E
100
AcDbEntity
  8
0
100
AcDbLine
 10
123.6669999999999
 20
66.6092
 30
0.0
 11
124.0
 21
65.94219999999999
 31
0.0
  0
LINE
  5
284
330
1E
100
AcDbEntity
  8
0
100
AcDbLine
 10
123.6669999999999
 20
66.6092
 30
0.0
 11
123.6669999999999
 21
66.3422
 31
0.0
  0
LINE
  5
285
330
1E
100
AcDbEntity
  8
0
100
AcDbLine
 10
119.5
 20
63.6092
 30
0.0
 11
120.0
 21
63.6092
 31
0.0
  0
LINE
  5
286
330
1E
100
AcDbEntity
  8
0
100
AcDbLine
 10
82.0
 20
51.8492
 30
0.0
 11
82.0
 21
49.0762
 31
0.0
  0
LINE
  5
287
330
1E
100
AcDbEntity
  8
0
100
AcDbLine
 10
82.0
 20
51.8492
 30
0.0
 11
82.0
 21
53.8422
 31
0.0
  0
LINE
  5
289
330
1E
100
AcDbEntity
  8
0
100
AcDbLine
 10
81.58329999999999
 20
46.88527979999999
 30
0.0
 11
81.58329999999999
 21
48.5562
 31
0.0
  0
LINE
  5
28A
330
1E
100
AcDbEntity
  8
0
100
AcDbLine
 10
73.7
 20
73.6092
 30
0.0
 11
74.0
 21
73.6092
 31
0.0
  0
LINE
  5
28B
330
1E
100
AcDbEntity
  8
0
100
AcDbLine
 10
74.0
 20
73.6092
 30
0.0
 11
75.5
 21
74.1092
 31
0.0
  0
LINE
  5
28C
330
1E
100
AcDbEntity
  8
0
100
AcDbLine
 10
60.89999999999999
 20
73.6092
 30
0.0
 11
62.0
 21
73.6092
 31
0.0
  0
LINE
  5
28D
330
1E
100
AcDbEntity
  8
0
100
AcDbLine
 10
75.5
 20
74.1092
 30
0.0
 11
76.5
 21
75.1092
 31
0.0
  0
LINE
  5
28E
330
1E
100
AcDbEntity
  8
0
100
AcDbLine
 10
76.5
 20
75.1092
 30
0.0
 11
77.0
 21
76.6092
 31
0.0
  0
LINE
  5
28F
330
1E
100
AcDbEntity
  8
0
100
AcDbLine
 10
60.3
 20
73.6092
 30
0.0
 11
60.89999999999999
 21
73.6092
 31
0.0
  0
LINE
  5
290
330
1E
100
AcDbEntity
  8
0
100
AcDbLine
 10
60.0
 20
73.6092
 30
0.0
 11
60.3
 21
73.6092
 31
0.0
  0
LINE
  5
291
330
1E
100
AcDbEntity
  8
0
100
AcDbLine
 10
58.3
 20
76.6092
 30
0.0
 11
59.9
 21
76.6092
 31
0.0
  0
LINE
  5
292
330
1E
100
AcDbEntity
  8
0
100
AcDbLine
 10
57.4
 20
76.6092
 30
0.0
 11
58.3
 21
76.6092
 31
0.0
  0
LINE
  5
293
330
1E
100
AcDbEntity
  8
0
100
AcDbLine
 10
59.9
 20
76.6092
 30
0.0
 11
62.0
 21
76.6092
 31
0.0
  0
LINE
  5
294
330
1E
100
AcDbEntity
  8
0
100
AcDbLine
 10
59.8
 20
77.16719999999999
 30
0.0
 11
63.3
 21
77.16719999999999
 31
0.0
  0
LINE
  5
295
330
1E
100
AcDbEntity
  8
0
100
AcDbLine
 10
59.5
 20
87.7632
 30
0.0
 11
63.1
 21
87.7632
 31
0.0
  0
LINE
  5
296
330
1E
100
AcDbEntity
  8
0
100
AcDbLine
 10
58.3
 20
89.43620000000001
 30
0.0
 11
62.5
 21
89.43620000000001
 31
0.0
  0
LINE
  5
297
330
1E
100
AcDbEntity
  8
0
100
AcDbLine
 10
63.3
 20
77.16719999999999
 30
0.0
 11
67.0
 21
77.16719999999999
 31
0.0
  0
LINE
  5
298
330
1E
100
AcDbEntity
  8
0
100
AcDbLine
 10
63.1
 20
87.7632
 30
0.0
 11
67.0
 21
87.7632
 31
0.0
  0
LINE
  5
299
330
1E
100
AcDbEntity
  8
0
100
AcDbLine
 10
62.5
 20
89.43620000000001
 30
0.0
 11
67.0
 21
89.43620000000001
 31
0.0
  0
LINE
  5
29A
330
1E
100
AcDbEntity
  8
0
100
AcDbLine
 10
60.2
 20
102.8212
 30
0.0
 11
67.0
 21
102.8212
 31
0.0
  0
LINE
  5
29B
330
1E
100
AcDbEntity
  8
0
100
AcDbLine
 10
60.1
 20
105.6092
 30
0.0
 11
67.0
 21
105.6092
 31
0.0
  0
LINE
  5
29C
330
1E
100
AcDbEntity
  8
0
100
AcDbLine
 10
62.0
 20
76.6092
 30
0.0
 11
64.40000000000001
 21
76.6092
 31
0.0
  0
LINE
  5
29D
330
1E
100
AcDbEntity
  8
0
100
AcDbLine
 10
74.1
 20
76.6092
 30
0.0
 11
75.7
 21
76.6092
 31
0.0
  0
LINE
  5
29E
330
1E
100
AcDbEntity
  8
0
100
AcDbLine
 10
77.0
 20
76.6092
 30
0.0
 11
78.3
 21
76.6092
 31
0.0
  0
LINE
  5
29F
330
1E
100
AcDbEntity
  8
0
100
AcDbLine
 10
78.3
 20
76.6092
 30
0.0
 11
79.5
 21
76.6092
 31
0.0
  0
LINE
  5
2A0
330
1E
100
AcDbEntity
  8
0
100
AcDbLine
 10
80.0
 20
76.6092
 30
0.0
 11
81.5
 21
77.16719999999999
 31
0.0
  0
LINE
  5
2A1
330
1E
100
AcDbEntity
  8
0
100
AcDbLine
 10
79.5
 20
76.6092
 30
0.0
 11
80.0
 21
76.6092
 31
0.0
  0
LINE
  5
2A2
330
1E
100
AcDbEntity
  8
0
100
AcDbLine
 10
75.7
 20
76.6092
 30
0.0
 11
76.6
 21
76.6092
 31
0.0
  0
LINE
  5
2A3
330
1E
100
AcDbEntity
  8
0
100
AcDbLine
 10
67.0
 20
77.16719999999999
 30
0.0
 11
70.7
 21
77.16719999999999
 31
0.0
  0
LINE
  5
2A4
330
1E
100
AcDbEntity
  8
0
100
AcDbLine
 10
67.0
 20
87.7632
 30
0.0
 11
70.9
 21
87.7632
 31
0.0
  0
LINE
  5
2A5
330
1E
100
AcDbEntity
  8
0
100
AcDbLine
 10
67.0
 20
89.43620000000001
 30
0.0
 11
71.5
 21
89.43620000000001
 31
0.0
  0
LINE
  5
2A6
330
1E
100
AcDbEntity
  8
0
100
AcDbLine
 10
67.0
 20
102.8212
 30
0.0
 11
73.79999999999999
 21
102.8212
 31
0.0
  0
LINE
  5
2A7
330
1E
100
AcDbEntity
  8
0
100
AcDbLine
 10
67.0
 20
105.6092
 30
0.0
 11
73.9
 21
105.6092
 31
0.0
  0
LINE
  5
2A8
330
1E
100
AcDbEntity
  8
0
100
AcDbLine
 10
72.0
 20
76.6092
 30
0.0
 11
74.1
 21
76.6092
 31
0.0
  0
LINE
  5
2A9
330
1E
100
AcDbEntity
  8
0
100
AcDbLine
 10
77.2
 20
77.16719999999999
 30
0.0
 11
79.59999999999999
 21
77.16719999999999
 31
0.0
  0
LINE
  5
2AA
330
1E
100
AcDbEntity
  8
0
100
AcDbLine
 10
79.59999999999999
 20
77.16719999999999
 30
0.0
 11
81.0
 21
77.16719999999999
 31
0.0
  0
LINE
  5
2AB
330
1E
100
AcDbEntity
  8
0
100
AcDbLine
 10
81.0
 20
77.16719999999999
 30
0.0
 11
81.5
 21
77.16719999999999
 31
0.0
  0
LINE
  5
2AC
330
1E
100
AcDbEntity
  8
0
100
AcDbLine
 10
74.2
 20
77.16719999999999
 30
0.0
 11
77.2
 21
77.16719999999999
 31
0.0
  0
LINE
  5
2AD
330
1E
100
AcDbEntity
  8
0
100
AcDbLine
 10
70.7
 20
77.16719999999999
 30
0.0
 11
74.2
 21
77.16719999999999
 31
0.0
  0
LINE
  5
2AE
330
1E
100
AcDbEntity
  8
0
100
AcDbLine
 10
77.59999999999999
 20
87.7632
 30
0.0
 11
80.0
 21
87.7632
 31
0.0
  0
LINE
  5
2AF
330
1E
100
AcDbEntity
  8
0
100
AcDbLine
 10
80.0
 20
87.7632
 30
0.0
 11
81.5
 21
87.7632
 31
0.0
  0
LINE
  5
2B0
330
1E
100
AcDbEntity
  8
0
100
AcDbLine
 10
82.0
 20
78.84019999999999
 30
0.0
 11
82.0
 21
87.7632
 31
0.0
  0
LINE
  5
2B1
330
1E
100
AcDbEntity
  8
0
100
AcDbLine
 10
81.5
 20
87.7632
 30
0.0
 11
82.0
 21
87.7632
 31
0.0
  0
LINE
  5
2B2
330
1E
100
AcDbEntity
  8
0
100
AcDbLine
 10
74.5
 20
87.7632
 30
0.0
 11
77.59999999999999
 21
87.7632
 31
0.0
  0
LINE
  5
2B3
330
1E
100
AcDbEntity
  8
0
100
AcDbLine
 10
70.9
 20
87.7632
 30
0.0
 11
74.5
 21
87.7632
 31
0.0
  0
LINE
  5
2B4
330
1E
100
AcDbEntity
  8
0
100
AcDbLine
 10
81.5
 20
77.16719999999999
 30
0.0
 11
82.0
 21
78.84019999999999
 31
0.0
  0
LINE
  5
2B5
330
1E
100
AcDbEntity
  8
0
100
AcDbLine
 10
82.0
 20
87.7632
 30
0.0
 11
83.0
 21
88.87820000000001
 31
0.0
  0
LINE
  5
2B6
330
1E
100
AcDbEntity
  8
0
100
AcDbLine
 10
82.0
 20
87.7632
 30
0.0
 11
82.0
 21
78.84019999999999
 31
0.0
  0
LINE
  5
2B7
330
1E
100
AcDbEntity
  8
0
100
AcDbLine
 10
79.40000000000001
 20
89.43620000000001
 30
0.0
 11
82.2
 21
89.43620000000001
 31
0.0
  0
LINE
  5
2B8
330
1E
100
AcDbEntity
  8
0
100
AcDbLine
 10
82.2
 20
89.43620000000001
 30
0.0
 11
83.9
 21
89.43620000000001
 31
0.0
  0
LINE
  5
2B9
330
1E
100
AcDbEntity
  8
0
100
AcDbLine
 10
83.9
 20
89.43620000000001
 30
0.0
 11
84.50000000000001
 21
89.43620000000001
 31
0.0
  0
LINE
  5
2BA
330
1E
100
AcDbEntity
  8
0
100
AcDbLine
 10
75.7
 20
89.43620000000001
 30
0.0
 11
79.40000000000001
 21
89.43620000000001
 31
0.0
  0
LINE
  5
2BB
330
1E
100
AcDbEntity
  8
0
100
AcDbLine
 10
71.5
 20
89.43620000000001
 30
0.0
 11
75.7
 21
89.43620000000001
 31
0.0
  0
LINE
  5
2BC
330
1E
100
AcDbEntity
  8
0
100
AcDbLine
 10
83.0
 20
88.87820000000001
 30
0.0
 11
84.50000000000001
 21
89.43620000000001
 31
0.0
  0
LINE
  5
2BD
330
1E
100
AcDbEntity
  8
0
100
AcDbLine
 10
85.0
 20
91.1092
 30
0.0
 11
85.0
 21
92.22419999999999
 31
0.0
  0
LINE
  5
2BE
330
1E
100
AcDbEntity
  8
0
100
AcDbLine
 10
84.50000000000001
 20
89.43620000000001
 30
0.0
 11
85.0
 21
91.1092
 31
0.0
  0
LINE
  5
2BF
330
1E
100
AcDbEntity
  8
0
100
AcDbLine
 10
85.0
 20
92.22419999999999
 30
0.0
 11
86.5
 21
96.6862
 31
0.0
  0
LINE
  5
2C0
330
1E
100
AcDbEntity
  8
0
100
AcDbLine
 10
85.0
 20
92.22419999999999
 30
0.0
 11
85.0
 21
91.1092
 31
0.0
  0
LINE
  5
2C1
330
1E
100
AcDbEntity
  8
0
100
AcDbLine
 10
86.5
 20
96.6862
 30
0.0
 11
89.50000000000001
 21
100.5902
 31
0.0
  0
LINE
  5
2C2
330
1E
100
AcDbEntity
  8
0
100
AcDbLine
 10
85.7
 20
102.8212
 30
0.0
 11
90.0
 21
102.8212
 31
0.0
  0
LINE
  5
2C3
330
1E
100
AcDbEntity
  8
0
100
AcDbLine
 10
90.0
 20
102.8212
 30
0.0
 11
92.5
 21
102.8212
 31
0.0
  0
LINE
  5
2C4
330
1E
100
AcDbEntity
  8
0
100
AcDbLine
 10
80.20000000000001
 20
102.8212
 30
0.0
 11
85.7
 21
102.8212
 31
0.0
  0
LINE
  5
2C5
330
1E
100
AcDbEntity
  8
0
100
AcDbLine
 10
73.79999999999999
 20
102.8212
 30
0.0
 11
80.20000000000001
 21
102.8212
 31
0.0
  0
LINE
  5
2C6
330
1E
100
AcDbEntity
  8
0
100
AcDbLine
 10
89.50000000000001
 20
100.5902
 30
0.0
 11
92.0
 21
102.2631999999999
 31
0.0
  0
LINE
  5
2C7
330
1E
100
AcDbEntity
  8
0
100
AcDbLine
 10
92.5
 20
102.8212
 30
0.0
 11
93.49999999999999
 21
102.8212
 31
0.0
  0
LINE
  5
2C8
330
1E
100
AcDbEntity
  8
0
100
AcDbLine
 10
92.0
 20
102.2631999999999
 30
0.0
 11
93.49999999999999
 21
102.8212
 31
0.0
  0
LINE
  5
2C9
330
1E
100
AcDbEntity
  8
0
100
AcDbLine
 10
86.09999999999999
 20
105.6092
 30
0.0
 11
90.4
 21
105.6092
 31
0.0
  0
LINE
  5
2CA
330
1E
100
AcDbEntity
  8
0
100
AcDbLine
 10
90.4
 20
105.6092
 30
0.0
 11
93.0
 21
105.6092
 31
0.0
  0
LINE
  5
2CB
330
1E
100
AcDbEntity
  8
0
100
AcDbLine
 10
94.0
 20
104.4942
 30
0.0
 11
94.0
 21
105.6092
 31
0.0
  0
LINE
  5
2CC
330
1E
100
AcDbEntity
  8
0
100
AcDbLine
 10
93.0
 20
105.6092
 30
0.0
 11
94.0
 21
105.6092
 31
0.0
  0
LINE
  5
2CD
330
1E
100
AcDbEntity
  8
0
100
AcDbLine
 10
80.4
 20
105.6092
 30
0.0
 11
86.09999999999999
 21
105.6092
 31
0.0
  0
LINE
  5
2CE
330
1E
100
AcDbEntity
  8
0
100
AcDbLine
 10
73.9
 20
105.6092
 30
0.0
 11
80.4
 21
105.6092
 31
0.0
  0
LINE
  5
2CF
330
1E
100
AcDbEntity
  8
0
100
AcDbLine
 10
93.49999999999999
 20
102.8212
 30
0.0
 11
94.0
 21
104.4942
 31
0.0
  0
LINE
  5
2D0
330
1E
100
AcDbEntity
  8
0
100
AcDbLine
 10
117.0
 20
106.1091999999999
 30
0.0
 11
117.0
 21
104.5341999999999
 31
0.0
  0
LINE
  5
2D1
330
1E
100
AcDbEntity
  8
0
100
AcDbLine
 10
117.0
 20
104.5341999999999
 30
0.0
 11
117.0
 21
106.1091999999999
 31
0.0
  0
LINE
  5
2D2
330
1E
100
AcDbEntity
  8
0
100
AcDbLine
 10
117.0
 20
104.5341999999999
 30
0.0
 11
117.0
 21
99.84520000000001
 31
0.0
  0
LINE
  5
2D3
330
1E
100
AcDbEntity
  8
0
100
AcDbLine
 10
117.0
 20
99.84520000000001
 30
0.0
 11
117.0
 21
104.5341999999999
 31
0.0
  0
LINE
  5
2D4
330
1E
100
AcDbEntity
  8
0
100
AcDbLine
 10
117.0
 20
99.84520000000001
 30
0.0
 11
117.0
 21
92.02719999999999
 31
0.0
  0
LINE
  5
2D5
330
1E
100
AcDbEntity
  8
0
100
AcDbLine
 10
117.0
 20
92.02719999999999
 30
0.0
 11
117.0
 21
99.84520000000001
 31
0.0
  0
LINE
  5
2D6
330
1E
100
AcDbEntity
  8
0
100
AcDbLine
 10
117.0
 20
92.02719999999999
 30
0.0
 11
117.0
 21
81.7692
 31
0.0
  0
LINE
  5
2D7
330
1E
100
AcDbEntity
  8
0
100
AcDbLine
 10
117.0
 20
81.7692
 30
0.0
 11
117.0
 21
92.02719999999999
 31
0.0
  0
LINE
  5
2D8
330
1E
100
AcDbEntity
  8
0
100
AcDbLine
 10
117.0
 20
81.7692
 30
0.0
 11
117.0
 21
69.8562
 31
0.0
  0
LINE
  5
2D9
330
1E
100
AcDbEntity
  8
0
100
AcDbLine
 10
94.0
 20
105.6092
 30
0.0
 11
94.0
 21
104.4942
 31
0.0
  0
LINE
  5
2DA
330
1E
100
AcDbEntity
  8
0
100
AcDbLine
 10
69.59999999999999
 20
76.6092
 30
0.0
 11
72.0
 21
76.6092
 31
0.0
  0
LINE
  5
2DB
330
1E
100
AcDbEntity
  8
0
100
AcDbLine
 10
67.0
 20
76.6092
 30
0.0
 11
69.59999999999999
 21
76.6092
 31
0.0
  0
LINE
  5
2DC
330
1E
100
AcDbEntity
  8
0
100
AcDbLine
 10
76.6
 20
76.6092
 30
0.0
 11
77.0
 21
76.6092
 31
0.0
  0
LINE
  5
2DD
330
1E
100
AcDbEntity
  8
0
100
AcDbLine
 10
64.40000000000001
 20
76.6092
 30
0.0
 11
67.0
 21
76.6092
 31
0.0
  0
LINE
  5
2DE
330
1E
100
AcDbEntity
  8
0
100
AcDbLine
 10
57.5
 20
75.1092
 30
0.0
 11
58.5
 21
74.1092
 31
0.0
  0
LINE
  5
2DF
330
1E
100
AcDbEntity
  8
0
100
AcDbLine
 10
57.0
 20
76.6092
 30
0.0
 11
57.5
 21
75.1092
 31
0.0
  0
LINE
  5
2E0
330
1E
100
AcDbEntity
  8
0
100
AcDbLine
 10
57.0
 20
76.6092
 30
0.0
 11
57.4
 21
76.6092
 31
0.0
  0
LINE
  5
2E5
330
1E
100
AcDbEntity
  8
0
100
AcDbLine
 10
124.0
 20
65.94219999999999
 30
0.0
 11
124.0
 21
63.5762
 31
0.0
  0
ENDSEC
  0
SECTION
  2
OBJECTS
  0
DICTIONARY
  5
C
330
0
100
AcDbDictionary
281
     1
  3
ACAD_GROUP
350
D
  3
ACAD_LAYOUT
350
19
  3
ACAD_MLINESTYLE
350
16
  3
ACAD_PLOTSETTINGS
350
18
  3
ACAD_PLOTSTYLENAME
350
E
  3
AcDbVariableDictionary
350
2E6
  0
DICTIONARY
  5
D
102
{ACAD_REACTORS
330
C
102
}
330
C
100
AcDbDictionary
281
     1
  0
DICTIONARY
  5
19
102
{ACAD_REACTORS
330
C
102
}
330
C
100
AcDbDictionary
281
     1
  3
Layout1
350
1D
  3
Model
350
21
  0
DICTIONARY
  5
16
102
{ACAD_REACTORS
330
C
102
}
330
C
100
AcDbDictionary
281
     1
  3
Standard
350
17
  0
DICTIONARY
  5
18
102
{ACAD_REACTORS
330
C
102
}
330
C
100
AcDbDictionary
281
     1
  0
ACDBDICTIONARYWDFLT
  5
E
102
{ACAD_REACTORS
330
C
102
}
330
C
100
AcDbDictionary
281
     1
  3
Normal
350
F
100
AcDbDictionaryWithDefault
340
F
  0
DICTIONARY
  5
2E6
102
{ACAD_REACTORS
330
C
102
}
330
C
100
AcDbDictionary
281
     1
  3
DIMASSOC
350
2E7
  0
LAYOUT
  5
1D
102
{ACAD_REACTORS
330
19
102
}
330
19
100
AcDbPlotSettings
  1

  2
hp deskjet 980c series
  4

  6

 40
0.0
 41
0.0
 42
0.0
 43
0.0
 44
0.0
 45
0.0
 46
0.0
 47
0.0
 48
0.0
 49
0.0
140
0.0
141
0.0
142
1.0
143
1.0
 70
   688
 72
     0
 73
     0
 74
     5
  7

 75
    16
147
1.0
148
0.0
149
0.0
100
AcDbLayout
  1
Layout1
 70
     1
 71
     1
 10
0.0
 20
0.0
 11
12.0
 21
9.0
 12
0.0
 22
0.0
 32
0.0
 14
1.000000000000000E+20
 24
1.000000000000000E+20
 34
1.000000000000000E+20
 15
-1.000000000000000E+20
 25
-1.000000000000000E+20
 35
-1.000000000000000E+20
146
0.0
 13
0.0
 23
0.0
 33
0.0
 16
1.0
 26
0.0
 36
0.0
 17
0.0
 27
1.0
 37
0.0
 76
     0
330
1A
  0
LAYOUT
  5
21
102
{ACAD_REACTORS
330
19
102
}
330
19
100
AcDbPlotSettings
  1

  2
hp deskjet 980c series
  4

  6

 40
0.0
 41
0.0
 42
0.0
 43
0.0
 44
0.0
 45
0.0
 46
0.0
 47
0.0
 48
0.0
 49
0.0
140
0.0
141
0.0
142
1.0
143
1.0
 70
  1712
 72
     0
 73
     0
 74
     0
  7

 75
     0
147
1.0
148
0.0
149
0.0
100
AcDbLayout
  1
Model
 70
     1
 71
     0
 10
0.0
 20
0.0
 11
12.0
 21
9.0
 12
0.0
 22
0.0
 32
0.0
 14
0.0
 24
0.0
 34
0.0
 15
0.0
 25
0.0
 35
0.0
146
0.0
 13
0.0
 23
0.0
 33
0.0
 16
1.0
 26
0.0
 36
0.0
 17
0.0
 27
1.0
 37
0.0
 76
     0
330
1E
  0
MLINESTYLE
  5
17
102
{ACAD_REACTORS
330
16
102
}
330
16
100
AcDbMlineStyle
  2
STANDARD
 70
     0
  3

 62
   256
 51
90.0
 52
90.0
 71
     2
 49
0.5
 62
   256
  6
BYLAYER
 49
-0.5
 62
   256
  6
BYLAYER
  0
ACDBPLACEHOLDER
  5
F
102
{ACAD_REACTORS
330
E
102
}
330
E
  0
DICTIONARYVAR
  5
2E7
102
{ACAD_REACTORS
330
2E6
102
}
330
2E6
100
DictionaryVariables
280
     0
  1
1
  0
ENDSEC
  0
EOF
