  0
SECTION
  2
HEADER
  9
$ACADVER
  1
AC1015
  9
$ACADMAINTVER
 70
    13
  9
$DWGCODEPAGE
  3
ANSI_1252
  9
$INSBASE
 10
0.0
 20
0.0
 30
0.0
  9
$EXTMIN
 10
0.0
 20
0.0000000000000046
 30
0.0
  9
$EXTMAX
 10
87.0
 20
121.0
 30
0.0
  9
$LIMMIN
 10
0.0
 20
0.0
  9
$LIMMAX
 10
12.0
 20
9.0
  9
$ORTHOMODE
 70
     0
  9
$REGENMODE
 70
     1
  9
$FILLMODE
 70
     1
  9
$QTEXTMODE
 70
     0
  9
$MIRRTEXT
 70
     1
  9
$LTSCALE
 40
1.0
  9
$ATTMODE
 70
     1
  9
$TEXTSIZE
 40
0.2
  9
$TRACEWID
 40
0.05
  9
$TEXTSTYLE
  7
Standard
  9
$CLAYER
  8
0
  9
$CELTYPE
  6
Continuous
  9
$CECOLOR
 62
   256
  9
$CELTSCALE
 40
1.0
  9
$DISPSILH
 70
     0
  9
$DIMSCALE
 40
1.0
  9
$DIMASZ
 40
0.18
  9
$DIMEXO
 40
0.0625
  9
$DIMDLI
 40
0.38
  9
$DIMRND
 40
0.0
  9
$DIMDLE
 40
0.0
  9
$DIMEXE
 40
0.18
  9
$DIMTP
 40
0.0
  9
$DIMTM
 40
0.0
  9
$DIMTXT
 40
0.18
  9
$DIMCEN
 40
0.09
  9
$DIMTSZ
 40
0.0
  9
$DIMTOL
 70
     0
  9
$DIMLIM
 70
     0
  9
$DIMTIH
 70
     1
  9
$DIMTOH
 70
     1
  9
$DIMSE1
 70
     0
  9
$DIMSE2
 70
     0
  9
$DIMTAD
 70
     0
  9
$DIMZIN
 70
     0
  9
$DIMBLK
  1

  9
$DIMASO
 70
     1
  9
$DIMSHO
 70
     1
  9
$DIMPOST
  1

  9
$DIMAPOST
  1

  9
$DIMALT
 70
     0
  9
$DIMALTD
 70
     2
  9
$DIMALTF
 40
25.4
  9
$DIMLFAC
 40
1.0
  9
$DIMTOFL
 70
     0
  9
$DIMTVP
 40
0.0
  9
$DIMTIX
 70
     0
  9
$DIMSOXD
 70
     0
  9
$DIMSAH
 70
     0
  9
$DIMBLK1
  1

  9
$DIMBLK2
  1

  9
$DIMSTYLE
  2
Standard
  9
$DIMCLRD
 70
     0
  9
$DIMCLRE
 70
     0
  9
$DIMCLRT
 70
     0
  9
$DIMTFAC
 40
1.0
  9
$DIMGAP
 40
0.09
  9
$DIMJUST
 70
     0
  9
$DIMSD1
 70
     0
  9
$DIMSD2
 70
     0
  9
$DIMTOLJ
 70
     1
  9
$DIMTZIN
 70
     0
  9
$DIMALTZ
 70
     0
  9
$DIMALTTZ
 70
     0
  9
$DIMUPT
 70
     0
  9
$DIMDEC
 70
     4
  9
$DIMTDEC
 70
     4
  9
$DIMALTU
 70
     2
  9
$DIMALTTD
 70
     2
  9
$DIMTXSTY
  7
Standard
  9
$DIMAUNIT
 70
     0
  9
$DIMADEC
 70
     0
  9
$DIMALTRND
 40
0.0
  9
$DIMAZIN
 70
     0
  9
$DIMDSEP
 70
    46
  9
$DIMATFIT
 70
     3
  9
$DIMFRAC
 70
     0
  9
$DIMLDRBLK
  1

  9
$DIMLUNIT
 70
     2
  9
$DIMLWD
 70
    -2
  9
$DIMLWE
 70
    -2
  9
$DIMTMOVE
 70
     0
  9
$LUNITS
 70
     2
  9
$LUPREC
 70
     4
  9
$SKETCHINC
 40
0.1
  9
$FILLETRAD
 40
0.0
  9
$AUNITS
 70
     0
  9
$AUPREC
 70
     0
  9
$MENU
  1
.
  9
$ELEVATION
 40
0.0
  9
$PELEVATION
 40
0.0
  9
$THICKNESS
 40
0.0
  9
$LIMCHECK
 70
     0
  9
$CHAMFERA
 40
0.0
  9
$CHAMFERB
 40
0.0
  9
$CHAMFERC
 40
0.0
  9
$CHAMFERD
 40
0.0
  9
$SKPOLY
 70
     0
  9
$TDCREATE
 40
2454748.420562916
  9
$TDUCREATE
 40
2454748.337229583
  9
$TDUPDATE
 40
2454748.434313646
  9
$TDUUPDATE
 40
2454748.350980312
  9
$TDINDWG
 40
0.0137509028
  9
$TDUSRTIMER
 40
0.0137509028
  9
$USRTIMER
 70
     1
  9
$ANGBASE
 50
0.0
  9
$ANGDIR
 70
     0
  9
$PDMODE
 70
     0
  9
$PDSIZE
 40
0.0
  9
$PLINEWID
 40
0.0
  9
$SPLFRAME
 70
     0
  9
$SPLINETYPE
 70
     6
  9
$SPLINESEGS
 70
     8
  9
$HANDSEED
  5
164
  9
$SURFTAB1
 70
     6
  9
$SURFTAB2
 70
     6
  9
$SURFTYPE
 70
     6
  9
$SURFU
 70
     6
  9
$SURFV
 70
     6
  9
$UCSBASE
  2

  9
$UCSNAME
  2

  9
$UCSORG
 10
0.0
 20
0.0
 30
0.0
  9
$UCSXDIR
 10
1.0
 20
0.0
 30
0.0
  9
$UCSYDIR
 10
0.0
 20
1.0
 30
0.0
  9
$UCSORTHOREF
  2

  9
$UCSORTHOVIEW
 70
     1
  9
$UCSORGTOP
 10
0.0
 20
0.0
 30
0.0
  9
$UCSORGBOTTOM
 10
0.0
 20
0.0
 30
0.0
  9
$UCSORGLEFT
 10
0.0
 20
0.0
 30
0.0
  9
$UCSORGRIGHT
 10
0.0
 20
0.0
 30
0.0
  9
$UCSORGFRONT
 10
0.0
 20
0.0
 30
0.0
  9
$UCSORGBACK
 10
0.0
 20
0.0
 30
0.0
  9
$PUCSBASE
  2

  9
$PUCSNAME
  2

  9
$PUCSORG
 10
0.0
 20
0.0
 30
0.0
  9
$PUCSXDIR
 10
1.0
 20
0.0
 30
0.0
  9
$PUCSYDIR
 10
0.0
 20
1.0
 30
0.0
  9
$PUCSORTHOREF
  2

  9
$PUCSORTHOVIEW
 70
     0
  9
$PUCSORGTOP
 10
0.0
 20
0.0
 30
0.0
  9
$PUCSORGBOTTOM
 10
0.0
 20
0.0
 30
0.0
  9
$PUCSORGLEFT
 10
0.0
 20
0.0
 30
0.0
  9
$PUCSORGRIGHT
 10
0.0
 20
0.0
 30
0.0
  9
$PUCSORGFRONT
 10
0.0
 20
0.0
 30
0.0
  9
$PUCSORGBACK
 10
0.0
 20
0.0
 30
0.0
  9
$USERI1
 70
     0
  9
$USERI2
 70
     0
  9
$USERI3
 70
     0
  9
$USERI4
 70
     0
  9
$USERI5
 70
     0
  9
$USERR1
 40
0.0
  9
$USERR2
 40
0.0
  9
$USERR3
 40
0.0
  9
$USERR4
 40
0.0
  9
$USERR5
 40
0.0
  9
$WORLDVIEW
 70
     1
  9
$SHADEDGE
 70
     3
  9
$SHADEDIF
 70
    70
  9
$TILEMODE
 70
     1
  9
$MAXACTVP
 70
    64
  9
$PINSBASE
 10
0.0
 20
0.0
 30
0.0
  9
$PLIMCHECK
 70
     0
  9
$PEXTMIN
 10
1.000000000000000E+20
 20
1.000000000000000E+20
 30
1.000000000000000E+20
  9
$PEXTMAX
 10
-1.000000000000000E+20
 20
-1.000000000000000E+20
 30
-1.000000000000000E+20
  9
$PLIMMIN
 10
0.0
 20
0.0
  9
$PLIMMAX
 10
12.0
 20
9.0
  9
$UNITMODE
 70
     0
  9
$VISRETAIN
 70
     1
  9
$PLINEGEN
 70
     0
  9
$PSLTSCALE
 70
     1
  9
$TREEDEPTH
 70
  3020
  9
$CMLSTYLE
  2
Standard
  9
$CMLJUST
 70
     0
  9
$CMLSCALE
 40
1.0
  9
$PROXYGRAPHICS
 70
     1
  9
$MEASUREMENT
 70
     0
  9
$CELWEIGHT
370
    -1
  9
$ENDCAPS
280
     0
  9
$JOINSTYLE
280
     0
  9
$LWDISPLAY
290
     0
  9
$INSUNITS
 70
     0
  9
$HYPERLINKBASE
  1

  9
$STYLESHEET
  1

  9
$XEDIT
290
     1
  9
$CEPSNTYPE
380
     0
  9
$PSTYLEMODE
290
     1
  9
$FINGERPRINTGUID
  2
{FBFB7281-0EFD-49C7-9B39-C3E8E8ED1DEA}
  9
$VERSIONGUID
  2
{31D25414-7673-4DAD-AC25-66C7FA211D47}
  9
$EXTNAMES
290
     1
  9
$PSVPSCALE
 40
0.0
  9
$OLESTARTUP
290
     0
  0
ENDSEC
  0
SECTION
  2
CLASSES
  0
CLASS
  1
ACDBDICTIONARYWDFLT
  2
AcDbDictionaryWithDefault
  3
AutoCAD 2000
 90
        0
280
     0
281
     0
  0
CLASS
  1
ACDBPLACEHOLDER
  2
AcDbPlaceHolder
  3
AutoCAD 2000
 90
        0
280
     0
281
     0
  0
CLASS
  1
LAYOUT
  2
AcDbLayout
  3
AutoCAD 2000
 90
        0
280
     0
281
     0
  0
CLASS
  1
DICTIONARYVAR
  2
AcDbDictionaryVar
  3
AutoCAD 2000
 90
        0
280
     0
281
     0
  0
ENDSEC
  0
SECTION
  2
TABLES
  0
TABLE
  2
VPORT
  5
8
330
0
100
AcDbSymbolTable
 70
     2
  0
VPORT
  5
163
330
8
100
AcDbSymbolTableRecord
100
AcDbViewportTableRecord
  2
*Active
 70
     0
 10
0.0
 20
0.0
 11
1.0
 21
1.0
 12
43.5
 22
60.5
 13
0.0
 23
0.0
 14
1.0
 24
1.0
 15
0.0
 25
0.0
 16
0.0
 26
0.0
 36
1.0
 17
0.0
 27
0.0
 37
0.0
 40
121.928388746803
 41
2.078104993597951
 42
50.0
 43
0.0
 44
0.0
 50
0.0
 51
0.0
 71
     0
 72
   100
 73
     1
 74
     3
 75
     0
 76
     0
 77
     0
 78
     0
281
     0
 65
     1
110
0.0
120
0.0
130
0.0
111
1.0
121
0.0
131
0.0
112
0.0
122
1.0
132
0.0
 79
     1
146
0.0
  0
ENDTAB
  0
TABLE
  2
LTYPE
  5
5
330
0
100
AcDbSymbolTable
 70
     1
  0
LTYPE
  5
13
330
5
100
AcDbSymbolTableRecord
100
AcDbLinetypeTableRecord
  2
ByBlock
 70
     0
  3

 72
    65
 73
     0
 40
0.0
  0
LTYPE
  5
14
330
5
100
AcDbSymbolTableRecord
100
AcDbLinetypeTableRecord
  2
ByLayer
 70
     0
  3

 72
    65
 73
     0
 40
0.0
  0
LTYPE
  5
15
330
5
100
AcDbSymbolTableRecord
100
AcDbLinetypeTableRecord
  2
Continuous
 70
     0
  3
Solid line
 72
    65
 73
     0
 40
0.0
  0
ENDTAB
  0
TABLE
  2
LAYER
  5
2
330
0
100
AcDbSymbolTable
 70
     1
  0
LAYER
  5
10
330
2
100
AcDbSymbolTableRecord
100
AcDbLayerTableRecord
  2
0
 70
     0
 62
     7
  6
Continuous
370
    -3
390
F
  0
ENDTAB
  0
TABLE
  2
STYLE
  5
3
330
0
100
AcDbSymbolTable
 70
     1
  0
STYLE
  5
11
330
3
100
AcDbSymbolTableRecord
100
AcDbTextStyleTableRecord
  2
Standard
 70
     0
 40
0.0
 41
1.0
 50
0.0
 71
     0
 42
0.2
  3
txt
  4

  0
ENDTAB
  0
TABLE
  2
VIEW
  5
6
330
0
100
AcDbSymbolTable
 70
     0
  0
ENDTAB
  0
TABLE
  2
UCS
  5
7
330
0
100
AcDbSymbolTable
 70
     0
  0
ENDTAB
  0
TABLE
  2
APPID
  5
9
330
0
100
AcDbSymbolTable
 70
     1
  0
APPID
  5
12
330
9
100
AcDbSymbolTableRecord
100
AcDbRegAppTableRecord
  2
ACAD
 70
     0
  0
ENDTAB
  0
TABLE
  2
DIMSTYLE
  5
A
330
0
100
AcDbSymbolTable
 70
     1
100
AcDbDimStyleTable
 71
     0
  0
DIMSTYLE
105
151
330
A
100
AcDbSymbolTableRecord
100
AcDbDimStyleTableRecord
  2
Standard
 70
     0
340
11
  0
ENDTAB
  0
TABLE
  2
BLOCK_RECORD
  5
1
330
0
100
AcDbSymbolTable
 70
     0
  0
BLOCK_RECORD
  5
1E
330
1
100
AcDbSymbolTableRecord
100
AcDbBlockTableRecord
  2
*Model_Space
340
21
  0
BLOCK_RECORD
  5
1A
330
1
100
AcDbSymbolTableRecord
100
AcDbBlockTableRecord
  2
*Paper_Space
340
1D
  0
ENDTAB
  0
ENDSEC
  0
SECTION
  2
BLOCKS
  0
BLOCK
  5
1F
330
1E
100
AcDbEntity
  8
0
100
AcDbBlockBegin
  2
*Model_Space
 70
     0
 10
0.0
 20
0.0
 30
0.0
  3
*Model_Space
  1

  0
ENDBLK
  5
20
330
1E
100
AcDbEntity
  8
0
100
AcDbBlockEnd
  0
BLOCK
  5
1B
330
1A
100
AcDbEntity
 67
     1
  8
0
100
AcDbBlockBegin
  2
*Paper_Space
 70
     0
 10
0.0
 20
0.0
 30
0.0
  3
*Paper_Space
  1

  0
ENDBLK
  5
1C
330
1A
100
AcDbEntity
 67
     1
  8
0
100
AcDbBlockEnd
  0
ENDSEC
  0
SECTION
  2
ENTITIES
  0
LINE
  5
22
330
1E
100
AcDbEntity
  8
0
100
AcDbLine
 10
1.6
 20
32.29999999999999
 30
0.0
 11
5.799999999999999
 21
21.89999999999999
 31
0.0
  0
LINE
  5
23
330
1E
100
AcDbEntity
  8
0
100
AcDbLine
 10
12.8
 20
12.8
 30
0.0
 11
21.89999999999999
 21
5.800000000000009
 31
0.0
  0
LINE
  5
24
330
1E
100
AcDbEntity
  8
0
100
AcDbLine
 10
13.6
 20
26.4
 30
0.0
 11
19.1
 21
19.1
 31
0.0
  0
LINE
  5
25
330
1E
100
AcDbEntity
  8
0
100
AcDbLine
 10
5.799999999999999
 20
21.89999999999999
 30
0.0
 11
12.8
 21
12.8
 31
0.0
  0
LINE
  5
26
330
1E
100
AcDbEntity
  8
0
100
AcDbLine
 10
10.2
 20
34.6
 30
0.0
 11
13.6
 21
26.4
 31
0.0
  0
LINE
  5
27
330
1E
100
AcDbEntity
  8
0
100
AcDbLine
 10
1.6
 20
32.29999999999999
 30
0.0
 11
5.799999999999999
 21
21.89999999999999
 31
0.0
  0
LINE
  5
28
330
1E
100
AcDbEntity
  8
0
100
AcDbLine
 10
0.0
 20
43.5
 30
0.0
 11
1.6
 21
32.29999999999999
 31
0.0
  0
LINE
  5
29
330
1E
100
AcDbEntity
  8
0
100
AcDbLine
 10
0.0
 20
43.5
 30
0.0
 11
1.6
 21
54.7
 31
0.0
  0
LINE
  5
2A
330
1E
100
AcDbEntity
  8
0
100
AcDbLine
 10
1.6
 20
54.7
 30
0.0
 11
5.799999999999999
 21
65.09999999999999
 31
0.0
  0
LINE
  5
2B
330
1E
100
AcDbEntity
  8
0
100
AcDbLine
 10
5.799999999999999
 20
65.09999999999999
 30
0.0
 11
12.8
 21
74.2
 31
0.0
  0
LINE
  5
2C
330
1E
100
AcDbEntity
  8
0
100
AcDbLine
 10
1.6
 20
54.7
 30
0.0
 11
5.799999999999999
 21
65.09999999999999
 31
0.0
  0
LINE
  5
2D
330
1E
100
AcDbEntity
  8
0
100
AcDbLine
 10
12.8
 20
74.2
 30
0.0
 11
21.89999999999999
 21
81.2
 31
0.0
  0
LINE
  5
2E
330
1E
100
AcDbEntity
  8
0
100
AcDbLine
 10
9.0
 20
43.5
 30
0.0
 11
10.2
 21
34.6
 31
0.0
  0
LINE
  5
2F
330
1E
100
AcDbEntity
  8
0
100
AcDbLine
 10
9.0
 20
43.5
 30
0.0
 11
10.2
 21
52.4
 31
0.0
  0
LINE
  5
30
330
1E
100
AcDbEntity
  8
0
100
AcDbLine
 10
19.1
 20
19.1
 30
0.0
 11
26.4
 21
13.6
 31
0.0
  0
LINE
  5
31
330
1E
100
AcDbEntity
  8
0
100
AcDbLine
 10
21.89999999999999
 20
81.2
 30
0.0
 11
32.29999999999999
 21
85.4
 31
0.0
  0
LINE
  5
32
330
1E
100
AcDbEntity
  8
0
100
AcDbLine
 10
21.89999999999999
 20
5.800000000000009
 30
0.0
 11
32.29999999999999
 21
1.6
 31
0.0
  0
LINE
  5
33
330
1E
100
AcDbEntity
  8
0
100
AcDbLine
 10
21.89999999999999
 20
5.800000000000009
 30
0.0
 11
32.29999999999999
 21
1.6
 31
0.0
  0
LINE
  5
34
330
1E
100
AcDbEntity
  8
0
100
AcDbLine
 10
25.5
 20
107.6149999999999
 30
0.0
 11
25.5
 21
106.4999999999999
 31
0.0
  0
LINE
  5
35
330
1E
100
AcDbEntity
  8
0
100
AcDbLine
 10
26.4
 20
13.6
 30
0.0
 11
34.6
 21
10.2
 31
0.0
  0
LINE
  5
36
330
1E
100
AcDbEntity
  8
0
100
AcDbLine
 10
26.6
 20
104.827
 30
0.0
 11
28.3
 21
104.827
 31
0.0
  0
LINE
  5
37
330
1E
100
AcDbEntity
  8
0
100
AcDbLine
 10
28.5
 20
43.5
 30
0.0
 11
29.03999999999999
 21
39.65999999999999
 31
0.0
  0
LINE
  5
38
330
1E
100
AcDbEntity
  8
0
100
AcDbLine
 10
28.5
 20
43.5
 30
0.0
 11
29.03999999999999
 21
47.34
 31
0.0
  0
LINE
  5
39
330
1E
100
AcDbEntity
  8
0
100
AcDbLine
 10
30.48
 20
36.06
 30
0.0
 11
32.88
 21
32.88
 31
0.0
  0
LINE
  5
3A
330
1E
100
AcDbEntity
  8
0
100
AcDbLine
 10
30.48
 20
50.94
 30
0.0
 11
32.88
 21
54.11999999999999
 31
0.0
  0
LINE
  5
3B
330
1E
100
AcDbEntity
  8
0
100
AcDbLine
 10
29.03999999999999
 20
47.34
 30
0.0
 11
30.48
 21
50.94
 31
0.0
  0
LINE
  5
3C
330
1E
100
AcDbEntity
  8
0
100
AcDbLine
 10
29.03999999999999
 20
39.65999999999999
 30
0.0
 11
30.48
 21
36.06
 31
0.0
  0
LINE
  5
3D
330
1E
100
AcDbEntity
  8
0
100
AcDbLine
 10
32.29999999999999
 20
1.6
 30
0.0
 11
43.5
 21
0.0000000000000046
 31
0.0
  0
LINE
  5
3E
330
1E
100
AcDbEntity
  8
0
100
AcDbLine
 10
32.29999999999999
 20
1.6
 30
0.0
 11
43.5
 21
0.0000000000000046
 31
0.0
  0
LINE
  5
3F
330
1E
100
AcDbEntity
  8
0
100
AcDbLine
 10
32.29999999999999
 20
85.4
 30
0.0
 11
43.5
 21
87.0
 31
0.0
  0
LINE
  5
40
330
1E
100
AcDbEntity
  8
0
100
AcDbLine
 10
32.88
 20
54.11999999999999
 30
0.0
 11
36.06
 21
56.52000000000001
 31
0.0
  0
LINE
  5
41
330
1E
100
AcDbEntity
  8
0
100
AcDbLine
 10
33.5
 20
43.5
 30
0.0
 11
33.8333
 21
40.89999999999999
 31
0.0
  0
LINE
  5
42
330
1E
100
AcDbEntity
  8
0
100
AcDbLine
 10
33.5
 20
43.5
 30
0.0
 11
33.8333
 21
46.1
 31
0.0
  0
LINE
  5
43
330
1E
100
AcDbEntity
  8
0
100
AcDbLine
 10
32.88
 20
32.88
 30
0.0
 11
36.06
 21
30.48
 31
0.0
  0
LINE
  5
44
330
1E
100
AcDbEntity
  8
0
100
AcDbLine
 10
32.2
 20
92.0
 30
0.0
 11
33.5
 21
92.0
 31
0.0
  0
LINE
  5
45
330
1E
100
AcDbEntity
  8
0
100
AcDbLine
 10
31.0
 20
92.0
 30
0.0
 11
32.2
 21
92.0
 31
0.0
  0
LINE
  5
46
330
1E
100
AcDbEntity
  8
0
100
AcDbLine
 10
30.89999999999999
 20
92.55799999999998
 30
0.0
 11
33.3
 21
92.55799999999998
 31
0.0
  0
LINE
  5
47
330
1E
100
AcDbEntity
  8
0
100
AcDbLine
 10
29.5
 20
92.55799999999998
 30
0.0
 11
30.89999999999999
 21
92.55799999999998
 31
0.0
  0
LINE
  5
48
330
1E
100
AcDbEntity
  8
0
100
AcDbLine
 10
33.3
 20
92.55799999999998
 30
0.0
 11
36.29999999999999
 21
92.55799999999998
 31
0.0
  0
LINE
  5
49
330
1E
100
AcDbEntity
  8
0
100
AcDbLine
 10
30.5
 20
92.0
 30
0.0
 11
31.0
 21
92.0
 31
0.0
  0
LINE
  5
4A
330
1E
100
AcDbEntity
  8
0
100
AcDbLine
 10
29.0
 20
92.55799999999998
 30
0.0
 11
30.5
 21
92.0
 31
0.0
  0
LINE
  5
4B
330
1E
100
AcDbEntity
  8
0
100
AcDbLine
 10
29.0
 20
92.55799999999998
 30
0.0
 11
29.5
 21
92.55799999999998
 31
0.0
  0
LINE
  5
4C
330
1E
100
AcDbEntity
  8
0
100
AcDbLine
 10
30.5
 20
103.1539999999999
 30
0.0
 11
32.9
 21
103.1539999999999
 31
0.0
  0
LINE
  5
4D
330
1E
100
AcDbEntity
  8
0
100
AcDbLine
 10
29.0
 20
103.1539999999999
 30
0.0
 11
30.5
 21
103.1539999999999
 31
0.0
  0
LINE
  5
4E
330
1E
100
AcDbEntity
  8
0
100
AcDbLine
 10
28.5
 20
103.1539999999999
 30
0.0
 11
29.0
 21
103.1539999999999
 31
0.0
  0
LINE
  5
4F
330
1E
100
AcDbEntity
  8
0
100
AcDbLine
 10
28.5
 20
103.1539999999999
 30
0.0
 11
28.5
 21
94.23100000000001
 31
0.0
  0
LINE
  5
50
330
1E
100
AcDbEntity
  8
0
100
AcDbLine
 10
28.3
 20
104.827
 30
0.0
 11
31.1
 21
104.827
 31
0.0
  0
LINE
  5
51
330
1E
100
AcDbEntity
  8
0
100
AcDbLine
 10
32.9
 20
103.1539999999999
 30
0.0
 11
36.0
 21
103.1539999999999
 31
0.0
  0
LINE
  5
52
330
1E
100
AcDbEntity
  8
0
100
AcDbLine
 10
31.1
 20
104.827
 30
0.0
 11
34.79999999999999
 21
104.827
 31
0.0
  0
LINE
  5
53
330
1E
100
AcDbEntity
  8
0
100
AcDbLine
 10
28.5
 20
94.23100000000001
 30
0.0
 11
28.5
 21
103.1539999999999
 31
0.0
  0
LINE
  5
54
330
1E
100
AcDbEntity
  8
0
100
AcDbLine
 10
28.5
 20
94.23100000000001
 30
0.0
 11
29.0
 21
92.55799999999998
 31
0.0
  0
LINE
  5
55
330
1E
100
AcDbEntity
  8
0
100
AcDbLine
 10
27.5
 20
104.2689999999999
 30
0.0
 11
28.5
 21
103.1539999999999
 31
0.0
  0
LINE
  5
56
330
1E
100
AcDbEntity
  8
0
100
AcDbLine
 10
26.0
 20
104.827
 30
0.0
 11
27.5
 21
104.2689999999999
 31
0.0
  0
LINE
  5
57
330
1E
100
AcDbEntity
  8
0
100
AcDbLine
 10
26.0
 20
104.827
 30
0.0
 11
26.6
 21
104.827
 31
0.0
  0
LINE
  5
58
330
1E
100
AcDbEntity
  8
0
100
AcDbLine
 10
25.5
 20
106.4999999999999
 30
0.0
 11
25.5
 21
107.6149999999999
 31
0.0
  0
LINE
  5
59
330
1E
100
AcDbEntity
  8
0
100
AcDbLine
 10
25.5
 20
106.4999999999999
 30
0.0
 11
26.0
 21
104.827
 31
0.0
  0
LINE
  5
5A
330
1E
100
AcDbEntity
  8
0
100
AcDbLine
 10
24.0
 20
112.077
 30
0.0
 11
25.5
 21
107.6149999999999
 31
0.0
  0
LINE
  5
5B
330
1E
100
AcDbEntity
  8
0
100
AcDbLine
 10
21.0
 20
115.981
 30
0.0
 11
24.0
 21
112.077
 31
0.0
  0
LINE
  5
5C
330
1E
100
AcDbEntity
  8
0
100
AcDbLine
 10
20.5
 20
118.212
 30
0.0
 11
24.8
 21
118.212
 31
0.0
  0
LINE
  5
5D
330
1E
100
AcDbEntity
  8
0
100
AcDbLine
 10
18.0
 20
118.212
 30
0.0
 11
20.5
 21
118.212
 31
0.0
  0
LINE
  5
5E
330
1E
100
AcDbEntity
  8
0
100
AcDbLine
 10
24.8
 20
118.212
 30
0.0
 11
30.3
 21
118.212
 31
0.0
  0
LINE
  5
5F
330
1E
100
AcDbEntity
  8
0
100
AcDbLine
 10
30.3
 20
118.212
 30
0.0
 11
36.7
 21
118.212
 31
0.0
  0
LINE
  5
60
330
1E
100
AcDbEntity
  8
0
100
AcDbLine
 10
18.5
 20
117.6539999999999
 30
0.0
 11
21.0
 21
115.981
 31
0.0
  0
LINE
  5
61
330
1E
100
AcDbEntity
  8
0
100
AcDbLine
 10
17.0
 20
118.212
 30
0.0
 11
18.5
 21
117.6539999999999
 31
0.0
  0
LINE
  5
62
330
1E
100
AcDbEntity
  8
0
100
AcDbLine
 10
17.0
 20
118.212
 30
0.0
 11
18.0
 21
118.212
 31
0.0
  0
LINE
  5
63
330
1E
100
AcDbEntity
  8
0
100
AcDbLine
 10
20.1
 20
121.0
 30
0.0
 11
24.39999999999999
 21
121.0
 31
0.0
  0
LINE
  5
64
330
1E
100
AcDbEntity
  8
0
100
AcDbLine
 10
17.5
 20
121.0
 30
0.0
 11
20.1
 21
121.0
 31
0.0
  0
LINE
  5
65
330
1E
100
AcDbEntity
  8
0
100
AcDbLine
 10
16.5
 20
121.0
 30
0.0
 11
17.5
 21
121.0
 31
0.0
  0
LINE
  5
66
330
1E
100
AcDbEntity
  8
0
100
AcDbLine
 10
16.5
 20
121.0
 30
0.0
 11
16.5
 21
119.8849999999999
 31
0.0
  0
LINE
  5
67
330
1E
100
AcDbEntity
  8
0
100
AcDbLine
 10
24.39999999999999
 20
121.0
 30
0.0
 11
30.1
 21
121.0
 31
0.0
  0
LINE
  5
68
330
1E
100
AcDbEntity
  8
0
100
AcDbLine
 10
30.1
 20
121.0
 30
0.0
 11
36.6
 21
121.0
 31
0.0
  0
LINE
  5
69
330
1E
100
AcDbEntity
  8
0
100
AcDbLine
 10
16.5
 20
119.8849999999999
 30
0.0
 11
16.5
 21
121.0
 31
0.0
  0
LINE
  5
6A
330
1E
100
AcDbEntity
  8
0
100
AcDbLine
 10
16.5
 20
119.8849999999999
 30
0.0
 11
17.0
 21
118.212
 31
0.0
  0
LINE
  5
6B
330
1E
100
AcDbEntity
  8
0
100
AcDbLine
 10
33.8333
 20
40.89999999999999
 30
0.0
 11
34.8333
 21
38.5
 31
0.0
  0
LINE
  5
6C
330
1E
100
AcDbEntity
  8
0
100
AcDbLine
 10
34.6
 20
10.2
 30
0.0
 11
43.5
 21
9.0
 31
0.0
  0
LINE
  5
6D
330
1E
100
AcDbEntity
  8
0
100
AcDbLine
 10
34.8333
 20
38.5
 30
0.0
 11
36.4333
 21
36.4333
 31
0.0
  0
LINE
  5
6F
330
1E
100
AcDbEntity
  8
0
100
AcDbLine
 10
35.1
 20
38.7
 30
0.0
 11
36.7
 21
36.7
 31
0.0
  0
LINE
  5
70
330
1E
100
AcDbEntity
  8
0
100
AcDbLine
 10
34.16669999999999
 20
41.03329999999999
 30
0.0
 11
35.1
 21
38.7
 31
0.0
  0
LINE
  5
71
330
1E
100
AcDbEntity
  8
0
100
AcDbLine
 10
33.8333
 20
43.5
 30
0.0
 11
34.16669999999999
 21
41.03329999999999
 31
0.0
  0
LINE
  5
72
330
1E
100
AcDbEntity
  8
0
100
AcDbLine
 10
33.8333
 20
43.5
 30
0.0
 11
34.16669999999999
 21
45.9667
 31
0.0
  0
LINE
  5
73
330
1E
100
AcDbEntity
  8
0
100
AcDbLine
 10
35.5
 20
41.3667
 30
0.0
 11
36.29999999999999
 21
39.3667
 31
0.0
  0
LINE
  5
74
330
1E
100
AcDbEntity
  8
0
100
AcDbLine
 10
33.8333
 20
46.1
 30
0.0
 11
34.8333
 21
48.5
 31
0.0
  0
LINE
  5
75
330
1E
100
AcDbEntity
  8
0
100
AcDbLine
 10
34.8333
 20
48.5
 30
0.0
 11
36.4333
 21
50.5667
 31
0.0
  0
LINE
  5
76
330
1E
100
AcDbEntity
  8
0
100
AcDbLine
 10
35.1
 20
48.3
 30
0.0
 11
36.7
 21
50.3
 31
0.0
  0
LINE
  5
77
330
1E
100
AcDbEntity
  8
0
100
AcDbLine
 10
34.16669999999999
 20
45.9667
 30
0.0
 11
35.1
 21
48.3
 31
0.0
  0
LINE
  5
78
330
1E
100
AcDbEntity
  8
0
100
AcDbLine
 10
35.5
 20
45.63329999999999
 30
0.0
 11
36.29999999999999
 21
47.63329999999999
 31
0.0
  0
LINE
  5
79
330
1E
100
AcDbEntity
  8
0
100
AcDbLine
 10
35.16669999999999
 20
43.5
 30
0.0
 11
35.5
 21
41.3667
 31
0.0
  0
LINE
  5
7A
330
1E
100
AcDbEntity
  8
0
100
AcDbLine
 10
35.16669999999999
 20
43.5
 30
0.0
 11
35.5
 21
45.63329999999999
 31
0.0
  0
LINE
  5
7B
330
1E
100
AcDbEntity
  8
0
100
AcDbLine
 10
35.7667
 20
45.56669999999999
 30
0.0
 11
36.5667
 21
47.5
 31
0.0
  0
LINE
  5
7C
330
1E
100
AcDbEntity
  8
0
100
AcDbLine
 10
35.7667
 20
41.4333
 30
0.0
 11
36.5667
 21
39.5
 31
0.0
  0
LINE
  5
7D
330
1E
100
AcDbEntity
  8
0
100
AcDbLine
 10
35.5
 20
43.5
 30
0.0
 11
35.7667
 21
41.4333
 31
0.0
  0
LINE
  5
7E
330
1E
100
AcDbEntity
  8
0
100
AcDbLine
 10
35.5
 20
43.5
 30
0.0
 11
35.7667
 21
45.56669999999999
 31
0.0
  0
LINE
  5
7F
330
1E
100
AcDbEntity
  8
0
100
AcDbLine
 10
34.6
 20
76.79999999999999
 30
0.0
 11
43.5
 21
78.0
 31
0.0
  0
LINE
  5
80
330
1E
100
AcDbEntity
  8
0
100
AcDbLine
 10
36.06
 20
56.52000000000001
 30
0.0
 11
39.65999999999999
 21
57.96
 31
0.0
  0
LINE
  5
81
330
1E
100
AcDbEntity
  8
0
100
AcDbLine
 10
36.4333
 20
36.4333
 30
0.0
 11
38.5
 21
34.8333
 31
0.0
  0
LINE
  5
82
330
1E
100
AcDbEntity
  8
0
100
AcDbLine
 10
36.29999999999999
 20
47.63329999999999
 30
0.0
 11
37.63329999999999
 21
49.3667
 31
0.0
  0
LINE
  5
83
330
1E
100
AcDbEntity
  8
0
100
AcDbLine
 10
36.29999999999999
 20
39.3667
 30
0.0
 11
37.63329999999999
 21
37.63329999999999
 31
0.0
  0
LINE
  5
84
330
1E
100
AcDbEntity
  8
0
100
AcDbLine
 10
36.06
 20
30.48
 30
0.0
 11
39.65999999999999
 21
29.03999999999999
 31
0.0
  0
LINE
  5
85
330
1E
100
AcDbEntity
  8
0
100
AcDbLine
 10
35.0
 20
89.50000000000001
 30
0.0
 11
36.5
 21
89.0
 31
0.0
  0
LINE
  5
86
330
1E
100
AcDbEntity
  8
0
100
AcDbLine
 10
36.7
 20
36.7
 30
0.0
 11
38.7
 21
35.1
 31
0.0
  0
LINE
  5
87
330
1E
100
AcDbEntity
  8
0
100
AcDbLine
 10
36.7
 20
50.3
 30
0.0
 11
38.7
 21
51.9
 31
0.0
  0
LINE
  5
88
330
1E
100
AcDbEntity
  8
0
100
AcDbLine
 10
36.5667
 20
47.5
 30
0.0
 11
37.8333
 21
49.16669999999999
 31
0.0
  0
LINE
  5
89
330
1E
100
AcDbEntity
  8
0
100
AcDbLine
 10
36.5667
 20
39.5
 30
0.0
 11
37.8333
 21
37.8333
 31
0.0
  0
LINE
  5
8A
330
1E
100
AcDbEntity
  8
0
100
AcDbLine
 10
43.5
 20
0.0000000000000046
 30
0.0
 11
54.7
 21
1.6
 31
0.0
  0
LINE
  5
8B
330
1E
100
AcDbEntity
  8
0
100
AcDbLine
 10
43.5
 20
0.0000000000000046
 30
0.0
 11
54.7
 21
1.6
 31
0.0
  0
LINE
  5
8D
330
1E
100
AcDbEntity
  8
0
100
AcDbLine
 10
43.5
 20
9.0
 30
0.0
 11
52.4
 21
10.2
 31
0.0
  0
LINE
  5
8E
330
1E
100
AcDbEntity
  8
0
100
AcDbLine
 10
39.65999999999999
 20
29.03999999999999
 30
0.0
 11
43.5
 21
28.5
 31
0.0
  0
LINE
  5
8F
330
1E
100
AcDbEntity
  8
0
100
AcDbLine
 10
43.5
 20
28.5
 30
0.0
 11
47.34
 21
29.03999999999999
 31
0.0
  0
LINE
  5
90
330
1E
100
AcDbEntity
  8
0
100
AcDbLine
 10
38.5
 20
34.8333
 30
0.0
 11
40.89999999999999
 21
33.8333
 31
0.0
  0
LINE
  5
91
330
1E
100
AcDbEntity
  8
0
100
AcDbLine
 10
38.7
 20
35.1
 30
0.0
 11
41.03329999999999
 21
34.16669999999999
 31
0.0
  0
LINE
  5
92
330
1E
100
AcDbEntity
  8
0
100
AcDbLine
 10
39.3667
 20
36.29999999999999
 30
0.0
 11
41.3667
 21
35.5
 31
0.0
  0
LINE
  5
93
330
1E
100
AcDbEntity
  8
0
100
AcDbLine
 10
37.63329999999999
 20
49.3667
 30
0.0
 11
39.3667
 21
50.7
 31
0.0
  0
LINE
  5
94
330
1E
100
AcDbEntity
  8
0
100
AcDbLine
 10
37.8333
 20
49.16669999999999
 30
0.0
 11
39.5
 21
50.4333
 31
0.0
  0
LINE
  5
95
330
1E
100
AcDbEntity
  8
0
100
AcDbLine
 10
37.63329999999999
 20
37.63329999999999
 30
0.0
 11
39.3667
 21
36.29999999999999
 31
0.0
  0
LINE
  5
96
330
1E
100
AcDbEntity
  8
0
100
AcDbLine
 10
38.5
 20
52.1667
 30
0.0
 11
40.89999999999999
 21
53.1667
 31
0.0
  0
LINE
  5
97
330
1E
100
AcDbEntity
  8
0
100
AcDbLine
 10
38.7
 20
51.9
 30
0.0
 11
41.03329999999999
 21
52.8333
 31
0.0
  0
LINE
  5
98
330
1E
100
AcDbEntity
  8
0
100
AcDbLine
 10
39.3667
 20
50.7
 30
0.0
 11
41.3667
 21
51.5
 31
0.0
  0
LINE
  5
99
330
1E
100
AcDbEntity
  8
0
100
AcDbLine
 10
39.5
 20
50.4333
 30
0.0
 11
41.4333
 21
51.2333
 31
0.0
  0
LINE
  5
9A
330
1E
100
AcDbEntity
  8
0
100
AcDbLine
 10
37.8333
 20
37.8333
 30
0.0
 11
39.5
 21
36.5667
 31
0.0
  0
LINE
  5
9B
330
1E
100
AcDbEntity
  8
0
100
AcDbLine
 10
39.5
 20
36.5667
 30
0.0
 11
41.4333
 21
35.7667
 31
0.0
  0
LINE
  5
9C
330
1E
100
AcDbEntity
  8
0
100
AcDbLine
 10
43.5
 20
33.5
 30
0.0
 11
46.1
 21
33.8333
 31
0.0
  0
LINE
  5
9D
330
1E
100
AcDbEntity
  8
0
100
AcDbLine
 10
41.03329999999999
 20
34.16669999999999
 30
0.0
 11
43.5
 21
33.8333
 31
0.0
  0
LINE
  5
9E
330
1E
100
AcDbEntity
  8
0
100
AcDbLine
 10
41.3667
 20
35.5
 30
0.0
 11
43.5
 21
35.16669999999999
 31
0.0
  0
LINE
  5
9F
330
1E
100
AcDbEntity
  8
0
100
AcDbLine
 10
43.5
 20
33.8333
 30
0.0
 11
45.9667
 21
34.16669999999999
 31
0.0
  0
LINE
  5
A0
330
1E
100
AcDbEntity
  8
0
100
AcDbLine
 10
45.9667
 20
34.16669999999999
 30
0.0
 11
48.3
 21
35.1
 31
0.0
  0
LINE
  5
A1
330
1E
100
AcDbEntity
  8
0
100
AcDbLine
 10
45.63329999999999
 20
35.5
 30
0.0
 11
47.63329999999999
 21
36.29999999999999
 31
0.0
  0
LINE
  5
A2
330
1E
100
AcDbEntity
  8
0
100
AcDbLine
 10
43.5
 20
35.16669999999999
 30
0.0
 11
45.63329999999999
 21
35.5
 31
0.0
  0
LINE
  5
A3
330
1E
100
AcDbEntity
  8
0
100
AcDbLine
 10
41.3667
 20
51.5
 30
0.0
 11
43.5
 21
51.8333
 31
0.0
  0
LINE
  5
A4
330
1E
100
AcDbEntity
  8
0
100
AcDbLine
 10
41.4333
 20
51.2333
 30
0.0
 11
43.5
 21
51.5
 31
0.0
  0
LINE
  5
A5
330
1E
100
AcDbEntity
  8
0
100
AcDbLine
 10
41.03329999999999
 20
52.8333
 30
0.0
 11
43.5
 21
53.1667
 31
0.0
  0
LINE
  5
A6
330
1E
100
AcDbEntity
  8
0
100
AcDbLine
 10
43.5
 20
53.5
 30
0.0
 11
46.1
 21
53.1667
 31
0.0
  0
LINE
  5
A7
330
1E
100
AcDbEntity
  8
0
100
AcDbLine
 10
43.5
 20
53.1667
 30
0.0
 11
45.9667
 21
52.8333
 31
0.0
  0
LINE
  5
A8
330
1E
100
AcDbEntity
  8
0
100
AcDbLine
 10
43.5
 20
51.8333
 30
0.0
 11
45.63329999999999
 21
51.5
 31
0.0
  0
LINE
  5
A9
330
1E
100
AcDbEntity
  8
0
100
AcDbLine
 10
45.56669999999999
 20
51.2333
 30
0.0
 11
47.5
 21
50.4333
 31
0.0
  0
LINE
  5
AA
330
1E
100
AcDbEntity
  8
0
100
AcDbLine
 10
43.5
 20
51.5
 30
0.0
 11
45.56669999999999
 21
51.2333
 31
0.0
  0
LINE
  5
AB
330
1E
100
AcDbEntity
  8
0
100
AcDbLine
 10
41.4333
 20
35.7667
 30
0.0
 11
43.5
 21
35.5
 31
0.0
  0
LINE
  5
AC
330
1E
100
AcDbEntity
  8
0
100
AcDbLine
 10
46.1
 20
53.1667
 30
0.0
 11
48.5
 21
52.1667
 31
0.0
  0
LINE
  5
AD
330
1E
100
AcDbEntity
  8
0
100
AcDbLine
 10
45.9667
 20
52.8333
 30
0.0
 11
48.3
 21
51.9
 31
0.0
  0
LINE
  5
AE
330
1E
100
AcDbEntity
  8
0
100
AcDbLine
 10
45.63329999999999
 20
51.5
 30
0.0
 11
47.63329999999999
 21
50.7
 31
0.0
  0
LINE
  5
AF
330
1E
100
AcDbEntity
  8
0
100
AcDbLine
 10
45.56669999999999
 20
35.7667
 30
0.0
 11
47.5
 21
36.5667
 31
0.0
  0
LINE
  5
B0
330
1E
100
AcDbEntity
  8
0
100
AcDbLine
 10
43.5
 20
35.5
 30
0.0
 11
45.56669999999999
 21
35.7667
 31
0.0
  0
LINE
  5
B1
330
1E
100
AcDbEntity
  8
0
100
AcDbLine
 10
39.65999999999999
 20
57.96
 30
0.0
 11
43.5
 21
58.5
 31
0.0
  0
LINE
  5
B2
330
1E
100
AcDbEntity
  8
0
100
AcDbLine
 10
43.5
 20
78.0
 30
0.0
 11
52.4
 21
76.79999999999999
 31
0.0
  0
LINE
  5
B3
330
1E
100
AcDbEntity
  8
0
100
AcDbLine
 10
43.5
 20
58.5
 30
0.0
 11
47.34
 21
57.96
 31
0.0
  0
LINE
  5
B4
330
1E
100
AcDbEntity
  8
0
100
AcDbLine
 10
48.3
 20
35.1
 30
0.0
 11
50.3
 21
36.7
 31
0.0
  0
LINE
  5
B5
330
1E
100
AcDbEntity
  8
0
100
AcDbLine
 10
47.63329999999999
 20
36.29999999999999
 30
0.0
 11
49.3667
 21
37.63329999999999
 31
0.0
  0
LINE
  5
B6
330
1E
100
AcDbEntity
  8
0
100
AcDbLine
 10
48.5
 20
52.1667
 30
0.0
 11
50.5667
 21
50.5667
 31
0.0
  0
LINE
  5
B7
330
1E
100
AcDbEntity
  8
0
100
AcDbLine
 10
48.3
 20
51.9
 30
0.0
 11
50.3
 21
50.3
 31
0.0
  0
LINE
  5
B8
330
1E
100
AcDbEntity
  8
0
100
AcDbLine
 10
47.63329999999999
 20
50.7
 30
0.0
 11
49.3667
 21
49.3667
 31
0.0
  0
LINE
  5
B9
330
1E
100
AcDbEntity
  8
0
100
AcDbLine
 10
47.5
 20
50.4333
 30
0.0
 11
49.16669999999999
 21
49.16669999999999
 31
0.0
  0
LINE
  5
BA
330
1E
100
AcDbEntity
  8
0
100
AcDbLine
 10
47.5
 20
36.5667
 30
0.0
 11
49.16669999999999
 21
37.8333
 31
0.0
  0
LINE
  5
BB
330
1E
100
AcDbEntity
  8
0
100
AcDbLine
 10
47.34
 20
57.96
 30
0.0
 11
50.94
 21
56.52000000000001
 31
0.0
  0
LINE
  5
BC
330
1E
100
AcDbEntity
  8
0
100
AcDbLine
 10
47.34
 20
29.03999999999999
 30
0.0
 11
50.94
 21
30.48
 31
0.0
  0
LINE
  5
BD
330
1E
100
AcDbEntity
  8
0
100
AcDbLine
 10
48.5
 20
86.28571428571431
 30
0.0
 11
48.5
 21
89.0
 31
0.0
  0
LINE
  5
BE
330
1E
100
AcDbEntity
  8
0
100
AcDbLine
 10
39.2
 20
89.0
 30
0.0
 11
40.0
 21
89.0
 31
0.0
  0
LINE
  5
BF
330
1E
100
AcDbEntity
  8
0
100
AcDbLine
 10
38.7
 20
89.0
 30
0.0
 11
39.2
 21
89.0
 31
0.0
  0
LINE
  5
C0
330
1E
100
AcDbEntity
  8
0
100
AcDbLine
 10
38.5
 20
89.0
 30
0.0
 11
38.5
 21
86.28571428571431
 31
0.0
  0
LINE
  5
C1
330
1E
100
AcDbEntity
  8
0
100
AcDbLine
 10
38.5
 20
89.0
 30
0.0
 11
38.7
 21
89.0
 31
0.0
  0
LINE
  5
C2
330
1E
100
AcDbEntity
  8
0
100
AcDbLine
 10
43.5
 20
87.0
 30
0.0
 11
54.7
 21
85.4
 31
0.0
  0
LINE
  5
C3
330
1E
100
AcDbEntity
  8
0
100
AcDbLine
 10
47.8
 20
89.0
 30
0.0
 11
48.3
 21
89.0
 31
0.0
  0
LINE
  5
C4
330
1E
100
AcDbEntity
  8
0
100
AcDbLine
 10
48.3
 20
89.0
 30
0.0
 11
48.5
 21
89.0
 31
0.0
  0
LINE
  5
C5
330
1E
100
AcDbEntity
  8
0
100
AcDbLine
 10
38.5
 20
86.28571428571431
 30
0.0
 11
38.5
 21
89.0
 31
0.0
  0
LINE
  5
C6
330
1E
100
AcDbEntity
  8
0
100
AcDbLine
 10
49.3667
 20
37.63329999999999
 30
0.0
 11
50.7
 21
39.3667
 31
0.0
  0
LINE
  5
C7
330
1E
100
AcDbEntity
  8
0
100
AcDbLine
 10
49.3667
 20
49.3667
 30
0.0
 11
50.7
 21
47.63329999999999
 31
0.0
  0
LINE
  5
C8
330
1E
100
AcDbEntity
  8
0
100
AcDbLine
 10
49.16669999999999
 20
49.16669999999999
 30
0.0
 11
50.4333
 21
47.5
 31
0.0
  0
LINE
  5
C9
330
1E
100
AcDbEntity
  8
0
100
AcDbLine
 10
49.16669999999999
 20
37.8333
 30
0.0
 11
50.4333
 21
39.5
 31
0.0
  0
LINE
  5
CA
330
1E
100
AcDbEntity
  8
0
100
AcDbLine
 10
48.5
 20
89.0
 30
0.0
 11
49.6
 21
89.0
 31
0.0
  0
LINE
  5
CB
330
1E
100
AcDbEntity
  8
0
100
AcDbLine
 10
48.5
 20
89.0
 30
0.0
 11
48.5
 21
86.28571428571431
 31
0.0
  0
LINE
  5
CC
330
1E
100
AcDbEntity
  8
0
100
AcDbLine
 10
49.6
 20
89.0
 30
0.0
 11
50.2
 21
89.0
 31
0.0
  0
LINE
  5
CD
330
1E
100
AcDbEntity
  8
0
100
AcDbLine
 10
54.7
 20
1.6
 30
0.0
 11
65.09999999999999
 21
5.800000000000009
 31
0.0
  0
LINE
  5
CE
330
1E
100
AcDbEntity
  8
0
100
AcDbLine
 10
54.7
 20
1.6
 30
0.0
 11
65.09999999999999
 21
5.800000000000009
 31
0.0
  0
LINE
  5
CF
330
1E
100
AcDbEntity
  8
0
100
AcDbLine
 10
52.4
 20
10.2
 30
0.0
 11
60.6
 21
13.6
 31
0.0
  0
LINE
  5
D0
330
1E
100
AcDbEntity
  8
0
100
AcDbLine
 10
50.94
 20
30.48
 30
0.0
 11
54.11999999999999
 21
32.88
 31
0.0
  0
LINE
  5
D1
330
1E
100
AcDbEntity
  8
0
100
AcDbLine
 10
50.3
 20
36.7
 30
0.0
 11
51.9
 21
38.7
 31
0.0
  0
LINE
  5
D2
330
1E
100
AcDbEntity
  8
0
100
AcDbLine
 10
50.5667
 20
36.4333
 30
0.0
 11
52.1667
 21
38.5
 31
0.0
  0
LINE
  5
D3
330
1E
100
AcDbEntity
  8
0
100
AcDbLine
 10
52.1667
 20
38.5
 30
0.0
 11
53.1667
 21
40.89999999999999
 31
0.0
  0
LINE
  5
D4
330
1E
100
AcDbEntity
  8
0
100
AcDbLine
 10
51.9
 20
38.7
 30
0.0
 11
52.8333
 21
41.03329999999999
 31
0.0
  0
LINE
  5
D5
330
1E
100
AcDbEntity
  8
0
100
AcDbLine
 10
50.7
 20
39.3667
 30
0.0
 11
51.5
 21
41.3667
 31
0.0
  0
LINE
  5
D6
330
1E
100
AcDbEntity
  8
0
100
AcDbLine
 10
50.4333
 20
39.5
 30
0.0
 11
51.2333
 21
41.4333
 31
0.0
  0
LINE
  5
D7
330
1E
100
AcDbEntity
  8
0
100
AcDbLine
 10
54.11999999999999
 20
32.88
 30
0.0
 11
56.52000000000001
 21
36.06
 31
0.0
  0
LINE
  5
D8
330
1E
100
AcDbEntity
  8
0
100
AcDbLine
 10
74.2
 20
12.8
 30
0.0
 11
81.2
 21
21.89999999999999
 31
0.0
  0
LINE
  5
D9
330
1E
100
AcDbEntity
  8
0
100
AcDbLine
 10
65.09999999999999
 20
5.800000000000009
 30
0.0
 11
74.2
 21
12.8
 31
0.0
  0
LINE
  5
DA
330
1E
100
AcDbEntity
  8
0
100
AcDbLine
 10
67.9
 20
19.1
 30
0.0
 11
73.4
 21
26.4
 31
0.0
  0
LINE
  5
DB
330
1E
100
AcDbEntity
  8
0
100
AcDbLine
 10
81.2
 20
21.89999999999999
 30
0.0
 11
85.4
 21
32.29999999999999
 31
0.0
  0
LINE
  5
DC
330
1E
100
AcDbEntity
  8
0
100
AcDbLine
 10
85.4
 20
32.29999999999999
 30
0.0
 11
87.0
 21
43.5
 31
0.0
  0
LINE
  5
DD
330
1E
100
AcDbEntity
  8
0
100
AcDbLine
 10
73.4
 20
26.4
 30
0.0
 11
76.79999999999999
 21
34.6
 31
0.0
  0
LINE
  5
DE
330
1E
100
AcDbEntity
  8
0
100
AcDbLine
 10
60.6
 20
13.6
 30
0.0
 11
67.9
 21
19.1
 31
0.0
  0
LINE
  5
DF
330
1E
100
AcDbEntity
  8
0
100
AcDbLine
 10
56.52000000000001
 20
36.06
 30
0.0
 11
57.96
 21
39.65999999999999
 31
0.0
  0
LINE
  5
E0
330
1E
100
AcDbEntity
  8
0
100
AcDbLine
 10
50.3
 20
50.3
 30
0.0
 11
51.9
 21
48.3
 31
0.0
  0
LINE
  5
E1
330
1E
100
AcDbEntity
  8
0
100
AcDbLine
 10
50.5667
 20
50.5667
 30
0.0
 11
52.1667
 21
48.5
 31
0.0
  0
LINE
  5
E2
330
1E
100
AcDbEntity
  8
0
100
AcDbLine
 10
50.7
 20
47.63329999999999
 30
0.0
 11
51.5
 21
45.63329999999999
 31
0.0
  0
LINE
  5
E3
330
1E
100
AcDbEntity
  8
0
100
AcDbLine
 10
50.4333
 20
47.5
 30
0.0
 11
51.2333
 21
45.56669999999999
 31
0.0
  0
LINE
  5
E4
330
1E
100
AcDbEntity
  8
0
100
AcDbLine
 10
51.2333
 20
45.56669999999999
 30
0.0
 11
51.5
 21
43.5
 31
0.0
  0
LINE
  5
E6
330
1E
100
AcDbEntity
  8
0
100
AcDbLine
 10
52.8333
 20
41.03329999999999
 30
0.0
 11
53.1667
 21
43.5
 31
0.0
  0
LINE
  5
E7
330
1E
100
AcDbEntity
  8
0
100
AcDbLine
 10
52.1667
 20
48.5
 30
0.0
 11
53.1667
 21
46.1
 31
0.0
  0
LINE
  5
E8
330
1E
100
AcDbEntity
  8
0
100
AcDbLine
 10
53.1667
 20
46.1
 30
0.0
 11
53.5
 21
43.5
 31
0.0
  0
LINE
  5
E9
330
1E
100
AcDbEntity
  8
0
100
AcDbLine
 10
51.9
 20
48.3
 30
0.0
 11
52.8333
 21
45.9667
 31
0.0
  0
LINE
  5
EA
330
1E
100
AcDbEntity
  8
0
100
AcDbLine
 10
52.8333
 20
45.9667
 30
0.0
 11
53.1667
 21
43.5
 31
0.0
  0
LINE
  5
EB
330
1E
100
AcDbEntity
  8
0
100
AcDbLine
 10
51.5
 20
45.63329999999999
 30
0.0
 11
51.8333
 21
43.5
 31
0.0
  0
LINE
  5
EC
330
1E
100
AcDbEntity
  8
0
100
AcDbLine
 10
51.5
 20
41.3667
 30
0.0
 11
51.8333
 21
43.5
 31
0.0
  0
LINE
  5
ED
330
1E
100
AcDbEntity
  8
0
100
AcDbLine
 10
51.2333
 20
41.4333
 30
0.0
 11
51.5
 21
43.5
 31
0.0
  0
LINE
  5
EE
330
1E
100
AcDbEntity
  8
0
100
AcDbLine
 10
50.94
 20
56.52000000000001
 30
0.0
 11
54.11999999999999
 21
54.11999999999999
 31
0.0
  0
LINE
  5
EF
330
1E
100
AcDbEntity
  8
0
100
AcDbLine
 10
54.7
 20
85.4
 30
0.0
 11
65.09999999999999
 21
81.2
 31
0.0
  0
LINE
  5
F0
330
1E
100
AcDbEntity
  8
0
100
AcDbLine
 10
54.11999999999999
 20
54.11999999999999
 30
0.0
 11
56.52000000000001
 21
50.94
 31
0.0
  0
LINE
  5
F1
330
1E
100
AcDbEntity
  8
0
100
AcDbLine
 10
56.52000000000001
 20
50.94
 30
0.0
 11
57.96
 21
47.34
 31
0.0
  0
LINE
  5
F2
330
1E
100
AcDbEntity
  8
0
100
AcDbLine
 10
67.9
 20
67.9
 30
0.0
 11
73.4
 21
60.6
 31
0.0
  0
LINE
  5
F3
330
1E
100
AcDbEntity
  8
0
100
AcDbLine
 10
65.09999999999999
 20
81.2
 30
0.0
 11
74.2
 21
74.2
 31
0.0
  0
LINE
  5
F4
330
1E
100
AcDbEntity
  8
0
100
AcDbLine
 10
60.6
 20
73.4
 30
0.0
 11
67.9
 21
67.9
 31
0.0
  0
LINE
  5
F5
330
1E
100
AcDbEntity
  8
0
100
AcDbLine
 10
74.2
 20
74.2
 30
0.0
 11
81.2
 21
65.09999999999999
 31
0.0
  0
LINE
  5
F6
330
1E
100
AcDbEntity
  8
0
100
AcDbLine
 10
81.2
 20
65.09999999999999
 30
0.0
 11
85.4
 21
54.7
 31
0.0
  0
LINE
  5
F7
330
1E
100
AcDbEntity
  8
0
100
AcDbLine
 10
85.4
 20
54.7
 30
0.0
 11
87.0
 21
43.5
 31
0.0
  0
LINE
  5
F8
330
1E
100
AcDbEntity
  8
0
100
AcDbLine
 10
73.4
 20
60.6
 30
0.0
 11
76.79999999999999
 21
52.4
 31
0.0
  0
LINE
  5
F9
330
1E
100
AcDbEntity
  8
0
100
AcDbLine
 10
76.79999999999999
 20
52.4
 30
0.0
 11
78.0
 21
43.5
 31
0.0
  0
LINE
  5
FA
330
1E
100
AcDbEntity
  8
0
100
AcDbLine
 10
57.96
 20
47.34
 30
0.0
 11
58.5
 21
43.5
 31
0.0
  0
LINE
  5
FB
330
1E
100
AcDbEntity
  8
0
100
AcDbLine
 10
57.96
 20
39.65999999999999
 30
0.0
 11
58.5
 21
43.5
 31
0.0
  0
LINE
  5
FC
330
1E
100
AcDbEntity
  8
0
100
AcDbLine
 10
50.2
 20
89.0
 30
0.0
 11
50.5
 21
89.0
 31
0.0
  0
LINE
  5
FD
330
1E
100
AcDbEntity
  8
0
100
AcDbLine
 10
50.5
 20
89.0
 30
0.0
 11
52.0
 21
89.50000000000001
 31
0.0
  0
LINE
  5
FE
330
1E
100
AcDbEntity
  8
0
100
AcDbLine
 10
37.4
 20
89.0
 30
0.0
 11
38.5
 21
89.0
 31
0.0
  0
LINE
  5
FF
330
1E
100
AcDbEntity
  8
0
100
AcDbLine
 10
42.2
 20
89.0
 30
0.0
 11
43.5
 21
89.0
 31
0.0
  0
LINE
  5
100
330
1E
100
AcDbEntity
  8
0
100
AcDbLine
 10
41.0
 20
89.0
 30
0.0
 11
42.2
 21
89.0
 31
0.0
  0
LINE
  5
101
330
1E
100
AcDbEntity
  8
0
100
AcDbLine
 10
40.0
 20
89.0
 30
0.0
 11
41.0
 21
89.0
 31
0.0
  0
LINE
  5
102
330
1E
100
AcDbEntity
  8
0
100
AcDbLine
 10
43.5
 20
89.0
 30
0.0
 11
44.79999999999999
 21
89.0
 31
0.0
  0
LINE
  5
103
330
1E
100
AcDbEntity
  8
0
100
AcDbLine
 10
44.79999999999999
 20
89.0
 30
0.0
 11
46.0
 21
89.0
 31
0.0
  0
LINE
  5
104
330
1E
100
AcDbEntity
  8
0
100
AcDbLine
 10
46.0
 20
89.0
 30
0.0
 11
47.0
 21
89.0
 31
0.0
  0
LINE
  5
105
330
1E
100
AcDbEntity
  8
0
100
AcDbLine
 10
47.0
 20
89.0
 30
0.0
 11
47.8
 21
89.0
 31
0.0
  0
LINE
  5
106
330
1E
100
AcDbEntity
  8
0
100
AcDbLine
 10
52.0
 20
89.50000000000001
 30
0.0
 11
53.0
 21
90.5
 31
0.0
  0
LINE
  5
107
330
1E
100
AcDbEntity
  8
0
100
AcDbLine
 10
53.0
 20
90.5
 30
0.0
 11
53.5
 21
92.0
 31
0.0
  0
LINE
  5
108
330
1E
100
AcDbEntity
  8
0
100
AcDbLine
 10
36.79999999999999
 20
89.0
 30
0.0
 11
37.4
 21
89.0
 31
0.0
  0
LINE
  5
109
330
1E
100
AcDbEntity
  8
0
100
AcDbLine
 10
36.5
 20
89.0
 30
0.0
 11
36.79999999999999
 21
89.0
 31
0.0
  0
LINE
  5
10A
330
1E
100
AcDbEntity
  8
0
100
AcDbLine
 10
34.79999999999999
 20
92.0
 30
0.0
 11
36.4
 21
92.0
 31
0.0
  0
LINE
  5
10B
330
1E
100
AcDbEntity
  8
0
100
AcDbLine
 10
33.9
 20
92.0
 30
0.0
 11
34.79999999999999
 21
92.0
 31
0.0
  0
LINE
  5
10C
330
1E
100
AcDbEntity
  8
0
100
AcDbLine
 10
36.4
 20
92.0
 30
0.0
 11
38.5
 21
92.0
 31
0.0
  0
LINE
  5
10D
330
1E
100
AcDbEntity
  8
0
100
AcDbLine
 10
36.29999999999999
 20
92.55799999999998
 30
0.0
 11
39.8
 21
92.55799999999998
 31
0.0
  0
LINE
  5
10E
330
1E
100
AcDbEntity
  8
0
100
AcDbLine
 10
36.0
 20
103.1539999999999
 30
0.0
 11
39.6
 21
103.1539999999999
 31
0.0
  0
LINE
  5
10F
330
1E
100
AcDbEntity
  8
0
100
AcDbLine
 10
34.79999999999999
 20
104.827
 30
0.0
 11
39.0
 21
104.827
 31
0.0
  0
LINE
  5
110
330
1E
100
AcDbEntity
  8
0
100
AcDbLine
 10
39.8
 20
92.55799999999998
 30
0.0
 11
43.5
 21
92.55799999999998
 31
0.0
  0
LINE
  5
111
330
1E
100
AcDbEntity
  8
0
100
AcDbLine
 10
39.6
 20
103.1539999999999
 30
0.0
 11
43.5
 21
103.1539999999999
 31
0.0
  0
LINE
  5
112
330
1E
100
AcDbEntity
  8
0
100
AcDbLine
 10
39.0
 20
104.827
 30
0.0
 11
43.5
 21
104.827
 31
0.0
  0
LINE
  5
113
330
1E
100
AcDbEntity
  8
0
100
AcDbLine
 10
36.7
 20
118.212
 30
0.0
 11
43.5
 21
118.212
 31
0.0
  0
LINE
  5
114
330
1E
100
AcDbEntity
  8
0
100
AcDbLine
 10
36.6
 20
121.0
 30
0.0
 11
43.5
 21
121.0
 31
0.0
  0
LINE
  5
115
330
1E
100
AcDbEntity
  8
0
100
AcDbLine
 10
38.5
 20
92.0
 30
0.0
 11
40.89999999999999
 21
92.0
 31
0.0
  0
LINE
  5
116
330
1E
100
AcDbEntity
  8
0
100
AcDbLine
 10
48.5
 20
92.0
 30
0.0
 11
50.6
 21
92.0
 31
0.0
  0
LINE
  5
117
330
1E
100
AcDbEntity
  8
0
100
AcDbLine
 10
46.1
 20
92.0
 30
0.0
 11
48.5
 21
92.0
 31
0.0
  0
LINE
  5
118
330
1E
100
AcDbEntity
  8
0
100
AcDbLine
 10
43.5
 20
92.0
 30
0.0
 11
46.1
 21
92.0
 31
0.0
  0
LINE
  5
119
330
1E
100
AcDbEntity
  8
0
100
AcDbLine
 10
50.6
 20
92.0
 30
0.0
 11
52.2
 21
92.0
 31
0.0
  0
LINE
  5
11A
330
1E
100
AcDbEntity
  8
0
100
AcDbLine
 10
53.5
 20
92.0
 30
0.0
 11
54.8
 21
92.0
 31
0.0
  0
LINE
  5
11B
330
1E
100
AcDbEntity
  8
0
100
AcDbLine
 10
54.8
 20
92.0
 30
0.0
 11
56.0
 21
92.0
 31
0.0
  0
LINE
  5
11C
330
1E
100
AcDbEntity
  8
0
100
AcDbLine
 10
56.5
 20
92.0
 30
0.0
 11
58.0
 21
92.55799999999998
 31
0.0
  0
LINE
  5
11D
330
1E
100
AcDbEntity
  8
0
100
AcDbLine
 10
56.0
 20
92.0
 30
0.0
 11
56.5
 21
92.0
 31
0.0
  0
LINE
  5
11E
330
1E
100
AcDbEntity
  8
0
100
AcDbLine
 10
52.2
 20
92.0
 30
0.0
 11
53.1
 21
92.0
 31
0.0
  0
LINE
  5
11F
330
1E
100
AcDbEntity
  8
0
100
AcDbLine
 10
53.7
 20
92.55799999999998
 30
0.0
 11
56.1
 21
92.55799999999998
 31
0.0
  0
LINE
  5
120
330
1E
100
AcDbEntity
  8
0
100
AcDbLine
 10
56.1
 20
92.55799999999998
 30
0.0
 11
57.5
 21
92.55799999999998
 31
0.0
  0
LINE
  5
121
330
1E
100
AcDbEntity
  8
0
100
AcDbLine
 10
57.5
 20
92.55799999999998
 30
0.0
 11
58.0
 21
92.55799999999998
 31
0.0
  0
LINE
  5
122
330
1E
100
AcDbEntity
  8
0
100
AcDbLine
 10
50.7
 20
92.55799999999998
 30
0.0
 11
53.7
 21
92.55799999999998
 31
0.0
  0
LINE
  5
123
330
1E
100
AcDbEntity
  8
0
100
AcDbLine
 10
47.2
 20
92.55799999999998
 30
0.0
 11
50.7
 21
92.55799999999998
 31
0.0
  0
LINE
  5
124
330
1E
100
AcDbEntity
  8
0
100
AcDbLine
 10
43.5
 20
92.55799999999998
 30
0.0
 11
47.2
 21
92.55799999999998
 31
0.0
  0
LINE
  5
125
330
1E
100
AcDbEntity
  8
0
100
AcDbLine
 10
54.1
 20
103.1539999999999
 30
0.0
 11
56.5
 21
103.1539999999999
 31
0.0
  0
LINE
  5
126
330
1E
100
AcDbEntity
  8
0
100
AcDbLine
 10
58.5
 20
94.23100000000001
 30
0.0
 11
58.5
 21
103.1539999999999
 31
0.0
  0
LINE
  5
127
330
1E
100
AcDbEntity
  8
0
100
AcDbLine
 10
56.5
 20
103.1539999999999
 30
0.0
 11
58.0
 21
103.1539999999999
 31
0.0
  0
LINE
  5
128
330
1E
100
AcDbEntity
  8
0
100
AcDbLine
 10
58.0
 20
103.1539999999999
 30
0.0
 11
58.5
 21
103.1539999999999
 31
0.0
  0
LINE
  5
129
330
1E
100
AcDbEntity
  8
0
100
AcDbLine
 10
51.0
 20
103.1539999999999
 30
0.0
 11
54.1
 21
103.1539999999999
 31
0.0
  0
LINE
  5
12A
330
1E
100
AcDbEntity
  8
0
100
AcDbLine
 10
47.4
 20
103.1539999999999
 30
0.0
 11
51.0
 21
103.1539999999999
 31
0.0
  0
LINE
  5
12B
330
1E
100
AcDbEntity
  8
0
100
AcDbLine
 10
43.5
 20
103.1539999999999
 30
0.0
 11
47.4
 21
103.1539999999999
 31
0.0
  0
LINE
  5
12C
330
1E
100
AcDbEntity
  8
0
100
AcDbLine
 10
58.0
 20
92.55799999999998
 30
0.0
 11
58.5
 21
94.23100000000001
 31
0.0
  0
LINE
  5
12D
330
1E
100
AcDbEntity
  8
0
100
AcDbLine
 10
58.5
 20
103.1539999999999
 30
0.0
 11
59.5
 21
104.2689999999999
 31
0.0
  0
LINE
  5
12E
330
1E
100
AcDbEntity
  8
0
100
AcDbLine
 10
58.5
 20
103.1539999999999
 30
0.0
 11
58.5
 21
94.23100000000001
 31
0.0
  0
LINE
  5
12F
330
1E
100
AcDbEntity
  8
0
100
AcDbLine
 10
55.89999999999999
 20
104.827
 30
0.0
 11
58.7
 21
104.827
 31
0.0
  0
LINE
  5
130
330
1E
100
AcDbEntity
  8
0
100
AcDbLine
 10
58.7
 20
104.827
 30
0.0
 11
60.4
 21
104.827
 31
0.0
  0
LINE
  5
131
330
1E
100
AcDbEntity
  8
0
100
AcDbLine
 10
60.4
 20
104.827
 30
0.0
 11
61.0
 21
104.827
 31
0.0
  0
LINE
  5
132
330
1E
100
AcDbEntity
  8
0
100
AcDbLine
 10
52.2
 20
104.827
 30
0.0
 11
55.89999999999999
 21
104.827
 31
0.0
  0
LINE
  5
133
330
1E
100
AcDbEntity
  8
0
100
AcDbLine
 10
48.0
 20
104.827
 30
0.0
 11
52.2
 21
104.827
 31
0.0
  0
LINE
  5
134
330
1E
100
AcDbEntity
  8
0
100
AcDbLine
 10
43.5
 20
104.827
 30
0.0
 11
48.0
 21
104.827
 31
0.0
  0
LINE
  5
135
330
1E
100
AcDbEntity
  8
0
100
AcDbLine
 10
59.5
 20
104.2689999999999
 30
0.0
 11
61.0
 21
104.827
 31
0.0
  0
LINE
  5
136
330
1E
100
AcDbEntity
  8
0
100
AcDbLine
 10
61.5
 20
106.4999999999999
 30
0.0
 11
61.5
 21
107.6149999999999
 31
0.0
  0
LINE
  5
137
330
1E
100
AcDbEntity
  8
0
100
AcDbLine
 10
61.0
 20
104.827
 30
0.0
 11
61.5
 21
106.4999999999999
 31
0.0
  0
LINE
  5
138
330
1E
100
AcDbEntity
  8
0
100
AcDbLine
 10
61.5
 20
107.6149999999999
 30
0.0
 11
63.0
 21
112.077
 31
0.0
  0
LINE
  5
139
330
1E
100
AcDbEntity
  8
0
100
AcDbLine
 10
61.5
 20
107.6149999999999
 30
0.0
 11
61.5
 21
106.4999999999999
 31
0.0
  0
LINE
  5
13A
330
1E
100
AcDbEntity
  8
0
100
AcDbLine
 10
63.0
 20
112.077
 30
0.0
 11
66.0
 21
115.981
 31
0.0
  0
LINE
  5
13B
330
1E
100
AcDbEntity
  8
0
100
AcDbLine
 10
62.2
 20
118.212
 30
0.0
 11
66.5
 21
118.212
 31
0.0
  0
LINE
  5
13C
330
1E
100
AcDbEntity
  8
0
100
AcDbLine
 10
66.5
 20
118.212
 30
0.0
 11
69.0
 21
118.212
 31
0.0
  0
LINE
  5
13D
330
1E
100
AcDbEntity
  8
0
100
AcDbLine
 10
56.7
 20
118.212
 30
0.0
 11
62.2
 21
118.212
 31
0.0
  0
LINE
  5
13E
330
1E
100
AcDbEntity
  8
0
100
AcDbLine
 10
50.3
 20
118.212
 30
0.0
 11
56.7
 21
118.212
 31
0.0
  0
LINE
  5
13F
330
1E
100
AcDbEntity
  8
0
100
AcDbLine
 10
43.5
 20
118.212
 30
0.0
 11
50.3
 21
118.212
 31
0.0
  0
LINE
  5
140
330
1E
100
AcDbEntity
  8
0
100
AcDbLine
 10
66.0
 20
115.981
 30
0.0
 11
68.5
 21
117.6539999999999
 31
0.0
  0
LINE
  5
141
330
1E
100
AcDbEntity
  8
0
100
AcDbLine
 10
69.0
 20
118.212
 30
0.0
 11
70.0
 21
118.212
 31
0.0
  0
LINE
  5
142
330
1E
100
AcDbEntity
  8
0
100
AcDbLine
 10
68.5
 20
117.6539999999999
 30
0.0
 11
70.0
 21
118.212
 31
0.0
  0
LINE
  5
143
330
1E
100
AcDbEntity
  8
0
100
AcDbLine
 10
62.6
 20
121.0
 30
0.0
 11
66.90000000000001
 21
121.0
 31
0.0
  0
LINE
  5
144
330
1E
100
AcDbEntity
  8
0
100
AcDbLine
 10
70.5
 20
119.8849999999999
 30
0.0
 11
70.5
 21
121.0
 31
0.0
  0
LINE
  5
145
330
1E
100
AcDbEntity
  8
0
100
AcDbLine
 10
66.90000000000001
 20
121.0
 30
0.0
 11
69.5
 21
121.0
 31
0.0
  0
LINE
  5
146
330
1E
100
AcDbEntity
  8
0
100
AcDbLine
 10
69.5
 20
121.0
 30
0.0
 11
70.5
 21
121.0
 31
0.0
  0
LINE
  5
147
330
1E
100
AcDbEntity
  8
0
100
AcDbLine
 10
56.9
 20
121.0
 30
0.0
 11
62.6
 21
121.0
 31
0.0
  0
LINE
  5
148
330
1E
100
AcDbEntity
  8
0
100
AcDbLine
 10
50.4
 20
121.0
 30
0.0
 11
56.9
 21
121.0
 31
0.0
  0
LINE
  5
149
330
1E
100
AcDbEntity
  8
0
100
AcDbLine
 10
43.5
 20
121.0
 30
0.0
 11
50.4
 21
121.0
 31
0.0
  0
LINE
  5
14A
330
1E
100
AcDbEntity
  8
0
100
AcDbLine
 10
70.0
 20
118.212
 30
0.0
 11
70.5
 21
119.8849999999999
 31
0.0
  0
LINE
  5
14B
330
1E
100
AcDbEntity
  8
0
100
AcDbLine
 10
70.5
 20
121.0
 30
0.0
 11
70.5
 21
119.8849999999999
 31
0.0
  0
LINE
  5
14C
330
1E
100
AcDbEntity
  8
0
100
AcDbLine
 10
53.1
 20
92.0
 30
0.0
 11
53.5
 21
92.0
 31
0.0
  0
LINE
  5
14D
330
1E
100
AcDbEntity
  8
0
100
AcDbLine
 10
40.89999999999999
 20
92.0
 30
0.0
 11
43.5
 21
92.0
 31
0.0
  0
LINE
  5
14E
330
1E
100
AcDbEntity
  8
0
100
AcDbLine
 10
34.0
 20
90.5
 30
0.0
 11
35.0
 21
89.50000000000001
 31
0.0
  0
LINE
  5
14F
330
1E
100
AcDbEntity
  8
0
100
AcDbLine
 10
33.5
 20
92.0
 30
0.0
 11
34.0
 21
90.5
 31
0.0
  0
LINE
  5
150
330
1E
100
AcDbEntity
  8
0
100
AcDbLine
 10
33.5
 20
92.0
 30
0.0
 11
33.9
 21
92.0
 31
0.0
  0
LINE
  5
155
330
1E
100
AcDbEntity
  8
0
100
AcDbLine
 10
52.4
 20
76.79999999999999
 30
0.0
 11
60.6
 21
73.4
 31
0.0
  0
LINE
  5
156
330
1E
100
AcDbEntity
  8
0
100
AcDbLine
 10
78.0
 20
43.5
 30
0.0
 11
76.79999999999999
 21
34.6
 31
0.0
  0
LINE
  5
157
330
1E
100
AcDbEntity
  8
0
100
AcDbLine
 10
10.2
 20
52.4
 30
0.0
 11
14.4575412517172
 21
62.53771411991306
 31
0.0
  0
LINE
  5
158
330
1E
100
AcDbEntity
  8
0
100
AcDbLine
 10
14.4575412517172
 20
62.53771411991306
 30
0.0
 11
20.86298848234935
 21
70.47519968816601
 31
0.0
  0
LINE
  5
159
330
1E
100
AcDbEntity
  8
0
100
AcDbLine
 10
20.86298848234935
 20
70.47519968816601
 30
0.0
 11
27.57589742074992
 21
74.93043335108637
 31
0.0
  0
LINE
  5
15A
330
1E
100
AcDbEntity
  8
0
100
AcDbLine
 10
27.57589742074992
 20
74.93043335108637
 30
0.0
 11
34.6
 21
76.79999999999999
 31
0.0
  0
LINE
  5
15B
330
1E
100
AcDbEntity
  8
0
100
AcDbLine
 10
38.5
 20
52.1667
 30
0.0
 11
36.4333
 21
50.5667
 31
0.0
  0
LINE
  5
15C
330
1E
100
AcDbEntity
  8
0
100
AcDbLine
 10
40.89999999999999
 20
33.8333
 30
0.0
 11
43.5
 21
33.5
 31
0.0
  0
LINE
  5
15D
330
1E
100
AcDbEntity
  8
0
100
AcDbLine
 10
46.1
 20
33.8333
 30
0.0
 11
48.44210055067605
 21
34.85728218556778
 31
0.0
  0
LINE
  5
15E
330
1E
100
AcDbEntity
  8
0
100
AcDbLine
 10
48.44210055067605
 20
34.85728218556778
 30
0.0
 11
50.5667
 21
36.4333
 31
0.0
  0
LINE
  5
15F
330
1E
100
AcDbEntity
  8
0
100
AcDbLine
 10
53.1667
 20
40.89999999999999
 30
0.0
 11
53.5
 21
43.5
 31
0.0
  0
LINE
  5
160
330
1E
100
AcDbEntity
  8
0
100
AcDbLine
 10
40.89999999999999
 20
53.1667
 30
0.0
 11
43.5
 21
53.5
 31
0.0
  0
ENDSEC
  0
SECTION
  2
OBJECTS
  0
DICTIONARY
  5
C
330
0
100
AcDbDictionary
281
     1
  3
ACAD_GROUP
350
D
  3
ACAD_LAYOUT
350
19
  3
ACAD_MLINESTYLE
350
16
  3
ACAD_PLOTSETTINGS
350
18
  3
ACAD_PLOTSTYLENAME
350
E
  3
AcDbVariableDictionary
350
161
  0
DICTIONARY
  5
D
102
{ACAD_REACTORS
330
C
102
}
330
C
100
AcDbDictionary
281
     1
  0
DICTIONARY
  5
19
102
{ACAD_REACTORS
330
C
102
}
330
C
100
AcDbDictionary
281
     1
  3
Layout1
350
1D
  3
Model
350
21
  0
DICTIONARY
  5
16
102
{ACAD_REACTORS
330
C
102
}
330
C
100
AcDbDictionary
281
     1
  3
Standard
350
17
  0
DICTIONARY
  5
18
102
{ACAD_REACTORS
330
C
102
}
330
C
100
AcDbDictionary
281
     1
  0
ACDBDICTIONARYWDFLT
  5
E
102
{ACAD_REACTORS
330
C
102
}
330
C
100
AcDbDictionary
281
     1
  3
Normal
350
F
100
AcDbDictionaryWithDefault
340
F
  0
DICTIONARY
  5
161
102
{ACAD_REACTORS
330
C
102
}
330
C
100
AcDbDictionary
281
     1
  3
DIMASSOC
350
162
  0
LAYOUT
  5
1D
102
{ACAD_REACTORS
330
19
102
}
330
19
100
AcDbPlotSettings
  1

  2
hp deskjet 980c series
  4

  6

 40
0.0
 41
0.0
 42
0.0
 43
0.0
 44
0.0
 45
0.0
 46
0.0
 47
0.0
 48
0.0
 49
0.0
140
0.0
141
0.0
142
1.0
143
1.0
 70
   688
 72
     0
 73
     0
 74
     5
  7

 75
    16
147
1.0
148
0.0
149
0.0
100
AcDbLayout
  1
Layout1
 70
     1
 71
     1
 10
0.0
 20
0.0
 11
12.0
 21
9.0
 12
0.0
 22
0.0
 32
0.0
 14
1.000000000000000E+20
 24
1.000000000000000E+20
 34
1.000000000000000E+20
 15
-1.000000000000000E+20
 25
-1.000000000000000E+20
 35
-1.000000000000000E+20
146
0.0
 13
0.0
 23
0.0
 33
0.0
 16
1.0
 26
0.0
 36
0.0
 17
0.0
 27
1.0
 37
0.0
 76
     0
330
1A
  0
LAYOUT
  5
21
102
{ACAD_REACTORS
330
19
102
}
330
19
100
AcDbPlotSettings
  1

  2
hp deskjet 980c series
  4

  6

 40
0.0
 41
0.0
 42
0.0
 43
0.0
 44
0.0
 45
0.0
 46
0.0
 47
0.0
 48
0.0
 49
0.0
140
0.0
141
0.0
142
1.0
143
1.0
 70
  1712
 72
     0
 73
     0
 74
     0
  7

 75
     0
147
1.0
148
0.0
149
0.0
100
AcDbLayout
  1
Model
 70
     1
 71
     0
 10
0.0
 20
0.0
 11
12.0
 21
9.0
 12
0.0
 22
0.0
 32
0.0
 14
0.0
 24
0.0
 34
0.0
 15
0.0
 25
0.0
 35
0.0
146
0.0
 13
0.0
 23
0.0
 33
0.0
 16
1.0
 26
0.0
 36
0.0
 17
0.0
 27
1.0
 37
0.0
 76
     0
330
1E
  0
MLINESTYLE
  5
17
102
{ACAD_REACTORS
330
16
102
}
330
16
100
AcDbMlineStyle
  2
STANDARD
 70
     0
  3

 62
   256
 51
90.0
 52
90.0
 71
     2
 49
0.5
 62
   256
  6
BYLAYER
 49
-0.5
 62
   256
  6
BYLAYER
  0
ACDBPLACEHOLDER
  5
F
102
{ACAD_REACTORS
330
E
102
}
330
E
  0
DICTIONARYVAR
  5
162
102
{ACAD_REACTORS
330
161
102
}
330
161
100
DictionaryVariables
280
     0
  1
1
  0
ENDSEC
  0
EOF
