  0
SECTION
  2
HEADER
  9
$ACADVER
  1
AC1015
  9
$ACADMAINTVER
 70
    13
  9
$DWGCODEPAGE
  3
ANSI_1252
  9
$INSBASE
 10
0.0
 20
0.0
 30
0.0
  9
$EXTMIN
 10
-0.0000000000000008
 20
0.0000000000000009
 30
0.0
  9
$EXTMAX
 10
60.0
 20
240.0
 30
0.0
  9
$LIMMIN
 10
0.0
 20
0.0
  9
$LIMMAX
 10
12.0
 20
9.0
  9
$ORTHOMODE
 70
     0
  9
$REGENMODE
 70
     1
  9
$FILLMODE
 70
     1
  9
$QTEXTMODE
 70
     0
  9
$MIRRTEXT
 70
     1
  9
$LTSCALE
 40
1.0
  9
$ATTMODE
 70
     1
  9
$TEXTSIZE
 40
0.2
  9
$TRACEWID
 40
0.05
  9
$TEXTSTYLE
  7
Standard
  9
$CLAYER
  8
0
  9
$CELTYPE
  6
Continuous
  9
$CECOLOR
 62
   256
  9
$CELTSCALE
 40
1.0
  9
$DISPSILH
 70
     0
  9
$DIMSCALE
 40
1.0
  9
$DIMASZ
 40
0.18
  9
$DIMEXO
 40
0.0625
  9
$DIMDLI
 40
0.38
  9
$DIMRND
 40
0.0
  9
$DIMDLE
 40
0.0
  9
$DIMEXE
 40
0.18
  9
$DIMTP
 40
0.0
  9
$DIMTM
 40
0.0
  9
$DIMTXT
 40
0.18
  9
$DIMCEN
 40
0.09
  9
$DIMTSZ
 40
0.0
  9
$DIMTOL
 70
     0
  9
$DIMLIM
 70
     0
  9
$DIMTIH
 70
     1
  9
$DIMTOH
 70
     1
  9
$DIMSE1
 70
     0
  9
$DIMSE2
 70
     0
  9
$DIMTAD
 70
     0
  9
$DIMZIN
 70
     0
  9
$DIMBLK
  1

  9
$DIMASO
 70
     1
  9
$DIMSHO
 70
     1
  9
$DIMPOST
  1

  9
$DIMAPOST
  1

  9
$DIMALT
 70
     0
  9
$DIMALTD
 70
     2
  9
$DIMALTF
 40
25.4
  9
$DIMLFAC
 40
1.0
  9
$DIMTOFL
 70
     0
  9
$DIMTVP
 40
0.0
  9
$DIMTIX
 70
     0
  9
$DIMSOXD
 70
     0
  9
$DIMSAH
 70
     0
  9
$DIMBLK1
  1

  9
$DIMBLK2
  1

  9
$DIMSTYLE
  2
Standard
  9
$DIMCLRD
 70
     0
  9
$DIMCLRE
 70
     0
  9
$DIMCLRT
 70
     0
  9
$DIMTFAC
 40
1.0
  9
$DIMGAP
 40
0.09
  9
$DIMJUST
 70
     0
  9
$DIMSD1
 70
     0
  9
$DIMSD2
 70
     0
  9
$DIMTOLJ
 70
     1
  9
$DIMTZIN
 70
     0
  9
$DIMALTZ
 70
     0
  9
$DIMALTTZ
 70
     0
  9
$DIMUPT
 70
     0
  9
$DIMDEC
 70
     4
  9
$DIMTDEC
 70
     4
  9
$DIMALTU
 70
     2
  9
$DIMALTTD
 70
     2
  9
$DIMTXSTY
  7
Standard
  9
$DIMAUNIT
 70
     0
  9
$DIMADEC
 70
     0
  9
$DIMALTRND
 40
0.0
  9
$DIMAZIN
 70
     0
  9
$DIMDSEP
 70
    46
  9
$DIMATFIT
 70
     3
  9
$DIMFRAC
 70
     0
  9
$DIMLDRBLK
  1

  9
$DIMLUNIT
 70
     2
  9
$DIMLWD
 70
    -2
  9
$DIMLWE
 70
    -2
  9
$DIMTMOVE
 70
     0
  9
$LUNITS
 70
     2
  9
$LUPREC
 70
     4
  9
$SKETCHINC
 40
0.1
  9
$FILLETRAD
 40
0.0
  9
$AUNITS
 70
     0
  9
$AUPREC
 70
     0
  9
$MENU
  1
.
  9
$ELEVATION
 40
0.0
  9
$PELEVATION
 40
0.0
  9
$THICKNESS
 40
0.0
  9
$LIMCHECK
 70
     0
  9
$CHAMFERA
 40
0.0
  9
$CHAMFERB
 40
0.0
  9
$CHAMFERC
 40
0.0
  9
$CHAMFERD
 40
0.0
  9
$SKPOLY
 70
     0
  9
$TDCREATE
 40
2454748.442384572
  9
$TDUCREATE
 40
2454748.359051238
  9
$TDUPDATE
 40
2454748.445197789
  9
$TDUUPDATE
 40
2454748.361864456
  9
$TDINDWG
 40
0.0028134028
  9
$TDUSRTIMER
 40
0.0028134028
  9
$USRTIMER
 70
     1
  9
$ANGBASE
 50
0.0
  9
$ANGDIR
 70
     0
  9
$PDMODE
 70
     0
  9
$PDSIZE
 40
0.0
  9
$PLINEWID
 40
0.0
  9
$SPLFRAME
 70
     0
  9
$SPLINETYPE
 70
     6
  9
$SPLINESEGS
 70
     8
  9
$HANDSEED
  5
1CE
  9
$SURFTAB1
 70
     6
  9
$SURFTAB2
 70
     6
  9
$SURFTYPE
 70
     6
  9
$SURFU
 70
     6
  9
$SURFV
 70
     6
  9
$UCSBASE
  2

  9
$UCSNAME
  2

  9
$UCSORG
 10
0.0
 20
0.0
 30
0.0
  9
$UCSXDIR
 10
1.0
 20
0.0
 30
0.0
  9
$UCSYDIR
 10
0.0
 20
1.0
 30
0.0
  9
$UCSORTHOREF
  2

  9
$UCSORTHOVIEW
 70
     1
  9
$UCSORGTOP
 10
0.0
 20
0.0
 30
0.0
  9
$UCSORGBOTTOM
 10
0.0
 20
0.0
 30
0.0
  9
$UCSORGLEFT
 10
0.0
 20
0.0
 30
0.0
  9
$UCSORGRIGHT
 10
0.0
 20
0.0
 30
0.0
  9
$UCSORGFRONT
 10
0.0
 20
0.0
 30
0.0
  9
$UCSORGBACK
 10
0.0
 20
0.0
 30
0.0
  9
$PUCSBASE
  2

  9
$PUCSNAME
  2

  9
$PUCSORG
 10
0.0
 20
0.0
 30
0.0
  9
$PUCSXDIR
 10
1.0
 20
0.0
 30
0.0
  9
$PUCSYDIR
 10
0.0
 20
1.0
 30
0.0
  9
$PUCSORTHOREF
  2

  9
$PUCSORTHOVIEW
 70
     0
  9
$PUCSORGTOP
 10
0.0
 20
0.0
 30
0.0
  9
$PUCSORGBOTTOM
 10
0.0
 20
0.0
 30
0.0
  9
$PUCSORGLEFT
 10
0.0
 20
0.0
 30
0.0
  9
$PUCSORGRIGHT
 10
0.0
 20
0.0
 30
0.0
  9
$PUCSORGFRONT
 10
0.0
 20
0.0
 30
0.0
  9
$PUCSORGBACK
 10
0.0
 20
0.0
 30
0.0
  9
$USERI1
 70
     0
  9
$USERI2
 70
     0
  9
$USERI3
 70
     0
  9
$USERI4
 70
     0
  9
$USERI5
 70
     0
  9
$USERR1
 40
0.0
  9
$USERR2
 40
0.0
  9
$USERR3
 40
0.0
  9
$USERR4
 40
0.0
  9
$USERR5
 40
0.0
  9
$WORLDVIEW
 70
     1
  9
$SHADEDGE
 70
     3
  9
$SHADEDIF
 70
    70
  9
$TILEMODE
 70
     1
  9
$MAXACTVP
 70
    64
  9
$PINSBASE
 10
0.0
 20
0.0
 30
0.0
  9
$PLIMCHECK
 70
     0
  9
$PEXTMIN
 10
1.000000000000000E+20
 20
1.000000000000000E+20
 30
1.000000000000000E+20
  9
$PEXTMAX
 10
-1.000000000000000E+20
 20
-1.000000000000000E+20
 30
-1.000000000000000E+20
  9
$PLIMMIN
 10
0.0
 20
0.0
  9
$PLIMMAX
 10
12.0
 20
9.0
  9
$UNITMODE
 70
     0
  9
$VISRETAIN
 70
     1
  9
$PLINEGEN
 70
     0
  9
$PSLTSCALE
 70
     1
  9
$TREEDEPTH
 70
  3020
  9
$CMLSTYLE
  2
Standard
  9
$CMLJUST
 70
     0
  9
$CMLSCALE
 40
1.0
  9
$PROXYGRAPHICS
 70
     1
  9
$MEASUREMENT
 70
     0
  9
$CELWEIGHT
370
    -1
  9
$ENDCAPS
280
     0
  9
$JOINSTYLE
280
     0
  9
$LWDISPLAY
290
     0
  9
$INSUNITS
 70
     0
  9
$HYPERLINKBASE
  1

  9
$STYLESHEET
  1

  9
$XEDIT
290
     1
  9
$CEPSNTYPE
380
     0
  9
$PSTYLEMODE
290
     1
  9
$FINGERPRINTGUID
  2
{0AAC9B04-7364-4B8C-889F-193723BA6B5A}
  9
$VERSIONGUID
  2
{02406E9C-4F7A-4161-8719-E40FEBE6C194}
  9
$EXTNAMES
290
     1
  9
$PSVPSCALE
 40
0.0
  9
$OLESTARTUP
290
     0
  0
ENDSEC
  0
SECTION
  2
CLASSES
  0
CLASS
  1
ACDBDICTIONARYWDFLT
  2
AcDbDictionaryWithDefault
  3
AutoCAD 2000
 90
        0
280
     0
281
     0
  0
CLASS
  1
ACDBPLACEHOLDER
  2
AcDbPlaceHolder
  3
AutoCAD 2000
 90
        0
280
     0
281
     0
  0
CLASS
  1
LAYOUT
  2
AcDbLayout
  3
AutoCAD 2000
 90
        0
280
     0
281
     0
  0
CLASS
  1
DICTIONARYVAR
  2
AcDbDictionaryVar
  3
AutoCAD 2000
 90
        0
280
     0
281
     0
  0
ENDSEC
  0
SECTION
  2
TABLES
  0
TABLE
  2
VPORT
  5
8
330
0
100
AcDbSymbolTable
 70
     4
  0
VPORT
  5
1CD
330
8
100
AcDbSymbolTableRecord
100
AcDbViewportTableRecord
  2
*Active
 70
     0
 10
0.0
 20
0.0
 11
1.0
 21
1.0
 12
30.0
 22
120.0
 13
0.0
 23
0.0
 14
1.0
 24
1.0
 15
0.0
 25
0.0
 16
0.0
 26
0.0
 36
1.0
 17
0.0
 27
0.0
 37
0.0
 40
241.8414322250639
 41
2.078104993597951
 42
50.0
 43
0.0
 44
0.0
 50
0.0
 51
0.0
 71
     0
 72
   100
 73
     1
 74
     3
 75
     0
 76
     0
 77
     0
 78
     0
281
     0
 65
     1
110
0.0
120
0.0
130
0.0
111
1.0
121
0.0
131
0.0
112
0.0
122
1.0
132
0.0
 79
     1
146
0.0
  0
ENDTAB
  0
TABLE
  2
LTYPE
  5
5
330
0
100
AcDbSymbolTable
 70
     1
  0
LTYPE
  5
13
330
5
100
AcDbSymbolTableRecord
100
AcDbLinetypeTableRecord
  2
ByBlock
 70
     0
  3

 72
    65
 73
     0
 40
0.0
  0
LTYPE
  5
14
330
5
100
AcDbSymbolTableRecord
100
AcDbLinetypeTableRecord
  2
ByLayer
 70
     0
  3

 72
    65
 73
     0
 40
0.0
  0
LTYPE
  5
15
330
5
100
AcDbSymbolTableRecord
100
AcDbLinetypeTableRecord
  2
Continuous
 70
     0
  3
Solid line
 72
    65
 73
     0
 40
0.0
  0
ENDTAB
  0
TABLE
  2
LAYER
  5
2
330
0
100
AcDbSymbolTable
 70
     1
  0
LAYER
  5
10
330
2
100
AcDbSymbolTableRecord
100
AcDbLayerTableRecord
  2
0
 70
     0
 62
     7
  6
Continuous
370
    -3
390
F
  0
ENDTAB
  0
TABLE
  2
STYLE
  5
3
330
0
100
AcDbSymbolTable
 70
     1
  0
STYLE
  5
11
330
3
100
AcDbSymbolTableRecord
100
AcDbTextStyleTableRecord
  2
Standard
 70
     0
 40
0.0
 41
1.0
 50
0.0
 71
     0
 42
0.2
  3
txt
  4

  0
ENDTAB
  0
TABLE
  2
VIEW
  5
6
330
0
100
AcDbSymbolTable
 70
     0
  0
ENDTAB
  0
TABLE
  2
UCS
  5
7
330
0
100
AcDbSymbolTable
 70
     0
  0
ENDTAB
  0
TABLE
  2
APPID
  5
9
330
0
100
AcDbSymbolTable
 70
     1
  0
APPID
  5
12
330
9
100
AcDbSymbolTableRecord
100
AcDbRegAppTableRecord
  2
ACAD
 70
     0
  0
ENDTAB
  0
TABLE
  2
DIMSTYLE
  5
A
330
0
100
AcDbSymbolTable
 70
     1
100
AcDbDimStyleTable
 71
     0
  0
DIMSTYLE
105
1B1
330
A
100
AcDbSymbolTableRecord
100
AcDbDimStyleTableRecord
  2
Standard
 70
     0
340
11
  0
ENDTAB
  0
TABLE
  2
BLOCK_RECORD
  5
1
330
0
100
AcDbSymbolTable
 70
     0
  0
BLOCK_RECORD
  5
1E
330
1
100
AcDbSymbolTableRecord
100
AcDbBlockTableRecord
  2
*Model_Space
340
21
  0
BLOCK_RECORD
  5
1A
330
1
100
AcDbSymbolTableRecord
100
AcDbBlockTableRecord
  2
*Paper_Space
340
1D
  0
ENDTAB
  0
ENDSEC
  0
SECTION
  2
BLOCKS
  0
BLOCK
  5
1F
330
1E
100
AcDbEntity
  8
0
100
AcDbBlockBegin
  2
*Model_Space
 70
     0
 10
0.0
 20
0.0
 30
0.0
  3
*Model_Space
  1

  0
ENDBLK
  5
20
330
1E
100
AcDbEntity
  8
0
100
AcDbBlockEnd
  0
BLOCK
  5
1B
330
1A
100
AcDbEntity
 67
     1
  8
0
100
AcDbBlockBegin
  2
*Paper_Space
 70
     0
 10
0.0
 20
0.0
 30
0.0
  3
*Paper_Space
  1

  0
ENDBLK
  5
1C
330
1A
100
AcDbEntity
 67
     1
  8
0
100
AcDbBlockEnd
  0
ENDSEC
  0
SECTION
  2
ENTITIES
  0
LINE
  5
22
330
1E
100
AcDbEntity
  8
0
100
AcDbLine
 10
7.99999999999999
 20
5.88973
 30
0.0
 11
7.99999999999999
 21
8.54371
 31
0.0
  0
LINE
  5
23
330
1E
100
AcDbEntity
  8
0
100
AcDbLine
 10
7.99999999999999
 20
5.88973
 30
0.0
 11
7.99999999999999
 21
5.0
 31
0.0
  0
LINE
  5
24
330
1E
100
AcDbEntity
  8
0
100
AcDbLine
 10
7.99999999999999
 20
5.0
 30
0.0
 11
7.99999999999999
 21
5.88973
 31
0.0
  0
LINE
  5
25
330
1E
100
AcDbEntity
  8
0
100
AcDbLine
 10
7.99999999999999
 20
5.0
 30
0.0
 11
8.19999999999999
 21
3.7
 31
0.0
  0
LINE
  5
26
330
1E
100
AcDbEntity
  8
0
100
AcDbLine
 10
7.99999999999999
 20
12.91649999999999
 30
0.0
 11
7.99999999999999
 21
18.9334
 31
0.0
  0
LINE
  5
27
330
1E
100
AcDbEntity
  8
0
100
AcDbLine
 10
7.99999999999999
 20
12.91649999999999
 30
0.0
 11
7.99999999999999
 21
8.54371
 31
0.0
  0
LINE
  5
28
330
1E
100
AcDbEntity
  8
0
100
AcDbLine
 10
7.99999999999999
 20
8.54371
 30
0.0
 11
7.99999999999999
 21
12.91649999999999
 31
0.0
  0
LINE
  5
29
330
1E
100
AcDbEntity
  8
0
100
AcDbLine
 10
7.99999999999999
 20
8.54371
 30
0.0
 11
7.99999999999999
 21
5.88973
 31
0.0
  0
LINE
  5
2A
330
1E
100
AcDbEntity
  8
0
100
AcDbLine
 10
13.0
 20
0.0000000000000009
 30
0.0
 11
14.3
 21
0.200000000000001
 31
0.0
  0
LINE
  5
2B
330
1E
100
AcDbEntity
  8
0
100
AcDbLine
 10
14.3
 20
0.200000000000001
 30
0.0
 11
15.5
 21
0.7000000000000011
 31
0.0
  0
LINE
  5
2C
330
1E
100
AcDbEntity
  8
0
100
AcDbLine
 10
13.0
 20
0.0000000000000009
 30
0.0
 11
14.3
 21
0.200000000000001
 31
0.0
  0
LINE
  5
2D
330
1E
100
AcDbEntity
  8
0
100
AcDbLine
 10
14.3
 20
0.200000000000001
 30
0.0
 11
15.5
 21
0.7000000000000011
 31
0.0
  0
LINE
  5
2E
330
1E
100
AcDbEntity
  8
0
100
AcDbLine
 10
15.5
 20
0.7000000000000011
 30
0.0
 11
16.5
 21
1.5
 31
0.0
  0
LINE
  5
2F
330
1E
100
AcDbEntity
  8
0
100
AcDbLine
 10
16.5
 20
1.5
 30
0.0
 11
17.3
 21
2.5
 31
0.0
  0
LINE
  5
30
330
1E
100
AcDbEntity
  8
0
100
AcDbLine
 10
11.69999999999999
 20
0.200000000000001
 30
0.0
 11
13.0
 21
0.0000000000000009
 31
0.0
  0
LINE
  5
31
330
1E
100
AcDbEntity
  8
0
100
AcDbLine
 10
11.69999999999999
 20
0.200000000000001
 30
0.0
 11
13.0
 21
0.0000000000000009
 31
0.0
  0
LINE
  5
32
330
1E
100
AcDbEntity
  8
0
100
AcDbLine
 10
10.5
 20
0.7000000000000011
 30
0.0
 11
11.69999999999999
 21
0.200000000000001
 31
0.0
  0
LINE
  5
33
330
1E
100
AcDbEntity
  8
0
100
AcDbLine
 10
10.5
 20
0.7000000000000011
 30
0.0
 11
11.69999999999999
 21
0.200000000000001
 31
0.0
  0
LINE
  5
34
330
1E
100
AcDbEntity
  8
0
100
AcDbLine
 10
17.3
 20
2.5
 30
0.0
 11
17.8
 21
3.7
 31
0.0
  0
LINE
  5
35
330
1E
100
AcDbEntity
  8
0
100
AcDbLine
 10
17.8
 20
3.7
 30
0.0
 11
18.0
 21
5.0
 31
0.0
  0
LINE
  5
36
330
1E
100
AcDbEntity
  8
0
100
AcDbLine
 10
9.499999999999991
 20
1.5
 30
0.0
 11
10.5
 21
0.7000000000000011
 31
0.0
  0
LINE
  5
37
330
1E
100
AcDbEntity
  8
0
100
AcDbLine
 10
8.69999999999999
 20
2.5
 30
0.0
 11
9.499999999999991
 21
1.5
 31
0.0
  0
LINE
  5
38
330
1E
100
AcDbEntity
  8
0
100
AcDbLine
 10
18.0
 20
8.54371
 30
0.0
 11
18.0
 21
5.88973
 31
0.0
  0
LINE
  5
39
330
1E
100
AcDbEntity
  8
0
100
AcDbLine
 10
18.0
 20
8.54371
 30
0.0
 11
18.0
 21
12.91649999999999
 31
0.0
  0
LINE
  5
3A
330
1E
100
AcDbEntity
  8
0
100
AcDbLine
 10
18.0
 20
12.91649999999999
 30
0.0
 11
18.0
 21
18.9334
 31
0.0
  0
LINE
  5
3B
330
1E
100
AcDbEntity
  8
0
100
AcDbLine
 10
18.0
 20
12.91649999999999
 30
0.0
 11
18.0
 21
8.54371
 31
0.0
  0
LINE
  5
3C
330
1E
100
AcDbEntity
  8
0
100
AcDbLine
 10
18.0
 20
18.9334
 30
0.0
 11
18.0
 21
26.49129999999999
 31
0.0
  0
LINE
  5
3D
330
1E
100
AcDbEntity
  8
0
100
AcDbLine
 10
18.0
 20
18.9334
 30
0.0
 11
18.0
 21
12.91649999999999
 31
0.0
  0
LINE
  5
3E
330
1E
100
AcDbEntity
  8
0
100
AcDbLine
 10
18.0
 20
5.0
 30
0.0
 11
18.0
 21
5.88973
 31
0.0
  0
LINE
  5
3F
330
1E
100
AcDbEntity
  8
0
100
AcDbLine
 10
18.0
 20
35.4609
 30
0.0
 11
18.0
 21
26.49129999999999
 31
0.0
  0
LINE
  5
40
330
1E
100
AcDbEntity
  8
0
100
AcDbLine
 10
18.0
 20
35.4609
 30
0.0
 11
18.0
 21
45.6888
 31
0.0
  0
LINE
  5
41
330
1E
100
AcDbEntity
  8
0
100
AcDbLine
 10
18.0
 20
26.49129999999999
 30
0.0
 11
18.0
 21
35.4609
 31
0.0
  0
LINE
  5
42
330
1E
100
AcDbEntity
  8
0
100
AcDbLine
 10
18.0
 20
5.88973
 30
0.0
 11
18.0
 21
5.0
 31
0.0
  0
LINE
  5
43
330
1E
100
AcDbEntity
  8
0
100
AcDbLine
 10
18.0
 20
5.88973
 30
0.0
 11
18.0
 21
8.54371
 31
0.0
  0
LINE
  5
44
330
1E
100
AcDbEntity
  8
0
100
AcDbLine
 10
8.19999999999999
 20
3.7
 30
0.0
 11
8.69999999999999
 21
2.5
 31
0.0
  0
LINE
  5
45
330
1E
100
AcDbEntity
  8
0
100
AcDbLine
 10
7.99999999999999
 20
26.49129999999999
 30
0.0
 11
7.99999999999999
 21
35.4609
 31
0.0
  0
LINE
  5
46
330
1E
100
AcDbEntity
  8
0
100
AcDbLine
 10
7.99999999999999
 20
45.6888
 30
0.0
 11
7.99999999999999
 21
57.0
 31
0.0
  0
LINE
  5
47
330
1E
100
AcDbEntity
  8
0
100
AcDbLine
 10
7.99999999999999
 20
45.6888
 30
0.0
 11
7.99999999999999
 21
35.4609
 31
0.0
  0
LINE
  5
48
330
1E
100
AcDbEntity
  8
0
100
AcDbLine
 10
7.99999999999999
 20
69.2009
 30
0.0
 11
7.99999999999999
 21
57.0
 31
0.0
  0
LINE
  5
49
330
1E
100
AcDbEntity
  8
0
100
AcDbLine
 10
7.99999999999999
 20
69.2009
 30
0.0
 11
7.99999999999999
 21
82.0828
 31
0.0
  0
LINE
  5
4A
330
1E
100
AcDbEntity
  8
0
100
AcDbLine
 10
18.0
 20
45.6888
 30
0.0
 11
18.0
 21
35.4609
 31
0.0
  0
LINE
  5
4B
330
1E
100
AcDbEntity
  8
0
100
AcDbLine
 10
18.0
 20
45.6888
 30
0.0
 11
18.0
 21
57.0
 31
0.0
  0
LINE
  5
4C
330
1E
100
AcDbEntity
  8
0
100
AcDbLine
 10
7.99999999999999
 20
57.0
 30
0.0
 11
7.99999999999999
 21
69.2009
 31
0.0
  0
LINE
  5
4D
330
1E
100
AcDbEntity
  8
0
100
AcDbLine
 10
7.99999999999999
 20
82.0828
 30
0.0
 11
7.99999999999999
 21
95.42529999999999
 31
0.0
  0
LINE
  5
4E
330
1E
100
AcDbEntity
  8
0
100
AcDbLine
 10
7.99999999999999
 20
109.0
 30
0.0
 11
7.99999999999999
 21
122.575
 31
0.0
  0
LINE
  5
4F
330
1E
100
AcDbEntity
  8
0
100
AcDbLine
 10
8.0
 20
135.9169999999999
 30
0.0
 11
8.0
 21
148.799
 31
0.0
  0
LINE
  5
50
330
1E
100
AcDbEntity
  8
0
100
AcDbLine
 10
8.0
 20
148.799
 30
0.0
 11
8.0
 21
135.9169999999999
 31
0.0
  0
LINE
  5
51
330
1E
100
AcDbEntity
  8
0
100
AcDbLine
 10
8.0
 20
148.799
 30
0.0
 11
8.0
 21
161.0
 31
0.0
  0
LINE
  5
52
330
1E
100
AcDbEntity
  8
0
100
AcDbLine
 10
7.99999999999999
 20
122.575
 30
0.0
 11
8.0
 21
135.9169999999999
 31
0.0
  0
LINE
  5
53
330
1E
100
AcDbEntity
  8
0
100
AcDbLine
 10
7.99999999999999
 20
122.575
 30
0.0
 11
7.99999999999999
 21
109.0
 31
0.0
  0
LINE
  5
54
330
1E
100
AcDbEntity
  8
0
100
AcDbLine
 10
8.0
 20
161.0
 30
0.0
 11
8.0
 21
172.3109999999999
 31
0.0
  0
LINE
  5
55
330
1E
100
AcDbEntity
  8
0
100
AcDbLine
 10
8.0
 20
172.3109999999999
 30
0.0
 11
8.0
 21
182.539
 31
0.0
  0
LINE
  5
56
330
1E
100
AcDbEntity
  8
0
100
AcDbLine
 10
8.0
 20
172.3109999999999
 30
0.0
 11
8.0
 21
161.0
 31
0.0
  0
LINE
  5
57
330
1E
100
AcDbEntity
  8
0
100
AcDbLine
 10
8.0
 20
201.108
 30
0.0
 11
8.0
 21
199.067
 31
0.0
  0
LINE
  5
58
330
1E
100
AcDbEntity
  8
0
100
AcDbLine
 10
8.0
 20
199.067
 30
0.0
 11
8.0
 21
191.509
 31
0.0
  0
LINE
  5
59
330
1E
100
AcDbEntity
  8
0
100
AcDbLine
 10
8.0
 20
199.067
 30
0.0
 11
8.0
 21
201.108
 31
0.0
  0
LINE
  5
5A
330
1E
100
AcDbEntity
  8
0
100
AcDbLine
 10
8.0
 20
199.067
 30
0.0
 11
8.0
 21
205.0829999999999
 31
0.0
  0
LINE
  5
5B
330
1E
100
AcDbEntity
  8
0
100
AcDbLine
 10
8.0
 20
191.509
 30
0.0
 11
8.0
 21
199.067
 31
0.0
  0
LINE
  5
5C
330
1E
100
AcDbEntity
  8
0
100
AcDbLine
 10
8.0
 20
182.539
 30
0.0
 11
8.0
 21
191.509
 31
0.0
  0
LINE
  5
5D
330
1E
100
AcDbEntity
  8
0
100
AcDbLine
 10
8.0
 20
182.539
 30
0.0
 11
8.0
 21
172.3109999999999
 31
0.0
  0
LINE
  5
5E
330
1E
100
AcDbEntity
  8
0
100
AcDbLine
 10
7.99999999999999
 20
95.42529999999999
 30
0.0
 11
7.99999999999999
 21
82.0828
 31
0.0
  0
LINE
  5
5F
330
1E
100
AcDbEntity
  8
0
100
AcDbLine
 10
7.99999999999999
 20
95.42529999999999
 30
0.0
 11
7.99999999999999
 21
109.0
 31
0.0
  0
LINE
  5
60
330
1E
100
AcDbEntity
  8
0
100
AcDbLine
 10
18.0
 20
69.2009
 30
0.0
 11
18.0
 21
57.0
 31
0.0
  0
LINE
  5
61
330
1E
100
AcDbEntity
  8
0
100
AcDbLine
 10
18.0
 20
69.2009
 30
0.0
 11
18.0
 21
82.0828
 31
0.0
  0
LINE
  5
62
330
1E
100
AcDbEntity
  8
0
100
AcDbLine
 10
18.0
 20
82.0828
 30
0.0
 11
18.0
 21
95.42529999999999
 31
0.0
  0
LINE
  5
63
330
1E
100
AcDbEntity
  8
0
100
AcDbLine
 10
18.0
 20
122.575
 30
0.0
 11
18.0
 21
109.0
 31
0.0
  0
LINE
  5
64
330
1E
100
AcDbEntity
  8
0
100
AcDbLine
 10
18.0
 20
122.575
 30
0.0
 11
18.0
 21
135.9169999999999
 31
0.0
  0
LINE
  5
65
330
1E
100
AcDbEntity
  8
0
100
AcDbLine
 10
18.0
 20
172.3109999999999
 30
0.0
 11
18.0
 21
182.539
 31
0.0
  0
LINE
  5
66
330
1E
100
AcDbEntity
  8
0
100
AcDbLine
 10
18.0
 20
172.3109999999999
 30
0.0
 11
18.0
 21
161.0
 31
0.0
  0
LINE
  5
67
330
1E
100
AcDbEntity
  8
0
100
AcDbLine
 10
18.0
 20
161.0
 30
0.0
 11
18.0
 21
172.3109999999999
 31
0.0
  0
LINE
  5
68
330
1E
100
AcDbEntity
  8
0
100
AcDbLine
 10
18.0
 20
161.0
 30
0.0
 11
18.0
 21
148.799
 31
0.0
  0
LINE
  5
69
330
1E
100
AcDbEntity
  8
0
100
AcDbLine
 10
18.0
 20
135.9169999999999
 30
0.0
 11
18.0
 21
148.799
 31
0.0
  0
LINE
  5
6A
330
1E
100
AcDbEntity
  8
0
100
AcDbLine
 10
18.0
 20
148.799
 30
0.0
 11
18.0
 21
135.9169999999999
 31
0.0
  0
LINE
  5
6B
330
1E
100
AcDbEntity
  8
0
100
AcDbLine
 10
18.0
 20
148.799
 30
0.0
 11
18.0
 21
161.0
 31
0.0
  0
LINE
  5
6C
330
1E
100
AcDbEntity
  8
0
100
AcDbLine
 10
18.0
 20
191.509
 30
0.0
 11
18.0
 21
199.067
 31
0.0
  0
LINE
  5
6D
330
1E
100
AcDbEntity
  8
0
100
AcDbLine
 10
18.0
 20
199.067
 30
0.0
 11
18.0
 21
205.0829999999999
 31
0.0
  0
LINE
  5
6E
330
1E
100
AcDbEntity
  8
0
100
AcDbLine
 10
18.0
 20
199.067
 30
0.0
 11
18.0
 21
191.509
 31
0.0
  0
LINE
  5
6F
330
1E
100
AcDbEntity
  8
0
100
AcDbLine
 10
18.0
 20
182.539
 30
0.0
 11
18.0
 21
191.509
 31
0.0
  0
LINE
  5
70
330
1E
100
AcDbEntity
  8
0
100
AcDbLine
 10
18.0
 20
182.539
 30
0.0
 11
18.0
 21
172.3109999999999
 31
0.0
  0
LINE
  5
71
330
1E
100
AcDbEntity
  8
0
100
AcDbLine
 10
18.0
 20
109.0
 30
0.0
 11
18.0
 21
95.42529999999999
 31
0.0
  0
LINE
  5
72
330
1E
100
AcDbEntity
  8
0
100
AcDbLine
 10
18.0
 20
109.0
 30
0.0
 11
18.0
 21
122.575
 31
0.0
  0
LINE
  5
73
330
1E
100
AcDbEntity
  8
0
100
AcDbLine
 10
18.0
 20
95.42529999999999
 30
0.0
 11
18.0
 21
82.0828
 31
0.0
  0
LINE
  5
74
330
1E
100
AcDbEntity
  8
0
100
AcDbLine
 10
18.0
 20
95.42529999999999
 30
0.0
 11
18.0
 21
109.0
 31
0.0
  0
LINE
  5
75
330
1E
100
AcDbEntity
  8
0
100
AcDbLine
 10
18.0
 20
57.0
 30
0.0
 11
18.0
 21
69.2009
 31
0.0
  0
LINE
  5
76
330
1E
100
AcDbEntity
  8
0
100
AcDbLine
 10
18.0
 20
57.0
 30
0.0
 11
18.0
 21
45.6888
 31
0.0
  0
LINE
  5
77
330
1E
100
AcDbEntity
  8
0
100
AcDbLine
 10
7.99999999999999
 20
35.4609
 30
0.0
 11
7.99999999999999
 21
26.49129999999999
 31
0.0
  0
LINE
  5
78
330
1E
100
AcDbEntity
  8
0
100
AcDbLine
 10
7.99999999999999
 20
35.4609
 30
0.0
 11
7.99999999999999
 21
45.6888
 31
0.0
  0
LINE
  5
79
330
1E
100
AcDbEntity
  8
0
100
AcDbLine
 10
7.99999999999999
 20
18.9334
 30
0.0
 11
7.99999999999999
 21
26.49129999999999
 31
0.0
  0
LINE
  5
7A
330
1E
100
AcDbEntity
  8
0
100
AcDbLine
 10
7.99999999999999
 20
18.9334
 30
0.0
 11
7.99999999999999
 21
12.91649999999999
 31
0.0
  0
LINE
  5
7B
330
1E
100
AcDbEntity
  8
0
100
AcDbLine
 10
18.0
 20
201.584130814624
 30
0.0
 11
19.23999999999999
 21
202.08
 31
0.0
  0
LINE
  5
7C
330
1E
100
AcDbEntity
  8
0
100
AcDbLine
 10
19.5
 20
201.733
 30
0.0
 11
22.18669999999999
 21
203.8129999999999
 31
0.0
  0
LINE
  5
7D
330
1E
100
AcDbEntity
  8
0
100
AcDbLine
 10
6.759999999999999
 20
202.08
 30
0.0
 11
8.0
 21
201.584135718831
 31
0.0
  0
LINE
  5
7E
330
1E
100
AcDbEntity
  8
0
100
AcDbLine
 10
4.16
 20
204.1599999999999
 30
0.0
 11
6.759999999999999
 21
202.08
 31
0.0
  0
LINE
  5
7F
330
1E
100
AcDbEntity
  8
0
100
AcDbLine
 10
7.626669999999999
 20
203.6399999999999
 30
0.0
 11
8.0
 21
203.4906697230419
 31
0.0
  0
LINE
  5
80
330
1E
100
AcDbEntity
  8
0
100
AcDbLine
 10
18.0
 20
203.4906799999999
 30
0.0
 11
18.3733
 21
203.6399999999999
 31
0.0
  0
LINE
  5
81
330
1E
100
AcDbEntity
  8
0
100
AcDbLine
 10
19.23999999999999
 20
202.08
 30
0.0
 11
21.84
 21
204.1599999999999
 31
0.0
  0
LINE
  5
82
330
1E
100
AcDbEntity
  8
0
100
AcDbLine
 10
18.3733
 20
203.6399999999999
 30
0.0
 11
20.6267
 21
205.3729999999999
 31
0.0
  0
LINE
  5
83
330
1E
100
AcDbEntity
  8
0
100
AcDbLine
 10
18.2
 20
203.987
 30
0.0
 11
20.3667
 21
205.6329999999999
 31
0.0
  0
LINE
  5
84
330
1E
100
AcDbEntity
  8
0
100
AcDbLine
 10
18.0
 20
203.904240281701
 30
0.0
 11
18.2
 21
203.987
 31
0.0
  0
LINE
  5
85
330
1E
100
AcDbEntity
  8
0
100
AcDbLine
 10
21.84
 20
204.1599999999999
 30
0.0
 11
23.92
 21
206.76
 31
0.0
  0
LINE
  5
86
330
1E
100
AcDbEntity
  8
0
100
AcDbLine
 10
7.799999999999999
 20
203.987
 30
0.0
 11
8.0
 21
203.904240281701
 31
0.0
  0
LINE
  5
87
330
1E
100
AcDbEntity
  8
0
100
AcDbLine
 10
6.5
 20
201.733
 30
0.0
 11
8.0
 21
201.108
 31
0.0
  0
LINE
  5
88
330
1E
100
AcDbEntity
  8
0
100
AcDbLine
 10
3.81333
 20
203.8129999999999
 30
0.0
 11
6.5
 21
201.733
 31
0.0
  0
LINE
  5
89
330
1E
100
AcDbEntity
  8
0
100
AcDbLine
 10
5.37333
 20
205.3729999999999
 30
0.0
 11
7.626669999999999
 21
203.6399999999999
 31
0.0
  0
LINE
  5
8A
330
1E
100
AcDbEntity
  8
0
100
AcDbLine
 10
8.0
 20
205.0829999999999
 30
0.0
 11
8.0
 21
199.067
 31
0.0
  0
LINE
  5
8B
330
1E
100
AcDbEntity
  8
0
100
AcDbLine
 10
8.0
 20
205.0829999999999
 30
0.0
 11
8.0
 21
209.4559999999999
 31
0.0
  0
LINE
  5
8C
330
1E
100
AcDbEntity
  8
0
100
AcDbLine
 10
18.0
 20
205.0829999999999
 30
0.0
 11
18.0
 21
199.067
 31
0.0
  0
LINE
  5
8D
330
1E
100
AcDbEntity
  8
0
100
AcDbLine
 10
18.0
 20
205.0829999999999
 30
0.0
 11
18.0
 21
209.4559999999999
 31
0.0
  0
LINE
  5
8E
330
1E
100
AcDbEntity
  8
0
100
AcDbLine
 10
20.6267
 20
205.3729999999999
 30
0.0
 11
22.36
 21
207.627
 31
0.0
  0
LINE
  5
8F
330
1E
100
AcDbEntity
  8
0
100
AcDbLine
 10
20.3667
 20
205.6329999999999
 30
0.0
 11
22.0133
 21
207.8
 31
0.0
  0
LINE
  5
90
330
1E
100
AcDbEntity
  8
0
100
AcDbLine
 10
5.633329999999999
 20
205.6329999999999
 30
0.0
 11
7.799999999999999
 21
203.987
 31
0.0
  0
LINE
  5
91
330
1E
100
AcDbEntity
  8
0
100
AcDbLine
 10
24.2667
 20
206.4999999999999
 30
0.0
 11
24.8917
 21
208.0
 31
0.0
  0
LINE
  5
92
330
1E
100
AcDbEntity
  8
0
100
AcDbLine
 10
24.2667
 20
206.4999999999999
 30
0.0
 11
25.5667
 21
209.62
 31
0.0
  0
LINE
  5
93
330
1E
100
AcDbEntity
  8
0
100
AcDbLine
 10
2.08
 20
206.76
 30
0.0
 11
4.16
 21
204.1599999999999
 31
0.0
  0
LINE
  5
94
330
1E
100
AcDbEntity
  8
0
100
AcDbLine
 10
3.64
 20
207.627
 30
0.0
 11
5.37333
 21
205.3729999999999
 31
0.0
  0
LINE
  5
95
330
1E
100
AcDbEntity
  8
0
100
AcDbLine
 10
23.92
 20
206.76
 30
0.0
 11
25.13329999999999
 21
209.793
 31
0.0
  0
LINE
  5
96
330
1E
100
AcDbEntity
  8
0
100
AcDbLine
 10
22.36
 20
207.627
 30
0.0
 11
23.39999999999999
 21
210.2269999999999
 31
0.0
  0
LINE
  5
97
330
1E
100
AcDbEntity
  8
0
100
AcDbLine
 10
22.0133
 20
207.8
 30
0.0
 11
23.0533
 21
210.3129999999999
 31
0.0
  0
LINE
  5
98
330
1E
100
AcDbEntity
  8
0
100
AcDbLine
 10
3.986669999999999
 20
207.8
 30
0.0
 11
5.633329999999999
 21
205.6329999999999
 31
0.0
  0
LINE
  5
99
330
1E
100
AcDbEntity
  8
0
100
AcDbLine
 10
1.73333
 20
206.4999999999999
 30
0.0
 11
3.81333
 21
203.8129999999999
 31
0.0
  0
LINE
  5
9A
330
1E
100
AcDbEntity
  8
0
100
AcDbLine
 10
24.8917
 20
208.0
 30
0.0
 11
28.0
 21
208.0
 31
0.0
  0
LINE
  5
9B
330
1E
100
AcDbEntity
  8
0
100
AcDbLine
 10
18.0
 20
209.4559999999999
 30
0.0
 11
18.0
 21
211.679068653597
 31
0.0
  0
LINE
  5
9C
330
1E
100
AcDbEntity
  8
0
100
AcDbLine
 10
18.0
 20
209.4559999999999
 30
0.0
 11
18.0
 21
205.0829999999999
 31
0.0
  0
LINE
  5
9D
330
1E
100
AcDbEntity
  8
0
100
AcDbLine
 10
8.0
 20
209.4559999999999
 30
0.0
 11
8.0
 21
211.679064339962
 31
0.0
  0
LINE
  5
9E
330
1E
100
AcDbEntity
  8
0
100
AcDbLine
 10
8.0
 20
209.4559999999999
 30
0.0
 11
8.0
 21
205.0829999999999
 31
0.0
  0
LINE
  5
9F
330
1E
100
AcDbEntity
  8
0
100
AcDbLine
 10
28.0
 20
208.1999999999999
 30
0.0
 11
28.0
 21
208.0
 31
0.0
  0
LINE
  5
A0
330
1E
100
AcDbEntity
  8
0
100
AcDbLine
 10
28.0
 20
208.6999999999999
 30
0.0
 11
28.0
 21
208.1999999999999
 31
0.0
  0
LINE
  5
A1
330
1E
100
AcDbEntity
  8
0
100
AcDbLine
 10
0.8666669999999989
 20
209.793
 30
0.0
 11
2.08
 21
206.76
 31
0.0
  0
LINE
  5
A2
330
1E
100
AcDbEntity
  8
0
100
AcDbLine
 10
0.8666669999999989
 20
209.793
 30
0.0
 11
2.08
 21
206.76
 31
0.0
  0
LINE
  5
A3
330
1E
100
AcDbEntity
  8
0
100
AcDbLine
 10
2.6
 20
210.2269999999999
 30
0.0
 11
3.64
 21
207.627
 31
0.0
  0
LINE
  5
A4
330
1E
100
AcDbEntity
  8
0
100
AcDbLine
 10
25.13329999999999
 20
209.793
 30
0.0
 11
25.5667
 21
213.0
 31
0.0
  0
LINE
  5
A5
330
1E
100
AcDbEntity
  8
0
100
AcDbLine
 10
23.39999999999999
 20
210.2269999999999
 30
0.0
 11
23.8333
 21
213.0
 31
0.0
  0
LINE
  5
A6
330
1E
100
AcDbEntity
  8
0
100
AcDbLine
 10
28.0
 20
210.4999999999999
 30
0.0
 11
28.0
 21
209.5
 31
0.0
  0
LINE
  5
A7
330
1E
100
AcDbEntity
  8
0
100
AcDbLine
 10
23.0533
 20
210.3129999999999
 30
0.0
 11
23.39999999999999
 21
213.0
 31
0.0
  0
LINE
  5
A8
330
1E
100
AcDbEntity
  8
0
100
AcDbLine
 10
2.94667
 20
210.3129999999999
 30
0.0
 11
3.986669999999999
 21
207.8
 31
0.0
  0
LINE
  5
A9
330
1E
100
AcDbEntity
  8
0
100
AcDbLine
 10
0.433332999999999
 20
209.62
 30
0.0
 11
1.73333
 21
206.4999999999999
 31
0.0
  0
LINE
  5
AA
330
1E
100
AcDbEntity
  8
0
100
AcDbLine
 10
28.0
 20
209.5
 30
0.0
 11
28.0
 21
208.0999999999999
 31
0.0
  0
LINE
  5
AB
330
1E
100
AcDbEntity
  8
0
100
AcDbLine
 10
28.0
 20
209.5
 30
0.0
 11
28.0
 21
211.2
 31
0.0
  0
LINE
  5
AC
330
1E
100
AcDbEntity
  8
0
100
AcDbLine
 10
28.0
 20
209.5
 30
0.0
 11
28.0
 21
208.6999999999999
 31
0.0
  0
LINE
  5
AD
330
1E
100
AcDbEntity
  8
0
100
AcDbLine
 10
-0.0000000000000007
 20
213.0
 30
0.0
 11
0.433332999999999
 21
209.62
 31
0.0
  0
LINE
  5
AE
330
1E
100
AcDbEntity
  8
0
100
AcDbLine
 10
-0.0000000000000007
 20
213.0
 30
0.0
 11
0.4333330000000001
 21
216.38
 31
0.0
  0
LINE
  5
AF
330
1E
100
AcDbEntity
  8
0
100
AcDbLine
 10
0.433332999999999
 20
213.0
 30
0.0
 11
0.8666669999999989
 21
209.793
 31
0.0
  0
LINE
  5
B0
330
1E
100
AcDbEntity
  8
0
100
AcDbLine
 10
0.433332999999999
 20
213.0
 30
0.0
 11
0.8666669999999999
 21
216.2069999999999
 31
0.0
  0
LINE
  5
B1
330
1E
100
AcDbEntity
  8
0
100
AcDbLine
 10
18.0
 20
211.679068653597
 30
0.0
 11
18.0
 21
209.4559999999999
 31
0.0
  0
LINE
  5
B2
330
1E
100
AcDbEntity
  8
0
100
AcDbLine
 10
28.0
 20
211.6999999999999
 30
0.0
 11
28.0
 21
210.4999999999999
 31
0.0
  0
LINE
  5
B3
330
1E
100
AcDbEntity
  8
0
100
AcDbLine
 10
2.166669999999999
 20
213.0
 30
0.0
 11
2.6
 21
210.2269999999999
 31
0.0
  0
LINE
  5
B4
330
1E
100
AcDbEntity
  8
0
100
AcDbLine
 10
2.166669999999999
 20
213.0
 30
0.0
 11
2.6
 21
215.7729999999999
 31
0.0
  0
LINE
  5
B5
330
1E
100
AcDbEntity
  8
0
100
AcDbLine
 10
28.0
 20
214.3
 30
0.0
 11
28.0
 21
213.0
 31
0.0
  0
LINE
  5
B6
330
1E
100
AcDbEntity
  8
0
100
AcDbLine
 10
2.6
 20
213.0
 30
0.0
 11
2.94667
 21
210.3129999999999
 31
0.0
  0
LINE
  5
B7
330
1E
100
AcDbEntity
  8
0
100
AcDbLine
 10
2.6
 20
213.0
 30
0.0
 11
2.94667
 21
215.687
 31
0.0
  0
LINE
  5
B8
330
1E
100
AcDbEntity
  8
0
100
AcDbLine
 10
-0.0000000000000008
 20
213.0
 30
0.0
 11
0.4333330000000001
 21
216.38
 31
0.0
  0
LINE
  5
B9
330
1E
100
AcDbEntity
  8
0
100
AcDbLine
 10
-0.0000000000000008
 20
213.0
 30
0.0
 11
0.433332999999999
 21
209.62
 31
0.0
  0
LINE
  5
BA
330
1E
100
AcDbEntity
  8
0
100
AcDbLine
 10
0.4333330000000001
 20
216.38
 30
0.0
 11
1.73333
 21
219.4999999999999
 31
0.0
  0
LINE
  5
BB
330
1E
100
AcDbEntity
  8
0
100
AcDbLine
 10
0.8666669999999999
 20
216.2069999999999
 30
0.0
 11
2.08
 21
219.24
 31
0.0
  0
LINE
  5
BC
330
1E
100
AcDbEntity
  8
0
100
AcDbLine
 10
2.6
 20
215.7729999999999
 30
0.0
 11
3.64
 21
218.373
 31
0.0
  0
LINE
  5
BD
330
1E
100
AcDbEntity
  8
0
100
AcDbLine
 10
28.0
 20
215.5
 30
0.0
 11
28.0
 21
214.3
 31
0.0
  0
LINE
  5
BE
330
1E
100
AcDbEntity
  8
0
100
AcDbLine
 10
28.0
 20
217.8
 30
0.0
 11
28.0
 21
217.3
 31
0.0
  0
LINE
  5
BF
330
1E
100
AcDbEntity
  8
0
100
AcDbLine
 10
28.0
 20
217.3
 30
0.0
 11
28.0
 21
216.5
 31
0.0
  0
LINE
  5
C0
330
1E
100
AcDbEntity
  8
0
100
AcDbLine
 10
25.5667
 20
216.38
 30
0.0
 11
26.0
 21
213.0
 31
0.0
  0
LINE
  5
C1
330
1E
100
AcDbEntity
  8
0
100
AcDbLine
 10
25.13329999999999
 20
216.2069999999999
 30
0.0
 11
25.5667
 21
213.0
 31
0.0
  0
LINE
  5
C2
330
1E
100
AcDbEntity
  8
0
100
AcDbLine
 10
23.39999999999999
 20
215.7729999999999
 30
0.0
 11
23.8333
 21
213.0
 31
0.0
  0
LINE
  5
C3
330
1E
100
AcDbEntity
  8
0
100
AcDbLine
 10
23.0533
 20
215.687
 30
0.0
 11
23.39999999999999
 21
213.0
 31
0.0
  0
LINE
  5
C4
330
1E
100
AcDbEntity
  8
0
100
AcDbLine
 10
2.94667
 20
215.687
 30
0.0
 11
3.986669999999999
 21
218.1999999999999
 31
0.0
  0
LINE
  5
C5
330
1E
100
AcDbEntity
  8
0
100
AcDbLine
 10
3.64
 20
218.373
 30
0.0
 11
5.37333
 21
220.6269999999999
 31
0.0
  0
LINE
  5
C6
330
1E
100
AcDbEntity
  8
0
100
AcDbLine
 10
24.8917
 20
218.0
 30
0.0
 11
28.0
 21
218.0
 31
0.0
  0
LINE
  5
C7
330
1E
100
AcDbEntity
  8
0
100
AcDbLine
 10
28.0
 20
218.0
 30
0.0
 11
28.0
 21
217.8
 31
0.0
  0
LINE
  5
C8
330
1E
100
AcDbEntity
  8
0
100
AcDbLine
 10
22.36
 20
218.373
 30
0.0
 11
23.39999999999999
 21
215.7729999999999
 31
0.0
  0
LINE
  5
C9
330
1E
100
AcDbEntity
  8
0
100
AcDbLine
 10
22.0133
 20
218.1999999999999
 30
0.0
 11
23.0533
 21
215.687
 31
0.0
  0
LINE
  5
CA
330
1E
100
AcDbEntity
  8
0
100
AcDbLine
 10
3.986669999999999
 20
218.1999999999999
 30
0.0
 11
5.633329999999999
 21
220.367
 31
0.0
  0
LINE
  5
CB
330
1E
100
AcDbEntity
  8
0
100
AcDbLine
 10
2.08
 20
219.24
 30
0.0
 11
4.16
 21
221.8399999999999
 31
0.0
  0
LINE
  5
CC
330
1E
100
AcDbEntity
  8
0
100
AcDbLine
 10
4.16
 20
221.8399999999999
 30
0.0
 11
6.759999999999999
 21
223.9199999999999
 31
0.0
  0
LINE
  5
CD
330
1E
100
AcDbEntity
  8
0
100
AcDbLine
 10
5.37333
 20
220.6269999999999
 30
0.0
 11
7.626669999999999
 21
222.36
 31
0.0
  0
LINE
  5
CE
330
1E
100
AcDbEntity
  8
0
100
AcDbLine
 10
5.633329999999999
 20
220.367
 30
0.0
 11
7.799999999999999
 21
222.013
 31
0.0
  0
LINE
  5
CF
330
1E
100
AcDbEntity
  8
0
100
AcDbLine
 10
7.626669999999999
 20
222.36
 30
0.0
 11
10.22669999999999
 21
223.3999999999999
 31
0.0
  0
LINE
  5
D0
330
1E
100
AcDbEntity
  8
0
100
AcDbLine
 10
15.6867
 20
223.0529999999999
 30
0.0
 11
18.2
 21
222.013
 31
0.0
  0
LINE
  5
D1
330
1E
100
AcDbEntity
  8
0
100
AcDbLine
 10
7.799999999999999
 20
222.013
 30
0.0
 11
10.3133
 21
223.0529999999999
 31
0.0
  0
LINE
  5
D2
330
1E
100
AcDbEntity
  8
0
100
AcDbLine
 10
6.759999999999999
 20
223.9199999999999
 30
0.0
 11
9.79333
 21
225.1329999999999
 31
0.0
  0
LINE
  5
D3
330
1E
100
AcDbEntity
  8
0
100
AcDbLine
 10
9.79333
 20
225.1329999999999
 30
0.0
 11
13.0
 21
225.567
 31
0.0
  0
LINE
  5
D4
330
1E
100
AcDbEntity
  8
0
100
AcDbLine
 10
15.7733
 20
223.3999999999999
 30
0.0
 11
18.3733
 21
222.36
 31
0.0
  0
LINE
  5
D5
330
1E
100
AcDbEntity
  8
0
100
AcDbLine
 10
13.0
 20
225.567
 30
0.0
 11
16.2067
 21
225.1329999999999
 31
0.0
  0
LINE
  5
D6
330
1E
100
AcDbEntity
  8
0
100
AcDbLine
 10
16.2067
 20
225.1329999999999
 30
0.0
 11
19.23999999999999
 21
223.9199999999999
 31
0.0
  0
LINE
  5
D7
330
1E
100
AcDbEntity
  8
0
100
AcDbLine
 10
13.0
 20
223.8329999999999
 30
0.0
 11
15.7733
 21
223.3999999999999
 31
0.0
  0
LINE
  5
D8
330
1E
100
AcDbEntity
  8
0
100
AcDbLine
 10
13.0
 20
223.3999999999999
 30
0.0
 11
15.6867
 21
223.0529999999999
 31
0.0
  0
LINE
  5
D9
330
1E
100
AcDbEntity
  8
0
100
AcDbLine
 10
10.22669999999999
 20
223.3999999999999
 30
0.0
 11
13.0
 21
223.8329999999999
 31
0.0
  0
LINE
  5
DA
330
1E
100
AcDbEntity
  8
0
100
AcDbLine
 10
10.3133
 20
223.0529999999999
 30
0.0
 11
13.0
 21
223.3999999999999
 31
0.0
  0
LINE
  5
DB
330
1E
100
AcDbEntity
  8
0
100
AcDbLine
 10
24.2667
 20
219.4999999999999
 30
0.0
 11
25.5667
 21
216.38
 31
0.0
  0
LINE
  5
DC
330
1E
100
AcDbEntity
  8
0
100
AcDbLine
 10
23.92
 20
219.24
 30
0.0
 11
25.13329999999999
 21
216.2069999999999
 31
0.0
  0
LINE
  5
DD
330
1E
100
AcDbEntity
  8
0
100
AcDbLine
 10
22.18669999999999
 20
222.187
 30
0.0
 11
24.2667
 21
219.4999999999999
 31
0.0
  0
LINE
  5
DE
330
1E
100
AcDbEntity
  8
0
100
AcDbLine
 10
21.84
 20
221.8399999999999
 30
0.0
 11
23.92
 21
219.24
 31
0.0
  0
LINE
  5
DF
330
1E
100
AcDbEntity
  8
0
100
AcDbLine
 10
20.6267
 20
220.6269999999999
 30
0.0
 11
22.36
 21
218.373
 31
0.0
  0
LINE
  5
E0
330
1E
100
AcDbEntity
  8
0
100
AcDbLine
 10
20.3667
 20
220.367
 30
0.0
 11
22.0133
 21
218.1999999999999
 31
0.0
  0
LINE
  5
E1
330
1E
100
AcDbEntity
  8
0
100
AcDbLine
 10
19.23999999999999
 20
223.9199999999999
 30
0.0
 11
21.84
 21
221.8399999999999
 31
0.0
  0
LINE
  5
E2
330
1E
100
AcDbEntity
  8
0
100
AcDbLine
 10
18.3733
 20
222.36
 30
0.0
 11
20.6267
 21
220.6269999999999
 31
0.0
  0
LINE
  5
E3
330
1E
100
AcDbEntity
  8
0
100
AcDbLine
 10
18.2
 20
222.013
 30
0.0
 11
20.3667
 21
220.367
 31
0.0
  0
LINE
  5
E4
330
1E
100
AcDbEntity
  8
0
100
AcDbLine
 10
19.5
 20
224.2669999999999
 30
0.0
 11
22.18669999999999
 21
222.187
 31
0.0
  0
LINE
  5
E5
330
1E
100
AcDbEntity
  8
0
100
AcDbLine
 10
16.37999999999999
 20
225.567
 30
0.0
 11
19.5
 21
224.2669999999999
 31
0.0
  0
LINE
  5
E6
330
1E
100
AcDbEntity
  8
0
100
AcDbLine
 10
13.0
 20
226.0
 30
0.0
 11
16.37999999999999
 21
225.567
 31
0.0
  0
LINE
  5
E7
330
1E
100
AcDbEntity
  8
0
100
AcDbLine
 10
9.619999999999999
 20
225.567
 30
0.0
 11
13.0
 21
226.0
 31
0.0
  0
LINE
  5
E8
330
1E
100
AcDbEntity
  8
0
100
AcDbLine
 10
6.5
 20
224.2669999999999
 30
0.0
 11
9.619999999999999
 21
225.567
 31
0.0
  0
LINE
  5
E9
330
1E
100
AcDbEntity
  8
0
100
AcDbLine
 10
28.0
 20
219.0999999999999
 30
0.0
 11
28.0
 21
217.9
 31
0.0
  0
LINE
  5
EA
330
1E
100
AcDbEntity
  8
0
100
AcDbLine
 10
28.0
 20
219.0999999999999
 30
0.0
 11
28.0
 21
219.7
 31
0.0
  0
LINE
  5
EB
330
1E
100
AcDbEntity
  8
0
100
AcDbLine
 10
28.0
 20
219.7
 30
0.0
 11
28.0
 21
219.0999999999999
 31
0.0
  0
LINE
  5
EC
330
1E
100
AcDbEntity
  8
0
100
AcDbLine
 10
28.0
 20
219.7
 30
0.0
 11
28.0
 21
220.0
 31
0.0
  0
LINE
  5
ED
330
1E
100
AcDbEntity
  8
0
100
AcDbLine
 10
28.0
 20
217.9
 30
0.0
 11
28.0
 21
216.5
 31
0.0
  0
LINE
  5
EE
330
1E
100
AcDbEntity
  8
0
100
AcDbLine
 10
28.0
 20
217.9
 30
0.0
 11
28.0
 21
219.0999999999999
 31
0.0
  0
LINE
  5
EF
330
1E
100
AcDbEntity
  8
0
100
AcDbLine
 10
28.0
 20
216.5
 30
0.0
 11
28.0
 21
214.8
 31
0.0
  0
LINE
  5
F0
330
1E
100
AcDbEntity
  8
0
100
AcDbLine
 10
28.0
 20
216.5
 30
0.0
 11
28.0
 21
217.9
 31
0.0
  0
LINE
  5
F1
330
1E
100
AcDbEntity
  8
0
100
AcDbLine
 10
28.0
 20
216.5
 30
0.0
 11
28.0
 21
215.5
 31
0.0
  0
LINE
  5
F2
330
1E
100
AcDbEntity
  8
0
100
AcDbLine
 10
28.0
 20
214.8
 30
0.0
 11
28.0
 21
213.0
 31
0.0
  0
LINE
  5
F3
330
1E
100
AcDbEntity
  8
0
100
AcDbLine
 10
28.0
 20
214.8
 30
0.0
 11
28.0
 21
216.5
 31
0.0
  0
LINE
  5
F4
330
1E
100
AcDbEntity
  8
0
100
AcDbLine
 10
28.0
 20
220.0
 30
0.0
 11
28.5
 21
221.4999999999999
 31
0.0
  0
LINE
  5
F5
330
1E
100
AcDbEntity
  8
0
100
AcDbLine
 10
28.0
 20
220.0
 30
0.0
 11
28.0
 21
219.7
 31
0.0
  0
LINE
  5
F6
330
1E
100
AcDbEntity
  8
0
100
AcDbLine
 10
28.0
 20
211.2
 30
0.0
 11
28.0
 21
209.5
 31
0.0
  0
LINE
  5
F7
330
1E
100
AcDbEntity
  8
0
100
AcDbLine
 10
28.0
 20
211.2
 30
0.0
 11
28.0
 21
213.0
 31
0.0
  0
LINE
  5
F8
330
1E
100
AcDbEntity
  8
0
100
AcDbLine
 10
28.0
 20
213.0
 30
0.0
 11
28.0
 21
211.2
 31
0.0
  0
LINE
  5
F9
330
1E
100
AcDbEntity
  8
0
100
AcDbLine
 10
28.0
 20
213.0
 30
0.0
 11
28.0
 21
214.8
 31
0.0
  0
LINE
  5
FA
330
1E
100
AcDbEntity
  8
0
100
AcDbLine
 10
28.0
 20
213.0
 30
0.0
 11
28.0
 21
211.6999999999999
 31
0.0
  0
LINE
  5
FB
330
1E
100
AcDbEntity
  8
0
100
AcDbLine
 10
28.0
 20
208.0999999999999
 30
0.0
 11
28.0
 21
206.8999999999999
 31
0.0
  0
LINE
  5
FC
330
1E
100
AcDbEntity
  8
0
100
AcDbLine
 10
28.0
 20
208.0999999999999
 30
0.0
 11
28.0
 21
209.5
 31
0.0
  0
LINE
  5
FD
330
1E
100
AcDbEntity
  8
0
100
AcDbLine
 10
28.0
 20
206.8999999999999
 30
0.0
 11
28.0
 21
206.3
 31
0.0
  0
LINE
  5
FE
330
1E
100
AcDbEntity
  8
0
100
AcDbLine
 10
28.0
 20
206.8999999999999
 30
0.0
 11
28.0
 21
208.0999999999999
 31
0.0
  0
LINE
  5
FF
330
1E
100
AcDbEntity
  8
0
100
AcDbLine
 10
28.0
 20
206.3
 30
0.0
 11
28.0
 21
206.0
 31
0.0
  0
LINE
  5
100
330
1E
100
AcDbEntity
  8
0
100
AcDbLine
 10
28.0
 20
206.3
 30
0.0
 11
28.0
 21
206.8999999999999
 31
0.0
  0
LINE
  5
101
330
1E
100
AcDbEntity
  8
0
100
AcDbLine
 10
28.5
 20
221.4999999999999
 30
0.0
 11
29.5
 21
222.5
 31
0.0
  0
LINE
  5
102
330
1E
100
AcDbEntity
  8
0
100
AcDbLine
 10
29.5
 20
222.5
 30
0.0
 11
31.0
 21
223.0
 31
0.0
  0
LINE
  5
103
330
1E
100
AcDbEntity
  8
0
100
AcDbLine
 10
28.0
 20
206.0
 30
0.0
 11
28.5
 21
204.4999999999999
 31
0.0
  0
LINE
  5
104
330
1E
100
AcDbEntity
  8
0
100
AcDbLine
 10
28.0
 20
206.0
 30
0.0
 11
28.0
 21
206.3
 31
0.0
  0
LINE
  5
105
330
1E
100
AcDbEntity
  8
0
100
AcDbLine
 10
28.5
 20
204.4999999999999
 30
0.0
 11
29.5
 21
203.5
 31
0.0
  0
LINE
  5
106
330
1E
100
AcDbEntity
  8
0
100
AcDbLine
 10
45.49999999999999
 20
195.0
 30
0.0
 11
46.6154
 21
195.0
 31
0.0
  0
LINE
  5
107
330
1E
100
AcDbEntity
  8
0
100
AcDbLine
 10
43.8269
 20
196.1
 30
0.0
 11
43.8269
 21
197.8
 31
0.0
  0
LINE
  5
108
330
1E
100
AcDbEntity
  8
0
100
AcDbLine
 10
43.8269
 20
196.1
 30
0.0
 11
43.8269
 21
195.5
 31
0.0
  0
LINE
  5
109
330
1E
100
AcDbEntity
  8
0
100
AcDbLine
 10
31.5577
 20
199.0
 30
0.0
 11
31.5577
 21
200.4
 31
0.0
  0
LINE
  5
10A
330
1E
100
AcDbEntity
  8
0
100
AcDbLine
 10
31.5577
 20
199.0
 30
0.0
 11
31.5577
 21
198.5
 31
0.0
  0
LINE
  5
10B
330
1E
100
AcDbEntity
  8
0
100
AcDbLine
 10
31.0
 20
201.6999999999999
 30
0.0
 11
31.0
 21
200.4999999999999
 31
0.0
  0
LINE
  5
10C
330
1E
100
AcDbEntity
  8
0
100
AcDbLine
 10
31.0
 20
201.6999999999999
 30
0.0
 11
31.0
 21
203.0
 31
0.0
  0
LINE
  5
10D
330
1E
100
AcDbEntity
  8
0
100
AcDbLine
 10
31.5577
 20
200.4
 30
0.0
 11
31.5577
 21
202.8
 31
0.0
  0
LINE
  5
10E
330
1E
100
AcDbEntity
  8
0
100
AcDbLine
 10
31.5577
 20
200.4
 30
0.0
 11
31.5577
 21
199.0
 31
0.0
  0
LINE
  5
10F
330
1E
100
AcDbEntity
  8
0
100
AcDbLine
 10
31.5577
 20
202.8
 30
0.0
 11
31.5577
 21
205.8
 31
0.0
  0
LINE
  5
110
330
1E
100
AcDbEntity
  8
0
100
AcDbLine
 10
31.5577
 20
202.8
 30
0.0
 11
31.5577
 21
200.4
 31
0.0
  0
LINE
  5
111
330
1E
100
AcDbEntity
  8
0
100
AcDbLine
 10
31.0
 20
200.4999999999999
 30
0.0
 11
31.0
 21
200.0
 31
0.0
  0
LINE
  5
112
330
1E
100
AcDbEntity
  8
0
100
AcDbLine
 10
31.0
 20
200.4999999999999
 30
0.0
 11
31.0
 21
201.6999999999999
 31
0.0
  0
LINE
  5
113
330
1E
100
AcDbEntity
  8
0
100
AcDbLine
 10
31.0
 20
200.0
 30
0.0
 11
31.5577
 21
198.5
 31
0.0
  0
LINE
  5
114
330
1E
100
AcDbEntity
  8
0
100
AcDbLine
 10
31.0
 20
200.0
 30
0.0
 11
31.0
 21
200.4999999999999
 31
0.0
  0
LINE
  5
115
330
1E
100
AcDbEntity
  8
0
100
AcDbLine
 10
42.15379999999999
 20
200.0
 30
0.0
 11
42.15379999999999
 21
202.4
 31
0.0
  0
LINE
  5
116
330
1E
100
AcDbEntity
  8
0
100
AcDbLine
 10
42.15379999999999
 20
200.0
 30
0.0
 11
42.15379999999999
 21
198.5
 31
0.0
  0
LINE
  5
117
330
1E
100
AcDbEntity
  8
0
100
AcDbLine
 10
42.15379999999999
 20
198.5
 30
0.0
 11
42.15379999999999
 21
200.0
 31
0.0
  0
LINE
  5
118
330
1E
100
AcDbEntity
  8
0
100
AcDbLine
 10
42.15379999999999
 20
198.5
 30
0.0
 11
42.15379999999999
 21
198.0
 31
0.0
  0
LINE
  5
119
330
1E
100
AcDbEntity
  8
0
100
AcDbLine
 10
42.15379999999999
 20
202.4
 30
0.0
 11
42.15379999999999
 21
205.5
 31
0.0
  0
LINE
  5
11A
330
1E
100
AcDbEntity
  8
0
100
AcDbLine
 10
42.15379999999999
 20
202.4
 30
0.0
 11
42.15379999999999
 21
200.0
 31
0.0
  0
LINE
  5
11B
330
1E
100
AcDbEntity
  8
0
100
AcDbLine
 10
31.5577
 20
198.5
 30
0.0
 11
33.2308
 21
198.0
 31
0.0
  0
LINE
  5
11C
330
1E
100
AcDbEntity
  8
0
100
AcDbLine
 10
31.5577
 20
198.5
 30
0.0
 11
31.5577
 21
199.0
 31
0.0
  0
LINE
  5
11D
330
1E
100
AcDbEntity
  8
0
100
AcDbLine
 10
33.2308
 20
198.0
 30
0.0
 11
42.15379999999999
 21
198.0
 31
0.0
  0
LINE
  5
11E
330
1E
100
AcDbEntity
  8
0
100
AcDbLine
 10
43.8269
 20
197.8
 30
0.0
 11
43.8269
 21
200.5999999999999
 31
0.0
  0
LINE
  5
11F
330
1E
100
AcDbEntity
  8
0
100
AcDbLine
 10
43.8269
 20
197.8
 30
0.0
 11
43.8269
 21
196.1
 31
0.0
  0
LINE
  5
120
330
1E
100
AcDbEntity
  8
0
100
AcDbLine
 10
43.8269
 20
200.5999999999999
 30
0.0
 11
43.8269
 21
204.3
 31
0.0
  0
LINE
  5
121
330
1E
100
AcDbEntity
  8
0
100
AcDbLine
 10
43.8269
 20
200.5999999999999
 30
0.0
 11
43.8269
 21
197.8
 31
0.0
  0
LINE
  5
122
330
1E
100
AcDbEntity
  8
0
100
AcDbLine
 10
42.15379999999999
 20
198.0
 30
0.0
 11
43.2692
 21
197.0
 31
0.0
  0
LINE
  5
123
330
1E
100
AcDbEntity
  8
0
100
AcDbLine
 10
42.15379999999999
 20
198.0
 30
0.0
 11
42.15379999999999
 21
198.5
 31
0.0
  0
LINE
  5
124
330
1E
100
AcDbEntity
  8
0
100
AcDbLine
 10
43.2692
 20
197.0
 30
0.0
 11
43.8269
 21
195.5
 31
0.0
  0
LINE
  5
125
330
1E
100
AcDbEntity
  8
0
100
AcDbLine
 10
43.8269
 20
195.5
 30
0.0
 11
45.49999999999999
 21
195.0
 31
0.0
  0
LINE
  5
126
330
1E
100
AcDbEntity
  8
0
100
AcDbLine
 10
43.8269
 20
195.5
 30
0.0
 11
43.8269
 21
196.1
 31
0.0
  0
LINE
  5
127
330
1E
100
AcDbEntity
  8
0
100
AcDbLine
 10
46.6154
 20
195.0
 30
0.0
 11
51.0769
 21
193.5
 31
0.0
  0
LINE
  5
128
330
1E
100
AcDbEntity
  8
0
100
AcDbLine
 10
51.0769
 20
193.5
 30
0.0
 11
54.9808
 21
190.5
 31
0.0
  0
LINE
  5
129
330
1E
100
AcDbEntity
  8
0
100
AcDbLine
 10
54.9808
 20
190.5
 30
0.0
 11
56.65379999999999
 21
188.0
 31
0.0
  0
LINE
  5
12A
330
1E
100
AcDbEntity
  8
0
100
AcDbLine
 10
57.2115
 20
190.0
 30
0.0
 11
57.2115
 21
194.2999999999999
 31
0.0
  0
LINE
  5
12B
330
1E
100
AcDbEntity
  8
0
100
AcDbLine
 10
57.2115
 20
190.0
 30
0.0
 11
57.2115
 21
187.5
 31
0.0
  0
LINE
  5
12C
330
1E
100
AcDbEntity
  8
0
100
AcDbLine
 10
57.2115
 20
187.5
 30
0.0
 11
57.2115
 21
190.0
 31
0.0
  0
LINE
  5
12D
330
1E
100
AcDbEntity
  8
0
100
AcDbLine
 10
57.2115
 20
187.5
 30
0.0
 11
57.2115
 21
186.5
 31
0.0
  0
LINE
  5
12E
330
1E
100
AcDbEntity
  8
0
100
AcDbLine
 10
57.2115
 20
194.2999999999999
 30
0.0
 11
57.2115
 21
199.8
 31
0.0
  0
LINE
  5
12F
330
1E
100
AcDbEntity
  8
0
100
AcDbLine
 10
57.2115
 20
194.2999999999999
 30
0.0
 11
57.2115
 21
190.0
 31
0.0
  0
LINE
  5
130
330
1E
100
AcDbEntity
  8
0
100
AcDbLine
 10
57.2115
 20
199.8
 30
0.0
 11
57.2115
 21
206.1999999999999
 31
0.0
  0
LINE
  5
131
330
1E
100
AcDbEntity
  8
0
100
AcDbLine
 10
57.2115
 20
199.8
 30
0.0
 11
57.2115
 21
194.2999999999999
 31
0.0
  0
LINE
  5
132
330
1E
100
AcDbEntity
  8
0
100
AcDbLine
 10
56.65379999999999
 20
188.0
 30
0.0
 11
57.2115
 21
186.5
 31
0.0
  0
LINE
  5
133
330
1E
100
AcDbEntity
  8
0
100
AcDbLine
 10
57.2115
 20
186.5
 30
0.0
 11
58.8846
 21
186.0
 31
0.0
  0
LINE
  5
134
330
1E
100
AcDbEntity
  8
0
100
AcDbLine
 10
57.2115
 20
186.5
 30
0.0
 11
57.2115
 21
187.5
 31
0.0
  0
LINE
  5
135
330
1E
100
AcDbEntity
  8
0
100
AcDbLine
 10
60.0
 20
189.5999999999999
 30
0.0
 11
60.0
 21
193.9
 31
0.0
  0
LINE
  5
136
330
1E
100
AcDbEntity
  8
0
100
AcDbLine
 10
60.0
 20
189.5999999999999
 30
0.0
 11
60.0
 21
187.0
 31
0.0
  0
LINE
  5
137
330
1E
100
AcDbEntity
  8
0
100
AcDbLine
 10
60.0
 20
187.0
 30
0.0
 11
60.0
 21
189.5999999999999
 31
0.0
  0
LINE
  5
138
330
1E
100
AcDbEntity
  8
0
100
AcDbLine
 10
60.0
 20
187.0
 30
0.0
 11
60.0
 21
186.0
 31
0.0
  0
LINE
  5
139
330
1E
100
AcDbEntity
  8
0
100
AcDbLine
 10
60.0
 20
186.0
 30
0.0
 11
60.0
 21
187.0
 31
0.0
  0
LINE
  5
13A
330
1E
100
AcDbEntity
  8
0
100
AcDbLine
 10
60.0
 20
193.9
 30
0.0
 11
60.0
 21
199.6
 31
0.0
  0
LINE
  5
13B
330
1E
100
AcDbEntity
  8
0
100
AcDbLine
 10
60.0
 20
193.9
 30
0.0
 11
60.0
 21
189.5999999999999
 31
0.0
  0
LINE
  5
13C
330
1E
100
AcDbEntity
  8
0
100
AcDbLine
 10
60.0
 20
199.6
 30
0.0
 11
60.0
 21
206.0999999999999
 31
0.0
  0
LINE
  5
13D
330
1E
100
AcDbEntity
  8
0
100
AcDbLine
 10
60.0
 20
199.6
 30
0.0
 11
60.0
 21
193.9
 31
0.0
  0
LINE
  5
13E
330
1E
100
AcDbEntity
  8
0
100
AcDbLine
 10
58.8846
 20
186.0
 30
0.0
 11
60.0
 21
186.0
 31
0.0
  0
LINE
  5
13F
330
1E
100
AcDbEntity
  8
0
100
AcDbLine
 10
31.0
 20
205.9
 30
0.0
 11
31.0
 21
208.0
 31
0.0
  0
LINE
  5
140
330
1E
100
AcDbEntity
  8
0
100
AcDbLine
 10
31.0
 20
220.1
 30
0.0
 11
31.0
 21
221.7
 31
0.0
  0
LINE
  5
141
330
1E
100
AcDbEntity
  8
0
100
AcDbLine
 10
31.0
 20
221.7
 30
0.0
 11
31.0
 21
222.5999999999999
 31
0.0
  0
LINE
  5
142
330
1E
100
AcDbEntity
  8
0
100
AcDbLine
 10
31.0
 20
223.0
 30
0.0
 11
31.0
 21
224.3
 31
0.0
  0
LINE
  5
143
330
1E
100
AcDbEntity
  8
0
100
AcDbLine
 10
31.0
 20
224.3
 30
0.0
 11
31.0
 21
223.0
 31
0.0
  0
LINE
  5
144
330
1E
100
AcDbEntity
  8
0
100
AcDbLine
 10
31.0
 20
224.3
 30
0.0
 11
31.0
 21
225.4999999999999
 31
0.0
  0
LINE
  5
145
330
1E
100
AcDbEntity
  8
0
100
AcDbLine
 10
31.0
 20
225.4999999999999
 30
0.0
 11
31.0
 21
224.3
 31
0.0
  0
LINE
  5
146
330
1E
100
AcDbEntity
  8
0
100
AcDbLine
 10
31.0
 20
225.4999999999999
 30
0.0
 11
31.0
 21
226.0
 31
0.0
  0
LINE
  5
147
330
1E
100
AcDbEntity
  8
0
100
AcDbLine
 10
31.0
 20
226.0
 30
0.0
 11
31.0
 21
225.4999999999999
 31
0.0
  0
LINE
  5
148
330
1E
100
AcDbEntity
  8
0
100
AcDbLine
 10
31.0
 20
226.0
 30
0.0
 11
31.5577
 21
227.4999999999999
 31
0.0
  0
LINE
  5
149
330
1E
100
AcDbEntity
  8
0
100
AcDbLine
 10
31.0
 20
222.5999999999999
 30
0.0
 11
31.0
 21
223.0
 31
0.0
  0
LINE
  5
14A
330
1E
100
AcDbEntity
  8
0
100
AcDbLine
 10
31.0
 20
218.0
 30
0.0
 11
31.0
 21
220.1
 31
0.0
  0
LINE
  5
14B
330
1E
100
AcDbEntity
  8
0
100
AcDbLine
 10
31.0
 20
215.6
 30
0.0
 11
31.0
 21
218.0
 31
0.0
  0
LINE
  5
14C
330
1E
100
AcDbEntity
  8
0
100
AcDbLine
 10
31.0
 20
213.0
 30
0.0
 11
31.0
 21
215.6
 31
0.0
  0
LINE
  5
14D
330
1E
100
AcDbEntity
  8
0
100
AcDbLine
 10
31.0
 20
208.0
 30
0.0
 11
31.0
 21
210.4
 31
0.0
  0
LINE
  5
14E
330
1E
100
AcDbEntity
  8
0
100
AcDbLine
 10
31.0
 20
210.4
 30
0.0
 11
31.0
 21
213.0
 31
0.0
  0
LINE
  5
14F
330
1E
100
AcDbEntity
  8
0
100
AcDbLine
 10
31.0
 20
204.3
 30
0.0
 11
31.0
 21
205.9
 31
0.0
  0
LINE
  5
150
330
1E
100
AcDbEntity
  8
0
100
AcDbLine
 10
31.5577
 20
205.8
 30
0.0
 11
31.5577
 21
209.2999999999999
 31
0.0
  0
LINE
  5
151
330
1E
100
AcDbEntity
  8
0
100
AcDbLine
 10
31.5577
 20
205.8
 30
0.0
 11
31.5577
 21
202.8
 31
0.0
  0
LINE
  5
152
330
1E
100
AcDbEntity
  8
0
100
AcDbLine
 10
42.15379999999999
 20
205.5
 30
0.0
 11
42.15379999999999
 21
209.1
 31
0.0
  0
LINE
  5
153
330
1E
100
AcDbEntity
  8
0
100
AcDbLine
 10
42.15379999999999
 20
205.5
 30
0.0
 11
42.15379999999999
 21
202.4
 31
0.0
  0
LINE
  5
154
330
1E
100
AcDbEntity
  8
0
100
AcDbLine
 10
43.8269
 20
204.3
 30
0.0
 11
43.8269
 21
208.4999999999999
 31
0.0
  0
LINE
  5
155
330
1E
100
AcDbEntity
  8
0
100
AcDbLine
 10
43.8269
 20
204.3
 30
0.0
 11
43.8269
 21
200.5999999999999
 31
0.0
  0
LINE
  5
156
330
1E
100
AcDbEntity
  8
0
100
AcDbLine
 10
31.5577
 20
220.1999999999999
 30
0.0
 11
31.5577
 21
223.1999999999999
 31
0.0
  0
LINE
  5
157
330
1E
100
AcDbEntity
  8
0
100
AcDbLine
 10
31.5577
 20
220.1999999999999
 30
0.0
 11
31.5577
 21
216.6999999999999
 31
0.0
  0
LINE
  5
158
330
1E
100
AcDbEntity
  8
0
100
AcDbLine
 10
31.5577
 20
216.6999999999999
 30
0.0
 11
31.5577
 21
220.1999999999999
 31
0.0
  0
LINE
  5
159
330
1E
100
AcDbEntity
  8
0
100
AcDbLine
 10
31.5577
 20
216.6999999999999
 30
0.0
 11
31.5577
 21
213.0
 31
0.0
  0
LINE
  5
15A
330
1E
100
AcDbEntity
  8
0
100
AcDbLine
 10
31.5577
 20
223.1999999999999
 30
0.0
 11
31.5577
 21
225.5999999999999
 31
0.0
  0
LINE
  5
15B
330
1E
100
AcDbEntity
  8
0
100
AcDbLine
 10
31.5577
 20
223.1999999999999
 30
0.0
 11
31.5577
 21
220.1999999999999
 31
0.0
  0
LINE
  5
15C
330
1E
100
AcDbEntity
  8
0
100
AcDbLine
 10
31.5577
 20
225.5999999999999
 30
0.0
 11
31.5577
 21
227.0
 31
0.0
  0
LINE
  5
15D
330
1E
100
AcDbEntity
  8
0
100
AcDbLine
 10
31.5577
 20
225.5999999999999
 30
0.0
 11
31.5577
 21
223.1999999999999
 31
0.0
  0
LINE
  5
15E
330
1E
100
AcDbEntity
  8
0
100
AcDbLine
 10
31.5577
 20
227.0
 30
0.0
 11
31.5577
 21
227.4999999999999
 31
0.0
  0
LINE
  5
15F
330
1E
100
AcDbEntity
  8
0
100
AcDbLine
 10
31.5577
 20
227.0
 30
0.0
 11
31.5577
 21
225.5999999999999
 31
0.0
  0
LINE
  5
160
330
1E
100
AcDbEntity
  8
0
100
AcDbLine
 10
31.5577
 20
227.4999999999999
 30
0.0
 11
33.2308
 21
228.0
 31
0.0
  0
LINE
  5
161
330
1E
100
AcDbEntity
  8
0
100
AcDbLine
 10
31.5577
 20
227.4999999999999
 30
0.0
 11
31.5577
 21
227.0
 31
0.0
  0
LINE
  5
162
330
1E
100
AcDbEntity
  8
0
100
AcDbLine
 10
42.15379999999999
 20
220.5
 30
0.0
 11
42.15379999999999
 21
223.6
 31
0.0
  0
LINE
  5
163
330
1E
100
AcDbEntity
  8
0
100
AcDbLine
 10
42.15379999999999
 20
220.5
 30
0.0
 11
42.15379999999999
 21
216.9
 31
0.0
  0
LINE
  5
164
330
1E
100
AcDbEntity
  8
0
100
AcDbLine
 10
42.15379999999999
 20
216.9
 30
0.0
 11
42.15379999999999
 21
220.5
 31
0.0
  0
LINE
  5
165
330
1E
100
AcDbEntity
  8
0
100
AcDbLine
 10
42.15379999999999
 20
216.9
 30
0.0
 11
42.15379999999999
 21
213.0
 31
0.0
  0
LINE
  5
166
330
1E
100
AcDbEntity
  8
0
100
AcDbLine
 10
42.15379999999999
 20
223.6
 30
0.0
 11
42.15379999999999
 21
226.0
 31
0.0
  0
LINE
  5
167
330
1E
100
AcDbEntity
  8
0
100
AcDbLine
 10
42.15379999999999
 20
223.6
 30
0.0
 11
42.15379999999999
 21
220.5
 31
0.0
  0
LINE
  5
168
330
1E
100
AcDbEntity
  8
0
100
AcDbLine
 10
42.15379999999999
 20
226.0
 30
0.0
 11
42.15379999999999
 21
227.4999999999999
 31
0.0
  0
LINE
  5
169
330
1E
100
AcDbEntity
  8
0
100
AcDbLine
 10
42.15379999999999
 20
226.0
 30
0.0
 11
42.15379999999999
 21
223.6
 31
0.0
  0
LINE
  5
16A
330
1E
100
AcDbEntity
  8
0
100
AcDbLine
 10
42.15379999999999
 20
227.4999999999999
 30
0.0
 11
42.15379999999999
 21
228.0
 31
0.0
  0
LINE
  5
16B
330
1E
100
AcDbEntity
  8
0
100
AcDbLine
 10
42.15379999999999
 20
227.4999999999999
 30
0.0
 11
42.15379999999999
 21
226.0
 31
0.0
  0
LINE
  5
16C
330
1E
100
AcDbEntity
  8
0
100
AcDbLine
 10
33.2308
 20
228.0
 30
0.0
 11
42.15379999999999
 21
228.0
 31
0.0
  0
LINE
  5
16D
330
1E
100
AcDbEntity
  8
0
100
AcDbLine
 10
42.15379999999999
 20
228.0
 30
0.0
 11
43.2692
 21
229.0
 31
0.0
  0
LINE
  5
16E
330
1E
100
AcDbEntity
  8
0
100
AcDbLine
 10
42.15379999999999
 20
228.0
 30
0.0
 11
42.15379999999999
 21
227.4999999999999
 31
0.0
  0
LINE
  5
16F
330
1E
100
AcDbEntity
  8
0
100
AcDbLine
 10
31.5577
 20
213.0
 30
0.0
 11
31.5577
 21
209.2999999999999
 31
0.0
  0
LINE
  5
170
330
1E
100
AcDbEntity
  8
0
100
AcDbLine
 10
31.5577
 20
213.0
 30
0.0
 11
31.5577
 21
216.6999999999999
 31
0.0
  0
LINE
  5
171
330
1E
100
AcDbEntity
  8
0
100
AcDbLine
 10
31.5577
 20
209.2999999999999
 30
0.0
 11
31.5577
 21
213.0
 31
0.0
  0
LINE
  5
172
330
1E
100
AcDbEntity
  8
0
100
AcDbLine
 10
31.5577
 20
209.2999999999999
 30
0.0
 11
31.5577
 21
205.8
 31
0.0
  0
LINE
  5
173
330
1E
100
AcDbEntity
  8
0
100
AcDbLine
 10
43.8269
 20
221.7
 30
0.0
 11
43.8269
 21
225.4
 31
0.0
  0
LINE
  5
174
330
1E
100
AcDbEntity
  8
0
100
AcDbLine
 10
43.8269
 20
221.7
 30
0.0
 11
43.8269
 21
217.5
 31
0.0
  0
LINE
  5
175
330
1E
100
AcDbEntity
  8
0
100
AcDbLine
 10
43.8269
 20
217.5
 30
0.0
 11
43.8269
 21
221.7
 31
0.0
  0
LINE
  5
176
330
1E
100
AcDbEntity
  8
0
100
AcDbLine
 10
43.8269
 20
217.5
 30
0.0
 11
43.8269
 21
213.0
 31
0.0
  0
LINE
  5
177
330
1E
100
AcDbEntity
  8
0
100
AcDbLine
 10
43.8269
 20
225.4
 30
0.0
 11
43.8269
 21
228.2
 31
0.0
  0
LINE
  5
178
330
1E
100
AcDbEntity
  8
0
100
AcDbLine
 10
43.8269
 20
225.4
 30
0.0
 11
43.8269
 21
221.7
 31
0.0
  0
LINE
  5
179
330
1E
100
AcDbEntity
  8
0
100
AcDbLine
 10
43.8269
 20
228.2
 30
0.0
 11
43.8269
 21
229.8999999999999
 31
0.0
  0
LINE
  5
17A
330
1E
100
AcDbEntity
  8
0
100
AcDbLine
 10
43.8269
 20
228.2
 30
0.0
 11
43.8269
 21
225.4
 31
0.0
  0
LINE
  5
17B
330
1E
100
AcDbEntity
  8
0
100
AcDbLine
 10
43.8269
 20
229.8999999999999
 30
0.0
 11
43.8269
 21
230.5
 31
0.0
  0
LINE
  5
17C
330
1E
100
AcDbEntity
  8
0
100
AcDbLine
 10
43.8269
 20
229.8999999999999
 30
0.0
 11
43.8269
 21
228.2
 31
0.0
  0
LINE
  5
17D
330
1E
100
AcDbEntity
  8
0
100
AcDbLine
 10
43.2692
 20
229.0
 30
0.0
 11
43.8269
 21
230.5
 31
0.0
  0
LINE
  5
17E
330
1E
100
AcDbEntity
  8
0
100
AcDbLine
 10
43.8269
 20
230.5
 30
0.0
 11
45.49999999999999
 21
231.0
 31
0.0
  0
LINE
  5
17F
330
1E
100
AcDbEntity
  8
0
100
AcDbLine
 10
43.8269
 20
230.5
 30
0.0
 11
43.8269
 21
229.8999999999999
 31
0.0
  0
LINE
  5
180
330
1E
100
AcDbEntity
  8
0
100
AcDbLine
 10
42.15379999999999
 20
213.0
 30
0.0
 11
42.15379999999999
 21
209.1
 31
0.0
  0
LINE
  5
181
330
1E
100
AcDbEntity
  8
0
100
AcDbLine
 10
42.15379999999999
 20
213.0
 30
0.0
 11
42.15379999999999
 21
216.9
 31
0.0
  0
LINE
  5
182
330
1E
100
AcDbEntity
  8
0
100
AcDbLine
 10
42.15379999999999
 20
209.1
 30
0.0
 11
42.15379999999999
 21
213.0
 31
0.0
  0
LINE
  5
183
330
1E
100
AcDbEntity
  8
0
100
AcDbLine
 10
42.15379999999999
 20
209.1
 30
0.0
 11
42.15379999999999
 21
205.5
 31
0.0
  0
LINE
  5
184
330
1E
100
AcDbEntity
  8
0
100
AcDbLine
 10
45.49999999999999
 20
231.0
 30
0.0
 11
46.6154
 21
231.0
 31
0.0
  0
LINE
  5
185
330
1E
100
AcDbEntity
  8
0
100
AcDbLine
 10
46.6154
 20
231.0
 30
0.0
 11
51.0769
 21
232.5
 31
0.0
  0
LINE
  5
186
330
1E
100
AcDbEntity
  8
0
100
AcDbLine
 10
51.0769
 20
232.5
 30
0.0
 11
54.9808
 21
235.4999999999999
 31
0.0
  0
LINE
  5
187
330
1E
100
AcDbEntity
  8
0
100
AcDbLine
 10
54.9808
 20
235.4999999999999
 30
0.0
 11
56.65379999999999
 21
238.0
 31
0.0
  0
LINE
  5
188
330
1E
100
AcDbEntity
  8
0
100
AcDbLine
 10
57.2115
 20
226.2
 30
0.0
 11
57.2115
 21
231.6999999999999
 31
0.0
  0
LINE
  5
189
330
1E
100
AcDbEntity
  8
0
100
AcDbLine
 10
57.2115
 20
226.2
 30
0.0
 11
57.2115
 21
219.7999999999999
 31
0.0
  0
LINE
  5
18A
330
1E
100
AcDbEntity
  8
0
100
AcDbLine
 10
57.2115
 20
219.7999999999999
 30
0.0
 11
57.2115
 21
226.2
 31
0.0
  0
LINE
  5
18B
330
1E
100
AcDbEntity
  8
0
100
AcDbLine
 10
57.2115
 20
219.7999999999999
 30
0.0
 11
57.2115
 21
213.0
 31
0.0
  0
LINE
  5
18C
330
1E
100
AcDbEntity
  8
0
100
AcDbLine
 10
57.2115
 20
231.6999999999999
 30
0.0
 11
57.2115
 21
236.0
 31
0.0
  0
LINE
  5
18D
330
1E
100
AcDbEntity
  8
0
100
AcDbLine
 10
57.2115
 20
231.6999999999999
 30
0.0
 11
57.2115
 21
226.2
 31
0.0
  0
LINE
  5
18E
330
1E
100
AcDbEntity
  8
0
100
AcDbLine
 10
57.2115
 20
236.0
 30
0.0
 11
57.2115
 21
238.5
 31
0.0
  0
LINE
  5
18F
330
1E
100
AcDbEntity
  8
0
100
AcDbLine
 10
57.2115
 20
236.0
 30
0.0
 11
57.2115
 21
231.6999999999999
 31
0.0
  0
LINE
  5
190
330
1E
100
AcDbEntity
  8
0
100
AcDbLine
 10
57.2115
 20
238.5
 30
0.0
 11
57.2115
 21
239.5
 31
0.0
  0
LINE
  5
191
330
1E
100
AcDbEntity
  8
0
100
AcDbLine
 10
57.2115
 20
238.5
 30
0.0
 11
57.2115
 21
236.0
 31
0.0
  0
LINE
  5
192
330
1E
100
AcDbEntity
  8
0
100
AcDbLine
 10
56.65379999999999
 20
238.0
 30
0.0
 11
57.2115
 21
239.5
 31
0.0
  0
LINE
  5
193
330
1E
100
AcDbEntity
  8
0
100
AcDbLine
 10
57.2115
 20
239.5
 30
0.0
 11
58.8846
 21
240.0
 31
0.0
  0
LINE
  5
194
330
1E
100
AcDbEntity
  8
0
100
AcDbLine
 10
57.2115
 20
239.5
 30
0.0
 11
57.2115
 21
238.5
 31
0.0
  0
LINE
  5
195
330
1E
100
AcDbEntity
  8
0
100
AcDbLine
 10
43.8269
 20
213.0
 30
0.0
 11
43.8269
 21
208.4999999999999
 31
0.0
  0
LINE
  5
196
330
1E
100
AcDbEntity
  8
0
100
AcDbLine
 10
43.8269
 20
213.0
 30
0.0
 11
43.8269
 21
217.5
 31
0.0
  0
LINE
  5
197
330
1E
100
AcDbEntity
  8
0
100
AcDbLine
 10
43.8269
 20
208.4999999999999
 30
0.0
 11
43.8269
 21
213.0
 31
0.0
  0
LINE
  5
198
330
1E
100
AcDbEntity
  8
0
100
AcDbLine
 10
43.8269
 20
208.4999999999999
 30
0.0
 11
43.8269
 21
204.3
 31
0.0
  0
LINE
  5
199
330
1E
100
AcDbEntity
  8
0
100
AcDbLine
 10
60.0
 20
226.4
 30
0.0
 11
60.0
 21
232.1
 31
0.0
  0
LINE
  5
19A
330
1E
100
AcDbEntity
  8
0
100
AcDbLine
 10
60.0
 20
226.4
 30
0.0
 11
60.0
 21
219.9
 31
0.0
  0
LINE
  5
19B
330
1E
100
AcDbEntity
  8
0
100
AcDbLine
 10
60.0
 20
219.9
 30
0.0
 11
60.0
 21
226.4
 31
0.0
  0
LINE
  5
19C
330
1E
100
AcDbEntity
  8
0
100
AcDbLine
 10
60.0
 20
219.9
 30
0.0
 11
60.0
 21
213.0
 31
0.0
  0
LINE
  5
19D
330
1E
100
AcDbEntity
  8
0
100
AcDbLine
 10
60.0
 20
232.1
 30
0.0
 11
60.0
 21
236.4
 31
0.0
  0
LINE
  5
19E
330
1E
100
AcDbEntity
  8
0
100
AcDbLine
 10
60.0
 20
232.1
 30
0.0
 11
60.0
 21
226.4
 31
0.0
  0
LINE
  5
19F
330
1E
100
AcDbEntity
  8
0
100
AcDbLine
 10
60.0
 20
240.0
 30
0.0
 11
60.0
 21
239.0
 31
0.0
  0
LINE
  5
1A0
330
1E
100
AcDbEntity
  8
0
100
AcDbLine
 10
60.0
 20
236.4
 30
0.0
 11
60.0
 21
239.0
 31
0.0
  0
LINE
  5
1A1
330
1E
100
AcDbEntity
  8
0
100
AcDbLine
 10
60.0
 20
236.4
 30
0.0
 11
60.0
 21
232.1
 31
0.0
  0
LINE
  5
1A2
330
1E
100
AcDbEntity
  8
0
100
AcDbLine
 10
60.0
 20
239.0
 30
0.0
 11
60.0
 21
240.0
 31
0.0
  0
LINE
  5
1A3
330
1E
100
AcDbEntity
  8
0
100
AcDbLine
 10
60.0
 20
239.0
 30
0.0
 11
60.0
 21
236.4
 31
0.0
  0
LINE
  5
1A4
330
1E
100
AcDbEntity
  8
0
100
AcDbLine
 10
58.8846
 20
240.0
 30
0.0
 11
60.0
 21
240.0
 31
0.0
  0
LINE
  5
1A5
330
1E
100
AcDbEntity
  8
0
100
AcDbLine
 10
57.2115
 20
213.0
 30
0.0
 11
57.2115
 21
206.1999999999999
 31
0.0
  0
LINE
  5
1A6
330
1E
100
AcDbEntity
  8
0
100
AcDbLine
 10
57.2115
 20
213.0
 30
0.0
 11
57.2115
 21
219.7999999999999
 31
0.0
  0
LINE
  5
1A7
330
1E
100
AcDbEntity
  8
0
100
AcDbLine
 10
57.2115
 20
206.1999999999999
 30
0.0
 11
57.2115
 21
213.0
 31
0.0
  0
LINE
  5
1A8
330
1E
100
AcDbEntity
  8
0
100
AcDbLine
 10
57.2115
 20
206.1999999999999
 30
0.0
 11
57.2115
 21
199.8
 31
0.0
  0
LINE
  5
1A9
330
1E
100
AcDbEntity
  8
0
100
AcDbLine
 10
60.0
 20
213.0
 30
0.0
 11
60.0
 21
206.0999999999999
 31
0.0
  0
LINE
  5
1AA
330
1E
100
AcDbEntity
  8
0
100
AcDbLine
 10
60.0
 20
213.0
 30
0.0
 11
60.0
 21
219.9
 31
0.0
  0
LINE
  5
1AB
330
1E
100
AcDbEntity
  8
0
100
AcDbLine
 10
60.0
 20
206.0999999999999
 30
0.0
 11
60.0
 21
213.0
 31
0.0
  0
LINE
  5
1AC
330
1E
100
AcDbEntity
  8
0
100
AcDbLine
 10
60.0
 20
206.0999999999999
 30
0.0
 11
60.0
 21
199.6
 31
0.0
  0
LINE
  5
1AD
330
1E
100
AcDbEntity
  8
0
100
AcDbLine
 10
31.0
 20
203.4
 30
0.0
 11
31.0
 21
204.3
 31
0.0
  0
LINE
  5
1AE
330
1E
100
AcDbEntity
  8
0
100
AcDbLine
 10
31.0
 20
203.0
 30
0.0
 11
31.0
 21
203.4
 31
0.0
  0
LINE
  5
1AF
330
1E
100
AcDbEntity
  8
0
100
AcDbLine
 10
31.0
 20
203.0
 30
0.0
 11
31.0
 21
201.6999999999999
 31
0.0
  0
LINE
  5
1B0
330
1E
100
AcDbEntity
  8
0
100
AcDbLine
 10
29.5
 20
203.5
 30
0.0
 11
31.0
 21
203.0
 31
0.0
  0
LINE
  5
1B5
330
1E
100
AcDbEntity
  8
0
100
AcDbLine
 10
25.5667
 20
209.62
 30
0.0
 11
26.0
 21
213.0
 31
0.0
  0
LINE
  5
1B6
330
1E
100
AcDbEntity
  8
0
100
AcDbLine
 10
22.18669999999999
 20
203.8129999999999
 30
0.0
 11
24.2667
 21
206.4999999999999
 31
0.0
  0
LINE
  5
1B7
330
1E
100
AcDbEntity
  8
0
100
AcDbLine
 10
6.5
 20
224.2669999999999
 30
0.0
 11
3.945105270241128
 21
222.1877922578741
 31
0.0
  0
LINE
  5
1B8
330
1E
100
AcDbEntity
  8
0
100
AcDbLine
 10
3.945105270241128
 20
222.1877922578741
 30
0.0
 11
1.73333
 21
219.4999999999999
 31
0.0
  0
LINE
  5
1BA
330
1E
100
AcDbEntity
  8
0
100
AcDbLine
 10
8.0
 20
211.679064339962
 30
0.0
 11
8.118546666155907
 21
213.0783236075207
 31
0.0
  0
LINE
  5
1BB
330
1E
100
AcDbEntity
  8
0
100
AcDbLine
 10
8.118546666155907
 20
213.0783236075207
 30
0.0
 11
8.475900817465344
 21
214.2117830644029
 31
0.0
  0
LINE
  5
1BC
330
1E
100
AcDbEntity
  8
0
100
AcDbLine
 10
8.475900817465344
 20
214.2117830644029
 30
0.0
 11
9.081849160990032
 21
215.1278662413738
 31
0.0
  0
LINE
  5
1BD
330
1E
100
AcDbEntity
  8
0
100
AcDbLine
 10
9.081849160990032
 20
215.1278662413738
 30
0.0
 11
9.905318592844196
 21
215.9507887990467
 31
0.0
  0
LINE
  5
1BE
330
1E
100
AcDbEntity
  8
0
100
AcDbLine
 10
9.905318592844196
 20
215.9507887990467
 30
0.0
 11
10.77539826559746
 21
216.46317445751
 31
0.0
  0
LINE
  5
1BF
330
1E
100
AcDbEntity
  8
0
100
AcDbLine
 10
10.77539826559746
 20
216.46317445751
 30
0.0
 11
11.81638761564022
 21
216.8668719760176
 31
0.0
  0
LINE
  5
1C0
330
1E
100
AcDbEntity
  8
0
100
AcDbLine
 10
11.81638761564022
 20
216.8668719760176
 30
0.0
 11
13.0
 21
216.99
 31
0.0
  0
LINE
  5
1C1
330
1E
100
AcDbEntity
  8
0
100
AcDbLine
 10
15.22460173440254
 20
216.46317445751
 30
0.0
 11
14.18361238435977
 21
216.8668719760176
 31
0.0
  0
LINE
  5
1C2
330
1E
100
AcDbEntity
  8
0
100
AcDbLine
 10
17.88145333384409
 20
213.0783236075207
 30
0.0
 11
17.52409918253465
 21
214.2117830644029
 31
0.0
  0
LINE
  5
1C3
330
1E
100
AcDbEntity
  8
0
100
AcDbLine
 10
18.0
 20
211.679064339962
 30
0.0
 11
17.88145333384409
 21
213.0783236075207
 31
0.0
  0
LINE
  5
1C4
330
1E
100
AcDbEntity
  8
0
100
AcDbLine
 10
17.52409918253465
 20
214.2117830644029
 30
0.0
 11
16.91815083900996
 21
215.1278662413738
 31
0.0
  0
LINE
  5
1C5
330
1E
100
AcDbEntity
  8
0
100
AcDbLine
 10
16.0946814071558
 20
215.9507887990467
 30
0.0
 11
15.22460173440254
 21
216.46317445751
 31
0.0
  0
LINE
  5
1C6
330
1E
100
AcDbEntity
  8
0
100
AcDbLine
 10
16.91815083900996
 20
215.1278662413738
 30
0.0
 11
16.0946814071558
 21
215.9507887990467
 31
0.0
  0
LINE
  5
1C7
330
1E
100
AcDbEntity
  8
0
100
AcDbLine
 10
14.18361238435977
 20
216.8668719760176
 30
0.0
 11
13.0
 21
216.99
 31
0.0
  0
LINE
  5
1CB
330
1E
100
AcDbEntity
  8
0
100
AcDbLine
 10
19.5
 20
201.733
 30
0.0
 11
18.0017548586818
 21
201.1508560241882
 31
0.0
  0
ENDSEC
  0
SECTION
  2
OBJECTS
  0
DICTIONARY
  5
C
330
0
100
AcDbDictionary
281
     1
  3
ACAD_GROUP
350
D
  3
ACAD_LAYOUT
350
19
  3
ACAD_MLINESTYLE
350
16
  3
ACAD_PLOTSETTINGS
350
18
  3
ACAD_PLOTSTYLENAME
350
E
  3
AcDbVariableDictionary
350
1C8
  0
DICTIONARY
  5
D
102
{ACAD_REACTORS
330
C
102
}
330
C
100
AcDbDictionary
281
     1
  0
DICTIONARY
  5
19
102
{ACAD_REACTORS
330
C
102
}
330
C
100
AcDbDictionary
281
     1
  3
Layout1
350
1D
  3
Model
350
21
  0
DICTIONARY
  5
16
102
{ACAD_REACTORS
330
C
102
}
330
C
100
AcDbDictionary
281
     1
  3
Standard
350
17
  0
DICTIONARY
  5
18
102
{ACAD_REACTORS
330
C
102
}
330
C
100
AcDbDictionary
281
     1
  0
ACDBDICTIONARYWDFLT
  5
E
102
{ACAD_REACTORS
330
C
102
}
330
C
100
AcDbDictionary
281
     1
  3
Normal
350
F
100
AcDbDictionaryWithDefault
340
F
  0
DICTIONARY
  5
1C8
102
{ACAD_REACTORS
330
C
102
}
330
C
100
AcDbDictionary
281
     1
  3
DIMASSOC
350
1C9
  0
LAYOUT
  5
1D
102
{ACAD_REACTORS
330
19
102
}
330
19
100
AcDbPlotSettings
  1

  2
hp deskjet 980c series
  4

  6

 40
0.0
 41
0.0
 42
0.0
 43
0.0
 44
0.0
 45
0.0
 46
0.0
 47
0.0
 48
0.0
 49
0.0
140
0.0
141
0.0
142
1.0
143
1.0
 70
   688
 72
     0
 73
     0
 74
     5
  7

 75
    16
147
1.0
148
0.0
149
0.0
100
AcDbLayout
  1
Layout1
 70
     1
 71
     1
 10
0.0
 20
0.0
 11
12.0
 21
9.0
 12
0.0
 22
0.0
 32
0.0
 14
1.000000000000000E+20
 24
1.000000000000000E+20
 34
1.000000000000000E+20
 15
-1.000000000000000E+20
 25
-1.000000000000000E+20
 35
-1.000000000000000E+20
146
0.0
 13
0.0
 23
0.0
 33
0.0
 16
1.0
 26
0.0
 36
0.0
 17
0.0
 27
1.0
 37
0.0
 76
     0
330
1A
  0
LAYOUT
  5
21
102
{ACAD_REACTORS
330
19
102
}
330
19
100
AcDbPlotSettings
  1

  2
hp deskjet 980c series
  4

  6

 40
0.0
 41
0.0
 42
0.0
 43
0.0
 44
0.0
 45
0.0
 46
0.0
 47
0.0
 48
0.0
 49
0.0
140
0.0
141
0.0
142
1.0
143
1.0
 70
  1712
 72
     0
 73
     0
 74
     0
  7

 75
     0
147
1.0
148
0.0
149
0.0
100
AcDbLayout
  1
Model
 70
     1
 71
     0
 10
0.0
 20
0.0
 11
12.0
 21
9.0
 12
0.0
 22
0.0
 32
0.0
 14
0.0
 24
0.0
 34
0.0
 15
0.0
 25
0.0
 35
0.0
146
0.0
 13
0.0
 23
0.0
 33
0.0
 16
1.0
 26
0.0
 36
0.0
 17
0.0
 27
1.0
 37
0.0
 76
     0
330
1E
  0
MLINESTYLE
  5
17
102
{ACAD_REACTORS
330
16
102
}
330
16
100
AcDbMlineStyle
  2
STANDARD
 70
     0
  3

 62
   256
 51
90.0
 52
90.0
 71
     2
 49
0.5
 62
   256
  6
BYLAYER
 49
-0.5
 62
   256
  6
BYLAYER
  0
ACDBPLACEHOLDER
  5
F
102
{ACAD_REACTORS
330
E
102
}
330
E
  0
DICTIONARYVAR
  5
1C9
102
{ACAD_REACTORS
330
1C8
102
}
330
1C8
100
DictionaryVariables
280
     0
  1
1
  0
ENDSEC
  0
EOF
