  0
SECTION
  2
HEADER
  9
$ACADVER
  1
AC1015
  9
$ACADMAINTVER
 70
    13
  9
$DWGCODEPAGE
  3
ANSI_1252
  9
$INSBASE
 10
0.0
 20
0.0
 30
0.0
  9
$EXTMIN
 10
-0.0000000000000017
 20
0.06525849999999
 30
0.0
  9
$EXTMAX
 10
121.0
 20
243.9347414999999
 30
0.0
  9
$LIMMIN
 10
0.0
 20
0.0
  9
$LIMMAX
 10
12.0
 20
9.0
  9
$ORTHOMODE
 70
     0
  9
$REGENMODE
 70
     1
  9
$FILLMODE
 70
     1
  9
$QTEXTMODE
 70
     0
  9
$MIRRTEXT
 70
     1
  9
$LTSCALE
 40
1.0
  9
$ATTMODE
 70
     1
  9
$TEXTSIZE
 40
0.2
  9
$TRACEWID
 40
0.05
  9
$TEXTSTYLE
  7
Standard
  9
$CLAYER
  8
0
  9
$CELTYPE
  6
Continuous
  9
$CECOLOR
 62
   256
  9
$CELTSCALE
 40
1.0
  9
$DISPSILH
 70
     0
  9
$DIMSCALE
 40
1.0
  9
$DIMASZ
 40
0.18
  9
$DIMEXO
 40
0.0625
  9
$DIMDLI
 40
0.38
  9
$DIMRND
 40
0.0
  9
$DIMDLE
 40
0.0
  9
$DIMEXE
 40
0.18
  9
$DIMTP
 40
0.0
  9
$DIMTM
 40
0.0
  9
$DIMTXT
 40
0.18
  9
$DIMCEN
 40
0.09
  9
$DIMTSZ
 40
0.0
  9
$DIMTOL
 70
     0
  9
$DIMLIM
 70
     0
  9
$DIMTIH
 70
     1
  9
$DIMTOH
 70
     1
  9
$DIMSE1
 70
     0
  9
$DIMSE2
 70
     0
  9
$DIMTAD
 70
     0
  9
$DIMZIN
 70
     0
  9
$DIMBLK
  1

  9
$DIMASO
 70
     1
  9
$DIMSHO
 70
     1
  9
$DIMPOST
  1

  9
$DIMAPOST
  1

  9
$DIMALT
 70
     0
  9
$DIMALTD
 70
     2
  9
$DIMALTF
 40
25.4
  9
$DIMLFAC
 40
1.0
  9
$DIMTOFL
 70
     0
  9
$DIMTVP
 40
0.0
  9
$DIMTIX
 70
     0
  9
$DIMSOXD
 70
     0
  9
$DIMSAH
 70
     0
  9
$DIMBLK1
  1

  9
$DIMBLK2
  1

  9
$DIMSTYLE
  2
Standard
  9
$DIMCLRD
 70
     0
  9
$DIMCLRE
 70
     0
  9
$DIMCLRT
 70
     0
  9
$DIMTFAC
 40
1.0
  9
$DIMGAP
 40
0.09
  9
$DIMJUST
 70
     0
  9
$DIMSD1
 70
     0
  9
$DIMSD2
 70
     0
  9
$DIMTOLJ
 70
     1
  9
$DIMTZIN
 70
     0
  9
$DIMALTZ
 70
     0
  9
$DIMALTTZ
 70
     0
  9
$DIMUPT
 70
     0
  9
$DIMDEC
 70
     4
  9
$DIMTDEC
 70
     4
  9
$DIMALTU
 70
     2
  9
$DIMALTTD
 70
     2
  9
$DIMTXSTY
  7
Standard
  9
$DIMAUNIT
 70
     0
  9
$DIMADEC
 70
     0
  9
$DIMALTRND
 40
0.0
  9
$DIMAZIN
 70
     0
  9
$DIMDSEP
 70
    46
  9
$DIMATFIT
 70
     3
  9
$DIMFRAC
 70
     0
  9
$DIMLDRBLK
  1

  9
$DIMLUNIT
 70
     2
  9
$DIMLWD
 70
    -2
  9
$DIMLWE
 70
    -2
  9
$DIMTMOVE
 70
     0
  9
$LUNITS
 70
     2
  9
$LUPREC
 70
     4
  9
$SKETCHINC
 40
0.1
  9
$FILLETRAD
 40
0.0
  9
$AUNITS
 70
     0
  9
$AUPREC
 70
     0
  9
$MENU
  1
.
  9
$ELEVATION
 40
0.0
  9
$PELEVATION
 40
0.0
  9
$THICKNESS
 40
0.0
  9
$LIMCHECK
 70
     0
  9
$CHAMFERA
 40
0.0
  9
$CHAMFERB
 40
0.0
  9
$CHAMFERC
 40
0.0
  9
$CHAMFERD
 40
0.0
  9
$SKPOLY
 70
     0
  9
$TDCREATE
 40
2454749.789384942
  9
$TDUCREATE
 40
2454749.706051609
  9
$TDUPDATE
 40
2454749.792325301
  9
$TDUUPDATE
 40
2454749.708991967
  9
$TDINDWG
 40
0.0029405324
  9
$TDUSRTIMER
 40
0.0029405324
  9
$USRTIMER
 70
     1
  9
$ANGBASE
 50
0.0
  9
$ANGDIR
 70
     0
  9
$PDMODE
 70
     0
  9
$PDSIZE
 40
0.0
  9
$PLINEWID
 40
0.0
  9
$SPLFRAME
 70
     0
  9
$SPLINETYPE
 70
     6
  9
$SPLINESEGS
 70
     8
  9
$HANDSEED
  5
412
  9
$SURFTAB1
 70
     6
  9
$SURFTAB2
 70
     6
  9
$SURFTYPE
 70
     6
  9
$SURFU
 70
     6
  9
$SURFV
 70
     6
  9
$UCSBASE
  2

  9
$UCSNAME
  2

  9
$UCSORG
 10
0.0
 20
0.0
 30
0.0
  9
$UCSXDIR
 10
1.0
 20
0.0
 30
0.0
  9
$UCSYDIR
 10
0.0
 20
1.0
 30
0.0
  9
$UCSORTHOREF
  2

  9
$UCSORTHOVIEW
 70
     1
  9
$UCSORGTOP
 10
0.0
 20
0.0
 30
0.0
  9
$UCSORGBOTTOM
 10
0.0
 20
0.0
 30
0.0
  9
$UCSORGLEFT
 10
0.0
 20
0.0
 30
0.0
  9
$UCSORGRIGHT
 10
0.0
 20
0.0
 30
0.0
  9
$UCSORGFRONT
 10
0.0
 20
0.0
 30
0.0
  9
$UCSORGBACK
 10
0.0
 20
0.0
 30
0.0
  9
$PUCSBASE
  2

  9
$PUCSNAME
  2

  9
$PUCSORG
 10
0.0
 20
0.0
 30
0.0
  9
$PUCSXDIR
 10
1.0
 20
0.0
 30
0.0
  9
$PUCSYDIR
 10
0.0
 20
1.0
 30
0.0
  9
$PUCSORTHOREF
  2

  9
$PUCSORTHOVIEW
 70
     0
  9
$PUCSORGTOP
 10
0.0
 20
0.0
 30
0.0
  9
$PUCSORGBOTTOM
 10
0.0
 20
0.0
 30
0.0
  9
$PUCSORGLEFT
 10
0.0
 20
0.0
 30
0.0
  9
$PUCSORGRIGHT
 10
0.0
 20
0.0
 30
0.0
  9
$PUCSORGFRONT
 10
0.0
 20
0.0
 30
0.0
  9
$PUCSORGBACK
 10
0.0
 20
0.0
 30
0.0
  9
$USERI1
 70
     0
  9
$USERI2
 70
     0
  9
$USERI3
 70
     0
  9
$USERI4
 70
     0
  9
$USERI5
 70
     0
  9
$USERR1
 40
0.0
  9
$USERR2
 40
0.0
  9
$USERR3
 40
0.0
  9
$USERR4
 40
0.0
  9
$USERR5
 40
0.0
  9
$WORLDVIEW
 70
     1
  9
$SHADEDGE
 70
     3
  9
$SHADEDIF
 70
    70
  9
$TILEMODE
 70
     1
  9
$MAXACTVP
 70
    64
  9
$PINSBASE
 10
0.0
 20
0.0
 30
0.0
  9
$PLIMCHECK
 70
     0
  9
$PEXTMIN
 10
1.000000000000000E+20
 20
1.000000000000000E+20
 30
1.000000000000000E+20
  9
$PEXTMAX
 10
-1.000000000000000E+20
 20
-1.000000000000000E+20
 30
-1.000000000000000E+20
  9
$PLIMMIN
 10
0.0
 20
0.0
  9
$PLIMMAX
 10
12.0
 20
9.0
  9
$UNITMODE
 70
     0
  9
$VISRETAIN
 70
     1
  9
$PLINEGEN
 70
     0
  9
$PSLTSCALE
 70
     1
  9
$TREEDEPTH
 70
  3020
  9
$CMLSTYLE
  2
Standard
  9
$CMLJUST
 70
     0
  9
$CMLSCALE
 40
1.0
  9
$PROXYGRAPHICS
 70
     1
  9
$MEASUREMENT
 70
     0
  9
$CELWEIGHT
370
    -1
  9
$ENDCAPS
280
     0
  9
$JOINSTYLE
280
     0
  9
$LWDISPLAY
290
     0
  9
$INSUNITS
 70
     0
  9
$HYPERLINKBASE
  1

  9
$STYLESHEET
  1

  9
$XEDIT
290
     1
  9
$CEPSNTYPE
380
     0
  9
$PSTYLEMODE
290
     1
  9
$FINGERPRINTGUID
  2
{9A5EFC60-F4AD-4DB3-9DA3-BEC655648328}
  9
$VERSIONGUID
  2
{53C36DE3-E773-4F25-A43F-CFE209E6F161}
  9
$EXTNAMES
290
     1
  9
$PSVPSCALE
 40
0.0
  9
$OLESTARTUP
290
     0
  0
ENDSEC
  0
SECTION
  2
CLASSES
  0
CLASS
  1
ACDBDICTIONARYWDFLT
  2
AcDbDictionaryWithDefault
  3
AutoCAD 2000
 90
        0
280
     0
281
     0
  0
CLASS
  1
ACDBPLACEHOLDER
  2
AcDbPlaceHolder
  3
AutoCAD 2000
 90
        0
280
     0
281
     0
  0
CLASS
  1
LAYOUT
  2
AcDbLayout
  3
AutoCAD 2000
 90
        0
280
     0
281
     0
  0
CLASS
  1
DICTIONARYVAR
  2
AcDbDictionaryVar
  3
AutoCAD 2000
 90
        0
280
     0
281
     0
  0
ENDSEC
  0
SECTION
  2
TABLES
  0
TABLE
  2
VPORT
  5
8
330
0
100
AcDbSymbolTable
 70
     2
  0
VPORT
  5
411
330
8
100
AcDbSymbolTableRecord
100
AcDbViewportTableRecord
  2
*Active
 70
     0
 10
0.0
 20
0.0
 11
1.0
 21
1.0
 12
60.5
 22
121.9999999999999
 13
0.0
 23
0.0
 14
1.0
 24
1.0
 15
0.0
 25
0.0
 16
0.0
 26
0.0
 36
1.0
 17
0.0
 27
0.0
 37
0.0
 40
245.7406043529411
 41
2.078104993597951
 42
50.0
 43
0.0
 44
0.0
 50
0.0
 51
0.0
 71
     0
 72
   100
 73
     1
 74
     3
 75
     0
 76
     0
 77
     0
 78
     0
281
     0
 65
     1
110
0.0
120
0.0
130
0.0
111
1.0
121
0.0
131
0.0
112
0.0
122
1.0
132
0.0
 79
     1
146
0.0
  0
ENDTAB
  0
TABLE
  2
LTYPE
  5
5
330
0
100
AcDbSymbolTable
 70
     1
  0
LTYPE
  5
13
330
5
100
AcDbSymbolTableRecord
100
AcDbLinetypeTableRecord
  2
ByBlock
 70
     0
  3

 72
    65
 73
     0
 40
0.0
  0
LTYPE
  5
14
330
5
100
AcDbSymbolTableRecord
100
AcDbLinetypeTableRecord
  2
ByLayer
 70
     0
  3

 72
    65
 73
     0
 40
0.0
  0
LTYPE
  5
15
330
5
100
AcDbSymbolTableRecord
100
AcDbLinetypeTableRecord
  2
Continuous
 70
     0
  3
Solid line
 72
    65
 73
     0
 40
0.0
  0
ENDTAB
  0
TABLE
  2
LAYER
  5
2
330
0
100
AcDbSymbolTable
 70
     1
  0
LAYER
  5
10
330
2
100
AcDbSymbolTableRecord
100
AcDbLayerTableRecord
  2
0
 70
     0
 62
     7
  6
Continuous
370
    -3
390
F
  0
ENDTAB
  0
TABLE
  2
STYLE
  5
3
330
0
100
AcDbSymbolTable
 70
     1
  0
STYLE
  5
11
330
3
100
AcDbSymbolTableRecord
100
AcDbTextStyleTableRecord
  2
Standard
 70
     0
 40
0.0
 41
1.0
 50
0.0
 71
     0
 42
0.2
  3
txt
  4

  0
ENDTAB
  0
TABLE
  2
VIEW
  5
6
330
0
100
AcDbSymbolTable
 70
     0
  0
ENDTAB
  0
TABLE
  2
UCS
  5
7
330
0
100
AcDbSymbolTable
 70
     0
  0
ENDTAB
  0
TABLE
  2
APPID
  5
9
330
0
100
AcDbSymbolTable
 70
     1
  0
APPID
  5
12
330
9
100
AcDbSymbolTableRecord
100
AcDbRegAppTableRecord
  2
ACAD
 70
     0
  0
ENDTAB
  0
TABLE
  2
DIMSTYLE
  5
A
330
0
100
AcDbSymbolTable
 70
     1
100
AcDbDimStyleTable
 71
     0
  0
DIMSTYLE
105
404
330
A
100
AcDbSymbolTableRecord
100
AcDbDimStyleTableRecord
  2
Standard
 70
     0
340
11
  0
ENDTAB
  0
TABLE
  2
BLOCK_RECORD
  5
1
330
0
100
AcDbSymbolTable
 70
     0
  0
BLOCK_RECORD
  5
1E
330
1
100
AcDbSymbolTableRecord
100
AcDbBlockTableRecord
  2
*Model_Space
340
21
  0
BLOCK_RECORD
  5
1A
330
1
100
AcDbSymbolTableRecord
100
AcDbBlockTableRecord
  2
*Paper_Space
340
1D
  0
ENDTAB
  0
ENDSEC
  0
SECTION
  2
BLOCKS
  0
BLOCK
  5
1F
330
1E
100
AcDbEntity
  8
0
100
AcDbBlockBegin
  2
*Model_Space
 70
     0
 10
0.0
 20
0.0
 30
0.0
  3
*Model_Space
  1

  0
ENDBLK
  5
20
330
1E
100
AcDbEntity
  8
0
100
AcDbBlockEnd
  0
BLOCK
  5
1B
330
1A
100
AcDbEntity
 67
     1
  8
0
100
AcDbBlockBegin
  2
*Paper_Space
 70
     0
 10
0.0
 20
0.0
 30
0.0
  3
*Paper_Space
  1

  0
ENDBLK
  5
1C
330
1A
100
AcDbEntity
 67
     1
  8
0
100
AcDbBlockEnd
  0
ENDSEC
  0
SECTION
  2
ENTITIES
  0
LINE
  5
22
330
1E
100
AcDbEntity
  8
0
100
AcDbLine
 10
2.016809999999999
 20
175.9187415
 30
0.0
 11
2.016809999999999
 21
174.8957415
 31
0.0
  0
LINE
  5
23
330
1E
100
AcDbEntity
  8
0
100
AcDbLine
 10
2.016809999999999
 20
174.8957415
 30
0.0
 11
2.016809999999999
 21
175.9187415
 31
0.0
  0
LINE
  5
24
330
1E
100
AcDbEntity
  8
0
100
AcDbLine
 10
2.016809999999999
 20
174.8957415
 30
0.0
 11
2.016809999999999
 21
174.4277414999999
 31
0.0
  0
LINE
  5
25
330
1E
100
AcDbEntity
  8
0
100
AcDbLine
 10
0.504199999999997
 20
176.2117415
 30
0.0
 11
0.504199999999997
 21
176.6227415
 31
0.0
  0
LINE
  5
26
330
1E
100
AcDbEntity
  8
0
100
AcDbLine
 10
0.504199999999997
 20
176.2117415
 30
0.0
 11
2.016809999999999
 21
175.9187415
 31
0.0
  0
LINE
  5
27
330
1E
100
AcDbEntity
  8
0
100
AcDbLine
 10
-0.0000000000000017
 20
177.5017415
 30
0.0
 11
-0.0000000000000017
 21
177.0907415
 31
0.0
  0
LINE
  5
28
330
1E
100
AcDbEntity
  8
0
100
AcDbLine
 10
-0.0000000000000017
 20
177.5017415
 30
0.0
 11
-0.0000000000000017
 21
178.5567415
 31
0.0
  0
LINE
  5
29
330
1E
100
AcDbEntity
  8
0
100
AcDbLine
 10
-0.0000000000000017
 20
177.0907415
 30
0.0
 11
0.504199999999997
 21
176.2117415
 31
0.0
  0
LINE
  5
2A
330
1E
100
AcDbEntity
  8
0
100
AcDbLine
 10
-0.0000000000000017
 20
177.0907415
 30
0.0
 11
-0.0000000000000017
 21
177.5017415
 31
0.0
  0
LINE
  5
2B
330
1E
100
AcDbEntity
  8
0
100
AcDbLine
 10
0.504199999999997
 20
177.7947415
 30
0.0
 11
0.504199999999997
 21
179.6707415
 31
0.0
  0
LINE
  5
2C
330
1E
100
AcDbEntity
  8
0
100
AcDbLine
 10
0.504199999999997
 20
177.7947415
 30
0.0
 11
0.504199999999997
 21
176.6227415
 31
0.0
  0
LINE
  5
2D
330
1E
100
AcDbEntity
  8
0
100
AcDbLine
 10
2.016809999999999
 20
177.5017415
 30
0.0
 11
2.016809999999999
 21
176.3297415
 31
0.0
  0
LINE
  5
2E
330
1E
100
AcDbEntity
  8
0
100
AcDbLine
 10
0.504199999999997
 20
176.6227415
 30
0.0
 11
0.504199999999997
 21
177.7947415
 31
0.0
  0
LINE
  5
2F
330
1E
100
AcDbEntity
  8
0
100
AcDbLine
 10
0.504199999999997
 20
176.6227415
 30
0.0
 11
0.504199999999997
 21
176.2117415
 31
0.0
  0
LINE
  5
30
330
1E
100
AcDbEntity
  8
0
100
AcDbLine
 10
2.016809999999999
 20
176.3297415
 30
0.0
 11
2.016809999999999
 21
175.9187415
 31
0.0
  0
LINE
  5
31
330
1E
100
AcDbEntity
  8
0
100
AcDbLine
 10
2.016809999999999
 20
176.2467415
 30
0.0
 11
2.016809999999999
 21
178.3767414999999
 31
0.0
  0
LINE
  5
32
330
1E
100
AcDbEntity
  8
0
100
AcDbLine
 10
2.016809999999999
 20
174.4277414999999
 30
0.0
 11
2.475179999999999
 21
173.6487415
 31
0.0
  0
LINE
  5
33
330
1E
100
AcDbEntity
  8
0
100
AcDbLine
 10
2.016809999999999
 20
174.4277414999999
 30
0.0
 11
2.016809999999999
 21
174.8957415
 31
0.0
  0
LINE
  5
34
330
1E
100
AcDbEntity
  8
0
100
AcDbLine
 10
2.475179999999999
 20
175.5707415
 30
0.0
 11
2.475179999999999
 21
174.1687415
 31
0.0
  0
LINE
  5
35
330
1E
100
AcDbEntity
  8
0
100
AcDbLine
 10
2.475179999999999
 20
175.5707415
 30
0.0
 11
2.475179999999999
 21
177.8567414999999
 31
0.0
  0
LINE
  5
36
330
1E
100
AcDbEntity
  8
0
100
AcDbLine
 10
2.475179999999999
 20
174.1687415
 30
0.0
 11
2.475179999999999
 21
173.6487415
 31
0.0
  0
LINE
  5
37
330
1E
100
AcDbEntity
  8
0
100
AcDbLine
 10
2.475179999999999
 20
174.1687415
 30
0.0
 11
2.475179999999999
 21
175.5707415
 31
0.0
  0
LINE
  5
38
330
1E
100
AcDbEntity
  8
0
100
AcDbLine
 10
2.475179999999999
 20
173.6487415
 30
0.0
 11
3.850269999999999
 21
173.3897415
 31
0.0
  0
LINE
  5
39
330
1E
100
AcDbEntity
  8
0
100
AcDbLine
 10
2.475179999999999
 20
173.6487415
 30
0.0
 11
2.475179999999999
 21
174.1687415
 31
0.0
  0
LINE
  5
3A
330
1E
100
AcDbEntity
  8
0
100
AcDbLine
 10
-0.0000000000000017
 20
178.5567415
 30
0.0
 11
-0.0000000000000017
 21
177.5017415
 31
0.0
  0
LINE
  5
3B
330
1E
100
AcDbEntity
  8
0
100
AcDbLine
 10
-0.0000000000000017
 20
178.5567415
 30
0.0
 11
-0.0000000000000017
 21
180.2567415
 31
0.0
  0
LINE
  5
3C
330
1E
100
AcDbEntity
  8
0
100
AcDbLine
 10
-0.0000000000000017
 20
180.2567415
 30
0.0
 11
-0.0000000000000017
 21
178.5567415
 31
0.0
  0
LINE
  5
3D
330
1E
100
AcDbEntity
  8
0
100
AcDbLine
 10
-0.0000000000000017
 20
180.2567415
 30
0.0
 11
-0.0000000000000017
 21
182.5427415
 31
0.0
  0
LINE
  5
3E
330
1E
100
AcDbEntity
  8
0
100
AcDbLine
 10
0.504199999999997
 20
179.6707415
 30
0.0
 11
0.504199999999997
 21
177.7947415
 31
0.0
  0
LINE
  5
3F
330
1E
100
AcDbEntity
  8
0
100
AcDbLine
 10
0.504199999999997
 20
179.6707415
 30
0.0
 11
0.504199999999997
 21
182.1317415
 31
0.0
  0
LINE
  5
40
330
1E
100
AcDbEntity
  8
0
100
AcDbLine
 10
2.016809999999999
 20
179.4357415
 30
0.0
 11
2.016809999999999
 21
177.5017415
 31
0.0
  0
LINE
  5
41
330
1E
100
AcDbEntity
  8
0
100
AcDbLine
 10
2.016809999999999
 20
178.3767414999999
 30
0.0
 11
2.016809999999999
 21
181.2337415
 31
0.0
  0
LINE
  5
42
330
1E
100
AcDbEntity
  8
0
100
AcDbLine
 10
2.016809999999999
 20
178.3767414999999
 30
0.0
 11
2.016809999999999
 21
176.2467415
 31
0.0
  0
LINE
  5
43
330
1E
100
AcDbEntity
  8
0
100
AcDbLine
 10
2.475179999999999
 20
177.8567414999999
 30
0.0
 11
2.475179999999999
 21
180.8177415
 31
0.0
  0
LINE
  5
44
330
1E
100
AcDbEntity
  8
0
100
AcDbLine
 10
2.475179999999999
 20
177.8567414999999
 30
0.0
 11
2.475179999999999
 21
175.5707415
 31
0.0
  0
LINE
  5
45
330
1E
100
AcDbEntity
  8
0
100
AcDbLine
 10
-0.0000000000000017
 20
182.5427415
 30
0.0
 11
-0.0000000000000017
 21
180.2567415
 31
0.0
  0
LINE
  5
46
330
1E
100
AcDbEntity
  8
0
100
AcDbLine
 10
-0.0000000000000017
 20
182.5427415
 30
0.0
 11
-0.0000000000000017
 21
185.1207415
 31
0.0
  0
LINE
  5
47
330
1E
100
AcDbEntity
  8
0
100
AcDbLine
 10
-0.0000000000000017
 20
185.1207415
 30
0.0
 11
-0.0000000000000017
 21
182.5427415
 31
0.0
  0
LINE
  5
48
330
1E
100
AcDbEntity
  8
0
100
AcDbLine
 10
-0.0000000000000017
 20
185.1207415
 30
0.0
 11
-0.0000000000000017
 21
187.9347414999999
 31
0.0
  0
LINE
  5
49
330
1E
100
AcDbEntity
  8
0
100
AcDbLine
 10
0.504199999999997
 20
182.1317415
 30
0.0
 11
0.504199999999997
 21
184.9457415
 31
0.0
  0
LINE
  5
4A
330
1E
100
AcDbEntity
  8
0
100
AcDbLine
 10
0.504199999999997
 20
182.1317415
 30
0.0
 11
0.504199999999997
 21
179.6707415
 31
0.0
  0
LINE
  5
4B
330
1E
100
AcDbEntity
  8
0
100
AcDbLine
 10
2.016809999999999
 20
181.9557415
 30
0.0
 11
2.016809999999999
 21
179.4357415
 31
0.0
  0
LINE
  5
4C
330
1E
100
AcDbEntity
  8
0
100
AcDbLine
 10
2.016809999999999
 20
184.8277415
 30
0.0
 11
2.016809999999999
 21
181.9557415
 31
0.0
  0
LINE
  5
4D
330
1E
100
AcDbEntity
  8
0
100
AcDbLine
 10
0.504199999999997
 20
184.9457415
 30
0.0
 11
0.504199999999997
 21
187.9347414999999
 31
0.0
  0
LINE
  5
4E
330
1E
100
AcDbEntity
  8
0
100
AcDbLine
 10
0.504199999999997
 20
184.9457415
 30
0.0
 11
0.504199999999997
 21
182.1317415
 31
0.0
  0
LINE
  5
4F
330
1E
100
AcDbEntity
  8
0
100
AcDbLine
 10
2.016809999999999
 20
181.2337415
 30
0.0
 11
2.016809999999999
 21
178.3767414999999
 31
0.0
  0
LINE
  5
50
330
1E
100
AcDbEntity
  8
0
100
AcDbLine
 10
2.016809999999999
 20
181.2337415
 30
0.0
 11
2.016809999999999
 21
184.4547415
 31
0.0
  0
LINE
  5
51
330
1E
100
AcDbEntity
  8
0
100
AcDbLine
 10
2.016809999999999
 20
184.4547415
 30
0.0
 11
2.016809999999999
 21
181.2337415
 31
0.0
  0
LINE
  5
52
330
1E
100
AcDbEntity
  8
0
100
AcDbLine
 10
2.475179999999999
 20
180.8177415
 30
0.0
 11
2.475179999999999
 21
177.8567414999999
 31
0.0
  0
LINE
  5
53
330
1E
100
AcDbEntity
  8
0
100
AcDbLine
 10
2.475179999999999
 20
180.8177415
 30
0.0
 11
2.475179999999999
 21
184.2467415
 31
0.0
  0
LINE
  5
54
330
1E
100
AcDbEntity
  8
0
100
AcDbLine
 10
3.850269999999999
 20
173.3897415
 30
0.0
 11
18.1681
 21
173.3897415
 31
0.0
  0
LINE
  5
55
330
1E
100
AcDbEntity
  8
0
100
AcDbLine
 10
2.475179999999999
 20
184.2467415
 30
0.0
 11
2.475179999999999
 21
180.8177415
 31
0.0
  0
LINE
  5
56
330
1E
100
AcDbEntity
  8
0
100
AcDbLine
 10
2.475179999999999
 20
184.2467415
 30
0.0
 11
2.475179999999999
 21
187.9347414999999
 31
0.0
  0
LINE
  5
57
330
1E
100
AcDbEntity
  8
0
100
AcDbLine
 10
8.917279999999999
 20
186.3347414999999
 30
0.0
 11
11.41254999999999
 21
186.1567415
 31
0.0
  0
LINE
  5
58
330
1E
100
AcDbEntity
  8
0
100
AcDbLine
 10
15.0
 20
27.61434149999999
 30
0.0
 11
15.0
 21
28.04734149999999
 31
0.0
  0
LINE
  5
59
330
1E
100
AcDbEntity
  8
0
100
AcDbLine
 10
15.0
 20
27.61434149999999
 30
0.0
 11
16.89999999999999
 21
20.8143415
 31
0.0
  0
LINE
  5
5A
330
1E
100
AcDbEntity
  8
0
100
AcDbLine
 10
15.5
 20
29.3464415
 30
0.0
 11
17.4
 21
36.09644149999999
 31
0.0
  0
LINE
  5
5B
330
1E
100
AcDbEntity
  8
0
100
AcDbLine
 10
15.5
 20
29.3464415
 30
0.0
 11
17.4
 21
22.5964415
 31
0.0
  0
LINE
  5
5C
330
1E
100
AcDbEntity
  8
0
100
AcDbLine
 10
15.0
 20
28.04734149999999
 30
0.0
 11
16.89999999999999
 21
34.84734149999999
 31
0.0
  0
LINE
  5
5D
330
1E
100
AcDbEntity
  8
0
100
AcDbLine
 10
15.0
 20
28.04734149999999
 30
0.0
 11
15.0
 21
27.61434149999999
 31
0.0
  0
LINE
  5
5E
330
1E
100
AcDbEntity
  8
0
100
AcDbLine
 10
11.41254999999999
 20
186.1567415
 30
0.0
 11
13.90785
 21
186.3347414999999
 31
0.0
  0
LINE
  5
5F
330
1E
100
AcDbEntity
  8
0
100
AcDbLine
 10
13.90785
 20
186.3347414999999
 30
0.0
 11
15.98964999999999
 21
186.7787415
 31
0.0
  0
LINE
  5
60
330
1E
100
AcDbEntity
  8
0
100
AcDbLine
 10
16.89999999999999
 20
20.8143415
 30
0.0
 11
17.4
 21
19.5653415
 31
0.0
  0
LINE
  5
61
330
1E
100
AcDbEntity
  8
0
100
AcDbLine
 10
17.4
 20
22.5964415
 30
0.0
 11
22.5
 21
16.2964415
 31
0.0
  0
LINE
  5
62
330
1E
100
AcDbEntity
  8
0
100
AcDbLine
 10
17.4
 20
19.5653415
 30
0.0
 11
22.5
 21
13.2653415
 31
0.0
  0
LINE
  5
63
330
1E
100
AcDbEntity
  8
0
100
AcDbLine
 10
18.0
 20
35.84154149999999
 30
0.0
 11
19.2325322834646
 21
40.22387850787399
 31
0.0
  0
LINE
  5
64
330
1E
100
AcDbEntity
  8
0
100
AcDbLine
 10
18.0
 20
35.84154149999999
 30
0.0
 11
19.8
 21
29.4415415
 31
0.0
  0
LINE
  5
65
330
1E
100
AcDbEntity
  8
0
100
AcDbLine
 10
17.5
 20
34.5425415
 30
0.0
 11
19.15166874999999
 21
40.506900875
 31
0.0
  0
LINE
  5
66
330
1E
100
AcDbEntity
  8
0
100
AcDbLine
 10
17.0
 20
29.77944149999999
 30
0.0
 11
17.5
 21
34.5425415
 31
0.0
  0
LINE
  5
67
330
1E
100
AcDbEntity
  8
0
100
AcDbLine
 10
17.0
 20
29.77944149999999
 30
0.0
 11
18.8
 21
23.2294415
 31
0.0
  0
LINE
  5
68
330
1E
100
AcDbEntity
  8
0
100
AcDbLine
 10
17.4
 20
36.09644149999999
 30
0.0
 11
18.20604319119669
 21
37.0921419126547
 31
0.0
  0
LINE
  5
69
330
1E
100
AcDbEntity
  8
0
100
AcDbLine
 10
16.89999999999999
 20
34.84734149999999
 30
0.0
 11
17.4
 21
36.09644149999999
 31
0.0
  0
LINE
  5
6A
330
1E
100
AcDbEntity
  8
0
100
AcDbLine
 10
18.1681
 20
173.5917415
 30
0.0
 11
18.1681
 21
173.0777415
 31
0.0
  0
LINE
  5
6B
330
1E
100
AcDbEntity
  8
0
100
AcDbLine
 10
18.1681
 20
173.0777415
 30
0.0
 11
18.6723
 21
172.2207414999999
 31
0.0
  0
LINE
  5
6C
330
1E
100
AcDbEntity
  8
0
100
AcDbLine
 10
18.1681
 20
173.0777415
 30
0.0
 11
18.1681
 21
173.5917415
 31
0.0
  0
LINE
  5
6D
330
1E
100
AcDbEntity
  8
0
100
AcDbLine
 10
18.1681
 20
175.3117415
 30
0.0
 11
18.1681
 21
177.6487415
 31
0.0
  0
LINE
  5
6E
330
1E
100
AcDbEntity
  8
0
100
AcDbLine
 10
18.1681
 20
173.9087415
 30
0.0
 11
18.1681
 21
175.3117415
 31
0.0
  0
LINE
  5
6F
330
1E
100
AcDbEntity
  8
0
100
AcDbLine
 10
18.1681
 20
173.3897415
 30
0.0
 11
18.1681
 21
173.9087415
 31
0.0
  0
LINE
  5
70
330
1E
100
AcDbEntity
  8
0
100
AcDbLine
 10
18.1681
 20
184.1057414999999
 30
0.0
 11
18.1681
 21
187.9347414999999
 31
0.0
  0
LINE
  5
71
330
1E
100
AcDbEntity
  8
0
100
AcDbLine
 10
18.1681
 20
177.6487415
 30
0.0
 11
18.1681
 21
180.7137414999999
 31
0.0
  0
LINE
  5
72
330
1E
100
AcDbEntity
  8
0
100
AcDbLine
 10
18.8
 20
23.2294415
 30
0.0
 11
23.8
 21
17.0794415
 31
0.0
  0
LINE
  5
73
330
1E
100
AcDbEntity
  8
0
100
AcDbLine
 10
19.8
 20
29.4415415
 30
0.0
 11
24.7
 21
23.3915415
 31
0.0
  0
LINE
  5
74
330
1E
100
AcDbEntity
  8
0
100
AcDbLine
 10
19.5
 20
36.2746415
 30
0.0
 11
19.5
 21
38.0066415
 31
0.0
  0
LINE
  5
75
330
1E
100
AcDbEntity
  8
0
100
AcDbLine
 10
19.5
 20
36.2746415
 30
0.0
 11
21.3
 21
30.02464149999999
 31
0.0
  0
LINE
  5
76
330
1E
100
AcDbEntity
  8
0
100
AcDbLine
 10
19.0
 20
41.03774149999999
 30
0.0
 11
20.8
 21
47.3377415
 31
0.0
  0
LINE
  5
77
330
1E
100
AcDbEntity
  8
0
100
AcDbLine
 10
19.0
 20
41.03774149999999
 30
0.0
 11
20.8
 21
34.7377415
 31
0.0
  0
LINE
  5
78
330
1E
100
AcDbEntity
  8
0
100
AcDbLine
 10
19.5
 20
38.0066415
 30
0.0
 11
19.6837434262948
 21
38.6446395079681
 31
0.0
  0
LINE
  5
79
330
1E
100
AcDbEntity
  8
0
100
AcDbLine
 10
19.5
 20
38.0066415
 30
0.0
 11
19.5
 21
36.2746415
 31
0.0
  0
LINE
  5
7A
330
1E
100
AcDbEntity
  8
0
100
AcDbLine
 10
20.8
 20
34.7377415
 30
0.0
 11
21.3
 21
33.48874149999999
 31
0.0
  0
LINE
  5
7B
330
1E
100
AcDbEntity
  8
0
100
AcDbLine
 10
20.8
 20
34.7377415
 30
0.0
 11
25.6
 21
28.83774149999999
 31
0.0
  0
LINE
  5
7C
330
1E
100
AcDbEntity
  8
0
100
AcDbLine
 10
21.3
 20
33.48874149999999
 30
0.0
 11
21.69999999999999
 21
32.72264149999999
 31
0.0
  0
LINE
  5
7D
330
1E
100
AcDbEntity
  8
0
100
AcDbLine
 10
21.69999999999999
 20
32.72264149999999
 30
0.0
 11
26.4
 21
26.92264149999999
 31
0.0
  0
LINE
  5
7E
330
1E
100
AcDbEntity
  8
0
100
AcDbLine
 10
21.3
 20
30.02464149999999
 30
0.0
 11
26.0
 21
24.2246415
 31
0.0
  0
LINE
  5
7F
330
1E
100
AcDbEntity
  8
0
100
AcDbLine
 10
22.5
 20
16.2964415
 30
0.0
 11
31.0
 21
10.84644149999999
 31
0.0
  0
LINE
  5
80
330
1E
100
AcDbEntity
  8
0
100
AcDbLine
 10
22.5
 20
13.2653415
 30
0.0
 11
31.0
 21
7.81526149999999
 31
0.0
  0
LINE
  5
81
330
1E
100
AcDbEntity
  8
0
100
AcDbLine
 10
20.8
 20
47.3377415
 30
0.0
 11
22.7
 21
51.8508415
 31
0.0
  0
LINE
  5
84
330
1E
100
AcDbEntity
  8
0
100
AcDbLine
 10
20.18489999999999
 20
171.9347415
 30
0.0
 11
54.0
 21
171.9347415
 31
0.0
  0
LINE
  5
85
330
1E
100
AcDbEntity
  8
0
100
AcDbLine
 10
18.6723
 20
174.3347415
 30
0.0
 11
18.6723
 21
172.7917415
 31
0.0
  0
LINE
  5
86
330
1E
100
AcDbEntity
  8
0
100
AcDbLine
 10
18.6723
 20
174.3347415
 30
0.0
 11
18.6723
 21
176.8487415
 31
0.0
  0
LINE
  5
87
330
1E
100
AcDbEntity
  8
0
100
AcDbLine
 10
18.6723
 20
172.7917415
 30
0.0
 11
18.6723
 21
172.2207414999999
 31
0.0
  0
LINE
  5
88
330
1E
100
AcDbEntity
  8
0
100
AcDbLine
 10
18.6723
 20
172.7917415
 30
0.0
 11
18.6723
 21
174.3347415
 31
0.0
  0
LINE
  5
89
330
1E
100
AcDbEntity
  8
0
100
AcDbLine
 10
18.6723
 20
176.8487415
 30
0.0
 11
18.6723
 21
180.1057415
 31
0.0
  0
LINE
  5
8A
330
1E
100
AcDbEntity
  8
0
100
AcDbLine
 10
18.6723
 20
176.8487415
 30
0.0
 11
18.6723
 21
174.3347415
 31
0.0
  0
LINE
  5
8B
330
1E
100
AcDbEntity
  8
0
100
AcDbLine
 10
18.6723
 20
180.1057415
 30
0.0
 11
18.6723
 21
176.8487415
 31
0.0
  0
LINE
  5
8C
330
1E
100
AcDbEntity
  8
0
100
AcDbLine
 10
18.6723
 20
180.1057415
 30
0.0
 11
18.6723
 21
183.8777415
 31
0.0
  0
LINE
  5
8D
330
1E
100
AcDbEntity
  8
0
100
AcDbLine
 10
18.6723
 20
183.8777415
 30
0.0
 11
18.6723
 21
180.1057415
 31
0.0
  0
LINE
  5
8E
330
1E
100
AcDbEntity
  8
0
100
AcDbLine
 10
18.6723
 20
183.8777415
 30
0.0
 11
18.6723
 21
187.9347414999999
 31
0.0
  0
LINE
  5
8F
330
1E
100
AcDbEntity
  8
0
100
AcDbLine
 10
18.6723
 20
172.2207414999999
 30
0.0
 11
20.18489999999999
 21
171.9347415
 31
0.0
  0
LINE
  5
90
330
1E
100
AcDbEntity
  8
0
100
AcDbLine
 10
18.6723
 20
172.2207414999999
 30
0.0
 11
18.6723
 21
172.7917415
 31
0.0
  0
LINE
  5
91
330
1E
100
AcDbEntity
  8
0
100
AcDbLine
 10
20.18489999999999
 20
171.9347415
 30
0.0
 11
54.0
 21
171.9347415
 31
0.0
  0
LINE
  5
92
330
1E
100
AcDbEntity
  8
0
100
AcDbLine
 10
18.1681
 20
180.7137414999999
 30
0.0
 11
18.1681
 21
184.1947414999999
 31
0.0
  0
LINE
  5
93
330
1E
100
AcDbEntity
  8
0
100
AcDbLine
 10
18.1681
 20
184.1947414999999
 30
0.0
 11
18.1681
 21
187.9347414999999
 31
0.0
  0
LINE
  5
96
330
1E
100
AcDbEntity
  8
0
100
AcDbLine
 10
6.41255
 20
187.2237415
 30
0.0
 11
6.428809999999999
 21
187.9347414999999
 31
0.0
  0
LINE
  5
97
330
1E
100
AcDbEntity
  8
0
100
AcDbLine
 10
6.41255
 20
187.2237415
 30
0.0
 11
6.83543
 21
186.7787415
 31
0.0
  0
LINE
  5
99
330
1E
100
AcDbEntity
  8
0
100
AcDbLine
 10
6.83543
 20
186.7787415
 30
0.0
 11
8.917279999999999
 21
186.3347414999999
 31
0.0
  0
LINE
  5
9F
330
1E
100
AcDbEntity
  8
0
100
AcDbLine
 10
-0.0000000000000017
 20
187.9347414999999
 30
0.0
 11
-0.0000000000000017
 21
185.1207415
 31
0.0
  0
LINE
  5
A0
330
1E
100
AcDbEntity
  8
0
100
AcDbLine
 10
-0.0000000000000017
 20
187.9347414999999
 30
0.0
 11
-0.0000000000000017
 21
190.7487415
 31
0.0
  0
LINE
  5
A1
330
1E
100
AcDbEntity
  8
0
100
AcDbLine
 10
2.016809999999999
 20
187.9347414999999
 30
0.0
 11
2.016809999999999
 21
184.8277415
 31
0.0
  0
LINE
  5
A2
330
1E
100
AcDbEntity
  8
0
100
AcDbLine
 10
0.504199999999997
 20
187.9347414999999
 30
0.0
 11
0.504199999999997
 21
190.9237414999999
 31
0.0
  0
LINE
  5
A3
330
1E
100
AcDbEntity
  8
0
100
AcDbLine
 10
0.504199999999997
 20
187.9347414999999
 30
0.0
 11
0.504199999999997
 21
184.9457415
 31
0.0
  0
LINE
  5
A4
330
1E
100
AcDbEntity
  8
0
100
AcDbLine
 10
2.475179999999999
 20
187.9347414999999
 30
0.0
 11
2.475179999999999
 21
191.6227415
 31
0.0
  0
LINE
  5
A5
330
1E
100
AcDbEntity
  8
0
100
AcDbLine
 10
2.475179999999999
 20
187.9347414999999
 30
0.0
 11
2.475179999999999
 21
184.2467415
 31
0.0
  0
LINE
  5
A9
330
1E
100
AcDbEntity
  8
0
100
AcDbLine
 10
15.98964999999999
 20
186.7787415
 30
0.0
 11
16.41255
 21
187.2237415
 31
0.0
  0
LINE
  5
AE
330
1E
100
AcDbEntity
  8
0
100
AcDbLine
 10
18.6723
 20
187.9347414999999
 30
0.0
 11
18.6723
 21
191.9917415
 31
0.0
  0
LINE
  5
AF
330
1E
100
AcDbEntity
  8
0
100
AcDbLine
 10
18.6723
 20
187.9347414999999
 30
0.0
 11
18.6723
 21
183.8777415
 31
0.0
  0
LINE
  5
B0
330
1E
100
AcDbEntity
  8
0
100
AcDbLine
 10
18.1681
 20
187.9347414999999
 30
0.0
 11
18.1681
 21
191.6747415
 31
0.0
  0
LINE
  5
B1
330
1E
100
AcDbEntity
  8
0
100
AcDbLine
 10
18.1681
 20
187.9347414999999
 30
0.0
 11
18.1681
 21
184.1057414999999
 31
0.0
  0
LINE
  5
B2
330
1E
100
AcDbEntity
  8
0
100
AcDbLine
 10
16.39624999999999
 20
187.9347414999999
 30
0.0
 11
16.41255
 21
187.2237415
 31
0.0
  0
LINE
  5
B3
330
1E
100
AcDbEntity
  8
0
100
AcDbLine
 10
16.39624999999999
 20
187.9347414999999
 30
0.0
 11
16.41255
 21
188.6457415
 31
0.0
  0
LINE
  5
B7
330
1E
100
AcDbEntity
  8
0
100
AcDbLine
 10
23.8
 20
17.0794415
 30
0.0
 11
32.0
 21
11.77944149999999
 31
0.0
  0
LINE
  5
B8
330
1E
100
AcDbEntity
  8
0
100
AcDbLine
 10
23.19999999999999
 20
53.0499415
 30
0.0
 11
27.7
 21
58.64994150000001
 31
0.0
  0
LINE
  5
B9
330
1E
100
AcDbEntity
  8
0
100
AcDbLine
 10
22.7
 20
51.8508415
 30
0.0
 11
23.19999999999999
 21
53.0499415
 31
0.0
  0
LINE
  5
BA
330
1E
100
AcDbEntity
  8
0
100
AcDbLine
 10
23.0
 20
184.2347415
 30
0.0
 11
24.39999999999999
 21
180.7347415
 31
0.0
  0
LINE
  5
BB
330
1E
100
AcDbEntity
  8
0
100
AcDbLine
 10
24.7
 20
23.3915415
 30
0.0
 11
32.7
 21
18.1915415
 31
0.0
  0
LINE
  5
BC
330
1E
100
AcDbEntity
  8
0
100
AcDbLine
 10
24.39999999999999
 20
180.7347415
 30
0.0
 11
26.8
 21
177.7347415
 31
0.0
  0
LINE
  5
BD
330
1E
100
AcDbEntity
  8
0
100
AcDbLine
 10
24.0
 20
180.4347415
 30
0.0
 11
26.4
 21
177.3347415
 31
0.0
  0
LINE
  5
BE
330
1E
100
AcDbEntity
  8
0
100
AcDbLine
 10
24.0
 20
187.9347414999999
 30
0.0
 11
24.4333
 21
191.3147415
 31
0.0
  0
LINE
  5
BF
330
1E
100
AcDbEntity
  8
0
100
AcDbLine
 10
24.4333
 20
184.5547415
 30
0.0
 11
25.7333
 21
181.4347415
 31
0.0
  0
LINE
  5
C0
330
1E
100
AcDbEntity
  8
0
100
AcDbLine
 10
25.6
 20
28.83774149999999
 30
0.0
 11
33.39999999999999
 21
23.7377415
 31
0.0
  0
LINE
  5
C1
330
1E
100
AcDbEntity
  8
0
100
AcDbLine
 10
26.0
 20
24.2246415
 30
0.0
 11
33.79999999999999
 21
19.17464149999999
 31
0.0
  0
LINE
  5
C2
330
1E
100
AcDbEntity
  8
0
100
AcDbLine
 10
25.7333
 20
181.4347415
 30
0.0
 11
27.8133
 21
178.7477415
 31
0.0
  0
LINE
  5
C3
330
1E
100
AcDbEntity
  8
0
100
AcDbLine
 10
26.08
 20
181.6947414999999
 30
0.0
 11
28.16
 21
179.0947414999999
 31
0.0
  0
LINE
  5
C4
330
1E
100
AcDbEntity
  8
0
100
AcDbLine
 10
24.8667
 20
184.7277415
 30
0.0
 11
26.08
 21
181.6947414999999
 31
0.0
  0
LINE
  5
C5
330
1E
100
AcDbEntity
  8
0
100
AcDbLine
 10
24.4333
 20
187.9347414999999
 30
0.0
 11
24.8667
 21
184.7277415
 31
0.0
  0
LINE
  5
C6
330
1E
100
AcDbEntity
  8
0
100
AcDbLine
 10
24.4333
 20
187.9347414999999
 30
0.0
 11
24.8667
 21
191.1417415
 31
0.0
  0
LINE
  5
C7
330
1E
100
AcDbEntity
  8
0
100
AcDbLine
 10
26.4
 20
26.92264149999999
 30
0.0
 11
34.1
 21
21.9226415
 31
0.0
  0
LINE
  5
C8
330
1E
100
AcDbEntity
  8
0
100
AcDbLine
 10
26.4
 20
177.3347415
 30
0.0
 11
29.5
 21
174.9347415
 31
0.0
  0
LINE
  5
C9
330
1E
100
AcDbEntity
  8
0
100
AcDbLine
 10
26.8
 20
177.7347415
 30
0.0
 11
29.8
 21
175.3347415
 31
0.0
  0
LINE
  5
CA
330
1E
100
AcDbEntity
  8
0
100
AcDbLine
 10
26.4
 20
177.3347415
 30
0.0
 11
29.5
 21
174.9347415
 31
0.0
  0
LINE
  5
CB
330
1E
100
AcDbEntity
  8
0
100
AcDbLine
 10
26.6
 20
185.1617414999999
 30
0.0
 11
27.64
 21
182.5617415
 31
0.0
  0
LINE
  5
CC
330
1E
100
AcDbEntity
  8
0
100
AcDbLine
 10
26.1667
 20
187.9347414999999
 30
0.0
 11
26.6
 21
185.1617414999999
 31
0.0
  0
LINE
  5
CD
330
1E
100
AcDbEntity
  8
0
100
AcDbLine
 10
26.1667
 20
187.9347414999999
 30
0.0
 11
26.6
 21
190.7077415
 31
0.0
  0
LINE
  5
CE
330
1E
100
AcDbEntity
  8
0
100
AcDbLine
 10
26.6
 20
187.9347414999999
 30
0.0
 11
26.9467
 21
185.2477415
 31
0.0
  0
LINE
  5
CF
330
1E
100
AcDbEntity
  8
0
100
AcDbLine
 10
26.6
 20
187.9347414999999
 30
0.0
 11
26.9467
 21
190.6217415
 31
0.0
  0
LINE
  5
D0
330
1E
100
AcDbEntity
  8
0
100
AcDbLine
 10
22.5
 20
187.9347414999999
 30
0.0
 11
23.0
 21
191.6347414999999
 31
0.0
  0
LINE
  5
D1
330
1E
100
AcDbEntity
  8
0
100
AcDbLine
 10
22.5
 20
187.9347414999999
 30
0.0
 11
23.0
 21
184.2347415
 31
0.0
  0
LINE
  5
D2
330
1E
100
AcDbEntity
  8
0
100
AcDbLine
 10
6.41255
 20
188.6457415
 30
0.0
 11
6.428809999999999
 21
187.9347414999999
 31
0.0
  0
LINE
  5
D4
330
1E
100
AcDbEntity
  8
0
100
AcDbLine
 10
6.41255
 20
188.6457415
 30
0.0
 11
6.83543
 21
189.0907415
 31
0.0
  0
LINE
  5
DE
330
1E
100
AcDbEntity
  8
0
100
AcDbLine
 10
6.83543
 20
189.0907415
 30
0.0
 11
8.917279999999999
 21
189.5347414999999
 31
0.0
  0
LINE
  5
DF
330
1E
100
AcDbEntity
  8
0
100
AcDbLine
 10
-0.0000000000000017
 20
190.7487415
 30
0.0
 11
-0.0000000000000017
 21
187.9347414999999
 31
0.0
  0
LINE
  5
E0
330
1E
100
AcDbEntity
  8
0
100
AcDbLine
 10
-0.0000000000000017
 20
190.7487415
 30
0.0
 11
-0.0000000000000017
 21
193.3267414999999
 31
0.0
  0
LINE
  5
E1
330
1E
100
AcDbEntity
  8
0
100
AcDbLine
 10
0.504199999999997
 20
190.9237414999999
 30
0.0
 11
0.504199999999997
 21
193.7377415
 31
0.0
  0
LINE
  5
E2
330
1E
100
AcDbEntity
  8
0
100
AcDbLine
 10
0.504199999999997
 20
190.9237414999999
 30
0.0
 11
0.504199999999997
 21
187.9347414999999
 31
0.0
  0
LINE
  5
E3
330
1E
100
AcDbEntity
  8
0
100
AcDbLine
 10
2.016809999999999
 20
191.0417414999999
 30
0.0
 11
2.016809999999999
 21
187.9347414999999
 31
0.0
  0
LINE
  5
E4
330
1E
100
AcDbEntity
  8
0
100
AcDbLine
 10
2.016809999999999
 20
191.4147415
 30
0.0
 11
2.016809999999999
 21
194.6357414999999
 31
0.0
  0
LINE
  5
E5
330
1E
100
AcDbEntity
  8
0
100
AcDbLine
 10
-0.0000000000000017
 20
193.3267414999999
 30
0.0
 11
-0.0000000000000017
 21
190.7487415
 31
0.0
  0
LINE
  5
E6
330
1E
100
AcDbEntity
  8
0
100
AcDbLine
 10
-0.0000000000000017
 20
193.3267414999999
 30
0.0
 11
-0.0000000000000017
 21
195.6127415
 31
0.0
  0
LINE
  5
E7
330
1E
100
AcDbEntity
  8
0
100
AcDbLine
 10
-0.0000000000000017
 20
195.6127415
 30
0.0
 11
-0.0000000000000017
 21
197.3127415
 31
0.0
  0
LINE
  5
E8
330
1E
100
AcDbEntity
  8
0
100
AcDbLine
 10
-0.0000000000000017
 20
195.6127415
 30
0.0
 11
-0.0000000000000017
 21
193.3267414999999
 31
0.0
  0
LINE
  5
E9
330
1E
100
AcDbEntity
  8
0
100
AcDbLine
 10
0.504199999999997
 20
193.7377415
 30
0.0
 11
0.504199999999997
 21
196.1987415
 31
0.0
  0
LINE
  5
EA
330
1E
100
AcDbEntity
  8
0
100
AcDbLine
 10
0.504199999999997
 20
193.7377415
 30
0.0
 11
0.504199999999997
 21
190.9237414999999
 31
0.0
  0
LINE
  5
EB
330
1E
100
AcDbEntity
  8
0
100
AcDbLine
 10
2.016809999999999
 20
193.9137415
 30
0.0
 11
2.016809999999999
 21
191.0417414999999
 31
0.0
  0
LINE
  5
EC
330
1E
100
AcDbEntity
  8
0
100
AcDbLine
 10
-0.0000000000000017
 20
197.3127415
 30
0.0
 11
-0.0000000000000017
 21
195.6127415
 31
0.0
  0
LINE
  5
ED
330
1E
100
AcDbEntity
  8
0
100
AcDbLine
 10
-0.0000000000000017
 20
197.3127415
 30
0.0
 11
-0.0000000000000017
 21
198.3677415
 31
0.0
  0
LINE
  5
EE
330
1E
100
AcDbEntity
  8
0
100
AcDbLine
 10
2.016809999999999
 20
196.4337414999999
 30
0.0
 11
2.016809999999999
 21
193.9137415
 31
0.0
  0
LINE
  5
EF
330
1E
100
AcDbEntity
  8
0
100
AcDbLine
 10
0.504199999999997
 20
196.1987415
 30
0.0
 11
0.504199999999997
 21
198.0747415
 31
0.0
  0
LINE
  5
F0
330
1E
100
AcDbEntity
  8
0
100
AcDbLine
 10
0.504199999999997
 20
196.1987415
 30
0.0
 11
0.504199999999997
 21
193.7377415
 31
0.0
  0
LINE
  5
F1
330
1E
100
AcDbEntity
  8
0
100
AcDbLine
 10
2.016809999999999
 20
194.6357414999999
 30
0.0
 11
2.016809999999999
 21
191.4147415
 31
0.0
  0
LINE
  5
F2
330
1E
100
AcDbEntity
  8
0
100
AcDbLine
 10
-0.0000000000000017
 20
198.3677415
 30
0.0
 11
-0.0000000000000017
 21
197.3127415
 31
0.0
  0
LINE
  5
F3
330
1E
100
AcDbEntity
  8
0
100
AcDbLine
 10
-0.0000000000000017
 20
198.3677415
 30
0.0
 11
-0.0000000000000017
 21
198.7787414999999
 31
0.0
  0
LINE
  5
F4
330
1E
100
AcDbEntity
  8
0
100
AcDbLine
 10
2.016809999999999
 20
198.3677415
 30
0.0
 11
2.016809999999999
 21
196.4337414999999
 31
0.0
  0
LINE
  5
F5
330
1E
100
AcDbEntity
  8
0
100
AcDbLine
 10
0.504199999999997
 20
198.0747415
 30
0.0
 11
0.504199999999997
 21
199.2467415
 31
0.0
  0
LINE
  5
F6
330
1E
100
AcDbEntity
  8
0
100
AcDbLine
 10
0.504199999999997
 20
198.0747415
 30
0.0
 11
0.504199999999997
 21
196.1987415
 31
0.0
  0
LINE
  5
F7
330
1E
100
AcDbEntity
  8
0
100
AcDbLine
 10
2.475179999999999
 20
198.0127415
 30
0.0
 11
2.475179999999999
 21
195.0517415
 31
0.0
  0
LINE
  5
F8
330
1E
100
AcDbEntity
  8
0
100
AcDbLine
 10
2.475179999999999
 20
198.0127415
 30
0.0
 11
2.475179999999999
 21
200.2987415
 31
0.0
  0
LINE
  5
F9
330
1E
100
AcDbEntity
  8
0
100
AcDbLine
 10
2.475179999999999
 20
195.0517415
 30
0.0
 11
2.475179999999999
 21
191.6227415
 31
0.0
  0
LINE
  5
FA
330
1E
100
AcDbEntity
  8
0
100
AcDbLine
 10
2.475179999999999
 20
195.0517415
 30
0.0
 11
2.475179999999999
 21
198.0127415
 31
0.0
  0
LINE
  5
FB
330
1E
100
AcDbEntity
  8
0
100
AcDbLine
 10
2.475179999999999
 20
191.6227415
 30
0.0
 11
2.475179999999999
 21
187.9347414999999
 31
0.0
  0
LINE
  5
FC
330
1E
100
AcDbEntity
  8
0
100
AcDbLine
 10
2.475179999999999
 20
191.6227415
 30
0.0
 11
2.475179999999999
 21
195.0517415
 31
0.0
  0
LINE
  5
FF
330
1E
100
AcDbEntity
  8
0
100
AcDbLine
 10
13.90785
 20
189.5347414999999
 30
0.0
 11
15.98964999999999
 21
189.0907415
 31
0.0
  0
LINE
  5
100
330
1E
100
AcDbEntity
  8
0
100
AcDbLine
 10
15.98964999999999
 20
189.0907415
 30
0.0
 11
16.41255
 21
188.6457415
 31
0.0
  0
LINE
  5
105
330
1E
100
AcDbEntity
  8
0
100
AcDbLine
 10
18.1681
 20
191.7637415
 30
0.0
 11
18.1681
 21
195.3057415
 31
0.0
  0
LINE
  5
106
330
1E
100
AcDbEntity
  8
0
100
AcDbLine
 10
18.1681
 20
195.3057415
 30
0.0
 11
18.1681
 21
191.7637415
 31
0.0
  0
LINE
  5
107
330
1E
100
AcDbEntity
  8
0
100
AcDbLine
 10
18.1681
 20
195.3057415
 30
0.0
 11
18.1681
 21
198.4487415
 31
0.0
  0
LINE
  5
108
330
1E
100
AcDbEntity
  8
0
100
AcDbLine
 10
18.1681
 20
198.4487415
 30
0.0
 11
18.1681
 21
195.3057415
 31
0.0
  0
LINE
  5
109
330
1E
100
AcDbEntity
  8
0
100
AcDbLine
 10
18.1681
 20
198.4487415
 30
0.0
 11
18.1681
 21
200.7917415
 31
0.0
  0
LINE
  5
10A
330
1E
100
AcDbEntity
  8
0
100
AcDbLine
 10
18.1681
 20
198.2207414999999
 30
0.0
 11
18.1681
 21
200.5577414999999
 31
0.0
  0
LINE
  5
10B
330
1E
100
AcDbEntity
  8
0
100
AcDbLine
 10
18.6723
 20
195.7637415
 30
0.0
 11
18.6723
 21
191.9917415
 31
0.0
  0
LINE
  5
10C
330
1E
100
AcDbEntity
  8
0
100
AcDbLine
 10
18.6723
 20
195.7637415
 30
0.0
 11
18.6723
 21
199.0207415
 31
0.0
  0
LINE
  5
10D
330
1E
100
AcDbEntity
  8
0
100
AcDbLine
 10
18.6723
 20
191.9917415
 30
0.0
 11
18.6723
 21
187.9347414999999
 31
0.0
  0
LINE
  5
10E
330
1E
100
AcDbEntity
  8
0
100
AcDbLine
 10
18.6723
 20
191.9917415
 30
0.0
 11
18.6723
 21
195.7637415
 31
0.0
  0
LINE
  5
10F
330
1E
100
AcDbEntity
  8
0
100
AcDbLine
 10
18.1681
 20
195.1557415
 30
0.0
 11
18.1681
 21
198.2207414999999
 31
0.0
  0
LINE
  5
110
330
1E
100
AcDbEntity
  8
0
100
AcDbLine
 10
18.1681
 20
191.6747415
 30
0.0
 11
18.1681
 21
195.1557415
 31
0.0
  0
LINE
  5
111
330
1E
100
AcDbEntity
  8
0
100
AcDbLine
 10
11.41254999999999
 20
189.7127414999999
 30
0.0
 11
13.90785
 21
189.5347414999999
 31
0.0
  0
LINE
  5
112
330
1E
100
AcDbEntity
  8
0
100
AcDbLine
 10
8.917279999999999
 20
189.5347414999999
 30
0.0
 11
11.41254999999999
 21
189.7127414999999
 31
0.0
  0
LINE
  5
115
330
1E
100
AcDbEntity
  8
0
100
AcDbLine
 10
25.7333
 20
194.4347415
 30
0.0
 11
27.8133
 21
197.1217415
 31
0.0
  0
LINE
  5
116
330
1E
100
AcDbEntity
  8
0
100
AcDbLine
 10
24.4333
 20
191.3147415
 30
0.0
 11
25.7333
 21
194.4347415
 31
0.0
  0
LINE
  5
117
330
1E
100
AcDbEntity
  8
0
100
AcDbLine
 10
26.08
 20
194.1747415
 30
0.0
 11
28.16
 21
196.7747415
 31
0.0
  0
LINE
  5
118
330
1E
100
AcDbEntity
  8
0
100
AcDbLine
 10
24.8667
 20
191.1417415
 30
0.0
 11
26.08
 21
194.1747415
 31
0.0
  0
LINE
  5
119
330
1E
100
AcDbEntity
  8
0
100
AcDbLine
 10
26.6
 20
190.7077415
 30
0.0
 11
27.64
 21
193.3077414999999
 31
0.0
  0
LINE
  5
11A
330
1E
100
AcDbEntity
  8
0
100
AcDbLine
 10
24.39999999999999
 20
195.1347414999999
 30
0.0
 11
26.8
 21
198.1347414999999
 31
0.0
  0
LINE
  5
11B
330
1E
100
AcDbEntity
  8
0
100
AcDbLine
 10
23.0
 20
191.6347414999999
 30
0.0
 11
24.39999999999999
 21
195.1347414999999
 31
0.0
  0
LINE
  5
11C
330
1E
100
AcDbEntity
  8
0
100
AcDbLine
 10
24.0
 20
195.4347414999999
 30
0.0
 11
26.4
 21
198.5347414999999
 31
0.0
  0
LINE
  5
11D
330
1E
100
AcDbEntity
  8
0
100
AcDbLine
 10
22.5
 20
191.8347415
 30
0.0
 11
24.0
 21
195.4347414999999
 31
0.0
  0
LINE
  5
11E
330
1E
100
AcDbEntity
  8
0
100
AcDbLine
 10
22.0
 20
187.9347414999999
 30
0.0
 11
22.5
 21
191.8347415
 31
0.0
  0
LINE
  5
11F
330
1E
100
AcDbEntity
  8
0
100
AcDbLine
 10
22.0
 20
187.9347414999999
 30
0.0
 11
22.5
 21
184.0347415
 31
0.0
  0
LINE
  5
120
330
1E
100
AcDbEntity
  8
0
100
AcDbLine
 10
27.7
 20
58.64994150000001
 30
0.0
 11
28.6
 21
59.2659415
 31
0.0
  0
LINE
  5
121
330
1E
100
AcDbEntity
  8
0
100
AcDbLine
 10
27.8133
 20
178.7477415
 30
0.0
 11
30.5
 21
176.6677415
 31
0.0
  0
LINE
  5
122
330
1E
100
AcDbEntity
  8
0
100
AcDbLine
 10
27.64
 20
182.5617415
 30
0.0
 11
29.3733
 21
180.3077414999999
 31
0.0
  0
LINE
  5
123
330
1E
100
AcDbEntity
  8
0
100
AcDbLine
 10
28.6
 20
59.2659415
 30
0.0
 11
35.89999999999999
 21
64.0159415
 31
0.0
  0
LINE
  5
124
330
1E
100
AcDbEntity
  8
0
100
AcDbLine
 10
28.16
 20
179.0947414999999
 30
0.0
 11
30.76
 21
177.0147415
 31
0.0
  0
LINE
  5
125
330
1E
100
AcDbEntity
  8
0
100
AcDbLine
 10
29.8
 20
175.3347415
 30
0.0
 11
33.3
 21
173.9347415
 31
0.0
  0
LINE
  5
126
330
1E
100
AcDbEntity
  8
0
100
AcDbLine
 10
29.5
 20
174.9347415
 30
0.0
 11
33.1
 21
173.4347415
 31
0.0
  0
LINE
  5
127
330
1E
100
AcDbEntity
  8
0
100
AcDbLine
 10
29.3733
 20
180.3077414999999
 30
0.0
 11
31.6267
 21
178.5747415
 31
0.0
  0
LINE
  5
128
330
1E
100
AcDbEntity
  8
0
100
AcDbLine
 10
29.6333
 20
180.5677415
 30
0.0
 11
31.8
 21
178.9217414999999
 31
0.0
  0
LINE
  5
129
330
1E
100
AcDbEntity
  8
0
100
AcDbLine
 10
27.98669999999999
 20
182.7347415
 30
0.0
 11
29.6333
 21
180.5677415
 31
0.0
  0
LINE
  5
12A
330
1E
100
AcDbEntity
  8
0
100
AcDbLine
 10
27.64
 20
193.3077414999999
 30
0.0
 11
29.3733
 21
195.5617415
 31
0.0
  0
LINE
  5
12B
330
1E
100
AcDbEntity
  8
0
100
AcDbLine
 10
27.98669999999999
 20
193.1347414999999
 30
0.0
 11
29.6333
 21
195.3017414999999
 31
0.0
  0
LINE
  5
12C
330
1E
100
AcDbEntity
  8
0
100
AcDbLine
 10
26.9467
 20
190.6217415
 30
0.0
 11
27.98669999999999
 21
193.1347414999999
 31
0.0
  0
LINE
  5
12D
330
1E
100
AcDbEntity
  8
0
100
AcDbLine
 10
27.8133
 20
197.1217415
 30
0.0
 11
30.5
 21
199.2017415
 31
0.0
  0
LINE
  5
12E
330
1E
100
AcDbEntity
  8
0
100
AcDbLine
 10
28.16
 20
196.7747415
 30
0.0
 11
30.76
 21
198.8547415
 31
0.0
  0
LINE
  5
12F
330
1E
100
AcDbEntity
  8
0
100
AcDbLine
 10
29.3733
 20
195.5617415
 30
0.0
 11
31.6267
 21
197.2947415
 31
0.0
  0
LINE
  5
130
330
1E
100
AcDbEntity
  8
0
100
AcDbLine
 10
29.6333
 20
195.3017414999999
 30
0.0
 11
31.8
 21
196.9477415
 31
0.0
  0
LINE
  5
131
330
1E
100
AcDbEntity
  8
0
100
AcDbLine
 10
26.9467
 20
185.2477415
 30
0.0
 11
27.98669999999999
 21
182.7347415
 31
0.0
  0
LINE
  5
132
330
1E
100
AcDbEntity
  8
0
100
AcDbLine
 10
26.8
 20
198.1347414999999
 30
0.0
 11
29.8
 21
200.5347415
 31
0.0
  0
LINE
  5
133
330
1E
100
AcDbEntity
  8
0
100
AcDbLine
 10
-0.0000000000000017
 20
198.7787414999999
 30
0.0
 11
0.504199999999997
 21
199.6577415
 31
0.0
  0
LINE
  5
134
330
1E
100
AcDbEntity
  8
0
100
AcDbLine
 10
-0.0000000000000017
 20
198.7787414999999
 30
0.0
 11
-0.0000000000000017
 21
198.3677415
 31
0.0
  0
LINE
  5
135
330
1E
100
AcDbEntity
  8
0
100
AcDbLine
 10
2.016809999999999
 20
199.5397415
 30
0.0
 11
2.016809999999999
 21
198.3677415
 31
0.0
  0
LINE
  5
136
330
1E
100
AcDbEntity
  8
0
100
AcDbLine
 10
0.504199999999997
 20
199.2467415
 30
0.0
 11
0.504199999999997
 21
199.6577415
 31
0.0
  0
LINE
  5
137
330
1E
100
AcDbEntity
  8
0
100
AcDbLine
 10
0.504199999999997
 20
199.2467415
 30
0.0
 11
0.504199999999997
 21
198.0747415
 31
0.0
  0
LINE
  5
138
330
1E
100
AcDbEntity
  8
0
100
AcDbLine
 10
0.504199999999997
 20
199.6577415
 30
0.0
 11
2.016809999999999
 21
199.9507415
 31
0.0
  0
LINE
  5
139
330
1E
100
AcDbEntity
  8
0
100
AcDbLine
 10
0.504199999999997
 20
199.6577415
 30
0.0
 11
0.504199999999997
 21
199.2467415
 31
0.0
  0
LINE
  5
13A
330
1E
100
AcDbEntity
  8
0
100
AcDbLine
 10
2.016809999999999
 20
199.9507415
 30
0.0
 11
2.016809999999999
 21
199.5397415
 31
0.0
  0
LINE
  5
13B
330
1E
100
AcDbEntity
  8
0
100
AcDbLine
 10
2.016809999999999
 20
199.6227415
 30
0.0
 11
2.016809999999999
 21
200.9737415
 31
0.0
  0
LINE
  5
13C
330
1E
100
AcDbEntity
  8
0
100
AcDbLine
 10
2.016809999999999
 20
200.9737415
 30
0.0
 11
2.016809999999999
 21
199.6227415
 31
0.0
  0
LINE
  5
13D
330
1E
100
AcDbEntity
  8
0
100
AcDbLine
 10
2.016809999999999
 20
200.9737415
 30
0.0
 11
2.016809999999999
 21
201.4417415
 31
0.0
  0
LINE
  5
13E
330
1E
100
AcDbEntity
  8
0
100
AcDbLine
 10
2.016809999999999
 20
201.4417415
 30
0.0
 11
2.016809999999999
 21
200.9737415
 31
0.0
  0
LINE
  5
13F
330
1E
100
AcDbEntity
  8
0
100
AcDbLine
 10
2.016809999999999
 20
201.4417415
 30
0.0
 11
2.475179999999999
 21
202.2207415
 31
0.0
  0
LINE
  5
140
330
1E
100
AcDbEntity
  8
0
100
AcDbLine
 10
18.1681
 20
200.7917415
 30
0.0
 11
18.1681
 21
198.4487415
 31
0.0
  0
LINE
  5
141
330
1E
100
AcDbEntity
  8
0
100
AcDbLine
 10
18.1681
 20
200.7917415
 30
0.0
 11
18.1681
 21
202.2777414999999
 31
0.0
  0
LINE
  5
142
330
1E
100
AcDbEntity
  8
0
100
AcDbLine
 10
2.475179999999999
 20
200.2987415
 30
0.0
 11
2.475179999999999
 21
198.0127415
 31
0.0
  0
LINE
  5
143
330
1E
100
AcDbEntity
  8
0
100
AcDbLine
 10
2.475179999999999
 20
200.2987415
 30
0.0
 11
2.475179999999999
 21
201.7007415
 31
0.0
  0
LINE
  5
144
330
1E
100
AcDbEntity
  8
0
100
AcDbLine
 10
2.475179999999999
 20
201.7007415
 30
0.0
 11
2.475179999999999
 21
200.2987415
 31
0.0
  0
LINE
  5
145
330
1E
100
AcDbEntity
  8
0
100
AcDbLine
 10
2.475179999999999
 20
201.7007415
 30
0.0
 11
2.475179999999999
 21
202.2207415
 31
0.0
  0
LINE
  5
146
330
1E
100
AcDbEntity
  8
0
100
AcDbLine
 10
18.6723
 20
201.5347414999999
 30
0.0
 11
18.6723
 21
199.0207415
 31
0.0
  0
LINE
  5
147
330
1E
100
AcDbEntity
  8
0
100
AcDbLine
 10
18.6723
 20
201.5347414999999
 30
0.0
 11
18.6723
 21
203.0777415
 31
0.0
  0
LINE
  5
148
330
1E
100
AcDbEntity
  8
0
100
AcDbLine
 10
18.6723
 20
199.0207415
 30
0.0
 11
18.6723
 21
195.7637415
 31
0.0
  0
LINE
  5
149
330
1E
100
AcDbEntity
  8
0
100
AcDbLine
 10
18.6723
 20
199.0207415
 30
0.0
 11
18.6723
 21
201.5347414999999
 31
0.0
  0
LINE
  5
14A
330
1E
100
AcDbEntity
  8
0
100
AcDbLine
 10
18.1681
 20
200.5577414999999
 30
0.0
 11
18.1681
 21
201.9607415
 31
0.0
  0
LINE
  5
14B
330
1E
100
AcDbEntity
  8
0
100
AcDbLine
 10
2.475179999999999
 20
202.2207415
 30
0.0
 11
2.475179999999999
 21
201.7007415
 31
0.0
  0
LINE
  5
14C
330
1E
100
AcDbEntity
  8
0
100
AcDbLine
 10
2.475179999999999
 20
202.2207415
 30
0.0
 11
3.850269999999999
 21
202.4807415
 31
0.0
  0
LINE
  5
14D
330
1E
100
AcDbEntity
  8
0
100
AcDbLine
 10
18.1681
 20
202.2777414999999
 30
0.0
 11
18.1681
 21
200.7917415
 31
0.0
  0
LINE
  5
14E
330
1E
100
AcDbEntity
  8
0
100
AcDbLine
 10
18.1681
 20
202.4807415
 30
0.0
 11
18.1681
 21
202.7917415
 31
0.0
  0
LINE
  5
14F
330
1E
100
AcDbEntity
  8
0
100
AcDbLine
 10
18.6723
 20
203.0777415
 30
0.0
 11
18.6723
 21
201.5347414999999
 31
0.0
  0
LINE
  5
150
330
1E
100
AcDbEntity
  8
0
100
AcDbLine
 10
18.6723
 20
203.0777415
 30
0.0
 11
18.6723
 21
203.6487414999999
 31
0.0
  0
LINE
  5
151
330
1E
100
AcDbEntity
  8
0
100
AcDbLine
 10
18.1681
 20
202.7917415
 30
0.0
 11
18.6723
 21
203.6487414999999
 31
0.0
  0
LINE
  5
152
330
1E
100
AcDbEntity
  8
0
100
AcDbLine
 10
18.1681
 20
202.7917415
 30
0.0
 11
18.1681
 21
202.4807415
 31
0.0
  0
LINE
  5
153
330
1E
100
AcDbEntity
  8
0
100
AcDbLine
 10
20.18489999999999
 20
203.9347414999999
 30
0.0
 11
32.0
 21
203.9347414999999
 31
0.0
  0
LINE
  5
154
330
1E
100
AcDbEntity
  8
0
100
AcDbLine
 10
18.6723
 20
203.6487414999999
 30
0.0
 11
20.18489999999999
 21
203.9347414999999
 31
0.0
  0
LINE
  5
155
330
1E
100
AcDbEntity
  8
0
100
AcDbLine
 10
18.6723
 20
203.6487414999999
 30
0.0
 11
18.6723
 21
203.0777415
 31
0.0
  0
LINE
  5
156
330
1E
100
AcDbEntity
  8
0
100
AcDbLine
 10
20.18489999999999
 20
203.9347414999999
 30
0.0
 11
32.0
 21
203.9347414999999
 31
0.0
  0
LINE
  5
157
330
1E
100
AcDbEntity
  8
0
100
AcDbLine
 10
3.850269999999999
 20
202.4807415
 30
0.0
 11
18.1681
 21
202.4807415
 31
0.0
  0
LINE
  5
158
330
1E
100
AcDbEntity
  8
0
100
AcDbLine
 10
18.1681
 20
201.9607415
 30
0.0
 11
18.1681
 21
202.4807415
 31
0.0
  0
LINE
  5
159
330
1E
100
AcDbEntity
  8
0
100
AcDbLine
 10
29.8
 20
200.5347415
 30
0.0
 11
33.3
 21
201.9347414999999
 31
0.0
  0
LINE
  5
15A
330
1E
100
AcDbEntity
  8
0
100
AcDbLine
 10
29.5
 20
200.9347415
 30
0.0
 11
32.0
 21
201.9764081666669
 31
0.0
  0
LINE
  5
15B
330
1E
100
AcDbEntity
  8
0
100
AcDbLine
 10
29.5
 20
200.9347415
 30
0.0
 11
33.1
 21
202.4347415
 31
0.0
  0
LINE
  5
15C
330
1E
100
AcDbEntity
  8
0
100
AcDbLine
 10
26.4
 20
198.5347414999999
 30
0.0
 11
29.5
 21
200.9347415
 31
0.0
  0
LINE
  5
15D
330
1E
100
AcDbEntity
  8
0
100
AcDbLine
 10
30.5
 20
176.6677415
 30
0.0
 11
33.62
 21
175.3677415
 31
0.0
  0
LINE
  5
15E
330
1E
100
AcDbEntity
  8
0
100
AcDbLine
 10
30.5
 20
199.2017415
 30
0.0
 11
33.62
 21
200.5017415
 31
0.0
  0
LINE
  5
15F
330
1E
100
AcDbEntity
  8
0
100
AcDbLine
 10
30.76
 20
198.8547415
 30
0.0
 11
33.7933
 21
200.0677415
 31
0.0
  0
LINE
  5
160
330
1E
100
AcDbEntity
  8
0
100
AcDbLine
 10
30.76
 20
177.0147415
 30
0.0
 11
33.7933
 21
175.8017414999999
 31
0.0
  0
LINE
  5
161
330
1E
100
AcDbEntity
  8
0
100
AcDbLine
 10
31.0
 20
10.84644149999999
 30
0.0
 11
41.9
 21
6.59634149999999
 31
0.0
  0
LINE
  5
162
330
1E
100
AcDbEntity
  8
0
100
AcDbLine
 10
31.0
 20
7.81526149999999
 30
0.0
 11
41.9
 21
3.56526149999999
 31
0.0
  0
LINE
  5
163
330
1E
100
AcDbEntity
  8
0
100
AcDbLine
 10
31.0
 20
7.81526149999999
 30
0.0
 11
41.9
 21
3.56526149999999
 31
0.0
  0
LINE
  5
164
330
1E
100
AcDbEntity
  8
0
100
AcDbLine
 10
31.6267
 20
197.2947415
 30
0.0
 11
34.2267
 21
198.3347415
 31
0.0
  0
LINE
  5
165
330
1E
100
AcDbEntity
  8
0
100
AcDbLine
 10
31.8
 20
196.9477415
 30
0.0
 11
34.31329999999999
 21
197.9877414999999
 31
0.0
  0
LINE
  5
166
330
1E
100
AcDbEntity
  8
0
100
AcDbLine
 10
31.6267
 20
178.5747415
 30
0.0
 11
34.2267
 21
177.5347414999999
 31
0.0
  0
LINE
  5
167
330
1E
100
AcDbEntity
  8
0
100
AcDbLine
 10
32.0
 20
11.77944149999999
 30
0.0
 11
42.6
 21
7.67936149999999
 31
0.0
  0
LINE
  5
168
330
1E
100
AcDbEntity
  8
0
100
AcDbLine
 10
31.8
 20
178.9217414999999
 30
0.0
 11
34.31329999999999
 21
177.8817414999999
 31
0.0
  0
LINE
  5
169
330
1E
100
AcDbEntity
  8
0
100
AcDbLine
 10
32.0
 20
201.9764081666669
 30
0.0
 11
32.0
 21
211.9347415
 31
0.0
  0
LINE
  5
16A
330
1E
100
AcDbEntity
  8
0
100
AcDbLine
 10
32.7
 20
18.1915415
 30
0.0
 11
43.1
 21
14.1915415
 31
0.0
  0
LINE
  5
16B
330
1E
100
AcDbEntity
  8
0
100
AcDbLine
 10
33.1
 20
173.4347415
 30
0.0
 11
37.0
 21
172.9347415
 31
0.0
  0
LINE
  5
16C
330
1E
100
AcDbEntity
  8
0
100
AcDbLine
 10
33.3
 20
173.9347415
 30
0.0
 11
37.0
 21
173.4347415
 31
0.0
  0
LINE
  5
16D
330
1E
100
AcDbEntity
  8
0
100
AcDbLine
 10
33.39999999999999
 20
23.7377415
 30
0.0
 11
43.6
 21
19.8377415
 31
0.0
  0
LINE
  5
16E
330
1E
100
AcDbEntity
  8
0
100
AcDbLine
 10
33.62
 20
175.3677415
 30
0.0
 11
37.0
 21
174.9347415
 31
0.0
  0
LINE
  5
16F
330
1E
100
AcDbEntity
  8
0
100
AcDbLine
 10
33.79999999999999
 20
19.17464149999999
 30
0.0
 11
43.89999999999999
 21
15.2746415
 31
0.0
  0
LINE
  5
170
330
1E
100
AcDbEntity
  8
0
100
AcDbLine
 10
34.1
 20
21.9226415
 30
0.0
 11
44.1
 21
18.07264149999999
 31
0.0
  0
LINE
  5
171
330
1E
100
AcDbEntity
  8
0
100
AcDbLine
 10
33.7933
 20
175.8017414999999
 30
0.0
 11
37.0
 21
175.3677415
 31
0.0
  0
LINE
  5
172
330
1E
100
AcDbEntity
  8
0
100
AcDbLine
 10
33.62
 20
200.5017415
 30
0.0
 11
37.0
 21
200.9347415
 31
0.0
  0
LINE
  5
173
330
1E
100
AcDbEntity
  8
0
100
AcDbLine
 10
33.7933
 20
200.0677415
 30
0.0
 11
37.0
 21
200.5017415
 31
0.0
  0
LINE
  5
174
330
1E
100
AcDbEntity
  8
0
100
AcDbLine
 10
34.2267
 20
198.3347415
 30
0.0
 11
37.0
 21
198.7677415
 31
0.0
  0
LINE
  5
175
330
1E
100
AcDbEntity
  8
0
100
AcDbLine
 10
34.31329999999999
 20
197.9877414999999
 30
0.0
 11
37.0
 21
198.3347415
 31
0.0
  0
LINE
  5
176
330
1E
100
AcDbEntity
  8
0
100
AcDbLine
 10
34.2267
 20
177.5347414999999
 30
0.0
 11
37.0
 21
177.1017415
 31
0.0
  0
LINE
  5
177
330
1E
100
AcDbEntity
  8
0
100
AcDbLine
 10
35.89999999999999
 20
64.0159415
 30
0.0
 11
45.4
 21
67.6659415
 31
0.0
  0
LINE
  5
178
330
1E
100
AcDbEntity
  8
0
100
AcDbLine
 10
37.0
 20
172.9347415
 30
0.0
 11
40.89999999999999
 21
173.4347415
 31
0.0
  0
LINE
  5
179
330
1E
100
AcDbEntity
  8
0
100
AcDbLine
 10
40.7
 20
173.9347415
 30
0.0
 11
44.2
 21
175.3347415
 31
0.0
  0
LINE
  5
17A
330
1E
100
AcDbEntity
  8
0
100
AcDbLine
 10
37.0
 20
173.4347415
 30
0.0
 11
40.7
 21
173.9347415
 31
0.0
  0
LINE
  5
17B
330
1E
100
AcDbEntity
  8
0
100
AcDbLine
 10
43.1
 20
14.1915415
 30
0.0
 11
55.2
 21
11.74154149999999
 31
0.0
  0
LINE
  5
17C
330
1E
100
AcDbEntity
  8
0
100
AcDbLine
 10
42.6
 20
7.67936149999999
 30
0.0
 11
54.9
 21
5.17936149999999
 31
0.0
  0
LINE
  5
17D
330
1E
100
AcDbEntity
  8
0
100
AcDbLine
 10
41.9
 20
6.59634149999999
 30
0.0
 11
54.5
 21
4.04635149999999
 31
0.0
  0
LINE
  5
17E
330
1E
100
AcDbEntity
  8
0
100
AcDbLine
 10
41.9
 20
3.56526149999999
 30
0.0
 11
54.5
 21
1.01526149999999
 31
0.0
  0
LINE
  5
17F
330
1E
100
AcDbEntity
  8
0
100
AcDbLine
 10
40.89999999999999
 20
173.4347415
 30
0.0
 11
44.5
 21
174.9347415
 31
0.0
  0
LINE
  5
180
330
1E
100
AcDbEntity
  8
0
100
AcDbLine
 10
37.0
 20
175.3677415
 30
0.0
 11
40.20669999999999
 21
175.8017414999999
 31
0.0
  0
LINE
  5
181
330
1E
100
AcDbEntity
  8
0
100
AcDbLine
 10
37.0
 20
200.5017415
 30
0.0
 11
40.20669999999999
 21
200.0677415
 31
0.0
  0
LINE
  5
182
330
1E
100
AcDbEntity
  8
0
100
AcDbLine
 10
37.0
 20
198.7677415
 30
0.0
 11
39.7733
 21
198.3347415
 31
0.0
  0
LINE
  5
183
330
1E
100
AcDbEntity
  8
0
100
AcDbLine
 10
37.0
 20
198.3347415
 30
0.0
 11
39.6867
 21
197.9877414999999
 31
0.0
  0
LINE
  5
184
330
1E
100
AcDbEntity
  8
0
100
AcDbLine
 10
37.0
 20
200.9347415
 30
0.0
 11
40.38
 21
200.5017415
 31
0.0
  0
LINE
  5
185
330
1E
100
AcDbEntity
  8
0
100
AcDbLine
 10
37.0
 20
177.1017415
 30
0.0
 11
39.7733
 21
177.5347414999999
 31
0.0
  0
LINE
  5
186
330
1E
100
AcDbEntity
  8
0
100
AcDbLine
 10
40.38
 20
175.3677415
 30
0.0
 11
43.5
 21
176.6677415
 31
0.0
  0
LINE
  5
187
330
1E
100
AcDbEntity
  8
0
100
AcDbLine
 10
40.20669999999999
 20
175.8017414999999
 30
0.0
 11
43.24
 21
177.0147415
 31
0.0
  0
LINE
  5
188
330
1E
100
AcDbEntity
  8
0
100
AcDbLine
 10
39.7733
 20
177.5347414999999
 30
0.0
 11
42.3733
 21
178.5747415
 31
0.0
  0
LINE
  5
189
330
1E
100
AcDbEntity
  8
0
100
AcDbLine
 10
42.2
 20
196.9477415
 30
0.0
 11
44.3667
 21
195.3017414999999
 31
0.0
  0
LINE
  5
18A
330
1E
100
AcDbEntity
  8
0
100
AcDbLine
 10
40.20669999999999
 20
200.0677415
 30
0.0
 11
43.24
 21
198.8547415
 31
0.0
  0
LINE
  5
18B
330
1E
100
AcDbEntity
  8
0
100
AcDbLine
 10
39.7733
 20
198.3347415
 30
0.0
 11
42.3733
 21
197.2947415
 31
0.0
  0
LINE
  5
18C
330
1E
100
AcDbEntity
  8
0
100
AcDbLine
 10
39.6867
 20
197.9877414999999
 30
0.0
 11
42.2
 21
196.9477415
 31
0.0
  0
LINE
  5
18D
330
1E
100
AcDbEntity
  8
0
100
AcDbLine
 10
42.3733
 20
197.2947415
 30
0.0
 11
44.6267
 21
195.5617415
 31
0.0
  0
LINE
  5
18E
330
1E
100
AcDbEntity
  8
0
100
AcDbLine
 10
42.3733
 20
178.5747415
 30
0.0
 11
44.6267
 21
180.3077414999999
 31
0.0
  0
LINE
  5
18F
330
1E
100
AcDbEntity
  8
0
100
AcDbLine
 10
42.2
 20
178.9217414999999
 30
0.0
 11
44.3667
 21
180.5677415
 31
0.0
  0
LINE
  5
190
330
1E
100
AcDbEntity
  8
0
100
AcDbLine
 10
39.6867
 20
177.8817414999999
 30
0.0
 11
42.2
 21
178.9217414999999
 31
0.0
  0
LINE
  5
191
330
1E
100
AcDbEntity
  8
0
100
AcDbLine
 10
37.0
 20
177.5347414999999
 30
0.0
 11
39.6867
 21
177.8817414999999
 31
0.0
  0
LINE
  5
192
330
1E
100
AcDbEntity
  8
0
100
AcDbLine
 10
37.0
 20
174.9347415
 30
0.0
 11
40.38
 21
175.3677415
 31
0.0
  0
LINE
  5
193
330
1E
100
AcDbEntity
  8
0
100
AcDbLine
 10
34.31329999999999
 20
177.8817414999999
 30
0.0
 11
37.0
 21
177.5347414999999
 31
0.0
  0
LINE
  5
194
330
1E
100
AcDbEntity
  8
0
100
AcDbLine
 10
40.7
 20
201.9347414999999
 30
0.0
 11
44.2
 21
200.5347415
 31
0.0
  0
LINE
  5
195
330
1E
100
AcDbEntity
  8
0
100
AcDbLine
 10
33.3
 20
201.9347414999999
 30
0.0
 11
37.0
 21
202.4347415
 31
0.0
  0
LINE
  5
196
330
1E
100
AcDbEntity
  8
0
100
AcDbLine
 10
40.89999999999999
 20
202.4347415
 30
0.0
 11
44.5
 21
200.9347415
 31
0.0
  0
LINE
  5
197
330
1E
100
AcDbEntity
  8
0
100
AcDbLine
 10
42.0
 20
203.9347414999999
 30
0.0
 11
54.0
 21
203.9347414999999
 31
0.0
  0
LINE
  5
198
330
1E
100
AcDbEntity
  8
0
100
AcDbLine
 10
42.0
 20
203.9347414999999
 30
0.0
 11
54.0
 21
203.9347414999999
 31
0.0
  0
LINE
  5
199
330
1E
100
AcDbEntity
  8
0
100
AcDbLine
 10
37.0
 20
202.9347415
 30
0.0
 11
40.89999999999999
 21
202.4347415
 31
0.0
  0
LINE
  5
19A
330
1E
100
AcDbEntity
  8
0
100
AcDbLine
 10
37.0
 20
202.4347415
 30
0.0
 11
40.7
 21
201.9347414999999
 31
0.0
  0
LINE
  5
19B
330
1E
100
AcDbEntity
  8
0
100
AcDbLine
 10
33.1
 20
202.4347415
 30
0.0
 11
37.0
 21
202.9347415
 31
0.0
  0
LINE
  5
19C
330
1E
100
AcDbEntity
  8
0
100
AcDbLine
 10
42.0
 20
201.9764081666669
 30
0.0
 11
42.0
 21
211.9347415
 31
0.0
  0
LINE
  5
19D
330
1E
100
AcDbEntity
  8
0
100
AcDbLine
 10
42.0
 20
201.9764081666669
 30
0.0
 11
44.5
 21
200.9347415
 31
0.0
  0
LINE
  5
19E
330
1E
100
AcDbEntity
  8
0
100
AcDbLine
 10
32.0
 20
203.9347414999999
 30
0.0
 11
32.0
 21
211.9347415
 31
0.0
  0
LINE
  5
19F
330
1E
100
AcDbEntity
  8
0
100
AcDbLine
 10
32.0
 20
211.9347415
 30
0.0
 11
32.0
 21
203.9347414999999
 31
0.0
  0
LINE
  5
1A0
330
1E
100
AcDbEntity
  8
0
100
AcDbLine
 10
30.89999999999999
 20
211.9347415
 30
0.0
 11
32.0
 21
211.9347415
 31
0.0
  0
LINE
  5
1A1
330
1E
100
AcDbEntity
  8
0
100
AcDbLine
 10
30.3
 20
211.9347415
 30
0.0
 11
30.89999999999999
 21
211.9347415
 31
0.0
  0
LINE
  5
1A2
330
1E
100
AcDbEntity
  8
0
100
AcDbLine
 10
30.0
 20
211.9347415
 30
0.0
 11
30.3
 21
211.9347415
 31
0.0
  0
LINE
  5
1A3
330
1E
100
AcDbEntity
  8
0
100
AcDbLine
 10
42.0
 20
211.9347415
 30
0.0
 11
43.1
 21
211.9347415
 31
0.0
  0
LINE
  5
1A4
330
1E
100
AcDbEntity
  8
0
100
AcDbLine
 10
43.89999999999999
 20
15.2746415
 30
0.0
 11
55.5
 21
12.9246415
 31
0.0
  0
LINE
  5
1A5
330
1E
100
AcDbEntity
  8
0
100
AcDbLine
 10
43.6
 20
19.8377415
 30
0.0
 11
55.4
 21
17.4377415
 31
0.0
  0
LINE
  5
1A6
330
1E
100
AcDbEntity
  8
0
100
AcDbLine
 10
43.5
 20
176.6677415
 30
0.0
 11
46.1867
 21
178.7477415
 31
0.0
  0
LINE
  5
1A7
330
1E
100
AcDbEntity
  8
0
100
AcDbLine
 10
43.5
 20
199.2017415
 30
0.0
 11
46.1867
 21
197.1217415
 31
0.0
  0
LINE
  5
1A8
330
1E
100
AcDbEntity
  8
0
100
AcDbLine
 10
43.24
 20
198.8547415
 30
0.0
 11
45.84
 21
196.7747415
 31
0.0
  0
LINE
  5
1A9
330
1E
100
AcDbEntity
  8
0
100
AcDbLine
 10
43.24
 20
177.0147415
 30
0.0
 11
45.84
 21
179.0947414999999
 31
0.0
  0
LINE
  5
1AA
330
1E
100
AcDbEntity
  8
0
100
AcDbLine
 10
43.1
 20
211.9347415
 30
0.0
 11
43.7
 21
211.9347415
 31
0.0
  0
LINE
  5
1AB
330
1E
100
AcDbEntity
  8
0
100
AcDbLine
 10
30.89999999999999
 20
211.9347415
 30
0.0
 11
32.0
 21
211.9347415
 31
0.0
  0
LINE
  5
1AC
330
1E
100
AcDbEntity
  8
0
100
AcDbLine
 10
30.3
 20
211.9347415
 30
0.0
 11
30.89999999999999
 21
211.9347415
 31
0.0
  0
LINE
  5
1AD
330
1E
100
AcDbEntity
  8
0
100
AcDbLine
 10
30.0
 20
211.9347415
 30
0.0
 11
30.3
 21
211.9347415
 31
0.0
  0
LINE
  5
1AE
330
1E
100
AcDbEntity
  8
0
100
AcDbLine
 10
32.0
 20
211.9347415
 30
0.0
 11
32.0
 21
201.9764081666669
 31
0.0
  0
LINE
  5
1AF
330
1E
100
AcDbEntity
  8
0
100
AcDbLine
 10
32.0
 20
211.9347415
 30
0.0
 11
32.2
 21
211.9347415
 31
0.0
  0
LINE
  5
1B0
330
1E
100
AcDbEntity
  8
0
100
AcDbLine
 10
32.2
 20
211.9347415
 30
0.0
 11
32.7
 21
211.9347415
 31
0.0
  0
LINE
  5
1B1
330
1E
100
AcDbEntity
  8
0
100
AcDbLine
 10
32.7
 20
211.9347415
 30
0.0
 11
33.5
 21
211.9347415
 31
0.0
  0
LINE
  5
1B2
330
1E
100
AcDbEntity
  8
0
100
AcDbLine
 10
33.5
 20
211.9347415
 30
0.0
 11
34.5
 21
211.9347415
 31
0.0
  0
LINE
  5
1B3
330
1E
100
AcDbEntity
  8
0
100
AcDbLine
 10
43.1
 20
211.9347415
 30
0.0
 11
43.7
 21
211.9347415
 31
0.0
  0
LINE
  5
1B4
330
1E
100
AcDbEntity
  8
0
100
AcDbLine
 10
43.7
 20
211.9347415
 30
0.0
 11
44.0
 21
211.9347415
 31
0.0
  0
LINE
  5
1B5
330
1E
100
AcDbEntity
  8
0
100
AcDbLine
 10
44.0
 20
211.9347415
 30
0.0
 11
45.49999999999999
 21
212.4347414999999
 31
0.0
  0
LINE
  5
1B6
330
1E
100
AcDbEntity
  8
0
100
AcDbLine
 10
41.79999999999999
 20
211.9347415
 30
0.0
 11
42.0
 21
211.9347415
 31
0.0
  0
LINE
  5
1B7
330
1E
100
AcDbEntity
  8
0
100
AcDbLine
 10
41.29999999999999
 20
211.9347415
 30
0.0
 11
41.79999999999999
 21
211.9347415
 31
0.0
  0
LINE
  5
1B8
330
1E
100
AcDbEntity
  8
0
100
AcDbLine
 10
40.49999999999999
 20
211.9347415
 30
0.0
 11
41.29999999999999
 21
211.9347415
 31
0.0
  0
LINE
  5
1B9
330
1E
100
AcDbEntity
  8
0
100
AcDbLine
 10
39.5
 20
211.9347415
 30
0.0
 11
40.49999999999999
 21
211.9347415
 31
0.0
  0
LINE
  5
1BA
330
1E
100
AcDbEntity
  8
0
100
AcDbLine
 10
38.3
 20
211.9347415
 30
0.0
 11
39.5
 21
211.9347415
 31
0.0
  0
LINE
  5
1BB
330
1E
100
AcDbEntity
  8
0
100
AcDbLine
 10
37.0
 20
211.9347415
 30
0.0
 11
38.3
 21
211.9347415
 31
0.0
  0
LINE
  5
1BC
330
1E
100
AcDbEntity
  8
0
100
AcDbLine
 10
42.0
 20
211.9347415
 30
0.0
 11
42.0
 21
201.9764081666669
 31
0.0
  0
LINE
  5
1BD
330
1E
100
AcDbEntity
  8
0
100
AcDbLine
 10
42.0
 20
211.9347415
 30
0.0
 11
43.1
 21
211.9347415
 31
0.0
  0
LINE
  5
1BE
330
1E
100
AcDbEntity
  8
0
100
AcDbLine
 10
34.5
 20
211.9347415
 30
0.0
 11
35.7
 21
211.9347415
 31
0.0
  0
LINE
  5
1BF
330
1E
100
AcDbEntity
  8
0
100
AcDbLine
 10
35.7
 20
211.9347415
 30
0.0
 11
37.0
 21
211.9347415
 31
0.0
  0
LINE
  5
1C0
330
1E
100
AcDbEntity
  8
0
100
AcDbLine
 10
28.5
 20
212.4347414999999
 30
0.0
 11
30.0
 21
211.9347415
 31
0.0
  0
LINE
  5
1C1
330
1E
100
AcDbEntity
  8
0
100
AcDbLine
 10
43.7
 20
211.9347415
 30
0.0
 11
44.0
 21
211.9347415
 31
0.0
  0
LINE
  5
1C2
330
1E
100
AcDbEntity
  8
0
100
AcDbLine
 10
44.1
 20
18.07264149999999
 30
0.0
 11
55.7
 21
15.7226415
 31
0.0
  0
LINE
  5
1C3
330
1E
100
AcDbEntity
  8
0
100
AcDbLine
 10
44.2
 20
175.3347415
 30
0.0
 11
47.2
 21
177.7347415
 31
0.0
  0
LINE
  5
1C4
330
1E
100
AcDbEntity
  8
0
100
AcDbLine
 10
44.5
 20
174.9347415
 30
0.0
 11
47.6
 21
177.3347415
 31
0.0
  0
LINE
  5
1C5
330
1E
100
AcDbEntity
  8
0
100
AcDbLine
 10
44.5
 20
174.9347415
 30
0.0
 11
47.6
 21
177.3347415
 31
0.0
  0
LINE
  5
1C6
330
1E
100
AcDbEntity
  8
0
100
AcDbLine
 10
45.4
 20
67.6659415
 30
0.0
 11
56.29999999999999
 21
69.9159415
 31
0.0
  0
LINE
  5
1C7
330
1E
100
AcDbEntity
  8
0
100
AcDbLine
 10
45.84
 20
179.0947414999999
 30
0.0
 11
47.92
 21
181.6947414999999
 31
0.0
  0
LINE
  5
1C8
330
1E
100
AcDbEntity
  8
0
100
AcDbLine
 10
44.6267
 20
180.3077414999999
 30
0.0
 11
46.36
 21
182.5617415
 31
0.0
  0
LINE
  5
1C9
330
1E
100
AcDbEntity
  8
0
100
AcDbLine
 10
46.36
 20
182.5617415
 30
0.0
 11
47.4
 21
185.1617414999999
 31
0.0
  0
LINE
  5
1CA
330
1E
100
AcDbEntity
  8
0
100
AcDbLine
 10
44.3667
 20
180.5677415
 30
0.0
 11
46.01329999999999
 21
182.7347415
 31
0.0
  0
LINE
  5
1CB
330
1E
100
AcDbEntity
  8
0
100
AcDbLine
 10
45.84
 20
196.7747415
 30
0.0
 11
47.92
 21
194.1747415
 31
0.0
  0
LINE
  5
1CC
330
1E
100
AcDbEntity
  8
0
100
AcDbLine
 10
44.6267
 20
195.5617415
 30
0.0
 11
46.36
 21
193.3077414999999
 31
0.0
  0
LINE
  5
1CD
330
1E
100
AcDbEntity
  8
0
100
AcDbLine
 10
44.3667
 20
195.3017414999999
 30
0.0
 11
46.01329999999999
 21
193.1347414999999
 31
0.0
  0
LINE
  5
1CE
330
1E
100
AcDbEntity
  8
0
100
AcDbLine
 10
46.1867
 20
197.1217415
 30
0.0
 11
48.2667
 21
194.4347415
 31
0.0
  0
LINE
  5
1CF
330
1E
100
AcDbEntity
  8
0
100
AcDbLine
 10
46.36
 20
193.3077414999999
 30
0.0
 11
47.4
 21
190.7077415
 31
0.0
  0
LINE
  5
1D0
330
1E
100
AcDbEntity
  8
0
100
AcDbLine
 10
46.01329999999999
 20
193.1347414999999
 30
0.0
 11
47.0533
 21
190.6217415
 31
0.0
  0
LINE
  5
1D1
330
1E
100
AcDbEntity
  8
0
100
AcDbLine
 10
46.01329999999999
 20
182.7347415
 30
0.0
 11
47.0533
 21
185.2477415
 31
0.0
  0
LINE
  5
1D2
330
1E
100
AcDbEntity
  8
0
100
AcDbLine
 10
44.2
 20
200.5347415
 30
0.0
 11
47.2
 21
198.1347414999999
 31
0.0
  0
LINE
  5
1D3
330
1E
100
AcDbEntity
  8
0
100
AcDbLine
 10
44.5
 20
200.9347415
 30
0.0
 11
47.6
 21
198.5347414999999
 31
0.0
  0
LINE
  5
1D4
330
1E
100
AcDbEntity
  8
0
100
AcDbLine
 10
44.0
 20
211.9347415
 30
0.0
 11
45.49999999999999
 21
212.4347414999999
 31
0.0
  0
LINE
  5
1D5
330
1E
100
AcDbEntity
  8
0
100
AcDbLine
 10
10.5
 20
241.1467415
 30
0.0
 11
11.5
 21
241.1467415
 31
0.0
  0
LINE
  5
1D6
330
1E
100
AcDbEntity
  8
0
100
AcDbLine
 10
10.5
 20
241.1467415
 30
0.0
 11
12.0
 21
240.5887415
 31
0.0
  0
LINE
  5
1D7
330
1E
100
AcDbEntity
  8
0
100
AcDbLine
 10
14.5
 20
238.9157415
 30
0.0
 11
17.5
 21
235.0117415
 31
0.0
  0
LINE
  5
1D8
330
1E
100
AcDbEntity
  8
0
100
AcDbLine
 10
19.0
 20
229.4347415
 30
0.0
 11
19.0
 21
230.5497415
 31
0.0
  0
LINE
  5
1D9
330
1E
100
AcDbEntity
  8
0
100
AcDbLine
 10
19.0
 20
229.4347415
 30
0.0
 11
19.5
 21
227.7617414999999
 31
0.0
  0
LINE
  5
1DA
330
1E
100
AcDbEntity
  8
0
100
AcDbLine
 10
19.0
 20
230.5497415
 30
0.0
 11
19.0
 21
229.4347415
 31
0.0
  0
LINE
  5
1DB
330
1E
100
AcDbEntity
  8
0
100
AcDbLine
 10
19.0
 20
230.5497415
 30
0.0
 11
19.0
 21
229.4347415
 31
0.0
  0
LINE
  5
1DC
330
1E
100
AcDbEntity
  8
0
100
AcDbLine
 10
21.0
 20
227.2037415
 30
0.0
 11
22.0
 21
226.0887415
 31
0.0
  0
LINE
  5
1DD
330
1E
100
AcDbEntity
  8
0
100
AcDbLine
 10
22.5
 20
215.4927414999999
 30
0.0
 11
23.0
 21
215.4927414999999
 31
0.0
  0
LINE
  5
1DE
330
1E
100
AcDbEntity
  8
0
100
AcDbLine
 10
22.5
 20
215.4927414999999
 30
0.0
 11
24.0
 21
214.9347415
 31
0.0
  0
LINE
  5
1DF
330
1E
100
AcDbEntity
  8
0
100
AcDbLine
 10
25.7
 20
214.9347415
 30
0.0
 11
27.0
 21
214.9347415
 31
0.0
  0
LINE
  5
1E0
330
1E
100
AcDbEntity
  8
0
100
AcDbLine
 10
24.5
 20
214.9347415
 30
0.0
 11
25.7
 21
214.9347415
 31
0.0
  0
LINE
  5
1E1
330
1E
100
AcDbEntity
  8
0
100
AcDbLine
 10
24.0
 20
214.9347415
 30
0.0
 11
24.5
 21
214.9347415
 31
0.0
  0
LINE
  5
1E2
330
1E
100
AcDbEntity
  8
0
100
AcDbLine
 10
25.7
 20
214.9347415
 30
0.0
 11
27.0
 21
214.9347415
 31
0.0
  0
LINE
  5
1E3
330
1E
100
AcDbEntity
  8
0
100
AcDbLine
 10
24.5
 20
214.9347415
 30
0.0
 11
25.7
 21
214.9347415
 31
0.0
  0
LINE
  5
1E4
330
1E
100
AcDbEntity
  8
0
100
AcDbLine
 10
26.8
 20
215.4927414999999
 30
0.0
 11
29.8
 21
215.4927414999999
 31
0.0
  0
LINE
  5
1E5
330
1E
100
AcDbEntity
  8
0
100
AcDbLine
 10
24.39999999999999
 20
215.4927414999999
 30
0.0
 11
26.8
 21
215.4927414999999
 31
0.0
  0
LINE
  5
1E6
330
1E
100
AcDbEntity
  8
0
100
AcDbLine
 10
23.0
 20
215.4927414999999
 30
0.0
 11
24.39999999999999
 21
215.4927414999999
 31
0.0
  0
LINE
  5
1E7
330
1E
100
AcDbEntity
  8
0
100
AcDbLine
 10
27.0
 20
214.9347415
 30
0.0
 11
27.5
 21
213.4347415
 31
0.0
  0
LINE
  5
1E8
330
1E
100
AcDbEntity
  8
0
100
AcDbLine
 10
27.0
 20
214.9347415
 30
0.0
 11
27.4
 21
214.9347415
 31
0.0
  0
LINE
  5
1E9
330
1E
100
AcDbEntity
  8
0
100
AcDbLine
 10
24.0
 20
214.9347415
 30
0.0
 11
24.5
 21
214.9347415
 31
0.0
  0
LINE
  5
1EA
330
1E
100
AcDbEntity
  8
0
100
AcDbLine
 10
22.5
 20
215.4927414999999
 30
0.0
 11
24.0
 21
214.9347415
 31
0.0
  0
LINE
  5
1EB
330
1E
100
AcDbEntity
  8
0
100
AcDbLine
 10
22.0
 20
217.1657414999999
 30
0.0
 11
22.0
 21
226.0887415
 31
0.0
  0
LINE
  5
1EC
330
1E
100
AcDbEntity
  8
0
100
AcDbLine
 10
22.0
 20
217.1657414999999
 30
0.0
 11
22.5
 21
215.4927414999999
 31
0.0
  0
LINE
  5
1ED
330
1E
100
AcDbEntity
  8
0
100
AcDbLine
 10
22.0
 20
226.0887415
 30
0.0
 11
22.5
 21
226.0887415
 31
0.0
  0
LINE
  5
1EE
330
1E
100
AcDbEntity
  8
0
100
AcDbLine
 10
22.0
 20
226.0887415
 30
0.0
 11
22.0
 21
217.1657414999999
 31
0.0
  0
LINE
  5
1EF
330
1E
100
AcDbEntity
  8
0
100
AcDbLine
 10
26.4
 20
226.0887415
 30
0.0
 11
29.5
 21
226.0887415
 31
0.0
  0
LINE
  5
1F0
330
1E
100
AcDbEntity
  8
0
100
AcDbLine
 10
24.0
 20
226.0887415
 30
0.0
 11
26.4
 21
226.0887415
 31
0.0
  0
LINE
  5
1F1
330
1E
100
AcDbEntity
  8
0
100
AcDbLine
 10
22.5
 20
226.0887415
 30
0.0
 11
24.0
 21
226.0887415
 31
0.0
  0
LINE
  5
1F2
330
1E
100
AcDbEntity
  8
0
100
AcDbLine
 10
22.0
 20
226.0887415
 30
0.0
 11
22.0
 21
217.1657414999999
 31
0.0
  0
LINE
  5
1F3
330
1E
100
AcDbEntity
  8
0
100
AcDbLine
 10
22.0
 20
217.1657414999999
 30
0.0
 11
22.0
 21
226.0887415
 31
0.0
  0
LINE
  5
1F4
330
1E
100
AcDbEntity
  8
0
100
AcDbLine
 10
22.0
 20
217.1657414999999
 30
0.0
 11
22.5
 21
215.4927414999999
 31
0.0
  0
LINE
  5
1F5
330
1E
100
AcDbEntity
  8
0
100
AcDbLine
 10
21.0
 20
227.2037415
 30
0.0
 11
22.0
 21
226.0887415
 31
0.0
  0
LINE
  5
1F6
330
1E
100
AcDbEntity
  8
0
100
AcDbLine
 10
24.6
 20
227.7617414999999
 30
0.0
 11
28.3
 21
227.7617414999999
 31
0.0
  0
LINE
  5
1F7
330
1E
100
AcDbEntity
  8
0
100
AcDbLine
 10
21.8
 20
227.7617414999999
 30
0.0
 11
24.6
 21
227.7617414999999
 31
0.0
  0
LINE
  5
1F8
330
1E
100
AcDbEntity
  8
0
100
AcDbLine
 10
20.1
 20
227.7617414999999
 30
0.0
 11
21.8
 21
227.7617414999999
 31
0.0
  0
LINE
  5
1F9
330
1E
100
AcDbEntity
  8
0
100
AcDbLine
 10
19.5
 20
227.7617414999999
 30
0.0
 11
20.1
 21
227.7617414999999
 31
0.0
  0
LINE
  5
1FA
330
1E
100
AcDbEntity
  8
0
100
AcDbLine
 10
19.5
 20
227.7617414999999
 30
0.0
 11
21.0
 21
227.2037415
 31
0.0
  0
LINE
  5
1FB
330
1E
100
AcDbEntity
  8
0
100
AcDbLine
 10
19.5
 20
227.7617414999999
 30
0.0
 11
21.0
 21
227.2037415
 31
0.0
  0
LINE
  5
1FC
330
1E
100
AcDbEntity
  8
0
100
AcDbLine
 10
19.0
 20
229.4347415
 30
0.0
 11
19.0
 21
230.5497415
 31
0.0
  0
LINE
  5
1FD
330
1E
100
AcDbEntity
  8
0
100
AcDbLine
 10
19.0
 20
229.4347415
 30
0.0
 11
19.5
 21
227.7617414999999
 31
0.0
  0
LINE
  5
1FE
330
1E
100
AcDbEntity
  8
0
100
AcDbLine
 10
17.5
 20
235.0117415
 30
0.0
 11
19.0
 21
230.5497415
 31
0.0
  0
LINE
  5
1FF
330
1E
100
AcDbEntity
  8
0
100
AcDbLine
 10
17.5
 20
235.0117415
 30
0.0
 11
19.0
 21
230.5497415
 31
0.0
  0
LINE
  5
200
330
1E
100
AcDbEntity
  8
0
100
AcDbLine
 10
14.5
 20
238.9157415
 30
0.0
 11
17.5
 21
235.0117415
 31
0.0
  0
LINE
  5
201
330
1E
100
AcDbEntity
  8
0
100
AcDbLine
 10
18.3
 20
241.1467415
 30
0.0
 11
23.8
 21
241.1467415
 31
0.0
  0
LINE
  5
202
330
1E
100
AcDbEntity
  8
0
100
AcDbLine
 10
23.8
 20
241.1467415
 30
0.0
 11
30.2
 21
241.1467415
 31
0.0
  0
LINE
  5
203
330
1E
100
AcDbEntity
  8
0
100
AcDbLine
 10
12.0
 20
240.5887415
 30
0.0
 11
14.5
 21
238.9157415
 31
0.0
  0
LINE
  5
204
330
1E
100
AcDbEntity
  8
0
100
AcDbLine
 10
14.0
 20
241.1467415
 30
0.0
 11
18.3
 21
241.1467415
 31
0.0
  0
LINE
  5
205
330
1E
100
AcDbEntity
  8
0
100
AcDbLine
 10
11.5
 20
241.1467415
 30
0.0
 11
14.0
 21
241.1467415
 31
0.0
  0
LINE
  5
206
330
1E
100
AcDbEntity
  8
0
100
AcDbLine
 10
12.0
 20
240.5887415
 30
0.0
 11
14.5
 21
238.9157415
 31
0.0
  0
LINE
  5
207
330
1E
100
AcDbEntity
  8
0
100
AcDbLine
 10
10.5
 20
241.1467415
 30
0.0
 11
12.0
 21
240.5887415
 31
0.0
  0
LINE
  5
208
330
1E
100
AcDbEntity
  8
0
100
AcDbLine
 10
10.0
 20
242.8197415
 30
0.0
 11
10.0
 21
243.9347414999999
 31
0.0
  0
LINE
  5
209
330
1E
100
AcDbEntity
  8
0
100
AcDbLine
 10
10.0
 20
242.8197415
 30
0.0
 11
10.5
 21
241.1467415
 31
0.0
  0
LINE
  5
20A
330
1E
100
AcDbEntity
  8
0
100
AcDbLine
 10
10.0
 20
243.9347414999999
 30
0.0
 11
11.0
 21
243.9347414999999
 31
0.0
  0
LINE
  5
20B
330
1E
100
AcDbEntity
  8
0
100
AcDbLine
 10
10.0
 20
243.9347414999999
 30
0.0
 11
10.0
 21
242.8197415
 31
0.0
  0
LINE
  5
20C
330
1E
100
AcDbEntity
  8
0
100
AcDbLine
 10
17.9
 20
243.9347414999999
 30
0.0
 11
23.6
 21
243.9347414999999
 31
0.0
  0
LINE
  5
20D
330
1E
100
AcDbEntity
  8
0
100
AcDbLine
 10
23.6
 20
243.9347414999999
 30
0.0
 11
30.1
 21
243.9347414999999
 31
0.0
  0
LINE
  5
20E
330
1E
100
AcDbEntity
  8
0
100
AcDbLine
 10
13.6
 20
243.9347414999999
 30
0.0
 11
17.9
 21
243.9347414999999
 31
0.0
  0
LINE
  5
20F
330
1E
100
AcDbEntity
  8
0
100
AcDbLine
 10
11.0
 20
243.9347414999999
 30
0.0
 11
13.6
 21
243.9347414999999
 31
0.0
  0
LINE
  5
210
330
1E
100
AcDbEntity
  8
0
100
AcDbLine
 10
10.0
 20
243.9347414999999
 30
0.0
 11
10.0
 21
242.8197415
 31
0.0
  0
LINE
  5
211
330
1E
100
AcDbEntity
  8
0
100
AcDbLine
 10
10.0
 20
242.8197415
 30
0.0
 11
10.0
 21
243.9347414999999
 31
0.0
  0
LINE
  5
212
330
1E
100
AcDbEntity
  8
0
100
AcDbLine
 10
10.0
 20
242.8197415
 30
0.0
 11
10.5
 21
241.1467415
 31
0.0
  0
LINE
  5
213
330
1E
100
AcDbEntity
  8
0
100
AcDbLine
 10
45.49999999999999
 20
212.4347414999999
 30
0.0
 11
46.5
 21
213.4347415
 31
0.0
  0
LINE
  5
214
330
1E
100
AcDbEntity
  8
0
100
AcDbLine
 10
28.5
 20
212.4347414999999
 30
0.0
 11
30.0
 21
211.9347415
 31
0.0
  0
LINE
  5
215
330
1E
100
AcDbEntity
  8
0
100
AcDbLine
 10
27.4
 20
214.9347415
 30
0.0
 11
28.3
 21
214.9347415
 31
0.0
  0
LINE
  5
216
330
1E
100
AcDbEntity
  8
0
100
AcDbLine
 10
28.3
 20
214.9347415
 30
0.0
 11
29.9
 21
214.9347415
 31
0.0
  0
LINE
  5
217
330
1E
100
AcDbEntity
  8
0
100
AcDbLine
 10
29.9
 20
214.9347415
 30
0.0
 11
32.0
 21
214.9347415
 31
0.0
  0
LINE
  5
218
330
1E
100
AcDbEntity
  8
0
100
AcDbLine
 10
42.0
 20
214.9347415
 30
0.0
 11
44.1
 21
214.9347415
 31
0.0
  0
LINE
  5
219
330
1E
100
AcDbEntity
  8
0
100
AcDbLine
 10
39.6
 20
214.9347415
 30
0.0
 11
42.0
 21
214.9347415
 31
0.0
  0
LINE
  5
21A
330
1E
100
AcDbEntity
  8
0
100
AcDbLine
 10
37.0
 20
214.9347415
 30
0.0
 11
39.6
 21
214.9347415
 31
0.0
  0
LINE
  5
21B
330
1E
100
AcDbEntity
  8
0
100
AcDbLine
 10
44.1
 20
214.9347415
 30
0.0
 11
45.7
 21
214.9347415
 31
0.0
  0
LINE
  5
21C
330
1E
100
AcDbEntity
  8
0
100
AcDbLine
 10
45.7
 20
214.9347415
 30
0.0
 11
46.6
 21
214.9347415
 31
0.0
  0
LINE
  5
21D
330
1E
100
AcDbEntity
  8
0
100
AcDbLine
 10
46.5
 20
213.4347415
 30
0.0
 11
47.0
 21
214.9347415
 31
0.0
  0
LINE
  5
21E
330
1E
100
AcDbEntity
  8
0
100
AcDbLine
 10
32.0
 20
214.9347415
 30
0.0
 11
34.39999999999999
 21
214.9347415
 31
0.0
  0
LINE
  5
21F
330
1E
100
AcDbEntity
  8
0
100
AcDbLine
 10
29.8
 20
215.4927414999999
 30
0.0
 11
33.3
 21
215.4927414999999
 31
0.0
  0
LINE
  5
220
330
1E
100
AcDbEntity
  8
0
100
AcDbLine
 10
33.3
 20
215.4927414999999
 30
0.0
 11
37.0
 21
215.4927414999999
 31
0.0
  0
LINE
  5
221
330
1E
100
AcDbEntity
  8
0
100
AcDbLine
 10
29.5
 20
226.0887415
 30
0.0
 11
33.1
 21
226.0887415
 31
0.0
  0
LINE
  5
222
330
1E
100
AcDbEntity
  8
0
100
AcDbLine
 10
33.1
 20
226.0887415
 30
0.0
 11
37.0
 21
226.0887415
 31
0.0
  0
LINE
  5
223
330
1E
100
AcDbEntity
  8
0
100
AcDbLine
 10
37.0
 20
215.4927414999999
 30
0.0
 11
40.7
 21
215.4927414999999
 31
0.0
  0
LINE
  5
224
330
1E
100
AcDbEntity
  8
0
100
AcDbLine
 10
28.3
 20
227.7617414999999
 30
0.0
 11
32.5
 21
227.7617414999999
 31
0.0
  0
LINE
  5
225
330
1E
100
AcDbEntity
  8
0
100
AcDbLine
 10
32.5
 20
227.7617414999999
 30
0.0
 11
37.0
 21
227.7617414999999
 31
0.0
  0
LINE
  5
226
330
1E
100
AcDbEntity
  8
0
100
AcDbLine
 10
30.2
 20
241.1467415
 30
0.0
 11
37.0
 21
241.1467415
 31
0.0
  0
LINE
  5
227
330
1E
100
AcDbEntity
  8
0
100
AcDbLine
 10
37.0
 20
226.0887415
 30
0.0
 11
40.89999999999999
 21
226.0887415
 31
0.0
  0
LINE
  5
228
330
1E
100
AcDbEntity
  8
0
100
AcDbLine
 10
37.0
 20
227.7617414999999
 30
0.0
 11
41.5
 21
227.7617414999999
 31
0.0
  0
LINE
  5
229
330
1E
100
AcDbEntity
  8
0
100
AcDbLine
 10
30.1
 20
243.9347414999999
 30
0.0
 11
37.0
 21
243.9347414999999
 31
0.0
  0
LINE
  5
22A
330
1E
100
AcDbEntity
  8
0
100
AcDbLine
 10
37.0
 20
241.1467415
 30
0.0
 11
43.79999999999999
 21
241.1467415
 31
0.0
  0
LINE
  5
22B
330
1E
100
AcDbEntity
  8
0
100
AcDbLine
 10
40.7
 20
215.4927414999999
 30
0.0
 11
44.2
 21
215.4927414999999
 31
0.0
  0
LINE
  5
22C
330
1E
100
AcDbEntity
  8
0
100
AcDbLine
 10
40.89999999999999
 20
226.0887415
 30
0.0
 11
44.5
 21
226.0887415
 31
0.0
  0
LINE
  5
22D
330
1E
100
AcDbEntity
  8
0
100
AcDbLine
 10
41.5
 20
227.7617414999999
 30
0.0
 11
45.7
 21
227.7617414999999
 31
0.0
  0
LINE
  5
22E
330
1E
100
AcDbEntity
  8
0
100
AcDbLine
 10
44.2
 20
215.4927414999999
 30
0.0
 11
47.2
 21
215.4927414999999
 31
0.0
  0
LINE
  5
22F
330
1E
100
AcDbEntity
  8
0
100
AcDbLine
 10
44.5
 20
226.0887415
 30
0.0
 11
47.6
 21
226.0887415
 31
0.0
  0
LINE
  5
230
330
1E
100
AcDbEntity
  8
0
100
AcDbLine
 10
45.7
 20
227.7617414999999
 30
0.0
 11
49.4
 21
227.7617414999999
 31
0.0
  0
LINE
  5
231
330
1E
100
AcDbEntity
  8
0
100
AcDbLine
 10
43.79999999999999
 20
241.1467415
 30
0.0
 11
50.2
 21
241.1467415
 31
0.0
  0
LINE
  5
232
330
1E
100
AcDbEntity
  8
0
100
AcDbLine
 10
43.89999999999999
 20
243.9347414999999
 30
0.0
 11
50.4
 21
243.9347414999999
 31
0.0
  0
LINE
  5
233
330
1E
100
AcDbEntity
  8
0
100
AcDbLine
 10
37.0
 20
243.9347414999999
 30
0.0
 11
43.89999999999999
 21
243.9347414999999
 31
0.0
  0
LINE
  5
234
330
1E
100
AcDbEntity
  8
0
100
AcDbLine
 10
34.39999999999999
 20
214.9347415
 30
0.0
 11
37.0
 21
214.9347415
 31
0.0
  0
LINE
  5
235
330
1E
100
AcDbEntity
  8
0
100
AcDbLine
 10
27.5
 20
213.4347415
 30
0.0
 11
28.5
 21
212.4347414999999
 31
0.0
  0
LINE
  5
236
330
1E
100
AcDbEntity
  8
0
100
AcDbLine
 10
27.5
 20
213.4347415
 30
0.0
 11
28.5
 21
212.4347414999999
 31
0.0
  0
LINE
  5
237
330
1E
100
AcDbEntity
  8
0
100
AcDbLine
 10
27.0
 20
214.9347415
 30
0.0
 11
27.5
 21
213.4347415
 31
0.0
  0
LINE
  5
238
330
1E
100
AcDbEntity
  8
0
100
AcDbLine
 10
45.49999999999999
 20
212.4347414999999
 30
0.0
 11
46.5
 21
213.4347415
 31
0.0
  0
LINE
  5
239
330
1E
100
AcDbEntity
  8
0
100
AcDbLine
 10
47.2
 20
177.7347415
 30
0.0
 11
49.6
 21
180.7347415
 31
0.0
  0
LINE
  5
23A
330
1E
100
AcDbEntity
  8
0
100
AcDbLine
 10
47.0533
 20
190.6217415
 30
0.0
 11
47.4
 21
187.9347414999999
 31
0.0
  0
LINE
  5
23B
330
1E
100
AcDbEntity
  8
0
100
AcDbLine
 10
47.0533
 20
185.2477415
 30
0.0
 11
47.4
 21
187.9347414999999
 31
0.0
  0
LINE
  5
23C
330
1E
100
AcDbEntity
  8
0
100
AcDbLine
 10
47.6
 20
177.3347415
 30
0.0
 11
50.0
 21
180.4347415
 31
0.0
  0
LINE
  5
23D
330
1E
100
AcDbEntity
  8
0
100
AcDbLine
 10
47.6
 20
177.3347415
 30
0.0
 11
50.0
 21
180.4347415
 31
0.0
  0
LINE
  5
23E
330
1E
100
AcDbEntity
  8
0
100
AcDbLine
 10
47.92
 20
181.6947414999999
 30
0.0
 11
49.1333
 21
184.7277415
 31
0.0
  0
LINE
  5
23F
330
1E
100
AcDbEntity
  8
0
100
AcDbLine
 10
49.1333
 20
184.7277415
 30
0.0
 11
49.56669999999999
 21
187.9347414999999
 31
0.0
  0
LINE
  5
240
330
1E
100
AcDbEntity
  8
0
100
AcDbLine
 10
48.2667
 20
194.4347415
 30
0.0
 11
49.56669999999999
 21
191.3147415
 31
0.0
  0
LINE
  5
241
330
1E
100
AcDbEntity
  8
0
100
AcDbLine
 10
47.92
 20
194.1747415
 30
0.0
 11
49.1333
 21
191.1417415
 31
0.0
  0
LINE
  5
242
330
1E
100
AcDbEntity
  8
0
100
AcDbLine
 10
49.1333
 20
191.1417415
 30
0.0
 11
49.56669999999999
 21
187.9347414999999
 31
0.0
  0
LINE
  5
243
330
1E
100
AcDbEntity
  8
0
100
AcDbLine
 10
47.4
 20
190.7077415
 30
0.0
 11
47.8333
 21
187.9347414999999
 31
0.0
  0
LINE
  5
244
330
1E
100
AcDbEntity
  8
0
100
AcDbLine
 10
47.4
 20
185.1617414999999
 30
0.0
 11
47.8333
 21
187.9347414999999
 31
0.0
  0
LINE
  5
245
330
1E
100
AcDbEntity
  8
0
100
AcDbLine
 10
47.2
 20
198.1347414999999
 30
0.0
 11
49.6
 21
195.1347414999999
 31
0.0
  0
LINE
  5
246
330
1E
100
AcDbEntity
  8
0
100
AcDbLine
 10
47.6
 20
198.5347414999999
 30
0.0
 11
50.0
 21
195.4347414999999
 31
0.0
  0
LINE
  5
247
330
1E
100
AcDbEntity
  8
0
100
AcDbLine
 10
47.0
 20
214.9347415
 30
0.0
 11
48.3
 21
214.9347415
 31
0.0
  0
LINE
  5
248
330
1E
100
AcDbEntity
  8
0
100
AcDbLine
 10
48.3
 20
214.9347415
 30
0.0
 11
49.5
 21
214.9347415
 31
0.0
  0
LINE
  5
249
330
1E
100
AcDbEntity
  8
0
100
AcDbLine
 10
49.56669999999999
 20
191.3147415
 30
0.0
 11
50.0
 21
187.9347414999999
 31
0.0
  0
LINE
  5
24A
330
1E
100
AcDbEntity
  8
0
100
AcDbLine
 10
49.6
 20
180.7347415
 30
0.0
 11
51.0
 21
184.2347415
 31
0.0
  0
LINE
  5
24B
330
1E
100
AcDbEntity
  8
0
100
AcDbLine
 10
51.0
 20
184.2347415
 30
0.0
 11
51.5
 21
187.9347414999999
 31
0.0
  0
LINE
  5
24C
330
1E
100
AcDbEntity
  8
0
100
AcDbLine
 10
49.56669999999999
 20
184.5547415
 30
0.0
 11
50.0
 21
187.9347414999999
 31
0.0
  0
LINE
  5
24D
330
1E
100
AcDbEntity
  8
0
100
AcDbLine
 10
49.6
 20
195.1347414999999
 30
0.0
 11
51.0
 21
191.6347414999999
 31
0.0
  0
LINE
  5
24E
330
1E
100
AcDbEntity
  8
0
100
AcDbLine
 10
53.5
 20
129.2637415
 30
0.0
 11
55.0
 21
118.5137415
 31
0.0
  0
LINE
  5
24F
330
1E
100
AcDbEntity
  8
0
100
AcDbLine
 10
53.0
 20
135.5137415
 30
0.0
 11
53.5
 21
141.7637415
 31
0.0
  0
LINE
  5
250
330
1E
100
AcDbEntity
  8
0
100
AcDbLine
 10
53.0
 20
135.5137415
 30
0.0
 11
53.5
 21
129.2637415
 31
0.0
  0
LINE
  5
251
330
1E
100
AcDbEntity
  8
0
100
AcDbLine
 10
53.5
 20
141.7637415
 30
0.0
 11
55.0
 21
152.5137415
 31
0.0
  0
LINE
  5
252
330
1E
100
AcDbEntity
  8
0
100
AcDbLine
 10
54.0
 20
171.8127415
 30
0.0
 11
54.0
 21
171.9347415
 31
0.0
  0
LINE
  5
253
330
1E
100
AcDbEntity
  8
0
100
AcDbLine
 10
54.0
 20
171.8127415
 30
0.0
 11
55.0
 21
171.8127415
 31
0.0
  0
LINE
  5
254
330
1E
100
AcDbEntity
  8
0
100
AcDbLine
 10
54.0
 20
173.9757414999999
 30
0.0
 11
54.0
 21
172.4157415
 31
0.0
  0
LINE
  5
255
330
1E
100
AcDbEntity
  8
0
100
AcDbLine
 10
54.0
 20
172.4157415
 30
0.0
 11
54.0
 21
171.8127415
 31
0.0
  0
LINE
  5
256
330
1E
100
AcDbEntity
  8
0
100
AcDbLine
 10
54.0
 20
179.8627415
 30
0.0
 11
54.0
 21
176.6067415
 31
0.0
  0
LINE
  5
257
330
1E
100
AcDbEntity
  8
0
100
AcDbLine
 10
54.0
 20
176.6067415
 30
0.0
 11
54.0
 21
173.9757414999999
 31
0.0
  0
LINE
  5
258
330
1E
100
AcDbEntity
  8
0
100
AcDbLine
 10
54.0
 20
174.0487415
 30
0.0
 11
54.0
 21
176.6207415
 31
0.0
  0
LINE
  5
259
330
1E
100
AcDbEntity
  8
0
100
AcDbLine
 10
54.0
 20
172.5057415
 30
0.0
 11
54.0
 21
174.0487415
 31
0.0
  0
LINE
  5
25A
330
1E
100
AcDbEntity
  8
0
100
AcDbLine
 10
54.0
 20
171.9347415
 30
0.0
 11
54.0
 21
172.5057415
 31
0.0
  0
LINE
  5
25B
330
1E
100
AcDbEntity
  8
0
100
AcDbLine
 10
54.0
 20
176.6207415
 30
0.0
 11
54.0
 21
179.9917415
 31
0.0
  0
LINE
  5
25C
330
1E
100
AcDbEntity
  8
0
100
AcDbLine
 10
54.0
 20
183.7187415
 30
0.0
 11
54.0
 21
179.8627415
 31
0.0
  0
LINE
  5
25D
330
1E
100
AcDbEntity
  8
0
100
AcDbLine
 10
54.0
 20
187.8517415
 30
0.0
 11
54.0
 21
183.7187415
 31
0.0
  0
LINE
  5
25E
330
1E
100
AcDbEntity
  8
0
100
AcDbLine
 10
54.0
 20
179.9917415
 30
0.0
 11
54.0
 21
183.8207415
 31
0.0
  0
LINE
  5
25F
330
1E
100
AcDbEntity
  8
0
100
AcDbLine
 10
54.5
 20
4.04635149999999
 30
0.0
 11
68.0
 21
3.09634149999999
 31
0.0
  0
LINE
  5
260
330
1E
100
AcDbEntity
  8
0
100
AcDbLine
 10
55.5
 20
12.9246415
 30
0.0
 11
68.0
 21
12.02464149999999
 31
0.0
  0
LINE
  5
261
330
1E
100
AcDbEntity
  8
0
100
AcDbLine
 10
55.2
 20
11.74154149999999
 30
0.0
 11
68.0
 21
10.8415415
 31
0.0
  0
LINE
  5
262
330
1E
100
AcDbEntity
  8
0
100
AcDbLine
 10
54.9
 20
5.17936149999999
 30
0.0
 11
68.0
 21
4.27935149999999
 31
0.0
  0
LINE
  5
263
330
1E
100
AcDbEntity
  8
0
100
AcDbLine
 10
54.5
 20
1.01526149999999
 30
0.0
 11
68.0
 21
0.06525849999999
 31
0.0
  0
LINE
  5
264
330
1E
100
AcDbEntity
  8
0
100
AcDbLine
 10
54.5
 20
1.01526149999999
 30
0.0
 11
68.0
 21
0.06525849999999
 31
0.0
  0
LINE
  5
265
330
1E
100
AcDbEntity
  8
0
100
AcDbLine
 10
55.4
 20
17.4377415
 30
0.0
 11
68.0
 21
16.5377415
 31
0.0
  0
LINE
  5
266
330
1E
100
AcDbEntity
  8
0
100
AcDbLine
 10
55.7
 20
15.7226415
 30
0.0
 11
68.0
 21
14.8726415
 31
0.0
  0
LINE
  5
268
330
1E
100
AcDbEntity
  8
0
100
AcDbLine
 10
62.4
 20
55.9912415
 30
0.0
 11
64.0
 21
55.3412415
 31
0.0
  0
LINE
  5
269
330
1E
100
AcDbEntity
  8
0
100
AcDbLine
 10
64.0
 20
55.3412415
 30
0.0
 11
65.9
 21
54.94124150000001
 31
0.0
  0
LINE
  5
26A
330
1E
100
AcDbEntity
  8
0
100
AcDbLine
 10
61.29999999999999
 20
55.4412415
 30
0.0
 11
63.3
 21
54.6912415
 31
0.0
  0
LINE
  5
26B
330
1E
100
AcDbEntity
  8
0
100
AcDbLine
 10
63.3
 20
54.6912415
 30
0.0
 11
65.59999999999999
 21
54.1912415
 31
0.0
  0
LINE
  5
26C
330
1E
100
AcDbEntity
  8
0
100
AcDbLine
 10
68.0
 20
54.7912415
 30
0.0
 11
70.09999999999999
 21
54.94124150000001
 31
0.0
  0
LINE
  5
26D
330
1E
100
AcDbEntity
  8
0
100
AcDbLine
 10
65.9
 20
54.94124150000001
 30
0.0
 11
68.0
 21
54.7912415
 31
0.0
  0
LINE
  5
26E
330
1E
100
AcDbEntity
  8
0
100
AcDbLine
 10
68.0
 20
54.04124150000001
 30
0.0
 11
70.4
 21
54.1912415
 31
0.0
  0
LINE
  5
26F
330
1E
100
AcDbEntity
  8
0
100
AcDbLine
 10
68.0
 20
16.5377415
 30
0.0
 11
80.6
 21
17.4377415
 31
0.0
  0
LINE
  5
270
330
1E
100
AcDbEntity
  8
0
100
AcDbLine
 10
68.0
 20
14.8726415
 30
0.0
 11
80.29999999999999
 21
15.7226415
 31
0.0
  0
LINE
  5
271
330
1E
100
AcDbEntity
  8
0
100
AcDbLine
 10
68.0
 20
12.02464149999999
 30
0.0
 11
80.5
 21
12.9246415
 31
0.0
  0
LINE
  5
272
330
1E
100
AcDbEntity
  8
0
100
AcDbLine
 10
68.0
 20
10.8415415
 30
0.0
 11
80.8
 21
11.74154149999999
 31
0.0
  0
LINE
  5
273
330
1E
100
AcDbEntity
  8
0
100
AcDbLine
 10
68.0
 20
4.27935149999999
 30
0.0
 11
81.09999999999999
 21
5.17936149999999
 31
0.0
  0
LINE
  5
274
330
1E
100
AcDbEntity
  8
0
100
AcDbLine
 10
68.0
 20
3.09634149999999
 30
0.0
 11
81.5
 21
4.04635149999999
 31
0.0
  0
LINE
  5
275
330
1E
100
AcDbEntity
  8
0
100
AcDbLine
 10
70.09999999999999
 20
54.94124150000001
 30
0.0
 11
72.0
 21
55.3412415
 31
0.0
  0
LINE
  5
276
330
1E
100
AcDbEntity
  8
0
100
AcDbLine
 10
72.0
 20
55.3412415
 30
0.0
 11
73.59999999999999
 21
55.9912415
 31
0.0
  0
LINE
  5
277
330
1E
100
AcDbEntity
  8
0
100
AcDbLine
 10
73.59999999999999
 20
55.9912415
 30
0.0
 11
74.90000000000001
 21
56.7912415
 31
0.0
  0
LINE
  5
278
330
1E
100
AcDbEntity
  8
0
100
AcDbLine
 10
74.7
 20
55.4412415
 30
0.0
 11
76.2
 21
56.4412415
 31
0.0
  0
LINE
  5
27A
330
1E
100
AcDbEntity
  8
0
100
AcDbLine
 10
76.2
 20
56.4412415
 30
0.0
 11
77.2
 21
57.5912415
 31
0.0
  0
LINE
  5
27B
330
1E
100
AcDbEntity
  8
0
100
AcDbLine
 10
72.7
 20
54.6912415
 30
0.0
 11
74.7
 21
55.4412415
 31
0.0
  0
LINE
  5
27C
330
1E
100
AcDbEntity
  8
0
100
AcDbLine
 10
70.4
 20
54.1912415
 30
0.0
 11
72.7
 21
54.6912415
 31
0.0
  0
LINE
  5
27D
330
1E
100
AcDbEntity
  8
0
100
AcDbLine
 10
80.29999999999999
 20
15.7226415
 30
0.0
 11
91.90000000000001
 21
18.07264149999999
 31
0.0
  0
LINE
  5
27E
330
1E
100
AcDbEntity
  8
0
100
AcDbLine
 10
80.6
 20
17.4377415
 30
0.0
 11
92.4
 21
19.8377415
 31
0.0
  0
LINE
  5
27F
330
1E
100
AcDbEntity
  8
0
100
AcDbLine
 10
80.5
 20
12.9246415
 30
0.0
 11
92.09999999999999
 21
15.2746415
 31
0.0
  0
LINE
  5
280
330
1E
100
AcDbEntity
  8
0
100
AcDbLine
 10
80.8
 20
11.74154149999999
 30
0.0
 11
92.9
 21
14.1915415
 31
0.0
  0
LINE
  5
281
330
1E
100
AcDbEntity
  8
0
100
AcDbLine
 10
68.0
 20
0.06525849999999
 30
0.0
 11
81.5
 21
1.01526149999999
 31
0.0
  0
LINE
  5
282
330
1E
100
AcDbEntity
  8
0
100
AcDbLine
 10
68.0
 20
0.06525849999999
 30
0.0
 11
81.5
 21
1.01526149999999
 31
0.0
  0
LINE
  5
283
330
1E
100
AcDbEntity
  8
0
100
AcDbLine
 10
65.59999999999999
 20
54.1912415
 30
0.0
 11
68.0
 21
54.04124150000001
 31
0.0
  0
LINE
  5
284
330
1E
100
AcDbEntity
  8
0
100
AcDbLine
 10
74.90000000000001
 20
56.7912415
 30
0.0
 11
75.7
 21
57.7412415
 31
0.0
  0
LINE
  5
285
330
1E
100
AcDbEntity
  8
0
100
AcDbLine
 10
61.1
 20
56.7912415
 30
0.0
 11
62.4
 21
55.9912415
 31
0.0
  0
LINE
  5
286
330
1E
100
AcDbEntity
  8
0
100
AcDbLine
 10
75.7
 20
57.7412415
 30
0.0
 11
76.0
 21
58.7912415
 31
0.0
  0
LINE
  5
287
330
1E
100
AcDbEntity
  8
0
100
AcDbLine
 10
60.3
 20
57.7412415
 30
0.0
 11
61.1
 21
56.7912415
 31
0.0
  0
LINE
  5
288
330
1E
100
AcDbEntity
  8
0
100
AcDbLine
 10
77.2
 20
57.5912415
 30
0.0
 11
77.5
 21
58.7912415
 31
0.0
  0
LINE
  5
28A
330
1E
100
AcDbEntity
  8
0
100
AcDbLine
 10
59.8
 20
56.4412415
 30
0.0
 11
61.29999999999999
 21
55.4412415
 31
0.0
  0
LINE
  5
28B
330
1E
100
AcDbEntity
  8
0
100
AcDbLine
 10
58.79999999999999
 20
57.5912415
 30
0.0
 11
59.8
 21
56.4412415
 31
0.0
  0
LINE
  5
28C
330
1E
100
AcDbEntity
  8
0
100
AcDbLine
 10
76.0
 20
58.7912415
 30
0.0
 11
76.0
 21
62.8913415
 31
0.0
  0
LINE
  5
28D
330
1E
100
AcDbEntity
  8
0
100
AcDbLine
 10
60.0
 20
58.7912415
 30
0.0
 11
60.3
 21
57.7412415
 31
0.0
  0
LINE
  5
28E
330
1E
100
AcDbEntity
  8
0
100
AcDbLine
 10
60.0
 20
58.7912415
 30
0.0
 11
60.0
 21
62.8913415
 31
0.0
  0
LINE
  5
28F
330
1E
100
AcDbEntity
  8
0
100
AcDbLine
 10
77.2
 20
59.9912415
 30
0.0
 11
77.5
 21
58.7912415
 31
0.0
  0
LINE
  5
292
330
1E
100
AcDbEntity
  8
0
100
AcDbLine
 10
60.0
 20
62.8913415
 30
0.0
 11
60.0
 21
67.2912415
 31
0.0
  0
LINE
  5
293
330
1E
100
AcDbEntity
  8
0
100
AcDbLine
 10
60.0
 20
62.8913415
 30
0.0
 11
60.0
 21
58.7912415
 31
0.0
  0
LINE
  5
294
330
1E
100
AcDbEntity
  8
0
100
AcDbLine
 10
76.0
 20
62.8913415
 30
0.0
 11
76.0
 21
58.7912415
 31
0.0
  0
LINE
  5
295
330
1E
100
AcDbEntity
  8
0
100
AcDbLine
 10
76.0
 20
62.8913415
 30
0.0
 11
76.0
 21
67.2912415
 31
0.0
  0
LINE
  5
296
330
1E
100
AcDbEntity
  8
0
100
AcDbLine
 10
76.0
 20
67.2912415
 30
0.0
 11
76.0
 21
71.6911415
 31
0.0
  0
LINE
  5
297
330
1E
100
AcDbEntity
  8
0
100
AcDbLine
 10
76.0
 20
67.2912415
 30
0.0
 11
76.0
 21
62.8913415
 31
0.0
  0
LINE
  5
298
330
1E
100
AcDbEntity
  8
0
100
AcDbLine
 10
60.0
 20
67.2912415
 30
0.0
 11
60.0
 21
71.6911415
 31
0.0
  0
LINE
  5
299
330
1E
100
AcDbEntity
  8
0
100
AcDbLine
 10
60.0
 20
67.2912415
 30
0.0
 11
60.0
 21
62.8913415
 31
0.0
  0
LINE
  5
29A
330
1E
100
AcDbEntity
  8
0
100
AcDbLine
 10
76.0
 20
61.2745748333333
 30
0.0
 11
76.2
 21
61.14124150000001
 31
0.0
  0
LINE
  5
29B
330
1E
100
AcDbEntity
  8
0
100
AcDbLine
 10
76.2
 20
61.14124150000001
 30
0.0
 11
77.2
 21
59.9912415
 31
0.0
  0
LINE
  5
29D
330
1E
100
AcDbEntity
  8
0
100
AcDbLine
 10
79.7
 20
69.9159415
 30
0.0
 11
90.6
 21
67.6659415
 31
0.0
  0
LINE
  5
29E
330
1E
100
AcDbEntity
  8
0
100
AcDbLine
 10
59.8
 20
61.14124150000001
 30
0.0
 11
60.0
 21
61.2745748333333
 31
0.0
  0
LINE
  5
2A0
330
1E
100
AcDbEntity
  8
0
100
AcDbLine
 10
58.79999999999999
 20
59.9912415
 30
0.0
 11
59.8
 21
61.14124150000001
 31
0.0
  0
LINE
  5
2A1
330
1E
100
AcDbEntity
  8
0
100
AcDbLine
 10
58.5
 20
58.7912415
 30
0.0
 11
58.79999999999999
 21
59.9912415
 31
0.0
  0
LINE
  5
2A2
330
1E
100
AcDbEntity
  8
0
100
AcDbLine
 10
58.5
 20
58.7912415
 30
0.0
 11
58.79999999999999
 21
57.5912415
 31
0.0
  0
LINE
  5
2A6
330
1E
100
AcDbEntity
  8
0
100
AcDbLine
 10
55.5
 20
108.9057415
 30
0.0
 11
56.7
 21
106.1347414999999
 31
0.0
  0
LINE
  5
2A7
330
1E
100
AcDbEntity
  8
0
100
AcDbLine
 10
55.5
 20
114.6217414999999
 30
0.0
 11
56.7
 21
117.3927415
 31
0.0
  0
LINE
  5
2A8
330
1E
100
AcDbEntity
  8
0
100
AcDbLine
 10
55.0
 20
111.7637415
 30
0.0
 11
55.5
 21
108.9057415
 31
0.0
  0
LINE
  5
2A9
330
1E
100
AcDbEntity
  8
0
100
AcDbLine
 10
55.0
 20
111.7637415
 30
0.0
 11
55.5
 21
114.6217414999999
 31
0.0
  0
LINE
  5
2AC
330
1E
100
AcDbEntity
  8
0
100
AcDbLine
 10
55.0
 20
118.5137415
 30
0.0
 11
55.5
 21
115.6557414999999
 31
0.0
  0
LINE
  5
2AD
330
1E
100
AcDbEntity
  8
0
100
AcDbLine
 10
76.0
 20
71.6911415
 30
0.0
 11
76.0
 21
75.7912415
 31
0.0
  0
LINE
  5
2AE
330
1E
100
AcDbEntity
  8
0
100
AcDbLine
 10
76.0
 20
71.6911415
 30
0.0
 11
76.0
 21
67.2912415
 31
0.0
  0
LINE
  5
2AF
330
1E
100
AcDbEntity
  8
0
100
AcDbLine
 10
60.0
 20
82.3922415
 30
0.0
 11
60.02087415426251
 21
82.26369150000001
 31
0.0
  0
LINE
  5
2B0
330
1E
100
AcDbEntity
  8
0
100
AcDbLine
 10
60.0
 20
82.3922415
 30
0.0
 11
60.288
 21
84.1658415
 31
0.0
  0
LINE
  5
2B1
330
1E
100
AcDbEntity
  8
0
100
AcDbLine
 10
60.0
 20
82.3922415
 30
0.0
 11
60.0
 21
108.0137415
 31
0.0
  0
LINE
  5
2B2
330
1E
100
AcDbEntity
  8
0
100
AcDbLine
 10
60.0
 20
82.13514149999999
 30
0.0
 11
60.0
 21
79.31204150000001
 31
0.0
  0
LINE
  5
2B3
330
1E
100
AcDbEntity
  8
0
100
AcDbLine
 10
60.0
 20
82.13514149999999
 30
0.0
 11
60.288
 21
83.9087415
 31
0.0
  0
LINE
  5
2B4
330
1E
100
AcDbEntity
  8
0
100
AcDbLine
 10
61.056
 20
85.8286415
 30
0.0
 11
62.336
 21
87.2974415
 31
0.0
  0
LINE
  5
2B5
330
1E
100
AcDbEntity
  8
0
100
AcDbLine
 10
60.288
 20
84.1658415
 30
0.0
 11
61.056
 21
85.8286415
 31
0.0
  0
LINE
  5
2B6
330
1E
100
AcDbEntity
  8
0
100
AcDbLine
 10
62.336
 20
87.2974415
 30
0.0
 11
64.032
 21
88.40594149999999
 31
0.0
  0
LINE
  5
2B7
330
1E
100
AcDbEntity
  8
0
100
AcDbLine
 10
61.056
 20
85.5715415
 30
0.0
 11
62.336
 21
87.0402415
 31
0.0
  0
LINE
  5
2B8
330
1E
100
AcDbEntity
  8
0
100
AcDbLine
 10
60.288
 20
83.9087415
 30
0.0
 11
61.056
 21
85.5715415
 31
0.0
  0
LINE
  5
2B9
330
1E
100
AcDbEntity
  8
0
100
AcDbLine
 10
60.0
 20
79.31204150000001
 30
0.0
 11
60.0
 21
75.7912415
 31
0.0
  0
LINE
  5
2BA
330
1E
100
AcDbEntity
  8
0
100
AcDbLine
 10
60.0
 20
79.31204150000001
 30
0.0
 11
60.0
 21
82.13514149999999
 31
0.0
  0
LINE
  5
2BB
330
1E
100
AcDbEntity
  8
0
100
AcDbLine
 10
60.0
 20
75.7912415
 30
0.0
 11
60.0
 21
79.31204150000001
 31
0.0
  0
LINE
  5
2BC
330
1E
100
AcDbEntity
  8
0
100
AcDbLine
 10
60.0
 20
75.7912415
 30
0.0
 11
60.0
 21
71.6911415
 31
0.0
  0
LINE
  5
2BD
330
1E
100
AcDbEntity
  8
0
100
AcDbLine
 10
62.336
 20
87.0402415
 30
0.0
 11
64.032
 21
88.14884150000001
 31
0.0
  0
LINE
  5
2BE
330
1E
100
AcDbEntity
  8
0
100
AcDbLine
 10
65.952
 20
89.0710415
 30
0.0
 11
68.0
 21
89.32044150000001
 31
0.0
  0
LINE
  5
2BF
330
1E
100
AcDbEntity
  8
0
100
AcDbLine
 10
64.032
 20
88.40594149999999
 30
0.0
 11
65.952
 21
89.0710415
 31
0.0
  0
LINE
  5
2C0
330
1E
100
AcDbEntity
  8
0
100
AcDbLine
 10
64.032
 20
88.14884150000001
 30
0.0
 11
65.952
 21
88.8139415
 31
0.0
  0
LINE
  5
2C1
330
1E
100
AcDbEntity
  8
0
100
AcDbLine
 10
75.71200000000001
 20
83.9087415
 30
0.0
 11
76.0
 21
82.13514149999999
 31
0.0
  0
LINE
  5
2C2
330
1E
100
AcDbEntity
  8
0
100
AcDbLine
 10
73.664
 20
87.0402415
 30
0.0
 11
74.944
 21
85.5715415
 31
0.0
  0
LINE
  5
2C3
330
1E
100
AcDbEntity
  8
0
100
AcDbLine
 10
74.944
 20
85.5715415
 30
0.0
 11
75.71200000000001
 21
83.9087415
 31
0.0
  0
LINE
  5
2C4
330
1E
100
AcDbEntity
  8
0
100
AcDbLine
 10
68.0
 20
89.06334150000001
 30
0.0
 11
70.048
 21
88.8139415
 31
0.0
  0
LINE
  5
2C5
330
1E
100
AcDbEntity
  8
0
100
AcDbLine
 10
70.048
 20
88.8139415
 30
0.0
 11
71.968
 21
88.14884150000001
 31
0.0
  0
LINE
  5
2C6
330
1E
100
AcDbEntity
  8
0
100
AcDbLine
 10
71.968
 20
88.14884150000001
 30
0.0
 11
73.664
 21
87.0402415
 31
0.0
  0
LINE
  5
2C7
330
1E
100
AcDbEntity
  8
0
100
AcDbLine
 10
68.0
 20
89.32044150000001
 30
0.0
 11
70.048
 21
89.0710415
 31
0.0
  0
LINE
  5
2C8
330
1E
100
AcDbEntity
  8
0
100
AcDbLine
 10
70.048
 20
89.0710415
 30
0.0
 11
71.968
 21
88.40594149999999
 31
0.0
  0
LINE
  5
2C9
330
1E
100
AcDbEntity
  8
0
100
AcDbLine
 10
71.968
 20
88.40594149999999
 30
0.0
 11
73.664
 21
87.2974415
 31
0.0
  0
LINE
  5
2CA
330
1E
100
AcDbEntity
  8
0
100
AcDbLine
 10
73.664
 20
87.2974415
 30
0.0
 11
74.944
 21
85.8286415
 31
0.0
  0
LINE
  5
2CB
330
1E
100
AcDbEntity
  8
0
100
AcDbLine
 10
74.944
 20
85.8286415
 30
0.0
 11
75.71200000000001
 21
84.1658415
 31
0.0
  0
LINE
  5
2CC
330
1E
100
AcDbEntity
  8
0
100
AcDbLine
 10
75.71200000000001
 20
84.1658415
 30
0.0
 11
76.0
 21
82.3922415
 31
0.0
  0
LINE
  5
2CD
330
1E
100
AcDbEntity
  8
0
100
AcDbLine
 10
76.0
 20
82.3922415
 30
0.0
 11
76.0
 21
108.0137415
 31
0.0
  0
LINE
  5
2CE
330
1E
100
AcDbEntity
  8
0
100
AcDbLine
 10
76.0
 20
102.493094441176
 30
0.0
 11
77.5
 21
104.2507414999999
 31
0.0
  0
LINE
  5
2CF
330
1E
100
AcDbEntity
  8
0
100
AcDbLine
 10
75.9791258457375
 20
82.26369150000001
 30
0.0
 11
76.0
 21
82.3922415
 31
0.0
  0
LINE
  5
2D0
330
1E
100
AcDbEntity
  8
0
100
AcDbLine
 10
76.0
 20
79.31204150000001
 30
0.0
 11
76.0
 21
75.7912415
 31
0.0
  0
LINE
  5
2D1
330
1E
100
AcDbEntity
  8
0
100
AcDbLine
 10
76.0
 20
79.31204150000001
 30
0.0
 11
76.0
 21
82.13514149999999
 31
0.0
  0
LINE
  5
2D2
330
1E
100
AcDbEntity
  8
0
100
AcDbLine
 10
76.0
 20
82.13514149999999
 30
0.0
 11
76.0
 21
79.31204150000001
 31
0.0
  0
LINE
  5
2D3
330
1E
100
AcDbEntity
  8
0
100
AcDbLine
 10
76.0
 20
75.7912415
 30
0.0
 11
76.0
 21
71.6911415
 31
0.0
  0
LINE
  5
2D4
330
1E
100
AcDbEntity
  8
0
100
AcDbLine
 10
76.0
 20
75.7912415
 30
0.0
 11
76.0
 21
79.31204150000001
 31
0.0
  0
LINE
  5
2D5
330
1E
100
AcDbEntity
  8
0
100
AcDbLine
 10
65.952
 20
88.8139415
 30
0.0
 11
68.0
 21
89.06334150000001
 31
0.0
  0
LINE
  5
2D6
330
1E
100
AcDbEntity
  8
0
100
AcDbLine
 10
60.0
 20
71.6911415
 30
0.0
 11
60.0
 21
67.2912415
 31
0.0
  0
LINE
  5
2D7
330
1E
100
AcDbEntity
  8
0
100
AcDbLine
 10
60.0
 20
71.6911415
 30
0.0
 11
60.0
 21
75.7912415
 31
0.0
  0
LINE
  5
2D8
330
1E
100
AcDbEntity
  8
0
100
AcDbLine
 10
58.79999999999999
 20
103.7957415
 30
0.0
 11
59.0075924468922
 21
103.6559625857589
 31
0.0
  0
LINE
  5
2D9
330
1E
100
AcDbEntity
  8
0
100
AcDbLine
 10
56.5
 20
111.0137415
 30
0.0
 11
56.5
 21
110.0137415
 31
0.0
  0
LINE
  5
2DA
330
1E
100
AcDbEntity
  8
0
100
AcDbLine
 10
56.5
 20
111.0137415
 30
0.0
 11
56.9
 21
113.6117415
 31
0.0
  0
LINE
  5
2DB
330
1E
100
AcDbEntity
  8
0
100
AcDbLine
 10
56.7
 20
117.3927415
 30
0.0
 11
58.79999999999999
 21
119.7307415
 31
0.0
  0
LINE
  5
2DC
330
1E
100
AcDbEntity
  8
0
100
AcDbLine
 10
56.9
 20
113.6117415
 30
0.0
 11
58.0
 21
115.9497415
 31
0.0
  0
LINE
  5
2DD
330
1E
100
AcDbEntity
  8
0
100
AcDbLine
 10
56.7
 20
106.1347414999999
 30
0.0
 11
58.79999999999999
 21
103.7957415
 31
0.0
  0
LINE
  5
2DE
330
1E
100
AcDbEntity
  8
0
100
AcDbLine
 10
61.1
 20
111.4777415
 30
0.0
 11
62.4
 21
112.8637415
 31
0.0
  0
LINE
  5
2DF
330
1E
100
AcDbEntity
  8
0
100
AcDbLine
 10
60.3
 20
109.8327414999999
 30
0.0
 11
61.1
 21
111.4777415
 31
0.0
  0
LINE
  5
2E0
330
1E
100
AcDbEntity
  8
0
100
AcDbLine
 10
60.0
 20
108.0137415
 30
0.0
 11
60.3
 21
109.8327414999999
 31
0.0
  0
LINE
  5
2E1
330
1E
100
AcDbEntity
  8
0
100
AcDbLine
 10
60.0
 20
108.0137415
 30
0.0
 11
60.0
 21
82.3922415
 31
0.0
  0
LINE
  5
2E2
330
1E
100
AcDbEntity
  8
0
100
AcDbLine
 10
62.4
 20
112.8637415
 30
0.0
 11
64.0
 21
113.9887415
 31
0.0
  0
LINE
  5
2E3
330
1E
100
AcDbEntity
  8
0
100
AcDbLine
 10
73.59999999999999
 20
112.8637415
 30
0.0
 11
74.90000000000001
 21
111.4777415
 31
0.0
  0
LINE
  5
2E4
330
1E
100
AcDbEntity
  8
0
100
AcDbLine
 10
74.90000000000001
 20
111.4777415
 30
0.0
 11
75.7
 21
109.8327414999999
 31
0.0
  0
LINE
  5
2E5
330
1E
100
AcDbEntity
  8
0
100
AcDbLine
 10
75.7
 20
109.8327414999999
 30
0.0
 11
76.0
 21
108.0137415
 31
0.0
  0
LINE
  5
2E6
330
1E
100
AcDbEntity
  8
0
100
AcDbLine
 10
72.0
 20
113.9887415
 30
0.0
 11
73.59999999999999
 21
112.8637415
 31
0.0
  0
LINE
  5
2E7
330
1E
100
AcDbEntity
  8
0
100
AcDbLine
 10
70.09999999999999
 20
114.6817415
 30
0.0
 11
72.0
 21
113.9887415
 31
0.0
  0
LINE
  5
2E8
330
1E
100
AcDbEntity
  8
0
100
AcDbLine
 10
76.0
 20
108.0137415
 30
0.0
 11
76.0
 21
82.3922415
 31
0.0
  0
LINE
  5
2E9
330
1E
100
AcDbEntity
  8
0
100
AcDbLine
 10
64.0
 20
113.9887415
 30
0.0
 11
65.9
 21
114.6817415
 31
0.0
  0
LINE
  5
2EA
330
1E
100
AcDbEntity
  8
0
100
AcDbLine
 10
58.0
 20
115.9497415
 30
0.0
 11
59.9
 21
118.0287415
 31
0.0
  0
LINE
  5
2EB
330
1E
100
AcDbEntity
  8
0
100
AcDbLine
 10
59.9
 20
118.0287415
 30
0.0
 11
62.3
 21
119.6737415
 31
0.0
  0
LINE
  5
2EC
330
1E
100
AcDbEntity
  8
0
100
AcDbLine
 10
58.79999999999999
 20
119.7307415
 30
0.0
 11
61.5
 21
121.5497415
 31
0.0
  0
LINE
  5
2ED
330
1E
100
AcDbEntity
  8
0
100
AcDbLine
 10
61.5
 20
121.5497415
 30
0.0
 11
64.7
 21
122.5887415
 31
0.0
  0
LINE
  5
2EF
330
1E
100
AcDbEntity
  8
0
100
AcDbLine
 10
64.7
 20
122.5887415
 30
0.0
 11
68.0
 21
123.0217415
 31
0.0
  0
LINE
  5
2F2
330
1E
100
AcDbEntity
  8
0
100
AcDbLine
 10
62.3
 20
119.6737415
 30
0.0
 11
65.0
 21
120.6267415
 31
0.0
  0
LINE
  5
2F4
330
1E
100
AcDbEntity
  8
0
100
AcDbLine
 10
68.0
 20
123.0217415
 30
0.0
 11
71.29999999999999
 21
122.5887415
 31
0.0
  0
LINE
  5
2F6
330
1E
100
AcDbEntity
  8
0
100
AcDbLine
 10
73.7
 20
119.6737415
 30
0.0
 11
76.09999999999999
 21
118.0287415
 31
0.0
  0
LINE
  5
2F8
330
1E
100
AcDbEntity
  8
0
100
AcDbLine
 10
74.5
 20
121.5497415
 30
0.0
 11
77.2
 21
119.7307415
 31
0.0
  0
LINE
  5
2F9
330
1E
100
AcDbEntity
  8
0
100
AcDbLine
 10
71.29999999999999
 20
122.5887415
 30
0.0
 11
74.5
 21
121.5497415
 31
0.0
  0
LINE
  5
2FA
330
1E
100
AcDbEntity
  8
0
100
AcDbLine
 10
71.0
 20
120.6267415
 30
0.0
 11
73.7
 21
119.6737415
 31
0.0
  0
LINE
  5
2FB
330
1E
100
AcDbEntity
  8
0
100
AcDbLine
 10
68.0
 20
120.9727414999999
 30
0.0
 11
71.0
 21
120.6267415
 31
0.0
  0
LINE
  5
2FC
330
1E
100
AcDbEntity
  8
0
100
AcDbLine
 10
68.0
 20
114.9417415
 30
0.0
 11
70.09999999999999
 21
114.6817415
 31
0.0
  0
LINE
  5
2FD
330
1E
100
AcDbEntity
  8
0
100
AcDbLine
 10
65.0
 20
120.6267415
 30
0.0
 11
68.0
 21
120.9727414999999
 31
0.0
  0
LINE
  5
2FE
330
1E
100
AcDbEntity
  8
0
100
AcDbLine
 10
65.9
 20
114.6817415
 30
0.0
 11
68.0
 21
114.9417415
 31
0.0
  0
LINE
  5
2FF
330
1E
100
AcDbEntity
  8
0
100
AcDbLine
 10
56.9
 20
107.4157415
 30
0.0
 11
58.0
 21
105.0767414999999
 31
0.0
  0
LINE
  5
300
330
1E
100
AcDbEntity
  8
0
100
AcDbLine
 10
58.0
 20
105.0767414999999
 30
0.0
 11
58.5
 21
104.2507414999999
 31
0.0
  0
LINE
  5
301
330
1E
100
AcDbEntity
  8
0
100
AcDbLine
 10
56.5
 20
110.0137415
 30
0.0
 11
56.9
 21
107.4157415
 31
0.0
  0
LINE
  5
302
330
1E
100
AcDbEntity
  8
0
100
AcDbLine
 10
56.5
 20
110.0137415
 30
0.0
 11
56.5
 21
111.0137415
 31
0.0
  0
LINE
  5
303
330
1E
100
AcDbEntity
  8
0
100
AcDbLine
 10
58.5
 20
104.2507414999999
 30
0.0
 11
60.0
 21
102.493094441176
 31
0.0
  0
LINE
  5
304
330
1E
100
AcDbEntity
  8
0
100
AcDbLine
 10
55.5
 20
115.6557414999999
 30
0.0
 11
55.66133142634249
 21
114.994282651996
 31
0.0
  0
LINE
  5
305
330
1E
100
AcDbEntity
  8
0
100
AcDbLine
 10
55.5
 20
156.4057415
 30
0.0
 11
55.66133142634249
 21
156.0332003480039
 31
0.0
  0
LINE
  5
308
330
1E
100
AcDbEntity
  8
0
100
AcDbLine
 10
55.0
 20
159.2637415
 30
0.0
 11
55.5
 21
162.1217415
 31
0.0
  0
LINE
  5
309
330
1E
100
AcDbEntity
  8
0
100
AcDbLine
 10
55.0
 20
159.2637415
 30
0.0
 11
55.5
 21
156.4057415
 31
0.0
  0
LINE
  5
30A
330
1E
100
AcDbEntity
  8
0
100
AcDbLine
 10
56.9
 20
161.1117415
 30
0.0
 11
58.0
 21
163.4497415
 31
0.0
  0
LINE
  5
30B
330
1E
100
AcDbEntity
  8
0
100
AcDbLine
 10
55.5
 20
155.3717415
 30
0.0
 11
56.9
 21
161.1117415
 31
0.0
  0
LINE
  5
30C
330
1E
100
AcDbEntity
  8
0
100
AcDbLine
 10
55.0
 20
152.5137415
 30
0.0
 11
55.5
 21
155.3717415
 31
0.0
  0
LINE
  5
30D
330
1E
100
AcDbEntity
  8
0
100
AcDbLine
 10
76.99240755310779
 20
103.6559625857589
 30
0.0
 11
77.2
 21
103.7957415
 31
0.0
  0
LINE
  5
30E
330
1E
100
AcDbEntity
  8
0
100
AcDbLine
 10
77.2
 20
103.7957415
 30
0.0
 11
79.29999999999999
 21
106.1347414999999
 31
0.0
  0
LINE
  5
30F
330
1E
100
AcDbEntity
  8
0
100
AcDbLine
 10
77.5
 20
104.2507414999999
 30
0.0
 11
78.0
 21
105.0767414999999
 31
0.0
  0
LINE
  5
310
330
1E
100
AcDbEntity
  8
0
100
AcDbLine
 10
79.1
 20
113.6117415
 30
0.0
 11
79.5
 21
111.0137415
 31
0.0
  0
LINE
  5
311
330
1E
100
AcDbEntity
  8
0
100
AcDbLine
 10
78.0
 20
105.0767414999999
 30
0.0
 11
79.1
 21
107.4157415
 31
0.0
  0
LINE
  5
312
330
1E
100
AcDbEntity
  8
0
100
AcDbLine
 10
79.5
 20
110.0137415
 30
0.0
 11
79.5
 21
111.0137415
 31
0.0
  0
LINE
  5
313
330
1E
100
AcDbEntity
  8
0
100
AcDbLine
 10
79.29999999999999
 20
106.1347414999999
 30
0.0
 11
80.5
 21
108.9057415
 31
0.0
  0
LINE
  5
314
330
1E
100
AcDbEntity
  8
0
100
AcDbLine
 10
80.5
 20
108.9057415
 30
0.0
 11
81.0
 21
111.7637415
 31
0.0
  0
LINE
  5
316
330
1E
100
AcDbEntity
  8
0
100
AcDbLine
 10
80.5
 20
114.6217414999999
 30
0.0
 11
81.0
 21
111.7637415
 31
0.0
  0
LINE
  5
318
330
1E
100
AcDbEntity
  8
0
100
AcDbLine
 10
79.5
 20
111.0137415
 30
0.0
 11
79.5
 21
110.0137415
 31
0.0
  0
LINE
  5
319
330
1E
100
AcDbEntity
  8
0
100
AcDbLine
 10
79.1
 20
107.4157415
 30
0.0
 11
79.5
 21
110.0137415
 31
0.0
  0
LINE
  5
31A
330
1E
100
AcDbEntity
  8
0
100
AcDbLine
 10
77.2
 20
119.7307415
 30
0.0
 11
79.29999999999999
 21
117.3927415
 31
0.0
  0
LINE
  5
31B
330
1E
100
AcDbEntity
  8
0
100
AcDbLine
 10
79.29999999999999
 20
117.3927415
 30
0.0
 11
80.5
 21
114.6217414999999
 31
0.0
  0
LINE
  5
31C
330
1E
100
AcDbEntity
  8
0
100
AcDbLine
 10
76.09999999999999
 20
118.0287415
 30
0.0
 11
78.0
 21
115.9497415
 31
0.0
  0
LINE
  5
31D
330
1E
100
AcDbEntity
  8
0
100
AcDbLine
 10
78.0
 20
115.9497415
 30
0.0
 11
79.1
 21
113.6117415
 31
0.0
  0
LINE
  5
31E
330
1E
100
AcDbEntity
  8
0
100
AcDbLine
 10
80.5
 20
155.3717415
 30
0.0
 11
81.0
 21
152.5137415
 31
0.0
  0
LINE
  5
31F
330
1E
100
AcDbEntity
  8
0
100
AcDbLine
 10
80.33866857365749
 20
156.0332003480039
 30
0.0
 11
80.5
 21
156.4057415
 31
0.0
  0
LINE
  5
320
330
1E
100
AcDbEntity
  8
0
100
AcDbLine
 10
79.1
 20
161.1117415
 30
0.0
 11
80.5
 21
155.3717415
 31
0.0
  0
LINE
  5
322
330
1E
100
AcDbEntity
  8
0
100
AcDbLine
 10
80.5
 20
156.4057415
 30
0.0
 11
81.0
 21
159.2637415
 31
0.0
  0
LINE
  5
323
330
1E
100
AcDbEntity
  8
0
100
AcDbLine
 10
80.5
 20
115.6557414999999
 30
0.0
 11
81.0
 21
118.5137415
 31
0.0
  0
LINE
  5
324
330
1E
100
AcDbEntity
  8
0
100
AcDbLine
 10
80.33866857365749
 20
114.994282651996
 30
0.0
 11
80.5
 21
115.6557414999999
 31
0.0
  0
LINE
  5
325
330
1E
100
AcDbEntity
  8
0
100
AcDbLine
 10
76.0
 20
70.16893295299151
 30
0.0
 11
79.7
 21
69.9159415
 31
0.0
  0
LINE
  5
326
330
1E
100
AcDbEntity
  8
0
100
AcDbLine
 10
56.29999999999999
 20
69.9159415
 30
0.0
 11
60.0
 21
70.16893295299151
 31
0.0
  0
LINE
  5
327
330
1E
100
AcDbEntity
  8
0
100
AcDbLine
 10
81.09999999999999
 20
5.17936149999999
 30
0.0
 11
93.40000000000001
 21
7.67936149999999
 31
0.0
  0
LINE
  5
328
330
1E
100
AcDbEntity
  8
0
100
AcDbLine
 10
91.90000000000001
 20
18.07264149999999
 30
0.0
 11
101.9
 21
21.9226415
 31
0.0
  0
LINE
  5
329
330
1E
100
AcDbEntity
  8
0
100
AcDbLine
 10
92.4
 20
19.8377415
 30
0.0
 11
102.6
 21
23.7377415
 31
0.0
  0
LINE
  5
32A
330
1E
100
AcDbEntity
  8
0
100
AcDbLine
 10
92.09999999999999
 20
15.2746415
 30
0.0
 11
102.2
 21
19.17464149999999
 31
0.0
  0
LINE
  5
32B
330
1E
100
AcDbEntity
  8
0
100
AcDbLine
 10
92.9
 20
14.1915415
 30
0.0
 11
103.2999999999999
 21
18.1915415
 31
0.0
  0
LINE
  5
32C
330
1E
100
AcDbEntity
  8
0
100
AcDbLine
 10
93.40000000000001
 20
7.67936149999999
 30
0.0
 11
104.0
 21
11.77944149999999
 31
0.0
  0
LINE
  5
32D
330
1E
100
AcDbEntity
  8
0
100
AcDbLine
 10
94.1
 20
6.59634149999999
 30
0.0
 11
105.0
 21
10.84644149999999
 31
0.0
  0
LINE
  5
32E
330
1E
100
AcDbEntity
  8
0
100
AcDbLine
 10
81.5
 20
4.04635149999999
 30
0.0
 11
94.1
 21
6.59634149999999
 31
0.0
  0
LINE
  5
32F
330
1E
100
AcDbEntity
  8
0
100
AcDbLine
 10
94.1
 20
3.56526149999999
 30
0.0
 11
105.0
 21
7.81526149999999
 31
0.0
  0
LINE
  5
330
330
1E
100
AcDbEntity
  8
0
100
AcDbLine
 10
102.2
 20
19.17464149999999
 30
0.0
 11
110.0
 21
24.2246415
 31
0.0
  0
LINE
  5
331
330
1E
100
AcDbEntity
  8
0
100
AcDbLine
 10
103.2999999999999
 20
18.1915415
 30
0.0
 11
111.2999999999999
 21
23.3915415
 31
0.0
  0
LINE
  5
332
330
1E
100
AcDbEntity
  8
0
100
AcDbLine
 10
111.2999999999999
 20
23.3915415
 30
0.0
 11
116.2
 21
29.4415415
 31
0.0
  0
LINE
  5
333
330
1E
100
AcDbEntity
  8
0
100
AcDbLine
 10
104.0
 20
11.77944149999999
 30
0.0
 11
112.2
 21
17.0794415
 31
0.0
  0
LINE
  5
334
330
1E
100
AcDbEntity
  8
0
100
AcDbLine
 10
112.2
 20
17.0794415
 30
0.0
 11
117.2
 21
23.2294415
 31
0.0
  0
LINE
  5
335
330
1E
100
AcDbEntity
  8
0
100
AcDbLine
 10
105.0
 20
10.84644149999999
 30
0.0
 11
113.5
 21
16.2964415
 31
0.0
  0
LINE
  5
336
330
1E
100
AcDbEntity
  8
0
100
AcDbLine
 10
113.5
 20
16.2964415
 30
0.0
 11
118.5999999999999
 21
22.5964415
 31
0.0
  0
LINE
  5
337
330
1E
100
AcDbEntity
  8
0
100
AcDbLine
 10
105.0
 20
7.81526149999999
 30
0.0
 11
113.5
 21
13.2653415
 31
0.0
  0
LINE
  5
338
330
1E
100
AcDbEntity
  8
0
100
AcDbLine
 10
117.2
 20
23.2294415
 30
0.0
 11
119.0
 21
29.77944149999999
 31
0.0
  0
LINE
  5
339
330
1E
100
AcDbEntity
  8
0
100
AcDbLine
 10
113.5
 20
13.2653415
 30
0.0
 11
118.5999999999999
 21
19.5653415
 31
0.0
  0
LINE
  5
33A
330
1E
100
AcDbEntity
  8
0
100
AcDbLine
 10
110.0
 20
24.2246415
 30
0.0
 11
114.7
 21
30.02464149999999
 31
0.0
  0
LINE
  5
33B
330
1E
100
AcDbEntity
  8
0
100
AcDbLine
 10
102.6
 20
23.7377415
 30
0.0
 11
110.4
 21
28.83774149999999
 31
0.0
  0
LINE
  5
33C
330
1E
100
AcDbEntity
  8
0
100
AcDbLine
 10
101.9
 20
21.9226415
 30
0.0
 11
109.5999999999999
 21
26.92264149999999
 31
0.0
  0
LINE
  5
33D
330
1E
100
AcDbEntity
  8
0
100
AcDbLine
 10
110.4
 20
28.83774149999999
 30
0.0
 11
115.2
 21
34.7377415
 31
0.0
  0
LINE
  5
33E
330
1E
100
AcDbEntity
  8
0
100
AcDbLine
 10
114.7
 20
30.02464149999999
 30
0.0
 11
116.5
 21
36.2746415
 31
0.0
  0
LINE
  5
33F
330
1E
100
AcDbEntity
  8
0
100
AcDbLine
 10
116.2
 20
29.4415415
 30
0.0
 11
118.0
 21
35.84154149999999
 31
0.0
  0
LINE
  5
340
330
1E
100
AcDbEntity
  8
0
100
AcDbLine
 10
115.2
 20
34.7377415
 30
0.0
 11
117.0
 21
41.03774149999999
 31
0.0
  0
LINE
  5
341
330
1E
100
AcDbEntity
  8
0
100
AcDbLine
 10
114.7
 20
33.48874149999999
 30
0.0
 11
115.2
 21
34.7377415
 31
0.0
  0
LINE
  5
342
330
1E
100
AcDbEntity
  8
0
100
AcDbLine
 10
114.3
 20
32.72264149999999
 30
0.0
 11
114.7
 21
33.48874149999999
 31
0.0
  0
LINE
  5
343
330
1E
100
AcDbEntity
  8
0
100
AcDbLine
 10
109.5999999999999
 20
26.92264149999999
 30
0.0
 11
114.3
 21
32.72264149999999
 31
0.0
  0
LINE
  5
344
330
1E
100
AcDbEntity
  8
0
100
AcDbLine
 10
94.1
 20
3.56526149999999
 30
0.0
 11
105.0
 21
7.81526149999999
 31
0.0
  0
LINE
  5
345
330
1E
100
AcDbEntity
  8
0
100
AcDbLine
 10
81.5
 20
1.01526149999999
 30
0.0
 11
94.1
 21
3.56526149999999
 31
0.0
  0
LINE
  5
346
330
1E
100
AcDbEntity
  8
0
100
AcDbLine
 10
118.5999999999999
 20
22.5964415
 30
0.0
 11
120.5
 21
29.3464415
 31
0.0
  0
LINE
  5
347
330
1E
100
AcDbEntity
  8
0
100
AcDbLine
 10
119.1
 20
20.8143415
 30
0.0
 11
121.0
 21
27.61434149999999
 31
0.0
  0
LINE
  5
348
330
1E
100
AcDbEntity
  8
0
100
AcDbLine
 10
118.5999999999999
 20
19.5653415
 30
0.0
 11
119.1
 21
20.8143415
 31
0.0
  0
LINE
  5
349
330
1E
100
AcDbEntity
  8
0
100
AcDbLine
 10
118.5
 20
34.5425415
 30
0.0
 11
119.0
 21
29.77944149999999
 31
0.0
  0
LINE
  5
34A
330
1E
100
AcDbEntity
  8
0
100
AcDbLine
 10
116.5
 20
36.2746415
 30
0.0
 11
116.5
 21
38.0066415
 31
0.0
  0
LINE
  5
34B
330
1E
100
AcDbEntity
  8
0
100
AcDbLine
 10
116.5
 20
38.0066415
 30
0.0
 11
116.5
 21
36.2746415
 31
0.0
  0
LINE
  5
34C
330
1E
100
AcDbEntity
  8
0
100
AcDbLine
 10
116.316256573705
 20
38.6446395079681
 30
0.0
 11
116.5
 21
38.0066415
 31
0.0
  0
LINE
  5
34D
330
1E
100
AcDbEntity
  8
0
100
AcDbLine
 10
116.7674677165349
 20
40.22387850787399
 30
0.0
 11
118.0
 21
35.84154149999999
 31
0.0
  0
LINE
  5
34F
330
1E
100
AcDbEntity
  8
0
100
AcDbLine
 10
81.0
 20
152.5137415
 30
0.0
 11
82.5
 21
141.7637415
 31
0.0
  0
LINE
  5
350
330
1E
100
AcDbEntity
  8
0
100
AcDbLine
 10
82.5
 20
141.7637415
 30
0.0
 11
83.0
 21
135.5137415
 31
0.0
  0
LINE
  5
351
330
1E
100
AcDbEntity
  8
0
100
AcDbLine
 10
82.5
 20
129.2637415
 30
0.0
 11
83.0
 21
135.5137415
 31
0.0
  0
LINE
  5
352
330
1E
100
AcDbEntity
  8
0
100
AcDbLine
 10
81.0
 20
118.5137415
 30
0.0
 11
82.5
 21
129.2637415
 31
0.0
  0
LINE
  5
353
330
1E
100
AcDbEntity
  8
0
100
AcDbLine
 10
90.6
 20
67.6659415
 30
0.0
 11
100.0999999999999
 21
64.0159415
 31
0.0
  0
LINE
  5
354
330
1E
100
AcDbEntity
  8
0
100
AcDbLine
 10
100.0999999999999
 20
64.0159415
 30
0.0
 11
107.4
 21
59.2659415
 31
0.0
  0
LINE
  5
355
330
1E
100
AcDbEntity
  8
0
100
AcDbLine
 10
107.4
 20
59.2659415
 30
0.0
 11
108.2999999999999
 21
58.64994150000001
 31
0.0
  0
LINE
  5
356
330
1E
100
AcDbEntity
  8
0
100
AcDbLine
 10
108.2999999999999
 20
58.64994150000001
 30
0.0
 11
112.7999999999999
 21
53.0499415
 31
0.0
  0
LINE
  5
357
330
1E
100
AcDbEntity
  8
0
100
AcDbLine
 10
112.7999999999999
 20
53.0499415
 30
0.0
 11
113.3
 21
51.8508415
 31
0.0
  0
LINE
  5
358
330
1E
100
AcDbEntity
  8
0
100
AcDbLine
 10
113.3
 20
51.8508415
 30
0.0
 11
115.2
 21
47.3377415
 31
0.0
  0
LINE
  5
35A
330
1E
100
AcDbEntity
  8
0
100
AcDbLine
 10
115.2
 20
47.3377415
 30
0.0
 11
117.0
 21
41.03774149999999
 31
0.0
  0
LINE
  5
35B
330
1E
100
AcDbEntity
  8
0
100
AcDbLine
 10
116.84833125
 20
40.506900875
 30
0.0
 11
118.5
 21
34.5425415
 31
0.0
  0
LINE
  5
35C
330
1E
100
AcDbEntity
  8
0
100
AcDbLine
 10
117.793956808803
 20
37.0921419126547
 30
0.0
 11
118.5999999999999
 21
36.09644149999999
 31
0.0
  0
LINE
  5
35D
330
1E
100
AcDbEntity
  8
0
100
AcDbLine
 10
118.5999999999999
 20
36.09644149999999
 30
0.0
 11
120.5
 21
29.3464415
 31
0.0
  0
LINE
  5
35E
330
1E
100
AcDbEntity
  8
0
100
AcDbLine
 10
118.5999999999999
 20
36.09644149999999
 30
0.0
 11
119.1
 21
34.84734149999999
 31
0.0
  0
LINE
  5
35F
330
1E
100
AcDbEntity
  8
0
100
AcDbLine
 10
121.0
 20
27.61434149999999
 30
0.0
 11
121.0
 21
28.04734149999999
 31
0.0
  0
LINE
  5
360
330
1E
100
AcDbEntity
  8
0
100
AcDbLine
 10
121.0
 20
28.04734149999999
 30
0.0
 11
121.0
 21
27.61434149999999
 31
0.0
  0
LINE
  5
361
330
1E
100
AcDbEntity
  8
0
100
AcDbLine
 10
119.1
 20
34.84734149999999
 30
0.0
 11
121.0
 21
28.04734149999999
 31
0.0
  0
LINE
  5
362
330
1E
100
AcDbEntity
  8
0
100
AcDbLine
 10
81.0
 20
161.3127415
 30
0.0
 11
81.0
 21
189.4377415
 31
0.0
  0
LINE
  5
363
330
1E
100
AcDbEntity
  8
0
100
AcDbLine
 10
80.82354460902509
 20
160.272360514812
 30
0.0
 11
81.0
 21
161.3127415
 31
0.0
  0
LINE
  5
365
330
1E
100
AcDbEntity
  8
0
100
AcDbLine
 10
80.5
 20
162.1217415
 30
0.0
 11
81.0
 21
159.2637415
 31
0.0
  0
LINE
  5
366
330
1E
100
AcDbEntity
  8
0
100
AcDbLine
 10
78.0
 20
163.4497415
 30
0.0
 11
79.1
 21
161.1117415
 31
0.0
  0
LINE
  5
367
330
1E
100
AcDbEntity
  8
0
100
AcDbLine
 10
55.5
 20
162.1217415
 30
0.0
 11
56.7
 21
164.8927414999999
 31
0.0
  0
LINE
  5
368
330
1E
100
AcDbEntity
  8
0
100
AcDbLine
 10
58.0
 20
163.4497415
 30
0.0
 11
59.9
 21
165.5287415
 31
0.0
  0
LINE
  5
369
330
1E
100
AcDbEntity
  8
0
100
AcDbLine
 10
80.5
 20
164.2627414999999
 30
0.0
 11
81.0
 21
161.3127415
 31
0.0
  0
LINE
  5
36A
330
1E
100
AcDbEntity
  8
0
100
AcDbLine
 10
56.7
 20
164.8927414999999
 30
0.0
 11
58.79999999999999
 21
167.2307414999999
 31
0.0
  0
LINE
  5
36B
330
1E
100
AcDbEntity
  8
0
100
AcDbLine
 10
56.9
 20
165.6097415
 30
0.0
 11
58.0
 21
167.9477415
 31
0.0
  0
LINE
  5
36C
330
1E
100
AcDbEntity
  8
0
100
AcDbLine
 10
56.80818758706079
 20
165.013190346928
 30
0.0
 11
56.9
 21
165.6097415
 31
0.0
  0
LINE
  5
36D
330
1E
100
AcDbEntity
  8
0
100
AcDbLine
 10
59.9
 20
165.5287415
 30
0.0
 11
62.3
 21
167.1737415
 31
0.0
  0
LINE
  5
36E
330
1E
100
AcDbEntity
  8
0
100
AcDbLine
 10
58.0
 20
167.9477415
 30
0.0
 11
59.9
 21
170.0257415
 31
0.0
  0
LINE
  5
36F
330
1E
100
AcDbEntity
  8
0
100
AcDbLine
 10
59.00573903153841
 20
167.369348647544
 30
0.0
 11
60.2
 21
168.7687415
 31
0.0
  0
LINE
  5
370
330
1E
100
AcDbEntity
  8
0
100
AcDbLine
 10
58.79999999999999
 20
167.2307414999999
 30
0.0
 11
61.5
 21
169.0497415
 31
0.0
  0
LINE
  5
371
330
1E
100
AcDbEntity
  8
0
100
AcDbLine
 10
61.5
 20
169.0497415
 30
0.0
 11
64.7
 21
170.0887414999999
 31
0.0
  0
LINE
  5
372
330
1E
100
AcDbEntity
  8
0
100
AcDbLine
 10
60.2
 20
168.7687415
 30
0.0
 11
62.5
 21
170.2407415
 31
0.0
  0
LINE
  5
373
330
1E
100
AcDbEntity
  8
0
100
AcDbLine
 10
59.9
 20
170.0257415
 30
0.0
 11
62.3
 21
171.6717414999999
 31
0.0
  0
LINE
  5
374
330
1E
100
AcDbEntity
  8
0
100
AcDbLine
 10
58.79999999999999
 20
169.2927414999999
 30
0.0
 11
61.5
 21
171.1137415
 31
0.0
  0
LINE
  5
375
330
1E
100
AcDbEntity
  8
0
100
AcDbLine
 10
79.1
 20
165.6097415
 30
0.0
 11
79.19181241293919
 21
165.013190346928
 31
0.0
  0
LINE
  5
376
330
1E
100
AcDbEntity
  8
0
100
AcDbLine
 10
79.29999999999999
 20
164.8927414999999
 30
0.0
 11
80.5
 21
162.1217415
 31
0.0
  0
LINE
  5
377
330
1E
100
AcDbEntity
  8
0
100
AcDbLine
 10
76.09999999999999
 20
165.5287415
 30
0.0
 11
78.0
 21
163.4497415
 31
0.0
  0
LINE
  5
378
330
1E
100
AcDbEntity
  8
0
100
AcDbLine
 10
62.3
 20
167.1737415
 30
0.0
 11
65.0
 21
168.1267415
 31
0.0
  0
LINE
  5
379
330
1E
100
AcDbEntity
  8
0
100
AcDbLine
 10
73.7
 20
167.1737415
 30
0.0
 11
76.09999999999999
 21
165.5287415
 31
0.0
  0
LINE
  5
37A
330
1E
100
AcDbEntity
  8
0
100
AcDbLine
 10
71.0
 20
168.1267415
 30
0.0
 11
73.7
 21
167.1737415
 31
0.0
  0
LINE
  5
37B
330
1E
100
AcDbEntity
  8
0
100
AcDbLine
 10
74.5
 20
169.0497415
 30
0.0
 11
77.2
 21
167.2307414999999
 31
0.0
  0
LINE
  5
37C
330
1E
100
AcDbEntity
  8
0
100
AcDbLine
 10
68.0
 20
168.4727415
 30
0.0
 11
71.0
 21
168.1267415
 31
0.0
  0
LINE
  5
37D
330
1E
100
AcDbEntity
  8
0
100
AcDbLine
 10
65.0
 20
168.1267415
 30
0.0
 11
68.0
 21
168.4727415
 31
0.0
  0
LINE
  5
37F
330
1E
100
AcDbEntity
  8
0
100
AcDbLine
 10
71.29999999999999
 20
170.0887414999999
 30
0.0
 11
74.5
 21
169.0497415
 31
0.0
  0
LINE
  5
382
330
1E
100
AcDbEntity
  8
0
100
AcDbLine
 10
64.7
 20
170.0887414999999
 30
0.0
 11
68.0
 21
170.5217414999999
 31
0.0
  0
LINE
  5
384
330
1E
100
AcDbEntity
  8
0
100
AcDbLine
 10
68.0
 20
170.5217414999999
 30
0.0
 11
71.29999999999999
 21
170.0887414999999
 31
0.0
  0
LINE
  5
386
330
1E
100
AcDbEntity
  8
0
100
AcDbLine
 10
73.5
 20
170.2407415
 30
0.0
 11
75.8
 21
168.7687415
 31
0.0
  0
LINE
  5
387
330
1E
100
AcDbEntity
  8
0
100
AcDbLine
 10
70.8
 20
171.1937415
 30
0.0
 11
73.5
 21
170.2407415
 31
0.0
  0
LINE
  5
389
330
1E
100
AcDbEntity
  8
0
100
AcDbLine
 10
62.5
 20
170.2407415
 30
0.0
 11
65.2
 21
171.1937415
 31
0.0
  0
LINE
  5
38A
330
1E
100
AcDbEntity
  8
0
100
AcDbLine
 10
62.3
 20
171.6717414999999
 30
0.0
 11
65.0
 21
172.6237414999999
 31
0.0
  0
LINE
  5
38B
330
1E
100
AcDbEntity
  8
0
100
AcDbLine
 10
73.7
 20
171.6717414999999
 30
0.0
 11
76.09999999999999
 21
170.0257415
 31
0.0
  0
LINE
  5
38C
330
1E
100
AcDbEntity
  8
0
100
AcDbLine
 10
68.0
 20
171.5397414999999
 30
0.0
 11
70.8
 21
171.1937415
 31
0.0
  0
LINE
  5
38D
330
1E
100
AcDbEntity
  8
0
100
AcDbLine
 10
65.2
 20
171.1937415
 30
0.0
 11
68.0
 21
171.5397414999999
 31
0.0
  0
LINE
  5
38E
330
1E
100
AcDbEntity
  8
0
100
AcDbLine
 10
77.2
 20
167.2307414999999
 30
0.0
 11
79.29999999999999
 21
164.8927414999999
 31
0.0
  0
LINE
  5
38F
330
1E
100
AcDbEntity
  8
0
100
AcDbLine
 10
76.09999999999999
 20
170.0257415
 30
0.0
 11
78.0
 21
167.9477415
 31
0.0
  0
LINE
  5
390
330
1E
100
AcDbEntity
  8
0
100
AcDbLine
 10
75.8
 20
168.7687415
 30
0.0
 11
76.99426096846159
 21
167.369348647544
 31
0.0
  0
LINE
  5
391
330
1E
100
AcDbEntity
  8
0
100
AcDbLine
 10
74.5
 20
171.1137415
 30
0.0
 11
77.2
 21
169.2927414999999
 31
0.0
  0
LINE
  5
392
330
1E
100
AcDbEntity
  8
0
100
AcDbLine
 10
71.4
 20
172.1547415
 30
0.0
 11
74.5
 21
171.1137415
 31
0.0
  0
LINE
  5
393
330
1E
100
AcDbEntity
  8
0
100
AcDbLine
 10
78.0
 20
167.9477415
 30
0.0
 11
79.1
 21
165.6097415
 31
0.0
  0
LINE
  5
394
330
1E
100
AcDbEntity
  8
0
100
AcDbLine
 10
77.2
 20
169.2927414999999
 30
0.0
 11
79.29999999999999
 21
166.9497415
 31
0.0
  0
LINE
  5
395
330
1E
100
AcDbEntity
  8
0
100
AcDbLine
 10
79.29999999999999
 20
166.9497415
 30
0.0
 11
80.5
 21
164.2627414999999
 31
0.0
  0
LINE
  5
396
330
1E
100
AcDbEntity
  8
0
100
AcDbLine
 10
61.5
 20
171.1137415
 30
0.0
 11
64.59999999999999
 21
172.1547415
 31
0.0
  0
LINE
  5
397
330
1E
100
AcDbEntity
  8
0
100
AcDbLine
 10
68.0
 20
172.9707415
 30
0.0
 11
71.0
 21
172.6237414999999
 31
0.0
  0
LINE
  5
398
330
1E
100
AcDbEntity
  8
0
100
AcDbLine
 10
65.0
 20
172.6237414999999
 30
0.0
 11
68.0
 21
172.9707415
 31
0.0
  0
LINE
  5
399
330
1E
100
AcDbEntity
  8
0
100
AcDbLine
 10
71.0
 20
172.6237414999999
 30
0.0
 11
73.7
 21
171.6717414999999
 31
0.0
  0
LINE
  5
39A
330
1E
100
AcDbEntity
  8
0
100
AcDbLine
 10
68.0
 20
172.5877415
 30
0.0
 11
71.4
 21
172.1547415
 31
0.0
  0
LINE
  5
39B
330
1E
100
AcDbEntity
  8
0
100
AcDbLine
 10
64.59999999999999
 20
172.1547415
 30
0.0
 11
68.0
 21
172.5877415
 31
0.0
  0
LINE
  5
39C
330
1E
100
AcDbEntity
  8
0
100
AcDbLine
 10
56.7
 20
166.9497415
 30
0.0
 11
58.79999999999999
 21
169.2927414999999
 31
0.0
  0
LINE
  5
39D
330
1E
100
AcDbEntity
  8
0
100
AcDbLine
 10
55.5
 20
164.2627414999999
 30
0.0
 11
56.7
 21
166.9497415
 31
0.0
  0
LINE
  5
39E
330
1E
100
AcDbEntity
  8
0
100
AcDbLine
 10
55.0
 20
203.9347414999999
 30
0.0
 11
55.0
 21
161.3127415
 31
0.0
  0
LINE
  5
39F
330
1E
100
AcDbEntity
  8
0
100
AcDbLine
 10
55.0
 20
161.3127415
 30
0.0
 11
55.1764553909749
 21
160.272360514812
 31
0.0
  0
LINE
  5
3A0
330
1E
100
AcDbEntity
  8
0
100
AcDbLine
 10
55.0
 20
161.3127415
 30
0.0
 11
55.0
 21
203.9347414999999
 31
0.0
  0
LINE
  5
3A1
330
1E
100
AcDbEntity
  8
0
100
AcDbLine
 10
55.0
 20
161.3127415
 30
0.0
 11
55.5
 21
164.2627414999999
 31
0.0
  0
LINE
  5
3A2
330
1E
100
AcDbEntity
  8
0
100
AcDbLine
 10
54.0
 20
183.8207415
 30
0.0
 11
54.0
 21
187.9347414999999
 31
0.0
  0
LINE
  5
3A3
330
1E
100
AcDbEntity
  8
0
100
AcDbLine
 10
81.0
 20
189.4377415
 30
0.0
 11
81.0
 21
161.3127415
 31
0.0
  0
LINE
  5
3A4
330
1E
100
AcDbEntity
  8
0
100
AcDbLine
 10
54.0
 20
187.9347414999999
 30
0.0
 11
54.0
 21
192.0487415
 31
0.0
  0
LINE
  5
3A5
330
1E
100
AcDbEntity
  8
0
100
AcDbLine
 10
51.5
 20
184.0347415
 30
0.0
 11
52.0
 21
187.9347414999999
 31
0.0
  0
LINE
  5
3A6
330
1E
100
AcDbEntity
  8
0
100
AcDbLine
 10
54.0
 20
192.0157415
 30
0.0
 11
54.0
 21
187.8517415
 31
0.0
  0
LINE
  5
3A7
330
1E
100
AcDbEntity
  8
0
100
AcDbLine
 10
54.0
 20
195.9237415
 30
0.0
 11
54.0
 21
192.0157415
 31
0.0
  0
LINE
  5
3A8
330
1E
100
AcDbEntity
  8
0
100
AcDbLine
 10
54.0
 20
199.1767414999999
 30
0.0
 11
54.0
 21
195.9237415
 31
0.0
  0
LINE
  5
3A9
330
1E
100
AcDbEntity
  8
0
100
AcDbLine
 10
54.0
 20
199.2487415
 30
0.0
 11
54.0
 21
201.8207415
 31
0.0
  0
LINE
  5
3AA
330
1E
100
AcDbEntity
  8
0
100
AcDbLine
 10
54.0
 20
203.9347414999999
 30
0.0
 11
57.0
 21
203.9347414999999
 31
0.0
  0
LINE
  5
3AB
330
1E
100
AcDbEntity
  8
0
100
AcDbLine
 10
54.0
 20
201.8207415
 30
0.0
 11
54.0
 21
203.3637415
 31
0.0
  0
LINE
  5
3AC
330
1E
100
AcDbEntity
  8
0
100
AcDbLine
 10
54.0
 20
201.8207415
 30
0.0
 11
54.0
 21
201.7507414999999
 31
0.0
  0
LINE
  5
3AD
330
1E
100
AcDbEntity
  8
0
100
AcDbLine
 10
54.0
 20
203.3637415
 30
0.0
 11
54.0
 21
203.9347414999999
 31
0.0
  0
LINE
  5
3AE
330
1E
100
AcDbEntity
  8
0
100
AcDbLine
 10
54.0
 20
195.8777415
 30
0.0
 11
54.0
 21
199.2487415
 31
0.0
  0
LINE
  5
3AF
330
1E
100
AcDbEntity
  8
0
100
AcDbLine
 10
79.29999999999999
 20
195.0747415
 30
0.0
 11
80.5
 21
192.3867415
 31
0.0
  0
LINE
  5
3B0
330
1E
100
AcDbEntity
  8
0
100
AcDbLine
 10
80.5
 20
192.3867415
 30
0.0
 11
81.0
 21
189.4377415
 31
0.0
  0
LINE
  5
3B1
330
1E
100
AcDbEntity
  8
0
100
AcDbLine
 10
57.0
 20
195.4094557857139
 30
0.0
 11
57.0
 21
195.9237415
 31
0.0
  0
LINE
  5
3B2
330
1E
100
AcDbEntity
  8
0
100
AcDbLine
 10
57.0
 20
195.9237415
 30
0.0
 11
57.0
 21
199.1767414999999
 31
0.0
  0
LINE
  5
3B3
330
1E
100
AcDbEntity
  8
0
100
AcDbLine
 10
57.0
 20
199.1767414999999
 30
0.0
 11
57.0
 21
201.7507414999999
 31
0.0
  0
LINE
  5
3B4
330
1E
100
AcDbEntity
  8
0
100
AcDbLine
 10
59.9627390743549
 20
198.201944409037
 30
0.0
 11
59.98969999999999
 21
201.4027415
 31
0.0
  0
LINE
  5
3B5
330
1E
100
AcDbEntity
  8
0
100
AcDbLine
 10
58.79999999999999
 20
197.4177414999999
 30
0.0
 11
61.5
 21
199.2387414999999
 31
0.0
  0
LINE
  5
3B6
330
1E
100
AcDbEntity
  8
0
100
AcDbLine
 10
57.0
 20
203.2827415
 30
0.0
 11
57.0
 21
203.9347414999999
 31
0.0
  0
LINE
  5
3B7
330
1E
100
AcDbEntity
  8
0
100
AcDbLine
 10
59.1898
 20
212.7527415
 30
0.0
 11
59.45289999999999
 21
209.6097415
 31
0.0
  0
LINE
  5
3B8
330
1E
100
AcDbEntity
  8
0
100
AcDbLine
 10
59.1898
 20
212.7527415
 30
0.0
 11
60.2258
 21
215.6587415
 31
0.0
  0
LINE
  5
3B9
330
1E
100
AcDbEntity
  8
0
100
AcDbLine
 10
59.45289999999999
 20
209.6097415
 30
0.0
 11
60.04981768994809
 21
208.442185515259
 31
0.0
  0
LINE
  5
3BA
330
1E
100
AcDbEntity
  8
0
100
AcDbLine
 10
60.0597
 20
209.6027415
 30
0.0
 11
60.0756
 21
211.5017415
 31
0.0
  0
LINE
  5
3BB
330
1E
100
AcDbEntity
  8
0
100
AcDbLine
 10
60.0316
 20
206.3027415
 30
0.0
 11
60.0597
 21
209.6027415
 31
0.0
  0
LINE
  5
3BC
330
1E
100
AcDbEntity
  8
0
100
AcDbLine
 10
59.98969999999999
 20
201.4027415
 30
0.0
 11
60.0316
 21
206.3027415
 31
0.0
  0
LINE
  5
3BD
330
1E
100
AcDbEntity
  8
0
100
AcDbLine
 10
57.0
 20
201.7507414999999
 30
0.0
 11
57.0
 21
203.2827415
 31
0.0
  0
LINE
  5
3BE
330
1E
100
AcDbEntity
  8
0
100
AcDbLine
 10
61.5
 20
199.2387414999999
 30
0.0
 11
64.59999999999999
 21
200.2797414999999
 31
0.0
  0
LINE
  5
3BF
330
1E
100
AcDbEntity
  8
0
100
AcDbLine
 10
75.9640860222478
 20
198.251296816106
 30
0.0
 11
75.99
 21
201.2667415
 31
0.0
  0
LINE
  5
3C0
330
1E
100
AcDbEntity
  8
0
100
AcDbLine
 10
74.5
 20
199.2387414999999
 30
0.0
 11
77.2
 21
197.4177414999999
 31
0.0
  0
LINE
  5
3C1
330
1E
100
AcDbEntity
  8
0
100
AcDbLine
 10
75.502
 20
214.4707415
 30
0.0
 11
76.07600000000001
 21
211.3667415
 31
0.0
  0
LINE
  5
3C2
330
1E
100
AcDbEntity
  8
0
100
AcDbLine
 10
76.06
 20
209.4657414999999
 30
0.0
 11
76.07600000000001
 21
211.3667415
 31
0.0
  0
LINE
  5
3C3
330
1E
100
AcDbEntity
  8
0
100
AcDbLine
 10
76.03100000000001
 20
206.1667415
 30
0.0
 11
76.06
 21
209.4657414999999
 31
0.0
  0
LINE
  5
3C4
330
1E
100
AcDbEntity
  8
0
100
AcDbLine
 10
75.99
 20
201.2667415
 30
0.0
 11
76.03100000000001
 21
206.1667415
 31
0.0
  0
LINE
  5
3C5
330
1E
100
AcDbEntity
  8
0
100
AcDbLine
 10
71.4
 20
200.2797414999999
 30
0.0
 11
74.5
 21
199.2387414999999
 31
0.0
  0
LINE
  5
3C6
330
1E
100
AcDbEntity
  8
0
100
AcDbLine
 10
68.0
 20
200.7127414999999
 30
0.0
 11
71.4
 21
200.2797414999999
 31
0.0
  0
LINE
  5
3C7
330
1E
100
AcDbEntity
  8
0
100
AcDbLine
 10
77.2
 20
197.4177414999999
 30
0.0
 11
79.29999999999999
 21
195.0747415
 31
0.0
  0
LINE
  5
3C8
330
1E
100
AcDbEntity
  8
0
100
AcDbLine
 10
64.59999999999999
 20
200.2797414999999
 30
0.0
 11
68.0
 21
200.7127414999999
 31
0.0
  0
LINE
  5
3C9
330
1E
100
AcDbEntity
  8
0
100
AcDbLine
 10
56.7
 20
195.0747415
 30
0.0
 11
58.79999999999999
 21
197.4177414999999
 31
0.0
  0
LINE
  5
3CA
330
1E
100
AcDbEntity
  8
0
100
AcDbLine
 10
54.0
 20
192.0487415
 30
0.0
 11
54.0
 21
195.8777415
 31
0.0
  0
LINE
  5
3CB
330
1E
100
AcDbEntity
  8
0
100
AcDbLine
 10
51.5
 20
191.8347415
 30
0.0
 11
52.0
 21
187.9347414999999
 31
0.0
  0
LINE
  5
3CC
330
1E
100
AcDbEntity
  8
0
100
AcDbLine
 10
51.0
 20
191.6347414999999
 30
0.0
 11
51.5
 21
187.9347414999999
 31
0.0
  0
LINE
  5
3CD
330
1E
100
AcDbEntity
  8
0
100
AcDbLine
 10
50.0
 20
214.9347415
 30
0.0
 11
51.5
 21
215.4927414999999
 31
0.0
  0
LINE
  5
3CE
330
1E
100
AcDbEntity
  8
0
100
AcDbLine
 10
49.5
 20
214.9347415
 30
0.0
 11
50.0
 21
214.9347415
 31
0.0
  0
LINE
  5
3CF
330
1E
100
AcDbEntity
  8
0
100
AcDbLine
 10
46.6
 20
214.9347415
 30
0.0
 11
47.0
 21
214.9347415
 31
0.0
  0
LINE
  5
3D0
330
1E
100
AcDbEntity
  8
0
100
AcDbLine
 10
47.0
 20
214.9347415
 30
0.0
 11
48.3
 21
214.9347415
 31
0.0
  0
LINE
  5
3D1
330
1E
100
AcDbEntity
  8
0
100
AcDbLine
 10
48.3
 20
214.9347415
 30
0.0
 11
49.5
 21
214.9347415
 31
0.0
  0
LINE
  5
3D2
330
1E
100
AcDbEntity
  8
0
100
AcDbLine
 10
49.5
 20
214.9347415
 30
0.0
 11
50.0
 21
214.9347415
 31
0.0
  0
LINE
  5
3D3
330
1E
100
AcDbEntity
  8
0
100
AcDbLine
 10
50.0
 20
214.9347415
 30
0.0
 11
51.5
 21
215.4927414999999
 31
0.0
  0
LINE
  5
3D4
330
1E
100
AcDbEntity
  8
0
100
AcDbLine
 10
47.2
 20
215.4927414999999
 30
0.0
 11
49.6
 21
215.4927414999999
 31
0.0
  0
LINE
  5
3D5
330
1E
100
AcDbEntity
  8
0
100
AcDbLine
 10
49.6
 20
215.4927414999999
 30
0.0
 11
51.0
 21
215.4927414999999
 31
0.0
  0
LINE
  5
3D6
330
1E
100
AcDbEntity
  8
0
100
AcDbLine
 10
51.5
 20
215.4927414999999
 30
0.0
 11
52.0
 21
217.1657414999999
 31
0.0
  0
LINE
  5
3D7
330
1E
100
AcDbEntity
  8
0
100
AcDbLine
 10
51.0
 20
215.4927414999999
 30
0.0
 11
51.5
 21
215.4927414999999
 31
0.0
  0
LINE
  5
3D8
330
1E
100
AcDbEntity
  8
0
100
AcDbLine
 10
51.5
 20
215.4927414999999
 30
0.0
 11
52.0
 21
217.1657414999999
 31
0.0
  0
LINE
  5
3D9
330
1E
100
AcDbEntity
  8
0
100
AcDbLine
 10
52.0
 20
217.1657414999999
 30
0.0
 11
52.0
 21
226.0887415
 31
0.0
  0
LINE
  5
3DA
330
1E
100
AcDbEntity
  8
0
100
AcDbLine
 10
47.6
 20
226.0887415
 30
0.0
 11
50.0
 21
226.0887415
 31
0.0
  0
LINE
  5
3DB
330
1E
100
AcDbEntity
  8
0
100
AcDbLine
 10
50.0
 20
226.0887415
 30
0.0
 11
51.5
 21
226.0887415
 31
0.0
  0
LINE
  5
3DC
330
1E
100
AcDbEntity
  8
0
100
AcDbLine
 10
52.0
 20
226.0887415
 30
0.0
 11
53.0
 21
227.2037415
 31
0.0
  0
LINE
  5
3DD
330
1E
100
AcDbEntity
  8
0
100
AcDbLine
 10
52.0
 20
226.0887415
 30
0.0
 11
52.0
 21
217.1657414999999
 31
0.0
  0
LINE
  5
3DE
330
1E
100
AcDbEntity
  8
0
100
AcDbLine
 10
51.5
 20
226.0887415
 30
0.0
 11
52.0
 21
226.0887415
 31
0.0
  0
LINE
  5
3DF
330
1E
100
AcDbEntity
  8
0
100
AcDbLine
 10
53.0
 20
227.2037415
 30
0.0
 11
54.5
 21
227.7617414999999
 31
0.0
  0
LINE
  5
3E0
330
1E
100
AcDbEntity
  8
0
100
AcDbLine
 10
52.0
 20
226.0887415
 30
0.0
 11
53.0
 21
227.2037415
 31
0.0
  0
LINE
  5
3E1
330
1E
100
AcDbEntity
  8
0
100
AcDbLine
 10
53.0
 20
227.2037415
 30
0.0
 11
54.5
 21
227.7617414999999
 31
0.0
  0
LINE
  5
3E2
330
1E
100
AcDbEntity
  8
0
100
AcDbLine
 10
49.4
 20
227.7617414999999
 30
0.0
 11
52.2
 21
227.7617414999999
 31
0.0
  0
LINE
  5
3E3
330
1E
100
AcDbEntity
  8
0
100
AcDbLine
 10
52.2
 20
227.7617414999999
 30
0.0
 11
53.9
 21
227.7617414999999
 31
0.0
  0
LINE
  5
3E4
330
1E
100
AcDbEntity
  8
0
100
AcDbLine
 10
54.5
 20
227.7617414999999
 30
0.0
 11
55.0
 21
229.4347415
 31
0.0
  0
LINE
  5
3E5
330
1E
100
AcDbEntity
  8
0
100
AcDbLine
 10
53.9
 20
227.7617414999999
 30
0.0
 11
54.5
 21
227.7617414999999
 31
0.0
  0
LINE
  5
3E6
330
1E
100
AcDbEntity
  8
0
100
AcDbLine
 10
54.5
 20
227.7617414999999
 30
0.0
 11
55.0
 21
229.4347415
 31
0.0
  0
LINE
  5
3E7
330
1E
100
AcDbEntity
  8
0
100
AcDbLine
 10
55.0
 20
229.4347415
 30
0.0
 11
55.0
 21
230.5497415
 31
0.0
  0
LINE
  5
3E8
330
1E
100
AcDbEntity
  8
0
100
AcDbLine
 10
55.0
 20
230.5497415
 30
0.0
 11
56.5
 21
235.0117415
 31
0.0
  0
LINE
  5
3E9
330
1E
100
AcDbEntity
  8
0
100
AcDbLine
 10
55.0
 20
230.5497415
 30
0.0
 11
55.0
 21
229.4347415
 31
0.0
  0
LINE
  5
3EA
330
1E
100
AcDbEntity
  8
0
100
AcDbLine
 10
56.5
 20
235.0117415
 30
0.0
 11
59.5
 21
238.9157415
 31
0.0
  0
LINE
  5
3EB
330
1E
100
AcDbEntity
  8
0
100
AcDbLine
 10
55.0
 20
230.5497415
 30
0.0
 11
56.5
 21
235.0117415
 31
0.0
  0
LINE
  5
3EC
330
1E
100
AcDbEntity
  8
0
100
AcDbLine
 10
60.2258
 20
215.6587415
 30
0.0
 11
62.1637
 21
218.0507415
 31
0.0
  0
LINE
  5
3ED
330
1E
100
AcDbEntity
  8
0
100
AcDbLine
 10
56.5
 20
235.0117415
 30
0.0
 11
59.5
 21
238.9157415
 31
0.0
  0
LINE
  5
3EE
330
1E
100
AcDbEntity
  8
0
100
AcDbLine
 10
59.5
 20
238.9157415
 30
0.0
 11
62.0
 21
240.5887415
 31
0.0
  0
LINE
  5
3EF
330
1E
100
AcDbEntity
  8
0
100
AcDbLine
 10
62.0
 20
240.5887415
 30
0.0
 11
63.5
 21
241.1467415
 31
0.0
  0
LINE
  5
3F0
330
1E
100
AcDbEntity
  8
0
100
AcDbLine
 10
59.5
 20
238.9157415
 30
0.0
 11
62.0
 21
240.5887415
 31
0.0
  0
LINE
  5
3F1
330
1E
100
AcDbEntity
  8
0
100
AcDbLine
 10
62.1637
 20
218.0507415
 30
0.0
 11
64.9615
 21
219.4797415
 31
0.0
  0
LINE
  5
3F2
330
1E
100
AcDbEntity
  8
0
100
AcDbLine
 10
62.0
 20
240.5887415
 30
0.0
 11
63.5
 21
241.1467415
 31
0.0
  0
LINE
  5
3F3
330
1E
100
AcDbEntity
  8
0
100
AcDbLine
 10
55.7
 20
241.1467415
 30
0.0
 11
60.0
 21
241.1467415
 31
0.0
  0
LINE
  5
3F4
330
1E
100
AcDbEntity
  8
0
100
AcDbLine
 10
60.0
 20
241.1467415
 30
0.0
 11
62.5
 21
241.1467415
 31
0.0
  0
LINE
  5
3F5
330
1E
100
AcDbEntity
  8
0
100
AcDbLine
 10
56.1
 20
243.9347414999999
 30
0.0
 11
60.4
 21
243.9347414999999
 31
0.0
  0
LINE
  5
3F6
330
1E
100
AcDbEntity
  8
0
100
AcDbLine
 10
63.5
 20
241.1467415
 30
0.0
 11
64.0
 21
242.8197415
 31
0.0
  0
LINE
  5
3F7
330
1E
100
AcDbEntity
  8
0
100
AcDbLine
 10
62.5
 20
241.1467415
 30
0.0
 11
63.5
 21
241.1467415
 31
0.0
  0
LINE
  5
3F8
330
1E
100
AcDbEntity
  8
0
100
AcDbLine
 10
64.0
 20
243.9347414999999
 30
0.0
 11
64.0
 21
242.8197415
 31
0.0
  0
LINE
  5
3F9
330
1E
100
AcDbEntity
  8
0
100
AcDbLine
 10
60.4
 20
243.9347414999999
 30
0.0
 11
63.0
 21
243.9347414999999
 31
0.0
  0
LINE
  5
3FA
330
1E
100
AcDbEntity
  8
0
100
AcDbLine
 10
63.0
 20
243.9347414999999
 30
0.0
 11
64.0
 21
243.9347414999999
 31
0.0
  0
LINE
  5
3FB
330
1E
100
AcDbEntity
  8
0
100
AcDbLine
 10
50.2
 20
241.1467415
 30
0.0
 11
55.7
 21
241.1467415
 31
0.0
  0
LINE
  5
3FC
330
1E
100
AcDbEntity
  8
0
100
AcDbLine
 10
50.4
 20
243.9347414999999
 30
0.0
 11
56.1
 21
243.9347414999999
 31
0.0
  0
LINE
  5
3FD
330
1E
100
AcDbEntity
  8
0
100
AcDbLine
 10
63.5
 20
241.1467415
 30
0.0
 11
64.0
 21
242.8197415
 31
0.0
  0
LINE
  5
3FE
330
1E
100
AcDbEntity
  8
0
100
AcDbLine
 10
71.23899999999999
 20
218.8077414999999
 30
0.0
 11
73.723
 21
216.9867415
 31
0.0
  0
LINE
  5
3FF
330
1E
100
AcDbEntity
  8
0
100
AcDbLine
 10
73.723
 20
216.9867415
 30
0.0
 11
75.502
 21
214.4707415
 31
0.0
  0
LINE
  5
400
330
1E
100
AcDbEntity
  8
0
100
AcDbLine
 10
68.10500000000001
 20
219.7427414999999
 30
0.0
 11
71.23899999999999
 21
218.8077414999999
 31
0.0
  0
LINE
  5
401
330
1E
100
AcDbEntity
  8
0
100
AcDbLine
 10
64.9615
 20
219.4797415
 30
0.0
 11
68.10500000000001
 21
219.7427414999999
 31
0.0
  0
LINE
  5
402
330
1E
100
AcDbEntity
  8
0
100
AcDbLine
 10
64.0
 20
242.8197415
 30
0.0
 11
64.0
 21
243.9347414999999
 31
0.0
  0
LINE
  5
403
330
1E
100
AcDbEntity
  8
0
100
AcDbLine
 10
46.5
 20
213.4347415
 30
0.0
 11
47.0
 21
214.9347415
 31
0.0
  0
LINE
  5
408
330
1E
100
AcDbEntity
  8
0
100
AcDbLine
 10
24.0
 20
187.9347414999999
 30
0.0
 11
24.4333
 21
184.5547415
 31
0.0
  0
LINE
  5
409
330
1E
100
AcDbEntity
  8
0
100
AcDbLine
 10
22.5
 20
184.0347415
 30
0.0
 11
24.0
 21
180.4347415
 31
0.0
  0
LINE
  5
40A
330
1E
100
AcDbEntity
  8
0
100
AcDbLine
 10
50.0
 20
195.4347414999999
 30
0.0
 11
51.5
 21
191.8347415
 31
0.0
  0
LINE
  5
40B
330
1E
100
AcDbEntity
  8
0
100
AcDbLine
 10
50.0
 20
180.4347415
 30
0.0
 11
51.5
 21
184.0347415
 31
0.0
  0
LINE
  5
40C
330
1E
100
AcDbEntity
  8
0
100
AcDbLine
 10
46.1867
 20
178.7477415
 30
0.0
 11
48.244806496303
 21
181.4457545762836
 31
0.0
  0
LINE
  5
40D
330
1E
100
AcDbEntity
  8
0
100
AcDbLine
 10
48.244806496303
 20
181.4457545762836
 30
0.0
 11
49.56669999999999
 21
184.5547415
 31
0.0
  0
LINE
  5
40E
330
1E
100
AcDbEntity
  8
0
100
AcDbLine
 10
40.38
 20
200.5017415
 30
0.0
 11
43.5
 21
199.2017415
 31
0.0
  0
ENDSEC
  0
SECTION
  2
OBJECTS
  0
DICTIONARY
  5
C
330
0
100
AcDbDictionary
281
     1
  3
ACAD_GROUP
350
D
  3
ACAD_LAYOUT
350
19
  3
ACAD_MLINESTYLE
350
16
  3
ACAD_PLOTSETTINGS
350
18
  3
ACAD_PLOTSTYLENAME
350
E
  3
AcDbVariableDictionary
350
40F
  0
DICTIONARY
  5
D
102
{ACAD_REACTORS
330
C
102
}
330
C
100
AcDbDictionary
281
     1
  0
DICTIONARY
  5
19
102
{ACAD_REACTORS
330
C
102
}
330
C
100
AcDbDictionary
281
     1
  3
Layout1
350
1D
  3
Model
350
21
  0
DICTIONARY
  5
16
102
{ACAD_REACTORS
330
C
102
}
330
C
100
AcDbDictionary
281
     1
  3
Standard
350
17
  0
DICTIONARY
  5
18
102
{ACAD_REACTORS
330
C
102
}
330
C
100
AcDbDictionary
281
     1
  0
ACDBDICTIONARYWDFLT
  5
E
102
{ACAD_REACTORS
330
C
102
}
330
C
100
AcDbDictionary
281
     1
  3
Normal
350
F
100
AcDbDictionaryWithDefault
340
F
  0
DICTIONARY
  5
40F
102
{ACAD_REACTORS
330
C
102
}
330
C
100
AcDbDictionary
281
     1
  3
DIMASSOC
350
410
  0
LAYOUT
  5
1D
102
{ACAD_REACTORS
330
19
102
}
330
19
100
AcDbPlotSettings
  1

  2
hp deskjet 980c series
  4

  6

 40
0.0
 41
0.0
 42
0.0
 43
0.0
 44
0.0
 45
0.0
 46
0.0
 47
0.0
 48
0.0
 49
0.0
140
0.0
141
0.0
142
1.0
143
1.0
 70
   688
 72
     0
 73
     0
 74
     5
  7

 75
    16
147
1.0
148
0.0
149
0.0
100
AcDbLayout
  1
Layout1
 70
     1
 71
     1
 10
0.0
 20
0.0
 11
12.0
 21
9.0
 12
0.0
 22
0.0
 32
0.0
 14
1.000000000000000E+20
 24
1.000000000000000E+20
 34
1.000000000000000E+20
 15
-1.000000000000000E+20
 25
-1.000000000000000E+20
 35
-1.000000000000000E+20
146
0.0
 13
0.0
 23
0.0
 33
0.0
 16
1.0
 26
0.0
 36
0.0
 17
0.0
 27
1.0
 37
0.0
 76
     0
330
1A
  0
LAYOUT
  5
21
102
{ACAD_REACTORS
330
19
102
}
330
19
100
AcDbPlotSettings
  1

  2
hp deskjet 980c series
  4

  6

 40
0.0
 41
0.0
 42
0.0
 43
0.0
 44
0.0
 45
0.0
 46
0.0
 47
0.0
 48
0.0
 49
0.0
140
0.0
141
0.0
142
1.0
143
1.0
 70
  1712
 72
     0
 73
     0
 74
     0
  7

 75
     0
147
1.0
148
0.0
149
0.0
100
AcDbLayout
  1
Model
 70
     1
 71
     0
 10
0.0
 20
0.0
 11
12.0
 21
9.0
 12
0.0
 22
0.0
 32
0.0
 14
0.0
 24
0.0
 34
0.0
 15
0.0
 25
0.0
 35
0.0
146
0.0
 13
0.0
 23
0.0
 33
0.0
 16
1.0
 26
0.0
 36
0.0
 17
0.0
 27
1.0
 37
0.0
 76
     0
330
1E
  0
MLINESTYLE
  5
17
102
{ACAD_REACTORS
330
16
102
}
330
16
100
AcDbMlineStyle
  2
STANDARD
 70
     0
  3

 62
   256
 51
90.0
 52
90.0
 71
     2
 49
0.5
 62
   256
  6
BYLAYER
 49
-0.5
 62
   256
  6
BYLAYER
  0
ACDBPLACEHOLDER
  5
F
102
{ACAD_REACTORS
330
E
102
}
330
E
  0
DICTIONARYVAR
  5
410
102
{ACAD_REACTORS
330
40F
102
}
330
40F
100
DictionaryVariables
280
     0
  1
1
  0
ENDSEC
  0
EOF
