  0
SECTION
  2
HEADER
  9
$ACADVER
  1
AC1015
  9
$ACADMAINTVER
 70
    13
  9
$DWGCODEPAGE
  3
ANSI_1252
  9
$INSBASE
 10
0.0
 20
0.0
 30
0.0
  9
$EXTMIN
 10
0.0000000000000004
 20
0.0120999999999868
 30
0.0
  9
$EXTMAX
 10
60.0
 20
152.9879
 30
0.0
  9
$LIMMIN
 10
0.0
 20
0.0
  9
$LIMMAX
 10
12.0
 20
9.0
  9
$ORTHOMODE
 70
     0
  9
$REGENMODE
 70
     1
  9
$FILLMODE
 70
     1
  9
$QTEXTMODE
 70
     0
  9
$MIRRTEXT
 70
     1
  9
$LTSCALE
 40
1.0
  9
$ATTMODE
 70
     1
  9
$TEXTSIZE
 40
0.2
  9
$TRACEWID
 40
0.05
  9
$TEXTSTYLE
  7
Standard
  9
$CLAYER
  8
0
  9
$CELTYPE
  6
Continuous
  9
$CECOLOR
 62
   256
  9
$CELTSCALE
 40
1.0
  9
$DISPSILH
 70
     0
  9
$DIMSCALE
 40
1.0
  9
$DIMASZ
 40
0.18
  9
$DIMEXO
 40
0.0625
  9
$DIMDLI
 40
0.38
  9
$DIMRND
 40
0.0
  9
$DIMDLE
 40
0.0
  9
$DIMEXE
 40
0.18
  9
$DIMTP
 40
0.0
  9
$DIMTM
 40
0.0
  9
$DIMTXT
 40
0.18
  9
$DIMCEN
 40
0.09
  9
$DIMTSZ
 40
0.0
  9
$DIMTOL
 70
     0
  9
$DIMLIM
 70
     0
  9
$DIMTIH
 70
     1
  9
$DIMTOH
 70
     1
  9
$DIMSE1
 70
     0
  9
$DIMSE2
 70
     0
  9
$DIMTAD
 70
     0
  9
$DIMZIN
 70
     0
  9
$DIMBLK
  1

  9
$DIMASO
 70
     1
  9
$DIMSHO
 70
     1
  9
$DIMPOST
  1

  9
$DIMAPOST
  1

  9
$DIMALT
 70
     0
  9
$DIMALTD
 70
     2
  9
$DIMALTF
 40
25.4
  9
$DIMLFAC
 40
1.0
  9
$DIMTOFL
 70
     0
  9
$DIMTVP
 40
0.0
  9
$DIMTIX
 70
     0
  9
$DIMSOXD
 70
     0
  9
$DIMSAH
 70
     0
  9
$DIMBLK1
  1

  9
$DIMBLK2
  1

  9
$DIMSTYLE
  2
Standard
  9
$DIMCLRD
 70
     0
  9
$DIMCLRE
 70
     0
  9
$DIMCLRT
 70
     0
  9
$DIMTFAC
 40
1.0
  9
$DIMGAP
 40
0.09
  9
$DIMJUST
 70
     0
  9
$DIMSD1
 70
     0
  9
$DIMSD2
 70
     0
  9
$DIMTOLJ
 70
     1
  9
$DIMTZIN
 70
     0
  9
$DIMALTZ
 70
     0
  9
$DIMALTTZ
 70
     0
  9
$DIMUPT
 70
     0
  9
$DIMDEC
 70
     4
  9
$DIMTDEC
 70
     4
  9
$DIMALTU
 70
     2
  9
$DIMALTTD
 70
     2
  9
$DIMTXSTY
  7
Standard
  9
$DIMAUNIT
 70
     0
  9
$DIMADEC
 70
     0
  9
$DIMALTRND
 40
0.0
  9
$DIMAZIN
 70
     0
  9
$DIMDSEP
 70
    46
  9
$DIMATFIT
 70
     3
  9
$DIMFRAC
 70
     0
  9
$DIMLDRBLK
  1

  9
$DIMLUNIT
 70
     2
  9
$DIMLWD
 70
    -2
  9
$DIMLWE
 70
    -2
  9
$DIMTMOVE
 70
     0
  9
$LUNITS
 70
     2
  9
$LUPREC
 70
     4
  9
$SKETCHINC
 40
0.1
  9
$FILLETRAD
 40
0.0
  9
$AUNITS
 70
     0
  9
$AUPREC
 70
     0
  9
$MENU
  1
.
  9
$ELEVATION
 40
0.0
  9
$PELEVATION
 40
0.0
  9
$THICKNESS
 40
0.0
  9
$LIMCHECK
 70
     0
  9
$CHAMFERA
 40
0.0
  9
$CHAMFERB
 40
0.0
  9
$CHAMFERC
 40
0.0
  9
$CHAMFERD
 40
0.0
  9
$SKPOLY
 70
     0
  9
$TDCREATE
 40
2454749.828275463
  9
$TDUCREATE
 40
2454749.744942129
  9
$TDUPDATE
 40
2454749.834330682
  9
$TDUUPDATE
 40
2454749.750997349
  9
$TDINDWG
 40
0.0060552199
  9
$TDUSRTIMER
 40
0.0060552199
  9
$USRTIMER
 70
     1
  9
$ANGBASE
 50
0.0
  9
$ANGDIR
 70
     0
  9
$PDMODE
 70
     0
  9
$PDSIZE
 40
0.0
  9
$PLINEWID
 40
0.0
  9
$SPLFRAME
 70
     0
  9
$SPLINETYPE
 70
     6
  9
$SPLINESEGS
 70
     8
  9
$HANDSEED
  5
212
  9
$SURFTAB1
 70
     6
  9
$SURFTAB2
 70
     6
  9
$SURFTYPE
 70
     6
  9
$SURFU
 70
     6
  9
$SURFV
 70
     6
  9
$UCSBASE
  2

  9
$UCSNAME
  2

  9
$UCSORG
 10
0.0
 20
0.0
 30
0.0
  9
$UCSXDIR
 10
1.0
 20
0.0
 30
0.0
  9
$UCSYDIR
 10
0.0
 20
1.0
 30
0.0
  9
$UCSORTHOREF
  2

  9
$UCSORTHOVIEW
 70
     1
  9
$UCSORGTOP
 10
0.0
 20
0.0
 30
0.0
  9
$UCSORGBOTTOM
 10
0.0
 20
0.0
 30
0.0
  9
$UCSORGLEFT
 10
0.0
 20
0.0
 30
0.0
  9
$UCSORGRIGHT
 10
0.0
 20
0.0
 30
0.0
  9
$UCSORGFRONT
 10
0.0
 20
0.0
 30
0.0
  9
$UCSORGBACK
 10
0.0
 20
0.0
 30
0.0
  9
$PUCSBASE
  2

  9
$PUCSNAME
  2

  9
$PUCSORG
 10
0.0
 20
0.0
 30
0.0
  9
$PUCSXDIR
 10
1.0
 20
0.0
 30
0.0
  9
$PUCSYDIR
 10
0.0
 20
1.0
 30
0.0
  9
$PUCSORTHOREF
  2

  9
$PUCSORTHOVIEW
 70
     0
  9
$PUCSORGTOP
 10
0.0
 20
0.0
 30
0.0
  9
$PUCSORGBOTTOM
 10
0.0
 20
0.0
 30
0.0
  9
$PUCSORGLEFT
 10
0.0
 20
0.0
 30
0.0
  9
$PUCSORGRIGHT
 10
0.0
 20
0.0
 30
0.0
  9
$PUCSORGFRONT
 10
0.0
 20
0.0
 30
0.0
  9
$PUCSORGBACK
 10
0.0
 20
0.0
 30
0.0
  9
$USERI1
 70
     0
  9
$USERI2
 70
     0
  9
$USERI3
 70
     0
  9
$USERI4
 70
     0
  9
$USERI5
 70
     0
  9
$USERR1
 40
0.0
  9
$USERR2
 40
0.0
  9
$USERR3
 40
0.0
  9
$USERR4
 40
0.0
  9
$USERR5
 40
0.0
  9
$WORLDVIEW
 70
     1
  9
$SHADEDGE
 70
     3
  9
$SHADEDIF
 70
    70
  9
$TILEMODE
 70
     1
  9
$MAXACTVP
 70
    64
  9
$PINSBASE
 10
0.0
 20
0.0
 30
0.0
  9
$PLIMCHECK
 70
     0
  9
$PEXTMIN
 10
1.000000000000000E+20
 20
1.000000000000000E+20
 30
1.000000000000000E+20
  9
$PEXTMAX
 10
-1.000000000000000E+20
 20
-1.000000000000000E+20
 30
-1.000000000000000E+20
  9
$PLIMMIN
 10
0.0
 20
0.0
  9
$PLIMMAX
 10
12.0
 20
9.0
  9
$UNITMODE
 70
     0
  9
$VISRETAIN
 70
     1
  9
$PLINEGEN
 70
     0
  9
$PSLTSCALE
 70
     1
  9
$TREEDEPTH
 70
  3020
  9
$CMLSTYLE
  2
Standard
  9
$CMLJUST
 70
     0
  9
$CMLSCALE
 40
1.0
  9
$PROXYGRAPHICS
 70
     1
  9
$MEASUREMENT
 70
     0
  9
$CELWEIGHT
370
    -1
  9
$ENDCAPS
280
     0
  9
$JOINSTYLE
280
     0
  9
$LWDISPLAY
290
     0
  9
$INSUNITS
 70
     0
  9
$HYPERLINKBASE
  1

  9
$STYLESHEET
  1

  9
$XEDIT
290
     1
  9
$CEPSNTYPE
380
     0
  9
$PSTYLEMODE
290
     1
  9
$FINGERPRINTGUID
  2
{A51AE15D-A39C-414D-B545-4F84CA02261A}
  9
$VERSIONGUID
  2
{CDC379D2-6FEA-4FCA-A6B4-D8D15BE4AF69}
  9
$EXTNAMES
290
     1
  9
$PSVPSCALE
 40
0.0
  9
$OLESTARTUP
290
     0
  0
ENDSEC
  0
SECTION
  2
CLASSES
  0
CLASS
  1
ACDBDICTIONARYWDFLT
  2
AcDbDictionaryWithDefault
  3
AutoCAD 2000
 90
        0
280
     0
281
     0
  0
CLASS
  1
ACDBPLACEHOLDER
  2
AcDbPlaceHolder
  3
AutoCAD 2000
 90
        0
280
     0
281
     0
  0
CLASS
  1
LAYOUT
  2
AcDbLayout
  3
AutoCAD 2000
 90
        0
280
     0
281
     0
  0
CLASS
  1
DICTIONARYVAR
  2
AcDbDictionaryVar
  3
AutoCAD 2000
 90
        0
280
     0
281
     0
  0
ENDSEC
  0
SECTION
  2
TABLES
  0
TABLE
  2
VPORT
  5
8
330
0
100
AcDbSymbolTable
 70
     2
  0
VPORT
  5
211
330
8
100
AcDbSymbolTableRecord
100
AcDbViewportTableRecord
  2
*Active
 70
     0
 10
0.0
 20
0.0
 11
1.0
 21
1.0
 12
30.0
 22
76.5
 13
0.0
 23
0.0
 14
1.0
 24
1.0
 15
0.0
 25
0.0
 16
0.0
 26
0.0
 36
1.0
 17
0.0
 27
0.0
 37
0.0
 40
154.1495273657289
 41
2.078104993597951
 42
50.0
 43
0.0
 44
0.0
 50
0.0
 51
0.0
 71
     0
 72
   100
 73
     1
 74
     3
 75
     0
 76
     0
 77
     0
 78
     0
281
     0
 65
     1
110
0.0
120
0.0
130
0.0
111
1.0
121
0.0
131
0.0
112
0.0
122
1.0
132
0.0
 79
     1
146
0.0
  0
ENDTAB
  0
TABLE
  2
LTYPE
  5
5
330
0
100
AcDbSymbolTable
 70
     1
  0
LTYPE
  5
13
330
5
100
AcDbSymbolTableRecord
100
AcDbLinetypeTableRecord
  2
ByBlock
 70
     0
  3

 72
    65
 73
     0
 40
0.0
  0
LTYPE
  5
14
330
5
100
AcDbSymbolTableRecord
100
AcDbLinetypeTableRecord
  2
ByLayer
 70
     0
  3

 72
    65
 73
     0
 40
0.0
  0
LTYPE
  5
15
330
5
100
AcDbSymbolTableRecord
100
AcDbLinetypeTableRecord
  2
Continuous
 70
     0
  3
Solid line
 72
    65
 73
     0
 40
0.0
  0
ENDTAB
  0
TABLE
  2
LAYER
  5
2
330
0
100
AcDbSymbolTable
 70
     1
  0
LAYER
  5
10
330
2
100
AcDbSymbolTableRecord
100
AcDbLayerTableRecord
  2
0
 70
     0
 62
     7
  6
Continuous
370
    -3
390
F
  0
ENDTAB
  0
TABLE
  2
STYLE
  5
3
330
0
100
AcDbSymbolTable
 70
     1
  0
STYLE
  5
11
330
3
100
AcDbSymbolTableRecord
100
AcDbTextStyleTableRecord
  2
Standard
 70
     0
 40
0.0
 41
1.0
 50
0.0
 71
     0
 42
0.2
  3
txt
  4

  0
ENDTAB
  0
TABLE
  2
VIEW
  5
6
330
0
100
AcDbSymbolTable
 70
     0
  0
ENDTAB
  0
TABLE
  2
UCS
  5
7
330
0
100
AcDbSymbolTable
 70
     0
  0
ENDTAB
  0
TABLE
  2
APPID
  5
9
330
0
100
AcDbSymbolTable
 70
     1
  0
APPID
  5
12
330
9
100
AcDbSymbolTableRecord
100
AcDbRegAppTableRecord
  2
ACAD
 70
     0
  0
ENDTAB
  0
TABLE
  2
DIMSTYLE
  5
A
330
0
100
AcDbSymbolTable
 70
     1
100
AcDbDimStyleTable
 71
     0
  0
DIMSTYLE
105
207
330
A
100
AcDbSymbolTableRecord
100
AcDbDimStyleTableRecord
  2
Standard
 70
     0
340
11
  0
ENDTAB
  0
TABLE
  2
BLOCK_RECORD
  5
1
330
0
100
AcDbSymbolTable
 70
     0
  0
BLOCK_RECORD
  5
1E
330
1
100
AcDbSymbolTableRecord
100
AcDbBlockTableRecord
  2
*Model_Space
340
21
  0
BLOCK_RECORD
  5
1A
330
1
100
AcDbSymbolTableRecord
100
AcDbBlockTableRecord
  2
*Paper_Space
340
1D
  0
ENDTAB
  0
ENDSEC
  0
SECTION
  2
BLOCKS
  0
BLOCK
  5
1F
330
1E
100
AcDbEntity
  8
0
100
AcDbBlockBegin
  2
*Model_Space
 70
     0
 10
0.0
 20
0.0
 30
0.0
  3
*Model_Space
  1

  0
ENDBLK
  5
20
330
1E
100
AcDbEntity
  8
0
100
AcDbBlockEnd
  0
BLOCK
  5
1B
330
1A
100
AcDbEntity
 67
     1
  8
0
100
AcDbBlockBegin
  2
*Paper_Space
 70
     0
 10
0.0
 20
0.0
 30
0.0
  3
*Paper_Space
  1

  0
ENDBLK
  5
1C
330
1A
100
AcDbEntity
 67
     1
  8
0
100
AcDbBlockEnd
  0
ENDSEC
  0
SECTION
  2
ENTITIES
  0
LINE
  5
22
330
1E
100
AcDbEntity
  8
0
100
AcDbLine
 10
0.500000000000001
 20
122.9878999999999
 30
0.0
 11
1.6
 21
115.3879
 31
0.0
  0
LINE
  5
23
330
1E
100
AcDbEntity
  8
0
100
AcDbLine
 10
0.500000000000001
 20
122.9878999999999
 30
0.0
 11
1.6
 21
130.5879
 31
0.0
  0
LINE
  5
24
330
1E
100
AcDbEntity
  8
0
100
AcDbLine
 10
0.0000000000000004
 20
122.9878999999999
 30
0.0
 11
1.1
 21
115.2878999999999
 31
0.0
  0
LINE
  5
25
330
1E
100
AcDbEntity
  8
0
100
AcDbLine
 10
0.0000000000000004
 20
122.9878999999999
 30
0.0
 11
1.1
 21
130.6879
 31
0.0
  0
LINE
  5
26
330
1E
100
AcDbEntity
  8
0
100
AcDbLine
 10
1.0
 20
123.7878999999999
 30
0.0
 11
1.0
 21
122.9878999999999
 31
0.0
  0
LINE
  5
27
330
1E
100
AcDbEntity
  8
0
100
AcDbLine
 10
1.0
 20
123.7878999999999
 30
0.0
 11
1.5
 21
124.2879
 31
0.0
  0
LINE
  5
28
330
1E
100
AcDbEntity
  8
0
100
AcDbLine
 10
1.0
 20
123.7878999999999
 30
0.0
 11
1.35617
 21
123.7878999999999
 31
0.0
  0
LINE
  5
29
330
1E
100
AcDbEntity
  8
0
100
AcDbLine
 10
1.0
 20
122.9878999999999
 30
0.0
 11
1.0
 21
122.1878999999999
 31
0.0
  0
LINE
  5
2A
330
1E
100
AcDbEntity
  8
0
100
AcDbLine
 10
1.0
 20
122.9878999999999
 30
0.0
 11
1.0
 21
123.7878999999999
 31
0.0
  0
LINE
  5
2B
330
1E
100
AcDbEntity
  8
0
100
AcDbLine
 10
1.1
 20
115.2878999999999
 30
0.0
 11
4.0
 21
108.0879
 31
0.0
  0
LINE
  5
2C
330
1E
100
AcDbEntity
  8
0
100
AcDbLine
 10
1.1
 20
115.2878999999999
 30
0.0
 11
4.0
 21
108.0879
 31
0.0
  0
LINE
  5
2D
330
1E
100
AcDbEntity
  8
0
100
AcDbLine
 10
1.1
 20
115.2878999999999
 30
0.0
 11
4.0
 21
108.0879
 31
0.0
  0
LINE
  5
2E
330
1E
100
AcDbEntity
  8
0
100
AcDbLine
 10
1.1
 20
115.2878999999999
 30
0.0
 11
4.0
 21
108.0879
 31
0.0
  0
LINE
  5
2F
330
1E
100
AcDbEntity
  8
0
100
AcDbLine
 10
1.683098591549299
 20
121.6512802816899
 30
0.0
 11
2.5
 21
115.6878999999999
 31
0.0
  0
LINE
  5
30
330
1E
100
AcDbEntity
  8
0
100
AcDbLine
 10
1.683098591549299
 20
121.6512802816899
 30
0.0
 11
2.5
 21
115.6878999999999
 31
0.0
  0
LINE
  5
31
330
1E
100
AcDbEntity
  8
0
100
AcDbLine
 10
1.6
 20
115.3879
 30
0.0
 11
4.5
 21
108.2878999999999
 31
0.0
  0
LINE
  5
32
330
1E
100
AcDbEntity
  8
0
100
AcDbLine
 10
1.5
 20
121.6879
 30
0.0
 11
4.0
 21
121.1878999999999
 31
0.0
  0
LINE
  5
33
330
1E
100
AcDbEntity
  8
0
100
AcDbLine
 10
1.5
 20
121.6879
 30
0.0
 11
4.0
 21
121.1878999999999
 31
0.0
  0
LINE
  5
35
330
1E
100
AcDbEntity
  8
0
100
AcDbLine
 10
2.717391304347829
 20
121.44442173913
 30
0.0
 11
3.5
 21
115.8878999999999
 31
0.0
  0
LINE
  5
37
330
1E
100
AcDbEntity
  8
0
100
AcDbLine
 10
2.5
 20
115.6878999999999
 30
0.0
 11
5.299999999999999
 21
108.7879
 31
0.0
  0
LINE
  5
38
330
1E
100
AcDbEntity
  8
0
100
AcDbLine
 10
3.5
 20
115.8878999999999
 30
0.0
 11
6.2
 21
109.2878999999999
 31
0.0
  0
LINE
  5
3B
330
1E
100
AcDbEntity
  8
0
100
AcDbLine
 10
6.2
 20
109.2878999999999
 30
0.0
 11
10.6
 21
103.5878999999999
 31
0.0
  0
LINE
  5
3C
330
1E
100
AcDbEntity
  8
0
100
AcDbLine
 10
5.299999999999999
 20
108.7879
 30
0.0
 11
9.9
 21
102.8879
 31
0.0
  0
LINE
  5
3D
330
1E
100
AcDbEntity
  8
0
100
AcDbLine
 10
4.5
 20
108.2878999999999
 30
0.0
 11
9.199999999999999
 21
102.1878999999999
 31
0.0
  0
LINE
  5
3E
330
1E
100
AcDbEntity
  8
0
100
AcDbLine
 10
4.0
 20
108.0879
 30
0.0
 11
8.8
 21
101.7878999999999
 31
0.0
  0
LINE
  5
3F
330
1E
100
AcDbEntity
  8
0
100
AcDbLine
 10
4.0
 20
108.0879
 30
0.0
 11
8.8
 21
101.7878999999999
 31
0.0
  0
LINE
  5
40
330
1E
100
AcDbEntity
  8
0
100
AcDbLine
 10
9.9
 20
102.8879
 30
0.0
 11
15.8
 21
98.28789999999999
 31
0.0
  0
LINE
  5
41
330
1E
100
AcDbEntity
  8
0
100
AcDbLine
 10
9.199999999999999
 20
102.1878999999999
 30
0.0
 11
15.3
 21
97.48789999999999
 31
0.0
  0
LINE
  5
42
330
1E
100
AcDbEntity
  8
0
100
AcDbLine
 10
8.8
 20
101.7878999999999
 30
0.0
 11
15.09999999999999
 21
96.9879
 31
0.0
  0
LINE
  5
43
330
1E
100
AcDbEntity
  8
0
100
AcDbLine
 10
8.8
 20
101.7878999999999
 30
0.0
 11
15.09999999999999
 21
96.9879
 31
0.0
  0
LINE
  5
44
330
1E
100
AcDbEntity
  8
0
100
AcDbLine
 10
10.6
 20
103.5878999999999
 30
0.0
 11
16.3
 21
99.18790000000001
 31
0.0
  0
LINE
  5
45
330
1E
100
AcDbEntity
  8
0
100
AcDbLine
 10
12.19999999999999
 20
112.7878999999999
 30
0.0
 11
15.5
 21
108.4878999999999
 31
0.0
  0
LINE
  5
46
330
1E
100
AcDbEntity
  8
0
100
AcDbLine
 10
12.7
 20
113.0878999999999
 30
0.0
 11
15.9
 21
108.8879
 31
0.0
  0
LINE
  5
47
330
1E
100
AcDbEntity
  8
0
100
AcDbLine
 10
10.2
 20
117.6879
 30
0.0
 11
12.19999999999999
 21
112.7878999999999
 31
0.0
  0
LINE
  5
48
330
1E
100
AcDbEntity
  8
0
100
AcDbLine
 10
10.7
 20
117.8879
 30
0.0
 11
12.7
 21
113.0878999999999
 31
0.0
  0
LINE
  5
49
330
1E
100
AcDbEntity
  8
0
100
AcDbLine
 10
19.0
 20
90.0121
 30
0.0
 11
19.0
 21
95.41706666666669
 31
0.0
  0
LINE
  5
4A
330
1E
100
AcDbEntity
  8
0
100
AcDbLine
 10
19.0
 20
95.41706666666669
 30
0.0
 11
19.0
 21
90.0121
 31
0.0
  0
LINE
  5
4B
330
1E
100
AcDbEntity
  8
0
100
AcDbLine
 10
18.891
 20
90.0121
 30
0.0
 11
19.991
 21
90.0121
 31
0.0
  0
LINE
  5
4C
330
1E
100
AcDbEntity
  8
0
100
AcDbLine
 10
18.49099999999999
 20
90.0121
 30
0.0
 11
19.49099999999999
 21
60.0121
 31
0.0
  0
LINE
  5
4D
330
1E
100
AcDbEntity
  8
0
100
AcDbLine
 10
18.49099999999999
 20
90.0121
 30
0.0
 11
18.891
 21
90.0121
 31
0.0
  0
LINE
  5
4E
330
1E
100
AcDbEntity
  8
0
100
AcDbLine
 10
19.49099999999999
 20
60.0121
 30
0.0
 11
19.89099999999999
 21
60.0121
 31
0.0
  0
LINE
  5
4F
330
1E
100
AcDbEntity
  8
0
100
AcDbLine
 10
15.09999999999999
 20
96.9879
 30
0.0
 11
19.0
 21
95.41706666666669
 31
0.0
  0
LINE
  5
50
330
1E
100
AcDbEntity
  8
0
100
AcDbLine
 10
16.3
 20
99.18790000000001
 30
0.0
 11
22.9
 21
96.48789999999999
 31
0.0
  0
LINE
  5
52
330
1E
100
AcDbEntity
  8
0
100
AcDbLine
 10
15.8
 20
98.28789999999999
 30
0.0
 11
22.7
 21
95.4879
 31
0.0
  0
LINE
  5
53
330
1E
100
AcDbEntity
  8
0
100
AcDbLine
 10
15.3
 20
97.48789999999999
 30
0.0
 11
22.39999999999999
 21
94.5879
 31
0.0
  0
LINE
  5
54
330
1E
100
AcDbEntity
  8
0
100
AcDbLine
 10
15.09999999999999
 20
96.9879
 30
0.0
 11
22.29999999999999
 21
94.08790000000001
 31
0.0
  0
LINE
  5
55
330
1E
100
AcDbEntity
  8
0
100
AcDbLine
 10
19.991
 20
90.0121
 30
0.0
 11
21.89099999999999
 21
90.0121
 31
0.0
  0
LINE
  5
56
330
1E
100
AcDbEntity
  8
0
100
AcDbLine
 10
19.89099999999999
 20
60.0121
 30
0.0
 11
20.89099999999999
 21
60.0121
 31
0.0
  0
LINE
  5
57
330
1E
100
AcDbEntity
  8
0
100
AcDbLine
 10
19.8
 20
105.1879
 30
0.0
 11
24.7
 21
103.1878999999999
 31
0.0
  0
LINE
  5
58
330
1E
100
AcDbEntity
  8
0
100
AcDbLine
 10
15.5
 20
108.4878999999999
 30
0.0
 11
19.8
 21
105.1879
 31
0.0
  0
LINE
  5
59
330
1E
100
AcDbEntity
  8
0
100
AcDbLine
 10
15.9
 20
108.8879
 30
0.0
 11
20.1
 21
105.6878999999999
 31
0.0
  0
LINE
  5
5A
330
1E
100
AcDbEntity
  8
0
100
AcDbLine
 10
20.1
 20
105.6878999999999
 30
0.0
 11
24.9
 21
103.6879
 31
0.0
  0
LINE
  5
5B
330
1E
100
AcDbEntity
  8
0
100
AcDbLine
 10
20.89099999999999
 20
60.0121
 30
0.0
 11
22.59099999999999
 21
60.0121
 31
0.0
  0
LINE
  5
5C
330
1E
100
AcDbEntity
  8
0
100
AcDbLine
 10
20.89099999999999
 20
60.0121
 30
0.0
 11
22.49099999999999
 21
60.0121
 31
0.0
  0
LINE
  5
5D
330
1E
100
AcDbEntity
  8
0
100
AcDbLine
 10
20.69999999999999
 20
113.6878999999999
 30
0.0
 11
23.39999999999999
 21
111.5879
 31
0.0
  0
LINE
  5
5E
330
1E
100
AcDbEntity
  8
0
100
AcDbLine
 10
19.5777
 20
116.9878999999999
 30
0.0
 11
21.49999999999999
 21
114.4878999999999
 31
0.0
  0
LINE
  5
5F
330
1E
100
AcDbEntity
  8
0
100
AcDbLine
 10
18.6
 20
116.3879
 30
0.0
 11
20.69999999999999
 21
113.6878999999999
 31
0.0
  0
LINE
  5
60
330
1E
100
AcDbEntity
  8
0
100
AcDbLine
 10
21.89099999999999
 20
90.0121
 30
0.0
 11
24.291
 21
90.0121
 31
0.0
  0
LINE
  5
61
330
1E
100
AcDbEntity
  8
0
100
AcDbLine
 10
22.854
 20
0.0382999999999878
 30
0.0
 11
23.52899999999999
 21
0.113299999999987
 31
0.0
  0
LINE
  5
62
330
1E
100
AcDbEntity
  8
0
100
AcDbLine
 10
23.52899999999999
 20
0.113299999999987
 30
0.0
 11
24.767
 21
0.488099999999988
 31
0.0
  0
LINE
  5
63
330
1E
100
AcDbEntity
  8
0
100
AcDbLine
 10
24.767
 20
0.488099999999988
 30
0.0
 11
26.268
 21
1.16279999999999
 31
0.0
  0
LINE
  5
64
330
1E
100
AcDbEntity
  8
0
100
AcDbLine
 10
24.767
 20
0.488099999999989
 30
0.0
 11
26.268
 21
1.16279999999999
 31
0.0
  0
LINE
  5
65
330
1E
100
AcDbEntity
  8
0
100
AcDbLine
 10
24.691
 20
60.0121
 30
0.0
 11
26.291
 21
60.0121
 31
0.0
  0
LINE
  5
66
330
1E
100
AcDbEntity
  8
0
100
AcDbLine
 10
23.52899999999999
 20
0.113299999999987
 30
0.0
 11
24.767
 21
0.488099999999989
 31
0.0
  0
LINE
  5
67
330
1E
100
AcDbEntity
  8
0
100
AcDbLine
 10
23.49099999999999
 20
60.0121
 30
0.0
 11
24.691
 21
60.0121
 31
0.0
  0
LINE
  5
68
330
1E
100
AcDbEntity
  8
0
100
AcDbLine
 10
22.791
 20
60.0121
 30
0.0
 11
23.49099999999999
 21
60.0121
 31
0.0
  0
LINE
  5
69
330
1E
100
AcDbEntity
  8
0
100
AcDbLine
 10
22.854
 20
0.038299999999988
 30
0.0
 11
23.52899999999999
 21
0.113299999999987
 31
0.0
  0
LINE
  5
6A
330
1E
100
AcDbEntity
  8
0
100
AcDbLine
 10
22.49099999999999
 20
60.0121
 30
0.0
 11
22.791
 21
60.0121
 31
0.0
  0
LINE
  5
6B
330
1E
100
AcDbEntity
  8
0
100
AcDbLine
 10
22.49099999999999
 20
60.0121
 30
0.0
 11
22.49099999999999
 21
0.0120999999999868
 31
0.0
  0
LINE
  5
6C
330
1E
100
AcDbEntity
  8
0
100
AcDbLine
 10
22.49099999999999
 20
0.0120999999999877
 30
0.0
 11
22.49099999999999
 21
60.0121
 31
0.0
  0
LINE
  5
6D
330
1E
100
AcDbEntity
  8
0
100
AcDbLine
 10
22.49099999999999
 20
0.0120999999999877
 30
0.0
 11
22.854
 21
0.038299999999988
 31
0.0
  0
LINE
  5
6E
330
1E
100
AcDbEntity
  8
0
100
AcDbLine
 10
26.268
 20
1.16279999999999
 30
0.0
 11
28.068
 21
2.28729999999999
 31
0.0
  0
LINE
  5
6F
330
1E
100
AcDbEntity
  8
0
100
AcDbLine
 10
28.068
 20
2.28729999999999
 30
0.0
 11
30.019
 21
4.27379999999999
 31
0.0
  0
LINE
  5
70
330
1E
100
AcDbEntity
  8
0
100
AcDbLine
 10
28.09099999999999
 20
60.0121
 30
0.0
 11
29.991
 21
60.0121
 31
0.0
  0
LINE
  5
71
330
1E
100
AcDbEntity
  8
0
100
AcDbLine
 10
28.068
 20
2.28729999999999
 30
0.0
 11
30.019
 21
4.27379999999999
 31
0.0
  0
LINE
  5
72
330
1E
100
AcDbEntity
  8
0
100
AcDbLine
 10
26.291
 20
60.0121
 30
0.0
 11
28.09099999999999
 21
60.0121
 31
0.0
  0
LINE
  5
73
330
1E
100
AcDbEntity
  8
0
100
AcDbLine
 10
26.268
 20
1.16279999999999
 30
0.0
 11
28.068
 21
2.28729999999999
 31
0.0
  0
LINE
  5
74
330
1E
100
AcDbEntity
  8
0
100
AcDbLine
 10
27.291
 20
60.0121
 30
0.0
 11
29.991
 21
60.0121
 31
0.0
  0
LINE
  5
75
330
1E
100
AcDbEntity
  8
0
100
AcDbLine
 10
24.791
 20
60.0121
 30
0.0
 11
27.291
 21
60.0121
 31
0.0
  0
LINE
  5
76
330
1E
100
AcDbEntity
  8
0
100
AcDbLine
 10
26.991
 20
90.0121
 30
0.0
 11
29.991
 21
90.0121
 31
0.0
  0
LINE
  5
77
330
1E
100
AcDbEntity
  8
0
100
AcDbLine
 10
24.291
 20
90.0121
 30
0.0
 11
26.991
 21
90.0121
 31
0.0
  0
LINE
  5
78
330
1E
100
AcDbEntity
  8
0
100
AcDbLine
 10
22.59099999999999
 20
60.0121
 30
0.0
 11
24.791
 21
60.0121
 31
0.0
  0
LINE
  5
79
330
1E
100
AcDbEntity
  8
0
100
AcDbLine
 10
22.29999999999999
 20
94.08790000000001
 30
0.0
 11
30.0
 21
92.9879
 31
0.0
  0
LINE
  5
7A
330
1E
100
AcDbEntity
  8
0
100
AcDbLine
 10
22.9
 20
96.48789999999999
 30
0.0
 11
28.45652173913039
 21
95.70529130434779
 31
0.0
  0
LINE
  5
7B
330
1E
100
AcDbEntity
  8
0
100
AcDbLine
 10
22.7
 20
95.4879
 30
0.0
 11
28.6633802816901
 21
94.67099859154931
 31
0.0
  0
LINE
  5
7C
330
1E
100
AcDbEntity
  8
0
100
AcDbLine
 10
22.39999999999999
 20
94.5879
 30
0.0
 11
30.0
 21
93.48789999999999
 31
0.0
  0
LINE
  5
7D
330
1E
100
AcDbEntity
  8
0
100
AcDbLine
 10
24.7
 20
103.1878999999999
 30
0.0
 11
27.7906145783707
 21
102.779705621725
 31
0.0
  0
LINE
  5
7E
330
1E
100
AcDbEntity
  8
0
100
AcDbLine
 10
24.9
 20
103.6879
 30
0.0
 11
27.7518573551263
 21
103.296468598316
 31
0.0
  0
LINE
  5
7F
330
1E
100
AcDbEntity
  8
0
100
AcDbLine
 10
28.0
 20
99.98789999999999
 30
0.0
 11
28.2
 21
96.9879
 31
0.0
  0
LINE
  5
86
330
1E
100
AcDbEntity
  8
0
100
AcDbLine
 10
28.2
 20
96.9879
 30
0.0
 11
28.7
 21
94.4879
 31
0.0
  0
LINE
  5
87
330
1E
100
AcDbEntity
  8
0
100
AcDbLine
 10
28.7
 20
94.4879
 30
0.0
 11
29.19999999999999
 21
93.98789999999999
 31
0.0
  0
LINE
  5
88
330
1E
100
AcDbEntity
  8
0
100
AcDbLine
 10
29.991
 20
90.0121
 30
0.0
 11
32.991
 21
90.0121
 31
0.0
  0
LINE
  5
89
330
1E
100
AcDbEntity
  8
0
100
AcDbLine
 10
29.991
 20
60.0121
 30
0.0
 11
31.89099999999999
 21
60.0121
 31
0.0
  0
LINE
  5
8A
330
1E
100
AcDbEntity
  8
0
100
AcDbLine
 10
29.991
 20
60.0121
 30
0.0
 11
32.691
 21
60.0121
 31
0.0
  0
LINE
  5
8B
330
1E
100
AcDbEntity
  8
0
100
AcDbLine
 10
30.0
 20
93.48789999999999
 30
0.0
 11
37.6
 21
94.5879
 31
0.0
  0
LINE
  5
8C
330
1E
100
AcDbEntity
  8
0
100
AcDbLine
 10
30.019
 20
4.27379999999999
 30
0.0
 11
31.78199999999999
 21
5.62319999999999
 31
0.0
  0
LINE
  5
8D
330
1E
100
AcDbEntity
  8
0
100
AcDbLine
 10
31.78199999999999
 20
5.62319999999999
 30
0.0
 11
33.62
 21
6.82259999999999
 31
0.0
  0
LINE
  5
8E
330
1E
100
AcDbEntity
  8
0
100
AcDbLine
 10
30.019
 20
4.27379999999999
 30
0.0
 11
31.78199999999999
 21
5.62319999999999
 31
0.0
  0
LINE
  5
8F
330
1E
100
AcDbEntity
  8
0
100
AcDbLine
 10
31.78199999999999
 20
5.62319999999999
 30
0.0
 11
33.62
 21
6.82259999999999
 31
0.0
  0
LINE
  5
90
330
1E
100
AcDbEntity
  8
0
100
AcDbLine
 10
32.691
 20
60.0121
 30
0.0
 11
35.191
 21
60.0121
 31
0.0
  0
LINE
  5
91
330
1E
100
AcDbEntity
  8
0
100
AcDbLine
 10
31.89099999999999
 20
60.0121
 30
0.0
 11
33.691
 21
60.0121
 31
0.0
  0
LINE
  5
92
330
1E
100
AcDbEntity
  8
0
100
AcDbLine
 10
35.191
 20
60.0121
 30
0.0
 11
37.391
 21
60.0121
 31
0.0
  0
LINE
  5
93
330
1E
100
AcDbEntity
  8
0
100
AcDbLine
 10
33.691
 20
60.0121
 30
0.0
 11
35.29099999999999
 21
60.0121
 31
0.0
  0
LINE
  5
94
330
1E
100
AcDbEntity
  8
0
100
AcDbLine
 10
33.62
 20
6.82259999999999
 30
0.0
 11
35.421
 21
8.022099999999991
 31
0.0
  0
LINE
  5
95
330
1E
100
AcDbEntity
  8
0
100
AcDbLine
 10
35.421
 20
8.022099999999991
 30
0.0
 11
36.509
 21
9.071599999999991
 31
0.0
  0
LINE
  5
96
330
1E
100
AcDbEntity
  8
0
100
AcDbLine
 10
35.29099999999999
 20
60.0121
 30
0.0
 11
36.491
 21
60.0121
 31
0.0
  0
LINE
  5
97
330
1E
100
AcDbEntity
  8
0
100
AcDbLine
 10
36.491
 20
60.0121
 30
0.0
 11
37.191
 21
60.0121
 31
0.0
  0
LINE
  5
98
330
1E
100
AcDbEntity
  8
0
100
AcDbLine
 10
36.509
 20
9.071599999999991
 30
0.0
 11
37.222
 21
9.78379999999999
 31
0.0
  0
LINE
  5
99
330
1E
100
AcDbEntity
  8
0
100
AcDbLine
 10
32.991
 20
90.0121
 30
0.0
 11
35.691
 21
90.0121
 31
0.0
  0
LINE
  5
9A
330
1E
100
AcDbEntity
  8
0
100
AcDbLine
 10
35.691
 20
90.0121
 30
0.0
 11
38.091
 21
90.0121
 31
0.0
  0
LINE
  5
9B
330
1E
100
AcDbEntity
  8
0
100
AcDbLine
 10
37.191
 20
60.0121
 30
0.0
 11
37.491
 21
60.0121
 31
0.0
  0
LINE
  5
9C
330
1E
100
AcDbEntity
  8
0
100
AcDbLine
 10
37.491
 20
10.0121
 30
0.0
 11
37.491
 21
60.0121
 31
0.0
  0
LINE
  5
9D
330
1E
100
AcDbEntity
  8
0
100
AcDbLine
 10
37.391
 20
60.0121
 30
0.0
 11
39.091
 21
60.0121
 31
0.0
  0
LINE
  5
9E
330
1E
100
AcDbEntity
  8
0
100
AcDbLine
 10
39.091
 20
60.0121
 30
0.0
 11
40.091
 21
60.0121
 31
0.0
  0
LINE
  5
9F
330
1E
100
AcDbEntity
  8
0
100
AcDbLine
 10
40.091
 20
60.0121
 30
0.0
 11
40.491
 21
60.0121
 31
0.0
  0
LINE
  5
A0
330
1E
100
AcDbEntity
  8
0
100
AcDbLine
 10
40.491
 20
60.0121
 30
0.0
 11
41.491
 21
90.0121
 31
0.0
  0
LINE
  5
A1
330
1E
100
AcDbEntity
  8
0
100
AcDbLine
 10
41.0
 20
90.0121
 30
0.0
 11
41.0
 21
95.41706666666669
 31
0.0
  0
LINE
  5
A2
330
1E
100
AcDbEntity
  8
0
100
AcDbLine
 10
38.091
 20
90.0121
 30
0.0
 11
39.991
 21
90.0121
 31
0.0
  0
LINE
  5
A3
330
1E
100
AcDbEntity
  8
0
100
AcDbLine
 10
39.991
 20
90.0121
 30
0.0
 11
41.091
 21
90.0121
 31
0.0
  0
LINE
  5
A4
330
1E
100
AcDbEntity
  8
0
100
AcDbLine
 10
41.091
 20
90.0121
 30
0.0
 11
41.491
 21
90.0121
 31
0.0
  0
LINE
  5
A5
330
1E
100
AcDbEntity
  8
0
100
AcDbLine
 10
37.491
 20
60.0121
 30
0.0
 11
37.491
 21
10.0121
 31
0.0
  0
LINE
  5
A6
330
1E
100
AcDbEntity
  8
0
100
AcDbLine
 10
37.491
 20
60.0121
 30
0.0
 11
39.091
 21
60.0121
 31
0.0
  0
LINE
  5
A7
330
1E
100
AcDbEntity
  8
0
100
AcDbLine
 10
37.222
 20
9.78379999999999
 30
0.0
 11
37.491
 21
10.0121
 31
0.0
  0
LINE
  5
A8
330
1E
100
AcDbEntity
  8
0
100
AcDbLine
 10
30.8
 20
93.98789999999999
 30
0.0
 11
30.8
 21
94.3439
 31
0.0
  0
LINE
  5
A9
330
1E
100
AcDbEntity
  8
0
100
AcDbLine
 10
30.8
 20
93.98789999999999
 30
0.0
 11
31.3
 21
94.4879
 31
0.0
  0
LINE
  5
AA
330
1E
100
AcDbEntity
  8
0
100
AcDbLine
 10
30.0
 20
93.98789999999999
 30
0.0
 11
30.8
 21
93.98789999999999
 31
0.0
  0
LINE
  5
AB
330
1E
100
AcDbEntity
  8
0
100
AcDbLine
 10
29.19999999999999
 20
100.0109
 30
0.0
 11
29.19999999999999
 21
98.11289999999999
 31
0.0
  0
LINE
  5
AC
330
1E
100
AcDbEntity
  8
0
100
AcDbLine
 10
29.19999999999999
 20
98.11289999999999
 30
0.0
 11
29.19999999999999
 21
100.0109
 31
0.0
  0
LINE
  5
AD
330
1E
100
AcDbEntity
  8
0
100
AcDbLine
 10
29.19999999999999
 20
98.11289999999999
 30
0.0
 11
29.19999999999999
 21
96.61290000000001
 31
0.0
  0
LINE
  5
AE
330
1E
100
AcDbEntity
  8
0
100
AcDbLine
 10
29.19999999999999
 20
96.61290000000001
 30
0.0
 11
29.19999999999999
 21
98.11289999999999
 31
0.0
  0
LINE
  5
AF
330
1E
100
AcDbEntity
  8
0
100
AcDbLine
 10
29.19999999999999
 20
96.61290000000001
 30
0.0
 11
29.19999999999999
 21
95.5169
 31
0.0
  0
LINE
  5
B0
330
1E
100
AcDbEntity
  8
0
100
AcDbLine
 10
29.19999999999999
 20
95.5169
 30
0.0
 11
29.19999999999999
 21
96.61290000000001
 31
0.0
  0
LINE
  5
B1
330
1E
100
AcDbEntity
  8
0
100
AcDbLine
 10
29.19999999999999
 20
95.5169
 30
0.0
 11
29.19999999999999
 21
94.8629
 31
0.0
  0
LINE
  5
B2
330
1E
100
AcDbEntity
  8
0
100
AcDbLine
 10
29.19999999999999
 20
94.8629
 30
0.0
 11
29.19999999999999
 21
95.5169
 31
0.0
  0
LINE
  5
B3
330
1E
100
AcDbEntity
  8
0
100
AcDbLine
 10
29.19999999999999
 20
94.8629
 30
0.0
 11
29.19999999999999
 21
94.3439
 31
0.0
  0
LINE
  5
B4
330
1E
100
AcDbEntity
  8
0
100
AcDbLine
 10
30.8
 20
98.11289999999999
 30
0.0
 11
30.8
 21
96.61290000000001
 31
0.0
  0
LINE
  5
B5
330
1E
100
AcDbEntity
  8
0
100
AcDbLine
 10
30.8
 20
98.11289999999999
 30
0.0
 11
30.8
 21
100.0109
 31
0.0
  0
LINE
  5
B6
330
1E
100
AcDbEntity
  8
0
100
AcDbLine
 10
30.8
 20
96.61290000000001
 30
0.0
 11
30.8
 21
95.5169
 31
0.0
  0
LINE
  5
B7
330
1E
100
AcDbEntity
  8
0
100
AcDbLine
 10
30.8
 20
96.61290000000001
 30
0.0
 11
30.8
 21
98.11289999999999
 31
0.0
  0
LINE
  5
B8
330
1E
100
AcDbEntity
  8
0
100
AcDbLine
 10
30.8
 20
95.5169
 30
0.0
 11
30.8
 21
94.8629
 31
0.0
  0
LINE
  5
B9
330
1E
100
AcDbEntity
  8
0
100
AcDbLine
 10
30.8
 20
95.5169
 30
0.0
 11
30.8
 21
96.61290000000001
 31
0.0
  0
LINE
  5
BA
330
1E
100
AcDbEntity
  8
0
100
AcDbLine
 10
30.8
 20
94.8629
 30
0.0
 11
30.8
 21
94.3439
 31
0.0
  0
LINE
  5
BB
330
1E
100
AcDbEntity
  8
0
100
AcDbLine
 10
30.8
 20
94.8629
 30
0.0
 11
30.8
 21
95.5169
 31
0.0
  0
LINE
  5
BE
330
1E
100
AcDbEntity
  8
0
100
AcDbLine
 10
31.33661971830989
 20
94.67099859154931
 30
0.0
 11
37.29999999999999
 21
95.4879
 31
0.0
  0
LINE
  5
BF
330
1E
100
AcDbEntity
  8
0
100
AcDbLine
 10
37.6
 20
94.5879
 30
0.0
 11
44.7
 21
97.48789999999999
 31
0.0
  0
LINE
  5
C1
330
1E
100
AcDbEntity
  8
0
100
AcDbLine
 10
31.5434782608696
 20
95.70529130434779
 30
0.0
 11
37.1
 21
96.48789999999999
 31
0.0
  0
LINE
  5
C2
330
1E
100
AcDbEntity
  8
0
100
AcDbLine
 10
41.0
 20
95.41706666666669
 30
0.0
 11
41.0
 21
90.0121
 31
0.0
  0
LINE
  5
C3
330
1E
100
AcDbEntity
  8
0
100
AcDbLine
 10
37.29999999999999
 20
95.4879
 30
0.0
 11
44.2
 21
98.28789999999999
 31
0.0
  0
LINE
  5
C4
330
1E
100
AcDbEntity
  8
0
100
AcDbLine
 10
37.7
 20
94.08790000000001
 30
0.0
 11
44.9
 21
96.9879
 31
0.0
  0
LINE
  5
C5
330
1E
100
AcDbEntity
  8
0
100
AcDbLine
 10
31.3
 20
94.4879
 30
0.0
 11
31.8
 21
96.9879
 31
0.0
  0
LINE
  5
C7
330
1E
100
AcDbEntity
  8
0
100
AcDbLine
 10
37.1
 20
96.48789999999999
 30
0.0
 11
43.7
 21
99.18790000000001
 31
0.0
  0
LINE
  5
C8
330
1E
100
AcDbEntity
  8
0
100
AcDbLine
 10
43.7
 20
99.18790000000001
 30
0.0
 11
49.4
 21
103.5878999999999
 31
0.0
  0
LINE
  5
C9
330
1E
100
AcDbEntity
  8
0
100
AcDbLine
 10
44.2
 20
98.28789999999999
 30
0.0
 11
50.1
 21
102.8879
 31
0.0
  0
LINE
  5
CA
330
1E
100
AcDbEntity
  8
0
100
AcDbLine
 10
44.7
 20
97.48789999999999
 30
0.0
 11
50.8
 21
102.1878999999999
 31
0.0
  0
LINE
  5
CB
330
1E
100
AcDbEntity
  8
0
100
AcDbLine
 10
31.8
 20
96.9879
 30
0.0
 11
32.0
 21
99.98789999999999
 31
0.0
  0
LINE
  5
D0
330
1E
100
AcDbEntity
  8
0
100
AcDbLine
 10
30.8
 20
94.3439
 30
0.0
 11
30.8
 21
93.98789999999999
 31
0.0
  0
LINE
  5
D1
330
1E
100
AcDbEntity
  8
0
100
AcDbLine
 10
30.8
 20
94.3439
 30
0.0
 11
30.8
 21
94.8629
 31
0.0
  0
LINE
  5
D2
330
1E
100
AcDbEntity
  8
0
100
AcDbLine
 10
32.2093854216294
 20
102.779705621725
 30
0.0
 11
35.29999999999999
 21
103.1878999999999
 31
0.0
  0
LINE
  5
D3
330
1E
100
AcDbEntity
  8
0
100
AcDbLine
 10
32.2481426448737
 20
103.296468598316
 30
0.0
 11
35.1
 21
103.6879
 31
0.0
  0
LINE
  5
D4
330
1E
100
AcDbEntity
  8
0
100
AcDbLine
 10
31.1
 20
103.9859
 30
0.0
 11
32.1464
 21
107.5299
 31
0.0
  0
LINE
  5
D5
330
1E
100
AcDbEntity
  8
0
100
AcDbLine
 10
30.8
 20
100.0109
 30
0.0
 11
31.1
 21
103.9859
 31
0.0
  0
LINE
  5
D6
330
1E
100
AcDbEntity
  8
0
100
AcDbLine
 10
30.8
 20
100.0109
 30
0.0
 11
30.8
 21
98.11289999999999
 31
0.0
  0
LINE
  5
D7
330
1E
100
AcDbEntity
  8
0
100
AcDbLine
 10
35.29999999999999
 20
103.1878999999999
 30
0.0
 11
40.2
 21
105.1879
 31
0.0
  0
LINE
  5
D8
330
1E
100
AcDbEntity
  8
0
100
AcDbLine
 10
35.1
 20
103.6879
 30
0.0
 11
39.9
 21
105.6878999999999
 31
0.0
  0
LINE
  5
D9
330
1E
100
AcDbEntity
  8
0
100
AcDbLine
 10
49.4
 20
103.5878999999999
 30
0.0
 11
53.79999999999999
 21
109.2878999999999
 31
0.0
  0
LINE
  5
DB
330
1E
100
AcDbEntity
  8
0
100
AcDbLine
 10
50.1
 20
102.8879
 30
0.0
 11
54.7
 21
108.7879
 31
0.0
  0
LINE
  5
DC
330
1E
100
AcDbEntity
  8
0
100
AcDbLine
 10
50.8
 20
102.1878999999999
 30
0.0
 11
55.5
 21
108.2878999999999
 31
0.0
  0
LINE
  5
DD
330
1E
100
AcDbEntity
  8
0
100
AcDbLine
 10
51.2
 20
101.7878999999999
 30
0.0
 11
56.0
 21
108.0879
 31
0.0
  0
LINE
  5
DE
330
1E
100
AcDbEntity
  8
0
100
AcDbLine
 10
51.2
 20
101.7878999999999
 30
0.0
 11
56.0
 21
108.0879
 31
0.0
  0
LINE
  5
DF
330
1E
100
AcDbEntity
  8
0
100
AcDbLine
 10
32.29999999999999
 20
103.9878999999999
 30
0.0
 11
33.2296
 21
106.8739
 31
0.0
  0
LINE
  5
E0
330
1E
100
AcDbEntity
  8
0
100
AcDbLine
 10
32.0
 20
99.98789999999999
 30
0.0
 11
32.29999999999999
 21
103.9878999999999
 31
0.0
  0
LINE
  5
E1
330
1E
100
AcDbEntity
  8
0
100
AcDbLine
 10
29.19999999999999
 20
94.3439
 30
0.0
 11
29.19999999999999
 21
94.8629
 31
0.0
  0
LINE
  5
E2
330
1E
100
AcDbEntity
  8
0
100
AcDbLine
 10
29.19999999999999
 20
94.3439
 30
0.0
 11
29.19999999999999
 21
93.98789999999999
 31
0.0
  0
LINE
  5
E3
330
1E
100
AcDbEntity
  8
0
100
AcDbLine
 10
29.19999999999999
 20
93.98789999999999
 30
0.0
 11
30.0
 21
93.98789999999999
 31
0.0
  0
LINE
  5
E4
330
1E
100
AcDbEntity
  8
0
100
AcDbLine
 10
29.19999999999999
 20
93.98789999999999
 30
0.0
 11
29.19999999999999
 21
94.3439
 31
0.0
  0
LINE
  5
E5
330
1E
100
AcDbEntity
  8
0
100
AcDbLine
 10
28.9
 20
103.9859
 30
0.0
 11
29.19999999999999
 21
100.0109
 31
0.0
  0
LINE
  5
E6
330
1E
100
AcDbEntity
  8
0
100
AcDbLine
 10
24.0
 20
112.5658999999999
 30
0.0
 11
26.00979999999999
 21
110.2839
 31
0.0
  0
LINE
  5
E7
330
1E
100
AcDbEntity
  8
0
100
AcDbLine
 10
23.39999999999999
 20
111.5879
 30
0.0
 11
25.24919999999999
 21
109.5949
 31
0.0
  0
LINE
  5
E8
330
1E
100
AcDbEntity
  8
0
100
AcDbLine
 10
21.49999999999999
 20
114.4878999999999
 30
0.0
 11
24.0
 21
112.5658999999999
 31
0.0
  0
LINE
  5
E9
330
1E
100
AcDbEntity
  8
0
100
AcDbLine
 10
22.6
 20
115.5879
 30
0.0
 11
24.8
 21
113.8878999999999
 31
0.0
  0
LINE
  5
EA
330
1E
100
AcDbEntity
  8
0
100
AcDbLine
 10
24.8
 20
113.8878999999999
 30
0.0
 11
27.3
 21
112.8878999999999
 31
0.0
  0
LINE
  5
EB
330
1E
100
AcDbEntity
  8
0
100
AcDbLine
 10
26.00979999999999
 20
110.2839
 30
0.0
 11
27.8536
 21
107.5299
 31
0.0
  0
LINE
  5
EC
330
1E
100
AcDbEntity
  8
0
100
AcDbLine
 10
25.24919999999999
 20
109.5949
 30
0.0
 11
26.77039999999999
 21
106.8739
 31
0.0
  0
LINE
  5
ED
330
1E
100
AcDbEntity
  8
0
100
AcDbLine
 10
32.1464
 20
107.5299
 30
0.0
 11
33.9902
 21
110.2839
 31
0.0
  0
LINE
  5
EE
330
1E
100
AcDbEntity
  8
0
100
AcDbLine
 10
40.2
 20
105.1879
 30
0.0
 11
44.5
 21
108.4878999999999
 31
0.0
  0
LINE
  5
EF
330
1E
100
AcDbEntity
  8
0
100
AcDbLine
 10
39.9
 20
105.6878999999999
 30
0.0
 11
44.1
 21
108.8879
 31
0.0
  0
LINE
  5
F0
330
1E
100
AcDbEntity
  8
0
100
AcDbLine
 10
33.2296
 20
106.8739
 30
0.0
 11
34.7508
 21
109.5949
 31
0.0
  0
LINE
  5
F1
330
1E
100
AcDbEntity
  8
0
100
AcDbLine
 10
32.7
 20
112.8878999999999
 30
0.0
 11
35.2
 21
113.8878999999999
 31
0.0
  0
LINE
  5
F2
330
1E
100
AcDbEntity
  8
0
100
AcDbLine
 10
30.0
 20
112.4878999999999
 30
0.0
 11
32.7
 21
112.8878999999999
 31
0.0
  0
LINE
  5
F3
330
1E
100
AcDbEntity
  8
0
100
AcDbLine
 10
33.9902
 20
110.2839
 30
0.0
 11
36.0
 21
112.5658999999999
 31
0.0
  0
LINE
  5
F4
330
1E
100
AcDbEntity
  8
0
100
AcDbLine
 10
36.0
 20
112.5658999999999
 30
0.0
 11
38.5
 21
114.4878999999999
 31
0.0
  0
LINE
  5
F5
330
1E
100
AcDbEntity
  8
0
100
AcDbLine
 10
44.5
 20
108.4878999999999
 30
0.0
 11
47.8
 21
112.7878999999999
 31
0.0
  0
LINE
  5
F6
330
1E
100
AcDbEntity
  8
0
100
AcDbLine
 10
44.1
 20
108.8879
 30
0.0
 11
47.29999999999999
 21
113.0878999999999
 31
0.0
  0
LINE
  5
F7
330
1E
100
AcDbEntity
  8
0
100
AcDbLine
 10
56.0
 20
108.0879
 30
0.0
 11
58.9
 21
115.2878999999999
 31
0.0
  0
LINE
  5
F8
330
1E
100
AcDbEntity
  8
0
100
AcDbLine
 10
53.79999999999999
 20
109.2878999999999
 30
0.0
 11
56.5
 21
115.8878999999999
 31
0.0
  0
LINE
  5
F9
330
1E
100
AcDbEntity
  8
0
100
AcDbLine
 10
54.7
 20
108.7879
 30
0.0
 11
57.5
 21
115.6878999999999
 31
0.0
  0
LINE
  5
FA
330
1E
100
AcDbEntity
  8
0
100
AcDbLine
 10
55.5
 20
108.2878999999999
 30
0.0
 11
58.39999999999999
 21
115.3879
 31
0.0
  0
LINE
  5
FB
330
1E
100
AcDbEntity
  8
0
100
AcDbLine
 10
56.0
 20
108.0879
 30
0.0
 11
58.9
 21
115.2878999999999
 31
0.0
  0
LINE
  5
FC
330
1E
100
AcDbEntity
  8
0
100
AcDbLine
 10
47.8
 20
112.7878999999999
 30
0.0
 11
49.8
 21
117.6879
 31
0.0
  0
LINE
  5
FD
330
1E
100
AcDbEntity
  8
0
100
AcDbLine
 10
47.29999999999999
 20
113.0878999999999
 30
0.0
 11
49.29999999999999
 21
117.8879
 31
0.0
  0
LINE
  5
FE
330
1E
100
AcDbEntity
  8
0
100
AcDbLine
 10
39.29999999999999
 20
113.6878999999999
 30
0.0
 11
41.39999999999999
 21
116.3879
 31
0.0
  0
LINE
  5
FF
330
1E
100
AcDbEntity
  8
0
100
AcDbLine
 10
36.6
 20
111.5879
 30
0.0
 11
39.29999999999999
 21
113.6878999999999
 31
0.0
  0
LINE
  5
100
330
1E
100
AcDbEntity
  8
0
100
AcDbLine
 10
37.4
 20
115.5879
 30
0.0
 11
39.1
 21
117.7878999999999
 31
0.0
  0
LINE
  5
101
330
1E
100
AcDbEntity
  8
0
100
AcDbLine
 10
56.5
 20
115.8878999999999
 30
0.0
 11
57.2826086956522
 21
121.44442173913
 31
0.0
  0
LINE
  5
103
330
1E
100
AcDbEntity
  8
0
100
AcDbLine
 10
57.5
 20
115.6878999999999
 30
0.0
 11
58.31690140845069
 21
121.6512802816899
 31
0.0
  0
LINE
  5
104
330
1E
100
AcDbEntity
  8
0
100
AcDbLine
 10
58.39999999999999
 20
115.3879
 30
0.0
 11
59.5
 21
122.9878999999999
 31
0.0
  0
LINE
  5
105
330
1E
100
AcDbEntity
  8
0
100
AcDbLine
 10
58.9
 20
115.2878999999999
 30
0.0
 11
60.0
 21
122.9878999999999
 31
0.0
  0
LINE
  5
106
330
1E
100
AcDbEntity
  8
0
100
AcDbLine
 10
38.5
 20
114.4878999999999
 30
0.0
 11
40.42229999999999
 21
116.9878999999999
 31
0.0
  0
LINE
  5
107
330
1E
100
AcDbEntity
  8
0
100
AcDbLine
 10
49.8
 20
117.6879
 30
0.0
 11
50.20819437827539
 21
120.7785145783709
 31
0.0
  0
LINE
  5
108
330
1E
100
AcDbEntity
  8
0
100
AcDbLine
 10
40.42229999999999
 20
116.9878999999999
 30
0.0
 11
42.70399999999999
 21
118.9979
 31
0.0
  0
LINE
  5
109
330
1E
100
AcDbEntity
  8
0
100
AcDbLine
 10
41.39999999999999
 20
116.3879
 30
0.0
 11
43.3928
 21
118.2369
 31
0.0
  0
LINE
  5
10B
330
1E
100
AcDbEntity
  8
0
100
AcDbLine
 10
49.29999999999999
 20
117.8879
 30
0.0
 11
49.691431401684
 21
120.739757355126
 31
0.0
  0
LINE
  5
10C
330
1E
100
AcDbEntity
  8
0
100
AcDbLine
 10
39.1
 20
117.7878999999999
 30
0.0
 11
40.1
 21
120.2879
 31
0.0
  0
LINE
  5
10E
330
1E
100
AcDbEntity
  8
0
100
AcDbLine
 10
35.2
 20
113.8878999999999
 30
0.0
 11
37.4
 21
115.5879
 31
0.0
  0
LINE
  5
10F
330
1E
100
AcDbEntity
  8
0
100
AcDbLine
 10
34.7508
 20
109.5949
 30
0.0
 11
36.6
 21
111.5879
 31
0.0
  0
LINE
  5
110
330
1E
100
AcDbEntity
  8
0
100
AcDbLine
 10
43.3928
 20
118.2369
 30
0.0
 11
46.1139
 21
119.7579
 31
0.0
  0
LINE
  5
111
330
1E
100
AcDbEntity
  8
0
100
AcDbLine
 10
27.3
 20
112.8878999999999
 30
0.0
 11
30.0
 21
112.4878999999999
 31
0.0
  0
LINE
  5
112
330
1E
100
AcDbEntity
  8
0
100
AcDbLine
 10
27.8536
 20
107.5299
 30
0.0
 11
28.9
 21
103.9859
 31
0.0
  0
LINE
  5
113
330
1E
100
AcDbEntity
  8
0
100
AcDbLine
 10
26.77039999999999
 20
106.8739
 30
0.0
 11
27.7
 21
103.9878999999999
 31
0.0
  0
LINE
  5
114
330
1E
100
AcDbEntity
  8
0
100
AcDbLine
 10
27.7
 20
103.9878999999999
 30
0.0
 11
28.0
 21
99.98789999999999
 31
0.0
  0
LINE
  5
115
330
1E
100
AcDbEntity
  8
0
100
AcDbLine
 10
20.89999999999999
 20
117.7878999999999
 30
0.0
 11
22.6
 21
115.5879
 31
0.0
  0
LINE
  5
116
330
1E
100
AcDbEntity
  8
0
100
AcDbLine
 10
40.1
 20
120.2879
 30
0.0
 11
40.49999999999999
 21
122.9878999999999
 31
0.0
  0
LINE
  5
117
330
1E
100
AcDbEntity
  8
0
100
AcDbLine
 10
42.70399999999999
 20
118.9979
 30
0.0
 11
45.4579
 21
120.8418999999999
 31
0.0
  0
LINE
  5
118
330
1E
100
AcDbEntity
  8
0
100
AcDbLine
 10
46.1139
 20
119.7579
 30
0.0
 11
49.0
 21
120.6879
 31
0.0
  0
LINE
  5
119
330
1E
100
AcDbEntity
  8
0
100
AcDbLine
 10
49.0
 20
120.6879
 30
0.0
 11
53.0
 21
120.9878999999999
 31
0.0
  0
LINE
  5
11A
330
1E
100
AcDbEntity
  8
0
100
AcDbLine
 10
19.9
 20
120.2879
 30
0.0
 11
20.89999999999999
 21
117.7878999999999
 31
0.0
  0
LINE
  5
11B
330
1E
100
AcDbEntity
  8
0
100
AcDbLine
 10
17.296
 20
118.9979
 30
0.0
 11
19.5777
 21
116.9878999999999
 31
0.0
  0
LINE
  5
11C
330
1E
100
AcDbEntity
  8
0
100
AcDbLine
 10
16.60719999999999
 20
118.2369
 30
0.0
 11
18.6
 21
116.3879
 31
0.0
  0
LINE
  5
11D
330
1E
100
AcDbEntity
  8
0
100
AcDbLine
 10
13.8861
 20
119.7579
 30
0.0
 11
16.60719999999999
 21
118.2369
 31
0.0
  0
LINE
  5
11E
330
1E
100
AcDbEntity
  8
0
100
AcDbLine
 10
10.30856859831599
 20
120.739757355126
 30
0.0
 11
10.7
 21
117.8879
 31
0.0
  0
LINE
  5
11F
330
1E
100
AcDbEntity
  8
0
100
AcDbLine
 10
9.79180562172463
 20
120.7785145783709
 30
0.0
 11
10.2
 21
117.6879
 31
0.0
  0
LINE
  5
120
330
1E
100
AcDbEntity
  8
0
100
AcDbLine
 10
53.0
 20
120.9878999999999
 30
0.0
 11
56.0
 21
121.1878999999999
 31
0.0
  0
LINE
  5
121
330
1E
100
AcDbEntity
  8
0
100
AcDbLine
 10
56.0
 20
121.1878999999999
 30
0.0
 11
58.5
 21
121.6879
 31
0.0
  0
LINE
  5
122
330
1E
100
AcDbEntity
  8
0
100
AcDbLine
 10
45.4579
 20
120.8418999999999
 30
0.0
 11
49.00199999999999
 21
121.8879
 31
0.0
  0
LINE
  5
123
330
1E
100
AcDbEntity
  8
0
100
AcDbLine
 10
14.54209999999999
 20
120.8418999999999
 30
0.0
 11
17.296
 21
118.9979
 31
0.0
  0
LINE
  5
124
330
1E
100
AcDbEntity
  8
0
100
AcDbLine
 10
11.0
 20
120.6879
 30
0.0
 11
13.8861
 21
119.7579
 31
0.0
  0
LINE
  5
125
330
1E
100
AcDbEntity
  8
0
100
AcDbLine
 10
7.0
 20
120.9878999999999
 30
0.0
 11
11.0
 21
120.6879
 31
0.0
  0
LINE
  5
129
330
1E
100
AcDbEntity
  8
0
100
AcDbLine
 10
58.5
 20
121.6879
 30
0.0
 11
59.0
 21
122.1878999999999
 31
0.0
  0
LINE
  5
12A
330
1E
100
AcDbEntity
  8
0
100
AcDbLine
 10
49.00199999999999
 20
121.8879
 30
0.0
 11
52.9771
 21
122.1878999999999
 31
0.0
  0
LINE
  5
12B
330
1E
100
AcDbEntity
  8
0
100
AcDbLine
 10
52.9771
 20
122.1878999999999
 30
0.0
 11
54.8748
 21
122.1878999999999
 31
0.0
  0
LINE
  5
12C
330
1E
100
AcDbEntity
  8
0
100
AcDbLine
 10
54.8748
 20
122.1878999999999
 30
0.0
 11
56.3747
 21
122.1878999999999
 31
0.0
  0
LINE
  5
12D
330
1E
100
AcDbEntity
  8
0
100
AcDbLine
 10
56.3747
 20
122.1878999999999
 30
0.0
 11
57.4708
 21
122.1878999999999
 31
0.0
  0
LINE
  5
12E
330
1E
100
AcDbEntity
  8
0
100
AcDbLine
 10
57.4708
 20
122.1878999999999
 30
0.0
 11
58.1246
 21
122.1878999999999
 31
0.0
  0
LINE
  5
12F
330
1E
100
AcDbEntity
  8
0
100
AcDbLine
 10
58.1246
 20
122.1878999999999
 30
0.0
 11
58.6438
 21
122.1878999999999
 31
0.0
  0
LINE
  5
130
330
1E
100
AcDbEntity
  8
0
100
AcDbLine
 10
58.6438
 20
122.1878999999999
 30
0.0
 11
59.0
 21
122.1878999999999
 31
0.0
  0
LINE
  5
131
330
1E
100
AcDbEntity
  8
0
100
AcDbLine
 10
59.0
 20
122.1878999999999
 30
0.0
 11
59.0
 21
122.9878999999999
 31
0.0
  0
LINE
  5
132
330
1E
100
AcDbEntity
  8
0
100
AcDbLine
 10
10.99799999999999
 20
121.8879
 30
0.0
 11
14.54209999999999
 21
120.8418999999999
 31
0.0
  0
LINE
  5
133
330
1E
100
AcDbEntity
  8
0
100
AcDbLine
 10
7.02291
 20
122.1878999999999
 30
0.0
 11
10.99799999999999
 21
121.8879
 31
0.0
  0
LINE
  5
134
330
1E
100
AcDbEntity
  8
0
100
AcDbLine
 10
4.0
 20
121.1878999999999
 30
0.0
 11
7.0
 21
120.9878999999999
 31
0.0
  0
LINE
  5
136
330
1E
100
AcDbEntity
  8
0
100
AcDbLine
 10
5.1252
 20
122.1878999999999
 30
0.0
 11
7.02291
 21
122.1878999999999
 31
0.0
  0
LINE
  5
137
330
1E
100
AcDbEntity
  8
0
100
AcDbLine
 10
3.62528
 20
122.1878999999999
 30
0.0
 11
5.1252
 21
122.1878999999999
 31
0.0
  0
LINE
  5
138
330
1E
100
AcDbEntity
  8
0
100
AcDbLine
 10
2.529179999999999
 20
122.1878999999999
 30
0.0
 11
3.62528
 21
122.1878999999999
 31
0.0
  0
LINE
  5
139
330
1E
100
AcDbEntity
  8
0
100
AcDbLine
 10
1.87537
 20
122.1878999999999
 30
0.0
 11
2.529179999999999
 21
122.1878999999999
 31
0.0
  0
LINE
  5
13A
330
1E
100
AcDbEntity
  8
0
100
AcDbLine
 10
5.1252
 20
123.7878999999999
 30
0.0
 11
7.02291
 21
123.7878999999999
 31
0.0
  0
LINE
  5
13B
330
1E
100
AcDbEntity
  8
0
100
AcDbLine
 10
3.62528
 20
123.7878999999999
 30
0.0
 11
5.1252
 21
123.7878999999999
 31
0.0
  0
LINE
  5
13C
330
1E
100
AcDbEntity
  8
0
100
AcDbLine
 10
2.529179999999999
 20
123.7878999999999
 30
0.0
 11
3.62528
 21
123.7878999999999
 31
0.0
  0
LINE
  5
13D
330
1E
100
AcDbEntity
  8
0
100
AcDbLine
 10
1.5
 20
124.2879
 30
0.0
 11
4.0
 21
124.7878999999999
 31
0.0
  0
LINE
  5
141
330
1E
100
AcDbEntity
  8
0
100
AcDbLine
 10
1.87537
 20
123.7878999999999
 30
0.0
 11
2.529179999999999
 21
123.7878999999999
 31
0.0
  0
LINE
  5
142
330
1E
100
AcDbEntity
  8
0
100
AcDbLine
 10
1.35617
 20
123.7878999999999
 30
0.0
 11
1.87537
 21
123.7878999999999
 31
0.0
  0
LINE
  5
143
330
1E
100
AcDbEntity
  8
0
100
AcDbLine
 10
1.683098591549299
 20
124.32451971831
 30
0.0
 11
2.5
 21
130.2879
 31
0.0
  0
LINE
  5
144
330
1E
100
AcDbEntity
  8
0
100
AcDbLine
 10
2.717391304347829
 20
124.5313782608699
 30
0.0
 11
3.5
 21
130.0878999999999
 31
0.0
  0
LINE
  5
146
330
1E
100
AcDbEntity
  8
0
100
AcDbLine
 10
1.683098591549299
 20
124.32451971831
 30
0.0
 11
2.5
 21
130.2879
 31
0.0
  0
LINE
  5
147
330
1E
100
AcDbEntity
  8
0
100
AcDbLine
 10
4.0
 20
124.7878999999999
 30
0.0
 11
7.0
 21
124.9878999999999
 31
0.0
  0
LINE
  5
148
330
1E
100
AcDbEntity
  8
0
100
AcDbLine
 10
1.5
 20
124.2879
 30
0.0
 11
4.0
 21
124.7878999999999
 31
0.0
  0
LINE
  5
149
330
1E
100
AcDbEntity
  8
0
100
AcDbLine
 10
10.99799999999999
 20
124.0879
 30
0.0
 11
14.54209999999999
 21
125.1338999999999
 31
0.0
  0
LINE
  5
14A
330
1E
100
AcDbEntity
  8
0
100
AcDbLine
 10
7.02291
 20
123.7878999999999
 30
0.0
 11
10.99799999999999
 21
124.0879
 31
0.0
  0
LINE
  5
14B
330
1E
100
AcDbEntity
  8
0
100
AcDbLine
 10
3.5
 20
130.0878999999999
 30
0.0
 11
6.2
 21
136.6879
 31
0.0
  0
LINE
  5
14D
330
1E
100
AcDbEntity
  8
0
100
AcDbLine
 10
2.5
 20
130.2879
 30
0.0
 11
5.299999999999999
 21
137.1879
 31
0.0
  0
LINE
  5
14E
330
1E
100
AcDbEntity
  8
0
100
AcDbLine
 10
1.6
 20
130.5879
 30
0.0
 11
4.5
 21
137.6879
 31
0.0
  0
LINE
  5
14F
330
1E
100
AcDbEntity
  8
0
100
AcDbLine
 10
1.1
 20
130.6879
 30
0.0
 11
4.0
 21
137.8878999999999
 31
0.0
  0
LINE
  5
150
330
1E
100
AcDbEntity
  8
0
100
AcDbLine
 10
6.2
 20
136.6879
 30
0.0
 11
10.6
 21
142.3879
 31
0.0
  0
LINE
  5
151
330
1E
100
AcDbEntity
  8
0
100
AcDbLine
 10
5.299999999999999
 20
137.1879
 30
0.0
 11
9.9
 21
143.0879
 31
0.0
  0
LINE
  5
152
330
1E
100
AcDbEntity
  8
0
100
AcDbLine
 10
4.5
 20
137.6879
 30
0.0
 11
9.199999999999999
 21
143.7879
 31
0.0
  0
LINE
  5
153
330
1E
100
AcDbEntity
  8
0
100
AcDbLine
 10
4.0
 20
137.8878999999999
 30
0.0
 11
8.8
 21
144.1879
 31
0.0
  0
LINE
  5
154
330
1E
100
AcDbEntity
  8
0
100
AcDbLine
 10
10.2
 20
128.2879
 30
0.0
 11
12.19999999999999
 21
133.1879
 31
0.0
  0
LINE
  5
155
330
1E
100
AcDbEntity
  8
0
100
AcDbLine
 10
9.79180562172463
 20
125.197285421629
 30
0.0
 11
10.2
 21
128.2879
 31
0.0
  0
LINE
  5
156
330
1E
100
AcDbEntity
  8
0
100
AcDbLine
 10
10.7
 20
128.0878999999999
 30
0.0
 11
12.7
 21
132.8879
 31
0.0
  0
LINE
  5
157
330
1E
100
AcDbEntity
  8
0
100
AcDbLine
 10
10.30856859831599
 20
125.236042644874
 30
0.0
 11
10.7
 21
128.0878999999999
 31
0.0
  0
LINE
  5
158
330
1E
100
AcDbEntity
  8
0
100
AcDbLine
 10
10.6
 20
142.3879
 30
0.0
 11
16.3
 21
146.7879
 31
0.0
  0
LINE
  5
15A
330
1E
100
AcDbEntity
  8
0
100
AcDbLine
 10
9.9
 20
143.0879
 30
0.0
 11
15.8
 21
147.6879
 31
0.0
  0
LINE
  5
15B
330
1E
100
AcDbEntity
  8
0
100
AcDbLine
 10
9.199999999999999
 20
143.7879
 30
0.0
 11
15.3
 21
148.4879
 31
0.0
  0
LINE
  5
15C
330
1E
100
AcDbEntity
  8
0
100
AcDbLine
 10
8.8
 20
144.1879
 30
0.0
 11
15.09999999999999
 21
148.9878999999999
 31
0.0
  0
LINE
  5
15D
330
1E
100
AcDbEntity
  8
0
100
AcDbLine
 10
14.54209999999999
 20
125.1338999999999
 30
0.0
 11
17.296
 21
126.9778999999999
 31
0.0
  0
LINE
  5
15E
330
1E
100
AcDbEntity
  8
0
100
AcDbLine
 10
12.19999999999999
 20
133.1879
 30
0.0
 11
15.5
 21
137.4878999999999
 31
0.0
  0
LINE
  5
15F
330
1E
100
AcDbEntity
  8
0
100
AcDbLine
 10
12.7
 20
132.8879
 30
0.0
 11
15.9
 21
137.0878999999999
 31
0.0
  0
LINE
  5
160
330
1E
100
AcDbEntity
  8
0
100
AcDbLine
 10
15.5
 20
137.4878999999999
 30
0.0
 11
19.8
 21
140.7879
 31
0.0
  0
LINE
  5
161
330
1E
100
AcDbEntity
  8
0
100
AcDbLine
 10
15.9
 20
137.0878999999999
 30
0.0
 11
20.1
 21
140.2879
 31
0.0
  0
LINE
  5
162
330
1E
100
AcDbEntity
  8
0
100
AcDbLine
 10
16.3
 20
146.7879
 30
0.0
 11
22.9
 21
149.4879
 31
0.0
  0
LINE
  5
163
330
1E
100
AcDbEntity
  8
0
100
AcDbLine
 10
15.8
 20
147.6879
 30
0.0
 11
22.7
 21
150.4879
 31
0.0
  0
LINE
  5
164
330
1E
100
AcDbEntity
  8
0
100
AcDbLine
 10
15.3
 20
148.4879
 30
0.0
 11
22.39999999999999
 21
151.3879
 31
0.0
  0
LINE
  5
165
330
1E
100
AcDbEntity
  8
0
100
AcDbLine
 10
15.09999999999999
 20
148.9878999999999
 30
0.0
 11
22.29999999999999
 21
151.8879
 31
0.0
  0
LINE
  5
166
330
1E
100
AcDbEntity
  8
0
100
AcDbLine
 10
18.6
 20
129.5879
 30
0.0
 11
20.69999999999999
 21
132.2879
 31
0.0
  0
LINE
  5
167
330
1E
100
AcDbEntity
  8
0
100
AcDbLine
 10
17.296
 20
126.9778999999999
 30
0.0
 11
19.5777
 21
128.9878999999999
 31
0.0
  0
LINE
  5
168
330
1E
100
AcDbEntity
  8
0
100
AcDbLine
 10
16.60719999999999
 20
127.7389
 30
0.0
 11
18.6
 21
129.5879
 31
0.0
  0
LINE
  5
169
330
1E
100
AcDbEntity
  8
0
100
AcDbLine
 10
13.8861
 20
126.2178999999999
 30
0.0
 11
16.60719999999999
 21
127.7389
 31
0.0
  0
LINE
  5
16A
330
1E
100
AcDbEntity
  8
0
100
AcDbLine
 10
11.0
 20
125.2878999999999
 30
0.0
 11
13.8861
 21
126.2178999999999
 31
0.0
  0
LINE
  5
16B
330
1E
100
AcDbEntity
  8
0
100
AcDbLine
 10
7.0
 20
124.9878999999999
 30
0.0
 11
11.0
 21
125.2878999999999
 31
0.0
  0
LINE
  5
16C
330
1E
100
AcDbEntity
  8
0
100
AcDbLine
 10
19.5777
 20
128.9878999999999
 30
0.0
 11
21.49999999999999
 21
131.4878999999999
 31
0.0
  0
LINE
  5
16D
330
1E
100
AcDbEntity
  8
0
100
AcDbLine
 10
20.89999999999999
 20
128.1879
 30
0.0
 11
22.6
 21
130.3879
 31
0.0
  0
LINE
  5
16E
330
1E
100
AcDbEntity
  8
0
100
AcDbLine
 10
19.9
 20
125.6879
 30
0.0
 11
20.89999999999999
 21
128.1879
 31
0.0
  0
LINE
  5
16F
330
1E
100
AcDbEntity
  8
0
100
AcDbLine
 10
21.49999999999999
 20
131.4878999999999
 30
0.0
 11
24.0
 21
133.4098999999999
 31
0.0
  0
LINE
  5
170
330
1E
100
AcDbEntity
  8
0
100
AcDbLine
 10
20.69999999999999
 20
132.2879
 30
0.0
 11
23.39999999999999
 21
134.3879
 31
0.0
  0
LINE
  5
172
330
1E
100
AcDbEntity
  8
0
100
AcDbLine
 10
22.6
 20
130.3879
 30
0.0
 11
24.8
 21
132.0878999999999
 31
0.0
  0
LINE
  5
173
330
1E
100
AcDbEntity
  8
0
100
AcDbLine
 10
24.8
 20
132.0878999999999
 30
0.0
 11
27.3
 21
133.0878999999999
 31
0.0
  0
LINE
  5
174
330
1E
100
AcDbEntity
  8
0
100
AcDbLine
 10
24.0
 20
133.4098999999999
 30
0.0
 11
26.00979999999999
 21
135.6918999999999
 31
0.0
  0
LINE
  5
175
330
1E
100
AcDbEntity
  8
0
100
AcDbLine
 10
23.39999999999999
 20
134.3879
 30
0.0
 11
25.24919999999999
 21
136.3809
 31
0.0
  0
LINE
  5
176
330
1E
100
AcDbEntity
  8
0
100
AcDbLine
 10
26.00979999999999
 20
135.6918999999999
 30
0.0
 11
27.8536
 21
138.4458999999999
 31
0.0
  0
LINE
  5
177
330
1E
100
AcDbEntity
  8
0
100
AcDbLine
 10
19.8
 20
140.7879
 30
0.0
 11
24.7
 21
142.7879
 31
0.0
  0
LINE
  5
178
330
1E
100
AcDbEntity
  8
0
100
AcDbLine
 10
20.1
 20
140.2879
 30
0.0
 11
24.9
 21
142.2879
 31
0.0
  0
LINE
  5
179
330
1E
100
AcDbEntity
  8
0
100
AcDbLine
 10
25.24919999999999
 20
136.3809
 30
0.0
 11
26.77039999999999
 21
139.1019
 31
0.0
  0
LINE
  5
17A
330
1E
100
AcDbEntity
  8
0
100
AcDbLine
 10
27.3
 20
133.0878999999999
 30
0.0
 11
30.0
 21
133.4878999999999
 31
0.0
  0
LINE
  5
17B
330
1E
100
AcDbEntity
  8
0
100
AcDbLine
 10
30.0
 20
133.4878999999999
 30
0.0
 11
32.7
 21
133.0878999999999
 31
0.0
  0
LINE
  5
17C
330
1E
100
AcDbEntity
  8
0
100
AcDbLine
 10
27.8536
 20
138.4458999999999
 30
0.0
 11
28.9
 21
141.9899
 31
0.0
  0
LINE
  5
17D
330
1E
100
AcDbEntity
  8
0
100
AcDbLine
 10
26.77039999999999
 20
139.1019
 30
0.0
 11
27.7
 21
141.9878999999999
 31
0.0
  0
LINE
  5
17E
330
1E
100
AcDbEntity
  8
0
100
AcDbLine
 10
24.7
 20
142.7879
 30
0.0
 11
27.7906145783707
 21
143.196094378275
 31
0.0
  0
LINE
  5
17F
330
1E
100
AcDbEntity
  8
0
100
AcDbLine
 10
24.9
 20
142.2879
 30
0.0
 11
27.7518573551263
 21
142.679331401684
 31
0.0
  0
LINE
  5
180
330
1E
100
AcDbEntity
  8
0
100
AcDbLine
 10
29.19999999999999
 20
145.9648999999999
 30
0.0
 11
29.19999999999999
 21
147.8628999999999
 31
0.0
  0
LINE
  5
181
330
1E
100
AcDbEntity
  8
0
100
AcDbLine
 10
28.9
 20
141.9899
 30
0.0
 11
29.19999999999999
 21
145.9648999999999
 31
0.0
  0
LINE
  5
182
330
1E
100
AcDbEntity
  8
0
100
AcDbLine
 10
27.7
 20
141.9878999999999
 30
0.0
 11
28.0
 21
145.9878999999999
 31
0.0
  0
LINE
  5
183
330
1E
100
AcDbEntity
  8
0
100
AcDbLine
 10
31.1
 20
141.9899
 30
0.0
 11
32.1464
 21
138.4458999999999
 31
0.0
  0
LINE
  5
184
330
1E
100
AcDbEntity
  8
0
100
AcDbLine
 10
28.0
 20
145.9878999999999
 30
0.0
 11
28.2
 21
148.9878999999999
 31
0.0
  0
LINE
  5
185
330
1E
100
AcDbEntity
  8
0
100
AcDbLine
 10
28.2
 20
148.9878999999999
 30
0.0
 11
28.7
 21
151.4879
 31
0.0
  0
LINE
  5
189
330
1E
100
AcDbEntity
  8
0
100
AcDbLine
 10
29.19999999999999
 20
147.8628999999999
 30
0.0
 11
29.19999999999999
 21
149.3629
 31
0.0
  0
LINE
  5
18A
330
1E
100
AcDbEntity
  8
0
100
AcDbLine
 10
29.19999999999999
 20
147.8628999999999
 30
0.0
 11
29.19999999999999
 21
145.9648999999999
 31
0.0
  0
LINE
  5
18B
330
1E
100
AcDbEntity
  8
0
100
AcDbLine
 10
22.9
 20
149.4879
 30
0.0
 11
28.45652173913039
 21
150.270508695652
 31
0.0
  0
LINE
  5
18C
330
1E
100
AcDbEntity
  8
0
100
AcDbLine
 10
22.7
 20
150.4879
 30
0.0
 11
28.6633802816901
 21
151.3048014084509
 31
0.0
  0
LINE
  5
190
330
1E
100
AcDbEntity
  8
0
100
AcDbLine
 10
29.19999999999999
 20
149.3629
 30
0.0
 11
29.19999999999999
 21
150.4588999999999
 31
0.0
  0
LINE
  5
191
330
1E
100
AcDbEntity
  8
0
100
AcDbLine
 10
29.19999999999999
 20
149.3629
 30
0.0
 11
29.19999999999999
 21
147.8628999999999
 31
0.0
  0
LINE
  5
192
330
1E
100
AcDbEntity
  8
0
100
AcDbLine
 10
29.19999999999999
 20
150.4588999999999
 30
0.0
 11
29.19999999999999
 21
151.1128999999999
 31
0.0
  0
LINE
  5
193
330
1E
100
AcDbEntity
  8
0
100
AcDbLine
 10
29.19999999999999
 20
150.4588999999999
 30
0.0
 11
29.19999999999999
 21
149.3629
 31
0.0
  0
LINE
  5
194
330
1E
100
AcDbEntity
  8
0
100
AcDbLine
 10
22.39999999999999
 20
151.3879
 30
0.0
 11
30.0
 21
152.4879
 31
0.0
  0
LINE
  5
195
330
1E
100
AcDbEntity
  8
0
100
AcDbLine
 10
22.29999999999999
 20
151.8879
 30
0.0
 11
30.0
 21
152.9879
 31
0.0
  0
LINE
  5
196
330
1E
100
AcDbEntity
  8
0
100
AcDbLine
 10
28.7
 20
151.4879
 30
0.0
 11
29.19999999999999
 21
151.9878999999999
 31
0.0
  0
LINE
  5
197
330
1E
100
AcDbEntity
  8
0
100
AcDbLine
 10
29.19999999999999
 20
151.1128999999999
 30
0.0
 11
29.19999999999999
 21
151.6319
 31
0.0
  0
LINE
  5
198
330
1E
100
AcDbEntity
  8
0
100
AcDbLine
 10
29.19999999999999
 20
151.1128999999999
 30
0.0
 11
29.19999999999999
 21
150.4588999999999
 31
0.0
  0
LINE
  5
199
330
1E
100
AcDbEntity
  8
0
100
AcDbLine
 10
29.19999999999999
 20
151.6319
 30
0.0
 11
29.19999999999999
 21
151.9878999999999
 31
0.0
  0
LINE
  5
19A
330
1E
100
AcDbEntity
  8
0
100
AcDbLine
 10
29.19999999999999
 20
151.6319
 30
0.0
 11
29.19999999999999
 21
151.1128999999999
 31
0.0
  0
LINE
  5
19B
330
1E
100
AcDbEntity
  8
0
100
AcDbLine
 10
30.0
 20
152.4879
 30
0.0
 11
37.6
 21
151.3879
 31
0.0
  0
LINE
  5
19C
330
1E
100
AcDbEntity
  8
0
100
AcDbLine
 10
30.0
 20
152.9879
 30
0.0
 11
37.7
 21
151.8879
 31
0.0
  0
LINE
  5
19D
330
1E
100
AcDbEntity
  8
0
100
AcDbLine
 10
29.19999999999999
 20
151.9878999999999
 30
0.0
 11
30.0
 21
151.9878999999999
 31
0.0
  0
LINE
  5
19E
330
1E
100
AcDbEntity
  8
0
100
AcDbLine
 10
29.19999999999999
 20
151.9878999999999
 30
0.0
 11
29.19999999999999
 21
151.6319
 31
0.0
  0
LINE
  5
19F
330
1E
100
AcDbEntity
  8
0
100
AcDbLine
 10
30.8
 20
147.8628999999999
 30
0.0
 11
30.8
 21
145.9648999999999
 31
0.0
  0
LINE
  5
1A0
330
1E
100
AcDbEntity
  8
0
100
AcDbLine
 10
30.8
 20
147.8628999999999
 30
0.0
 11
30.8
 21
149.3629
 31
0.0
  0
LINE
  5
1A1
330
1E
100
AcDbEntity
  8
0
100
AcDbLine
 10
30.8
 20
149.3629
 30
0.0
 11
30.8
 21
147.8628999999999
 31
0.0
  0
LINE
  5
1A2
330
1E
100
AcDbEntity
  8
0
100
AcDbLine
 10
30.8
 20
149.3629
 30
0.0
 11
30.8
 21
150.4588999999999
 31
0.0
  0
LINE
  5
1A3
330
1E
100
AcDbEntity
  8
0
100
AcDbLine
 10
30.8
 20
150.4588999999999
 30
0.0
 11
30.8
 21
149.3629
 31
0.0
  0
LINE
  5
1A4
330
1E
100
AcDbEntity
  8
0
100
AcDbLine
 10
30.8
 20
150.4588999999999
 30
0.0
 11
30.8
 21
151.1128999999999
 31
0.0
  0
LINE
  5
1AB
330
1E
100
AcDbEntity
  8
0
100
AcDbLine
 10
30.8
 20
151.1128999999999
 30
0.0
 11
30.8
 21
150.4588999999999
 31
0.0
  0
LINE
  5
1AC
330
1E
100
AcDbEntity
  8
0
100
AcDbLine
 10
30.8
 20
151.1128999999999
 30
0.0
 11
30.8
 21
151.6319
 31
0.0
  0
LINE
  5
1AD
330
1E
100
AcDbEntity
  8
0
100
AcDbLine
 10
30.8
 20
151.6319
 30
0.0
 11
30.8
 21
151.1128999999999
 31
0.0
  0
LINE
  5
1AE
330
1E
100
AcDbEntity
  8
0
100
AcDbLine
 10
30.8
 20
151.6319
 30
0.0
 11
30.8
 21
151.9878999999999
 31
0.0
  0
LINE
  5
1AF
330
1E
100
AcDbEntity
  8
0
100
AcDbLine
 10
31.5434782608696
 20
150.270508695652
 30
0.0
 11
37.1
 21
149.4879
 31
0.0
  0
LINE
  5
1B1
330
1E
100
AcDbEntity
  8
0
100
AcDbLine
 10
31.33661971830989
 20
151.3048014084509
 30
0.0
 11
37.29999999999999
 21
150.4879
 31
0.0
  0
LINE
  5
1B2
330
1E
100
AcDbEntity
  8
0
100
AcDbLine
 10
31.8
 20
148.9878999999999
 30
0.0
 11
32.0
 21
145.9878999999999
 31
0.0
  0
LINE
  5
1B3
330
1E
100
AcDbEntity
  8
0
100
AcDbLine
 10
31.3
 20
151.4879
 30
0.0
 11
31.8
 21
148.9878999999999
 31
0.0
  0
LINE
  5
1B4
330
1E
100
AcDbEntity
  8
0
100
AcDbLine
 10
30.8
 20
151.9878999999999
 30
0.0
 11
31.3
 21
151.4879
 31
0.0
  0
LINE
  5
1B5
330
1E
100
AcDbEntity
  8
0
100
AcDbLine
 10
30.8
 20
151.9878999999999
 30
0.0
 11
30.8
 21
151.6319
 31
0.0
  0
LINE
  5
1B6
330
1E
100
AcDbEntity
  8
0
100
AcDbLine
 10
30.0
 20
151.9878999999999
 30
0.0
 11
30.8
 21
151.9878999999999
 31
0.0
  0
LINE
  5
1B7
330
1E
100
AcDbEntity
  8
0
100
AcDbLine
 10
30.8
 20
145.9648999999999
 30
0.0
 11
31.1
 21
141.9899
 31
0.0
  0
LINE
  5
1B8
330
1E
100
AcDbEntity
  8
0
100
AcDbLine
 10
30.8
 20
145.9648999999999
 30
0.0
 11
30.8
 21
147.8628999999999
 31
0.0
  0
LINE
  5
1B9
330
1E
100
AcDbEntity
  8
0
100
AcDbLine
 10
32.7
 20
133.0878999999999
 30
0.0
 11
35.2
 21
132.0878999999999
 31
0.0
  0
LINE
  5
1BA
330
1E
100
AcDbEntity
  8
0
100
AcDbLine
 10
32.1464
 20
138.4458999999999
 30
0.0
 11
33.9902
 21
135.6918999999999
 31
0.0
  0
LINE
  5
1BB
330
1E
100
AcDbEntity
  8
0
100
AcDbLine
 10
45.4579
 20
125.1338999999999
 30
0.0
 11
49.00199999999999
 21
124.0879
 31
0.0
  0
LINE
  5
1BC
330
1E
100
AcDbEntity
  8
0
100
AcDbLine
 10
52.9771
 20
123.7878999999999
 30
0.0
 11
54.8748
 21
123.7878999999999
 31
0.0
  0
LINE
  5
1BD
330
1E
100
AcDbEntity
  8
0
100
AcDbLine
 10
54.8748
 20
123.7878999999999
 30
0.0
 11
56.3747
 21
123.7878999999999
 31
0.0
  0
LINE
  5
1BE
330
1E
100
AcDbEntity
  8
0
100
AcDbLine
 10
56.3747
 20
123.7878999999999
 30
0.0
 11
57.4708
 21
123.7878999999999
 31
0.0
  0
LINE
  5
1BF
330
1E
100
AcDbEntity
  8
0
100
AcDbLine
 10
57.4708
 20
123.7878999999999
 30
0.0
 11
58.1246
 21
123.7878999999999
 31
0.0
  0
LINE
  5
1C0
330
1E
100
AcDbEntity
  8
0
100
AcDbLine
 10
58.1246
 20
123.7878999999999
 30
0.0
 11
58.6438
 21
123.7878999999999
 31
0.0
  0
LINE
  5
1C4
330
1E
100
AcDbEntity
  8
0
100
AcDbLine
 10
58.6438
 20
123.7878999999999
 30
0.0
 11
59.0
 21
123.7878999999999
 31
0.0
  0
LINE
  5
1C5
330
1E
100
AcDbEntity
  8
0
100
AcDbLine
 10
59.0
 20
123.7878999999999
 30
0.0
 11
59.0
 21
122.9878999999999
 31
0.0
  0
LINE
  5
1C6
330
1E
100
AcDbEntity
  8
0
100
AcDbLine
 10
53.0
 20
124.9878999999999
 30
0.0
 11
56.0
 21
124.7878999999999
 31
0.0
  0
LINE
  5
1C7
330
1E
100
AcDbEntity
  8
0
100
AcDbLine
 10
56.0
 20
124.7878999999999
 30
0.0
 11
58.5
 21
124.2879
 31
0.0
  0
LINE
  5
1C8
330
1E
100
AcDbEntity
  8
0
100
AcDbLine
 10
58.5
 20
124.2879
 30
0.0
 11
59.0
 21
123.7878999999999
 31
0.0
  0
LINE
  5
1C9
330
1E
100
AcDbEntity
  8
0
100
AcDbLine
 10
49.00199999999999
 20
124.0879
 30
0.0
 11
52.9771
 21
123.7878999999999
 31
0.0
  0
LINE
  5
1CA
330
1E
100
AcDbEntity
  8
0
100
AcDbLine
 10
40.1
 20
125.6879
 30
0.0
 11
40.49999999999999
 21
122.9878999999999
 31
0.0
  0
LINE
  5
1CB
330
1E
100
AcDbEntity
  8
0
100
AcDbLine
 10
42.70399999999999
 20
126.9778999999999
 30
0.0
 11
45.4579
 21
125.1338999999999
 31
0.0
  0
LINE
  5
1CC
330
1E
100
AcDbEntity
  8
0
100
AcDbLine
 10
33.9902
 20
135.6918999999999
 30
0.0
 11
36.0
 21
133.4098999999999
 31
0.0
  0
LINE
  5
1CD
330
1E
100
AcDbEntity
  8
0
100
AcDbLine
 10
36.0
 20
133.4098999999999
 30
0.0
 11
38.5
 21
131.4878999999999
 31
0.0
  0
LINE
  5
1CE
330
1E
100
AcDbEntity
  8
0
100
AcDbLine
 10
36.6
 20
134.3879
 30
0.0
 11
39.29999999999999
 21
132.2879
 31
0.0
  0
LINE
  5
1CF
330
1E
100
AcDbEntity
  8
0
100
AcDbLine
 10
34.7508
 20
136.3809
 30
0.0
 11
36.6
 21
134.3879
 31
0.0
  0
LINE
  5
1D0
330
1E
100
AcDbEntity
  8
0
100
AcDbLine
 10
35.2
 20
132.0878999999999
 30
0.0
 11
37.4
 21
130.3879
 31
0.0
  0
LINE
  5
1D1
330
1E
100
AcDbEntity
  8
0
100
AcDbLine
 10
38.5
 20
131.4878999999999
 30
0.0
 11
40.42229999999999
 21
128.9878999999999
 31
0.0
  0
LINE
  5
1D3
330
1E
100
AcDbEntity
  8
0
100
AcDbLine
 10
37.4
 20
130.3879
 30
0.0
 11
39.1
 21
128.1879
 31
0.0
  0
LINE
  5
1D4
330
1E
100
AcDbEntity
  8
0
100
AcDbLine
 10
40.42229999999999
 20
128.9878999999999
 30
0.0
 11
42.70399999999999
 21
126.9778999999999
 31
0.0
  0
LINE
  5
1D5
330
1E
100
AcDbEntity
  8
0
100
AcDbLine
 10
44.5
 20
137.4878999999999
 30
0.0
 11
47.8
 21
133.1879
 31
0.0
  0
LINE
  5
1D6
330
1E
100
AcDbEntity
  8
0
100
AcDbLine
 10
44.1
 20
137.0878999999999
 30
0.0
 11
47.29999999999999
 21
132.8879
 31
0.0
  0
LINE
  5
1D7
330
1E
100
AcDbEntity
  8
0
100
AcDbLine
 10
40.2
 20
140.7879
 30
0.0
 11
44.5
 21
137.4878999999999
 31
0.0
  0
LINE
  5
1D8
330
1E
100
AcDbEntity
  8
0
100
AcDbLine
 10
39.9
 20
140.2879
 30
0.0
 11
44.1
 21
137.0878999999999
 31
0.0
  0
LINE
  5
1D9
330
1E
100
AcDbEntity
  8
0
100
AcDbLine
 10
39.29999999999999
 20
132.2879
 30
0.0
 11
41.39999999999999
 21
129.5879
 31
0.0
  0
LINE
  5
1DA
330
1E
100
AcDbEntity
  8
0
100
AcDbLine
 10
41.39999999999999
 20
129.5879
 30
0.0
 11
43.3928
 21
127.7389
 31
0.0
  0
LINE
  5
1DB
330
1E
100
AcDbEntity
  8
0
100
AcDbLine
 10
39.1
 20
128.1879
 30
0.0
 11
40.1
 21
125.6879
 31
0.0
  0
LINE
  5
1DC
330
1E
100
AcDbEntity
  8
0
100
AcDbLine
 10
43.3928
 20
127.7389
 30
0.0
 11
46.1139
 21
126.2178999999999
 31
0.0
  0
LINE
  5
1DD
330
1E
100
AcDbEntity
  8
0
100
AcDbLine
 10
49.29999999999999
 20
128.0878999999999
 30
0.0
 11
49.691431401684
 21
125.236042644874
 31
0.0
  0
LINE
  5
1DE
330
1E
100
AcDbEntity
  8
0
100
AcDbLine
 10
49.8
 20
128.2879
 30
0.0
 11
50.20819437827539
 21
125.197285421629
 31
0.0
  0
LINE
  5
1DF
330
1E
100
AcDbEntity
  8
0
100
AcDbLine
 10
47.8
 20
133.1879
 30
0.0
 11
49.8
 21
128.2879
 31
0.0
  0
LINE
  5
1E0
330
1E
100
AcDbEntity
  8
0
100
AcDbLine
 10
47.29999999999999
 20
132.8879
 30
0.0
 11
49.29999999999999
 21
128.0878999999999
 31
0.0
  0
LINE
  5
1E1
330
1E
100
AcDbEntity
  8
0
100
AcDbLine
 10
53.79999999999999
 20
136.6879
 30
0.0
 11
56.5
 21
130.0878999999999
 31
0.0
  0
LINE
  5
1E2
330
1E
100
AcDbEntity
  8
0
100
AcDbLine
 10
56.5
 20
130.0878999999999
 30
0.0
 11
57.2826086956522
 21
124.5313782608699
 31
0.0
  0
LINE
  5
1E4
330
1E
100
AcDbEntity
  8
0
100
AcDbLine
 10
54.7
 20
137.1879
 30
0.0
 11
57.5
 21
130.2879
 31
0.0
  0
LINE
  5
1E5
330
1E
100
AcDbEntity
  8
0
100
AcDbLine
 10
57.5
 20
130.2879
 30
0.0
 11
58.31690140845069
 21
124.32451971831
 31
0.0
  0
LINE
  5
1E6
330
1E
100
AcDbEntity
  8
0
100
AcDbLine
 10
55.5
 20
137.6879
 30
0.0
 11
58.39999999999999
 21
130.5879
 31
0.0
  0
LINE
  5
1E7
330
1E
100
AcDbEntity
  8
0
100
AcDbLine
 10
58.39999999999999
 20
130.5879
 30
0.0
 11
59.5
 21
122.9878999999999
 31
0.0
  0
LINE
  5
1E8
330
1E
100
AcDbEntity
  8
0
100
AcDbLine
 10
56.0
 20
137.8878999999999
 30
0.0
 11
58.9
 21
130.6879
 31
0.0
  0
LINE
  5
1E9
330
1E
100
AcDbEntity
  8
0
100
AcDbLine
 10
46.1139
 20
126.2178999999999
 30
0.0
 11
49.0
 21
125.2878999999999
 31
0.0
  0
LINE
  5
1EA
330
1E
100
AcDbEntity
  8
0
100
AcDbLine
 10
49.0
 20
125.2878999999999
 30
0.0
 11
53.0
 21
124.9878999999999
 31
0.0
  0
LINE
  5
1EB
330
1E
100
AcDbEntity
  8
0
100
AcDbLine
 10
33.2296
 20
139.1019
 30
0.0
 11
34.7508
 21
136.3809
 31
0.0
  0
LINE
  5
1EC
330
1E
100
AcDbEntity
  8
0
100
AcDbLine
 10
35.1
 20
142.2879
 30
0.0
 11
39.9
 21
140.2879
 31
0.0
  0
LINE
  5
1ED
330
1E
100
AcDbEntity
  8
0
100
AcDbLine
 10
32.2093854216294
 20
143.196094378275
 30
0.0
 11
35.29999999999999
 21
142.7879
 31
0.0
  0
LINE
  5
1EE
330
1E
100
AcDbEntity
  8
0
100
AcDbLine
 10
35.29999999999999
 20
142.7879
 30
0.0
 11
40.2
 21
140.7879
 31
0.0
  0
LINE
  5
1EF
330
1E
100
AcDbEntity
  8
0
100
AcDbLine
 10
32.2481426448737
 20
142.679331401684
 30
0.0
 11
35.1
 21
142.2879
 31
0.0
  0
LINE
  5
1F0
330
1E
100
AcDbEntity
  8
0
100
AcDbLine
 10
49.4
 20
142.3879
 30
0.0
 11
53.79999999999999
 21
136.6879
 31
0.0
  0
LINE
  5
1F1
330
1E
100
AcDbEntity
  8
0
100
AcDbLine
 10
50.1
 20
143.0879
 30
0.0
 11
54.7
 21
137.1879
 31
0.0
  0
LINE
  5
1F2
330
1E
100
AcDbEntity
  8
0
100
AcDbLine
 10
37.1
 20
149.4879
 30
0.0
 11
43.7
 21
146.7879
 31
0.0
  0
LINE
  5
1F4
330
1E
100
AcDbEntity
  8
0
100
AcDbLine
 10
37.29999999999999
 20
150.4879
 30
0.0
 11
44.2
 21
147.6879
 31
0.0
  0
LINE
  5
1F5
330
1E
100
AcDbEntity
  8
0
100
AcDbLine
 10
37.6
 20
151.3879
 30
0.0
 11
44.7
 21
148.4879
 31
0.0
  0
LINE
  5
1F6
330
1E
100
AcDbEntity
  8
0
100
AcDbLine
 10
43.7
 20
146.7879
 30
0.0
 11
49.4
 21
142.3879
 31
0.0
  0
LINE
  5
1F8
330
1E
100
AcDbEntity
  8
0
100
AcDbLine
 10
44.2
 20
147.6879
 30
0.0
 11
50.1
 21
143.0879
 31
0.0
  0
LINE
  5
1F9
330
1E
100
AcDbEntity
  8
0
100
AcDbLine
 10
44.7
 20
148.4879
 30
0.0
 11
50.8
 21
143.7879
 31
0.0
  0
LINE
  5
1FA
330
1E
100
AcDbEntity
  8
0
100
AcDbLine
 10
37.7
 20
151.8879
 30
0.0
 11
44.9
 21
148.9878999999999
 31
0.0
  0
LINE
  5
1FB
330
1E
100
AcDbEntity
  8
0
100
AcDbLine
 10
50.8
 20
143.7879
 30
0.0
 11
55.5
 21
137.6879
 31
0.0
  0
LINE
  5
1FC
330
1E
100
AcDbEntity
  8
0
100
AcDbLine
 10
51.2
 20
144.1879
 30
0.0
 11
56.0
 21
137.8878999999999
 31
0.0
  0
LINE
  5
1FD
330
1E
100
AcDbEntity
  8
0
100
AcDbLine
 10
32.29999999999999
 20
141.9878999999999
 30
0.0
 11
33.2296
 21
139.1019
 31
0.0
  0
LINE
  5
1FE
330
1E
100
AcDbEntity
  8
0
100
AcDbLine
 10
32.0
 20
145.9878999999999
 30
0.0
 11
32.29999999999999
 21
141.9878999999999
 31
0.0
  0
LINE
  5
1FF
330
1E
100
AcDbEntity
  8
0
100
AcDbLine
 10
59.0
 20
122.9878999999999
 30
0.0
 11
59.0
 21
122.1878999999999
 31
0.0
  0
LINE
  5
200
330
1E
100
AcDbEntity
  8
0
100
AcDbLine
 10
59.0
 20
122.9878999999999
 30
0.0
 11
59.0
 21
123.7878999999999
 31
0.0
  0
LINE
  5
201
330
1E
100
AcDbEntity
  8
0
100
AcDbLine
 10
19.5
 20
122.9878999999999
 30
0.0
 11
19.9
 21
120.2879
 31
0.0
  0
LINE
  5
202
330
1E
100
AcDbEntity
  8
0
100
AcDbLine
 10
19.5
 20
122.9878999999999
 30
0.0
 11
19.9
 21
125.6879
 31
0.0
  0
LINE
  5
203
330
1E
100
AcDbEntity
  8
0
100
AcDbLine
 10
1.35617
 20
122.1878999999999
 30
0.0
 11
1.87537
 21
122.1878999999999
 31
0.0
  0
LINE
  5
204
330
1E
100
AcDbEntity
  8
0
100
AcDbLine
 10
1.0
 20
122.1878999999999
 30
0.0
 11
1.0
 21
122.9878999999999
 31
0.0
  0
LINE
  5
205
330
1E
100
AcDbEntity
  8
0
100
AcDbLine
 10
1.0
 20
122.1878999999999
 30
0.0
 11
1.35617
 21
122.1878999999999
 31
0.0
  0
LINE
  5
206
330
1E
100
AcDbEntity
  8
0
100
AcDbLine
 10
1.0
 20
122.1878999999999
 30
0.0
 11
1.5
 21
121.6879
 31
0.0
  0
LINE
  5
20B
330
1E
100
AcDbEntity
  8
0
100
AcDbLine
 10
44.9
 20
148.9878999999999
 30
0.0
 11
51.2
 21
144.1879
 31
0.0
  0
LINE
  5
20C
330
1E
100
AcDbEntity
  8
0
100
AcDbLine
 10
58.9
 20
130.6879
 30
0.0
 11
60.0
 21
122.9878999999999
 31
0.0
  0
LINE
  5
20D
330
1E
100
AcDbEntity
  8
0
100
AcDbLine
 10
30.0
 20
92.9879
 30
0.0
 11
37.7
 21
94.08790000000001
 31
0.0
  0
LINE
  5
20E
330
1E
100
AcDbEntity
  8
0
100
AcDbLine
 10
44.9
 20
96.9879
 30
0.0
 11
51.2
 21
101.7878999999999
 31
0.0
  0
ENDSEC
  0
SECTION
  2
OBJECTS
  0
DICTIONARY
  5
C
330
0
100
AcDbDictionary
281
     1
  3
ACAD_GROUP
350
D
  3
ACAD_LAYOUT
350
19
  3
ACAD_MLINESTYLE
350
16
  3
ACAD_PLOTSETTINGS
350
18
  3
ACAD_PLOTSTYLENAME
350
E
  3
AcDbVariableDictionary
350
20F
  0
DICTIONARY
  5
D
102
{ACAD_REACTORS
330
C
102
}
330
C
100
AcDbDictionary
281
     1
  0
DICTIONARY
  5
19
102
{ACAD_REACTORS
330
C
102
}
330
C
100
AcDbDictionary
281
     1
  3
Layout1
350
1D
  3
Model
350
21
  0
DICTIONARY
  5
16
102
{ACAD_REACTORS
330
C
102
}
330
C
100
AcDbDictionary
281
     1
  3
Standard
350
17
  0
DICTIONARY
  5
18
102
{ACAD_REACTORS
330
C
102
}
330
C
100
AcDbDictionary
281
     1
  0
ACDBDICTIONARYWDFLT
  5
E
102
{ACAD_REACTORS
330
C
102
}
330
C
100
AcDbDictionary
281
     1
  3
Normal
350
F
100
AcDbDictionaryWithDefault
340
F
  0
DICTIONARY
  5
20F
102
{ACAD_REACTORS
330
C
102
}
330
C
100
AcDbDictionary
281
     1
  3
DIMASSOC
350
210
  0
LAYOUT
  5
1D
102
{ACAD_REACTORS
330
19
102
}
330
19
100
AcDbPlotSettings
  1

  2
hp deskjet 980c series
  4

  6

 40
0.0
 41
0.0
 42
0.0
 43
0.0
 44
0.0
 45
0.0
 46
0.0
 47
0.0
 48
0.0
 49
0.0
140
0.0
141
0.0
142
1.0
143
1.0
 70
   688
 72
     0
 73
     0
 74
     5
  7

 75
    16
147
1.0
148
0.0
149
0.0
100
AcDbLayout
  1
Layout1
 70
     1
 71
     1
 10
0.0
 20
0.0
 11
12.0
 21
9.0
 12
0.0
 22
0.0
 32
0.0
 14
1.000000000000000E+20
 24
1.000000000000000E+20
 34
1.000000000000000E+20
 15
-1.000000000000000E+20
 25
-1.000000000000000E+20
 35
-1.000000000000000E+20
146
0.0
 13
0.0
 23
0.0
 33
0.0
 16
1.0
 26
0.0
 36
0.0
 17
0.0
 27
1.0
 37
0.0
 76
     0
330
1A
  0
LAYOUT
  5
21
102
{ACAD_REACTORS
330
19
102
}
330
19
100
AcDbPlotSettings
  1

  2
hp deskjet 980c series
  4

  6

 40
0.0
 41
0.0
 42
0.0
 43
0.0
 44
0.0
 45
0.0
 46
0.0
 47
0.0
 48
0.0
 49
0.0
140
0.0
141
0.0
142
1.0
143
1.0
 70
  1712
 72
     0
 73
     0
 74
     0
  7

 75
     0
147
1.0
148
0.0
149
0.0
100
AcDbLayout
  1
Model
 70
     1
 71
     0
 10
0.0
 20
0.0
 11
12.0
 21
9.0
 12
0.0
 22
0.0
 32
0.0
 14
0.0
 24
0.0
 34
0.0
 15
0.0
 25
0.0
 35
0.0
146
0.0
 13
0.0
 23
0.0
 33
0.0
 16
1.0
 26
0.0
 36
0.0
 17
0.0
 27
1.0
 37
0.0
 76
     0
330
1E
  0
MLINESTYLE
  5
17
102
{ACAD_REACTORS
330
16
102
}
330
16
100
AcDbMlineStyle
  2
STANDARD
 70
     0
  3

 62
   256
 51
90.0
 52
90.0
 71
     2
 49
0.5
 62
   256
  6
BYLAYER
 49
-0.5
 62
   256
  6
BYLAYER
  0
ACDBPLACEHOLDER
  5
F
102
{ACAD_REACTORS
330
E
102
}
330
E
  0
DICTIONARYVAR
  5
210
102
{ACAD_REACTORS
330
20F
102
}
330
20F
100
DictionaryVariables
280
     0
  1
1
  0
ENDSEC
  0
EOF
