  0
SECTION
  2
HEADER
  9
$ACADVER
  1
AC1015
  9
$ACADMAINTVER
 70
    13
  9
$DWGCODEPAGE
  3
ANSI_1252
  9
$INSBASE
 10
0.0
 20
0.0
 30
0.0
  9
$EXTMIN
 10
-0.0000000000000031
 20
-0.0000000000000088
 30
0.0
  9
$EXTMAX
 10
85.0
 20
130.0
 30
0.0
  9
$LIMMIN
 10
0.0
 20
0.0
  9
$LIMMAX
 10
12.0
 20
9.0
  9
$ORTHOMODE
 70
     0
  9
$REGENMODE
 70
     1
  9
$FILLMODE
 70
     1
  9
$QTEXTMODE
 70
     0
  9
$MIRRTEXT
 70
     1
  9
$LTSCALE
 40
1.0
  9
$ATTMODE
 70
     1
  9
$TEXTSIZE
 40
0.2
  9
$TRACEWID
 40
0.05
  9
$TEXTSTYLE
  7
Standard
  9
$CLAYER
  8
0
  9
$CELTYPE
  6
Continuous
  9
$CECOLOR
 62
   256
  9
$CELTSCALE
 40
1.0
  9
$DISPSILH
 70
     0
  9
$DIMSCALE
 40
1.0
  9
$DIMASZ
 40
0.18
  9
$DIMEXO
 40
0.0625
  9
$DIMDLI
 40
0.38
  9
$DIMRND
 40
0.0
  9
$DIMDLE
 40
0.0
  9
$DIMEXE
 40
0.18
  9
$DIMTP
 40
0.0
  9
$DIMTM
 40
0.0
  9
$DIMTXT
 40
0.18
  9
$DIMCEN
 40
0.09
  9
$DIMTSZ
 40
0.0
  9
$DIMTOL
 70
     0
  9
$DIMLIM
 70
     0
  9
$DIMTIH
 70
     1
  9
$DIMTOH
 70
     1
  9
$DIMSE1
 70
     0
  9
$DIMSE2
 70
     0
  9
$DIMTAD
 70
     0
  9
$DIMZIN
 70
     0
  9
$DIMBLK
  1

  9
$DIMASO
 70
     1
  9
$DIMSHO
 70
     1
  9
$DIMPOST
  1

  9
$DIMAPOST
  1

  9
$DIMALT
 70
     0
  9
$DIMALTD
 70
     2
  9
$DIMALTF
 40
25.4
  9
$DIMLFAC
 40
1.0
  9
$DIMTOFL
 70
     0
  9
$DIMTVP
 40
0.0
  9
$DIMTIX
 70
     0
  9
$DIMSOXD
 70
     0
  9
$DIMSAH
 70
     0
  9
$DIMBLK1
  1

  9
$DIMBLK2
  1

  9
$DIMSTYLE
  2
Standard
  9
$DIMCLRD
 70
     0
  9
$DIMCLRE
 70
     0
  9
$DIMCLRT
 70
     0
  9
$DIMTFAC
 40
1.0
  9
$DIMGAP
 40
0.09
  9
$DIMJUST
 70
     0
  9
$DIMSD1
 70
     0
  9
$DIMSD2
 70
     0
  9
$DIMTOLJ
 70
     1
  9
$DIMTZIN
 70
     0
  9
$DIMALTZ
 70
     0
  9
$DIMALTTZ
 70
     0
  9
$DIMUPT
 70
     0
  9
$DIMDEC
 70
     4
  9
$DIMTDEC
 70
     4
  9
$DIMALTU
 70
     2
  9
$DIMALTTD
 70
     2
  9
$DIMTXSTY
  7
Standard
  9
$DIMAUNIT
 70
     0
  9
$DIMADEC
 70
     0
  9
$DIMALTRND
 40
0.0
  9
$DIMAZIN
 70
     0
  9
$DIMDSEP
 70
    46
  9
$DIMATFIT
 70
     3
  9
$DIMFRAC
 70
     0
  9
$DIMLDRBLK
  1

  9
$DIMLUNIT
 70
     2
  9
$DIMLWD
 70
    -2
  9
$DIMLWE
 70
    -2
  9
$DIMTMOVE
 70
     0
  9
$LUNITS
 70
     2
  9
$LUPREC
 70
     4
  9
$SKETCHINC
 40
0.1
  9
$FILLETRAD
 40
0.0
  9
$AUNITS
 70
     0
  9
$AUPREC
 70
     0
  9
$MENU
  1
.
  9
$ELEVATION
 40
0.0
  9
$PELEVATION
 40
0.0
  9
$THICKNESS
 40
0.0
  9
$LIMCHECK
 70
     0
  9
$CHAMFERA
 40
0.0
  9
$CHAMFERB
 40
0.0
  9
$CHAMFERC
 40
0.0
  9
$CHAMFERD
 40
0.0
  9
$SKPOLY
 70
     0
  9
$TDCREATE
 40
2454749.840553194
  9
$TDUCREATE
 40
2454749.757219861
  9
$TDUPDATE
 40
2454749.841616389
  9
$TDUUPDATE
 40
2454749.758283055
  9
$TDINDWG
 40
0.0010631944
  9
$TDUSRTIMER
 40
0.0010631944
  9
$USRTIMER
 70
     1
  9
$ANGBASE
 50
0.0
  9
$ANGDIR
 70
     0
  9
$PDMODE
 70
     0
  9
$PDSIZE
 40
0.0
  9
$PLINEWID
 40
0.0
  9
$SPLFRAME
 70
     0
  9
$SPLINETYPE
 70
     6
  9
$SPLINESEGS
 70
     8
  9
$HANDSEED
  5
27F
  9
$SURFTAB1
 70
     6
  9
$SURFTAB2
 70
     6
  9
$SURFTYPE
 70
     6
  9
$SURFU
 70
     6
  9
$SURFV
 70
     6
  9
$UCSBASE
  2

  9
$UCSNAME
  2

  9
$UCSORG
 10
0.0
 20
0.0
 30
0.0
  9
$UCSXDIR
 10
1.0
 20
0.0
 30
0.0
  9
$UCSYDIR
 10
0.0
 20
1.0
 30
0.0
  9
$UCSORTHOREF
  2

  9
$UCSORTHOVIEW
 70
     1
  9
$UCSORGTOP
 10
0.0
 20
0.0
 30
0.0
  9
$UCSORGBOTTOM
 10
0.0
 20
0.0
 30
0.0
  9
$UCSORGLEFT
 10
0.0
 20
0.0
 30
0.0
  9
$UCSORGRIGHT
 10
0.0
 20
0.0
 30
0.0
  9
$UCSORGFRONT
 10
0.0
 20
0.0
 30
0.0
  9
$UCSORGBACK
 10
0.0
 20
0.0
 30
0.0
  9
$PUCSBASE
  2

  9
$PUCSNAME
  2

  9
$PUCSORG
 10
0.0
 20
0.0
 30
0.0
  9
$PUCSXDIR
 10
1.0
 20
0.0
 30
0.0
  9
$PUCSYDIR
 10
0.0
 20
1.0
 30
0.0
  9
$PUCSORTHOREF
  2

  9
$PUCSORTHOVIEW
 70
     0
  9
$PUCSORGTOP
 10
0.0
 20
0.0
 30
0.0
  9
$PUCSORGBOTTOM
 10
0.0
 20
0.0
 30
0.0
  9
$PUCSORGLEFT
 10
0.0
 20
0.0
 30
0.0
  9
$PUCSORGRIGHT
 10
0.0
 20
0.0
 30
0.0
  9
$PUCSORGFRONT
 10
0.0
 20
0.0
 30
0.0
  9
$PUCSORGBACK
 10
0.0
 20
0.0
 30
0.0
  9
$USERI1
 70
     0
  9
$USERI2
 70
     0
  9
$USERI3
 70
     0
  9
$USERI4
 70
     0
  9
$USERI5
 70
     0
  9
$USERR1
 40
0.0
  9
$USERR2
 40
0.0
  9
$USERR3
 40
0.0
  9
$USERR4
 40
0.0
  9
$USERR5
 40
0.0
  9
$WORLDVIEW
 70
     1
  9
$SHADEDGE
 70
     3
  9
$SHADEDIF
 70
    70
  9
$TILEMODE
 70
     1
  9
$MAXACTVP
 70
    64
  9
$PINSBASE
 10
0.0
 20
0.0
 30
0.0
  9
$PLIMCHECK
 70
     0
  9
$PEXTMIN
 10
1.000000000000000E+20
 20
1.000000000000000E+20
 30
1.000000000000000E+20
  9
$PEXTMAX
 10
-1.000000000000000E+20
 20
-1.000000000000000E+20
 30
-1.000000000000000E+20
  9
$PLIMMIN
 10
0.0
 20
0.0
  9
$PLIMMAX
 10
12.0
 20
9.0
  9
$UNITMODE
 70
     0
  9
$VISRETAIN
 70
     1
  9
$PLINEGEN
 70
     0
  9
$PSLTSCALE
 70
     1
  9
$TREEDEPTH
 70
  3020
  9
$CMLSTYLE
  2
Standard
  9
$CMLJUST
 70
     0
  9
$CMLSCALE
 40
1.0
  9
$PROXYGRAPHICS
 70
     1
  9
$MEASUREMENT
 70
     0
  9
$CELWEIGHT
370
    -1
  9
$ENDCAPS
280
     0
  9
$JOINSTYLE
280
     0
  9
$LWDISPLAY
290
     0
  9
$INSUNITS
 70
     0
  9
$HYPERLINKBASE
  1

  9
$STYLESHEET
  1

  9
$XEDIT
290
     1
  9
$CEPSNTYPE
380
     0
  9
$PSTYLEMODE
290
     1
  9
$FINGERPRINTGUID
  2
{01E6C51F-CE3E-499B-89C9-2A4DFC94D8CC}
  9
$VERSIONGUID
  2
{E6B299A8-60F3-441F-A358-A0F5EB400E35}
  9
$EXTNAMES
290
     1
  9
$PSVPSCALE
 40
0.0
  9
$OLESTARTUP
290
     0
  0
ENDSEC
  0
SECTION
  2
CLASSES
  0
CLASS
  1
ACDBDICTIONARYWDFLT
  2
AcDbDictionaryWithDefault
  3
AutoCAD 2000
 90
        0
280
     0
281
     0
  0
CLASS
  1
ACDBPLACEHOLDER
  2
AcDbPlaceHolder
  3
AutoCAD 2000
 90
        0
280
     0
281
     0
  0
CLASS
  1
LAYOUT
  2
AcDbLayout
  3
AutoCAD 2000
 90
        0
280
     0
281
     0
  0
CLASS
  1
DICTIONARYVAR
  2
AcDbDictionaryVar
  3
AutoCAD 2000
 90
        0
280
     0
281
     0
  0
ENDSEC
  0
SECTION
  2
TABLES
  0
TABLE
  2
VPORT
  5
8
330
0
100
AcDbSymbolTable
 70
     2
  0
VPORT
  5
27E
330
8
100
AcDbSymbolTableRecord
100
AcDbViewportTableRecord
  2
*Active
 70
     0
 10
0.0
 20
0.0
 11
1.0
 21
1.0
 12
42.5
 22
64.99999999999999
 13
0.0
 23
0.0
 14
1.0
 24
1.0
 15
0.0
 25
0.0
 16
0.0
 26
0.0
 36
1.0
 17
0.0
 27
0.0
 37
0.0
 40
130.9974424552429
 41
2.078104993597951
 42
50.0
 43
0.0
 44
0.0
 50
0.0
 51
0.0
 71
     0
 72
   100
 73
     1
 74
     3
 75
     0
 76
     0
 77
     0
 78
     0
281
     0
 65
     1
110
0.0
120
0.0
130
0.0
111
1.0
121
0.0
131
0.0
112
0.0
122
1.0
132
0.0
 79
     1
146
0.0
  0
ENDTAB
  0
TABLE
  2
LTYPE
  5
5
330
0
100
AcDbSymbolTable
 70
     1
  0
LTYPE
  5
13
330
5
100
AcDbSymbolTableRecord
100
AcDbLinetypeTableRecord
  2
ByBlock
 70
     0
  3

 72
    65
 73
     0
 40
0.0
  0
LTYPE
  5
14
330
5
100
AcDbSymbolTableRecord
100
AcDbLinetypeTableRecord
  2
ByLayer
 70
     0
  3

 72
    65
 73
     0
 40
0.0
  0
LTYPE
  5
15
330
5
100
AcDbSymbolTableRecord
100
AcDbLinetypeTableRecord
  2
Continuous
 70
     0
  3
Solid line
 72
    65
 73
     0
 40
0.0
  0
ENDTAB
  0
TABLE
  2
LAYER
  5
2
330
0
100
AcDbSymbolTable
 70
     1
  0
LAYER
  5
10
330
2
100
AcDbSymbolTableRecord
100
AcDbLayerTableRecord
  2
0
 70
     0
 62
     7
  6
Continuous
370
    -3
390
F
  0
ENDTAB
  0
TABLE
  2
STYLE
  5
3
330
0
100
AcDbSymbolTable
 70
     1
  0
STYLE
  5
11
330
3
100
AcDbSymbolTableRecord
100
AcDbTextStyleTableRecord
  2
Standard
 70
     0
 40
0.0
 41
1.0
 50
0.0
 71
     0
 42
0.2
  3
txt
  4

  0
ENDTAB
  0
TABLE
  2
VIEW
  5
6
330
0
100
AcDbSymbolTable
 70
     0
  0
ENDTAB
  0
TABLE
  2
UCS
  5
7
330
0
100
AcDbSymbolTable
 70
     0
  0
ENDTAB
  0
TABLE
  2
APPID
  5
9
330
0
100
AcDbSymbolTable
 70
     1
  0
APPID
  5
12
330
9
100
AcDbSymbolTableRecord
100
AcDbRegAppTableRecord
  2
ACAD
 70
     0
  0
ENDTAB
  0
TABLE
  2
DIMSTYLE
  5
A
330
0
100
AcDbSymbolTable
 70
     1
100
AcDbDimStyleTable
 71
     0
  0
DIMSTYLE
105
277
330
A
100
AcDbSymbolTableRecord
100
AcDbDimStyleTableRecord
  2
Standard
 70
     0
340
11
  0
ENDTAB
  0
TABLE
  2
BLOCK_RECORD
  5
1
330
0
100
AcDbSymbolTable
 70
     0
  0
BLOCK_RECORD
  5
1E
330
1
100
AcDbSymbolTableRecord
100
AcDbBlockTableRecord
  2
*Model_Space
340
21
  0
BLOCK_RECORD
  5
1A
330
1
100
AcDbSymbolTableRecord
100
AcDbBlockTableRecord
  2
*Paper_Space
340
1D
  0
ENDTAB
  0
ENDSEC
  0
SECTION
  2
BLOCKS
  0
BLOCK
  5
1F
330
1E
100
AcDbEntity
  8
0
100
AcDbBlockBegin
  2
*Model_Space
 70
     0
 10
0.0
 20
0.0
 30
0.0
  3
*Model_Space
  1

  0
ENDBLK
  5
20
330
1E
100
AcDbEntity
  8
0
100
AcDbBlockEnd
  0
BLOCK
  5
1B
330
1A
100
AcDbEntity
 67
     1
  8
0
100
AcDbBlockBegin
  2
*Paper_Space
 70
     0
 10
0.0
 20
0.0
 30
0.0
  3
*Paper_Space
  1

  0
ENDBLK
  5
1C
330
1A
100
AcDbEntity
 67
     1
  8
0
100
AcDbBlockEnd
  0
ENDSEC
  0
SECTION
  2
ENTITIES
  0
LINE
  5
22
330
1E
100
AcDbEntity
  8
0
100
AcDbLine
 10
-0.0000000000000031
 20
56.0
 30
0.0
 11
0.499999999999997
 21
54.5
 31
0.0
  0
LINE
  5
23
330
1E
100
AcDbEntity
  8
0
100
AcDbLine
 10
-0.0000000000000031
 20
56.29999999999999
 30
0.0
 11
-0.000000000000003
 21
57.2
 31
0.0
  0
LINE
  5
24
330
1E
100
AcDbEntity
  8
0
100
AcDbLine
 10
-0.0000000000000031
 20
56.0
 30
0.0
 11
0.499999999999997
 21
54.5
 31
0.0
  0
LINE
  5
25
330
1E
100
AcDbEntity
  8
0
100
AcDbLine
 10
-0.0000000000000031
 20
56.0
 30
0.0
 11
-0.0000000000000031
 21
56.29999999999999
 31
0.0
  0
LINE
  5
26
330
1E
100
AcDbEntity
  8
0
100
AcDbLine
 10
-0.000000000000003
 20
57.2
 30
0.0
 11
-0.0000000000000027
 21
62.7
 31
0.0
  0
LINE
  5
27
330
1E
100
AcDbEntity
  8
0
100
AcDbLine
 10
6.0
 20
36.0
 30
0.0
 11
8.929
 21
36.3562
 31
0.0
  0
LINE
  5
28
330
1E
100
AcDbEntity
  8
0
100
AcDbLine
 10
1.187
 20
37.5292
 30
0.0
 11
1.955999999999999
 21
36.8754
 31
0.0
  0
LINE
  5
29
330
1E
100
AcDbEntity
  8
0
100
AcDbLine
 10
0.4759999999999961
 20
38.6253
 30
0.0
 11
1.187
 21
37.5292
 31
0.0
  0
LINE
  5
2A
330
1E
100
AcDbEntity
  8
0
100
AcDbLine
 10
0.091999999999996
 20
40.1252
 30
0.0
 11
0.4759999999999961
 21
38.6253
 31
0.0
  0
LINE
  5
2B
330
1E
100
AcDbEntity
  8
0
100
AcDbLine
 10
0.091999999999996
 20
40.1252
 30
0.0
 11
0.211999999999996
 21
42.0229
 31
0.0
  0
LINE
  5
2C
330
1E
100
AcDbEntity
  8
0
100
AcDbLine
 10
0.110999999999996
 20
40.0098
 30
0.0
 11
0.191355368518832
 21
39.7371189655172
 31
0.0
  0
LINE
  5
2F
330
1E
100
AcDbEntity
  8
0
100
AcDbLine
 10
0.192999999999996
 20
41.89639999999999
 30
0.0
 11
0.273719715754414
 21
42.53616787049249
 31
0.0
  0
LINE
  5
30
330
1E
100
AcDbEntity
  8
0
100
AcDbLine
 10
0.211999999999996
 20
42.0229
 30
0.0
 11
0.689999999999996
 21
45.998
 31
0.0
  0
LINE
  5
31
330
1E
100
AcDbEntity
  8
0
100
AcDbLine
 10
0.211999999999996
 20
42.0229
 30
0.0
 11
0.689999999999996
 21
45.998
 31
0.0
  0
LINE
  5
32
330
1E
100
AcDbEntity
  8
0
100
AcDbLine
 10
0.192999999999996
 20
41.89639999999999
 30
0.0
 11
0.273719715754414
 21
42.5361678704924
 31
0.0
  0
LINE
  5
33
330
1E
100
AcDbEntity
  8
0
100
AcDbLine
 10
0.168814607392418
 20
41.3399590037383
 30
0.0
 11
0.192999999999996
 21
41.89639999999999
 31
0.0
  0
LINE
  5
34
330
1E
100
AcDbEntity
  8
0
100
AcDbLine
 10
0.110999999999996
 20
40.0098
 30
0.0
 11
0.191355368518832
 21
39.7371189655172
 31
0.0
  0
LINE
  5
35
330
1E
100
AcDbEntity
  8
0
100
AcDbLine
 10
0.4759999999999961
 20
38.6253
 30
0.0
 11
1.187
 21
37.5292
 31
0.0
  0
LINE
  5
37
330
1E
100
AcDbEntity
  8
0
100
AcDbLine
 10
1.283
 20
37.433
 30
0.0
 11
1.47733275563262
 21
37.2823605258354
 31
0.0
  0
LINE
  5
38
330
1E
100
AcDbEntity
  8
0
100
AcDbLine
 10
1.955999999999999
 20
36.8754
 30
0.0
 11
3.071
 21
36.3562
 31
0.0
  0
LINE
  5
39
330
1E
100
AcDbEntity
  8
0
100
AcDbLine
 10
3.071
 20
36.3562
 30
0.0
 11
6.0
 21
36.0
 31
0.0
  0
LINE
  5
3B
330
1E
100
AcDbEntity
  8
0
100
AcDbLine
 10
10.044
 20
36.8754
 30
0.0
 11
10.81299999999999
 21
37.5292
 31
0.0
  0
LINE
  5
3E
330
1E
100
AcDbEntity
  8
0
100
AcDbLine
 10
11.524
 20
38.6253
 30
0.0
 11
11.908
 21
40.1252
 31
0.0
  0
LINE
  5
3F
330
1E
100
AcDbEntity
  8
0
100
AcDbLine
 10
10.81299999999999
 20
37.5292
 30
0.0
 11
11.524
 21
38.6253
 31
0.0
  0
LINE
  5
40
330
1E
100
AcDbEntity
  8
0
100
AcDbLine
 10
10.5226672443674
 20
37.2823605258354
 30
0.0
 11
10.717
 21
37.433
 31
0.0
  0
LINE
  5
41
330
1E
100
AcDbEntity
  8
0
100
AcDbLine
 10
8.929
 20
36.3562
 30
0.0
 11
10.044
 21
36.8754
 31
0.0
  0
LINE
  5
42
330
1E
100
AcDbEntity
  8
0
100
AcDbLine
 10
11.31
 20
45.998
 30
0.0
 11
11.788
 21
42.0229
 31
0.0
  0
LINE
  5
43
330
1E
100
AcDbEntity
  8
0
100
AcDbLine
 10
61.0
 20
35.5
 30
0.0
 11
62.5
 21
35.0
 31
0.0
  0
LINE
  5
44
330
1E
100
AcDbEntity
  8
0
100
AcDbLine
 10
61.0
 20
35.5
 30
0.0
 11
61.0
 21
36.6
 31
0.0
  0
LINE
  5
45
330
1E
100
AcDbEntity
  8
0
100
AcDbLine
 10
62.5
 20
35.0
 30
0.0
 11
63.0
 21
35.0
 31
0.0
  0
LINE
  5
46
330
1E
100
AcDbEntity
  8
0
100
AcDbLine
 10
63.0
 20
35.0
 30
0.0
 11
64.5
 21
35.5
 31
0.0
  0
LINE
  5
47
330
1E
100
AcDbEntity
  8
0
100
AcDbLine
 10
35.5
 20
38.5
 30
0.0
 11
35.5
 21
41.2
 31
0.0
  0
LINE
  5
48
330
1E
100
AcDbEntity
  8
0
100
AcDbLine
 10
35.5
 20
38.5
 30
0.0
 11
35.5
 21
37.5
 31
0.0
  0
LINE
  5
49
330
1E
100
AcDbEntity
  8
0
100
AcDbLine
 10
35.0
 20
39.0
 30
0.0
 11
35.5
 21
37.5
 31
0.0
  0
LINE
  5
4A
330
1E
100
AcDbEntity
  8
0
100
AcDbLine
 10
35.5
 20
37.5
 30
0.0
 11
37.0
 21
37.0
 31
0.0
  0
LINE
  5
4B
330
1E
100
AcDbEntity
  8
0
100
AcDbLine
 10
35.5
 20
37.5
 30
0.0
 11
35.5
 21
38.5
 31
0.0
  0
LINE
  5
4C
330
1E
100
AcDbEntity
  8
0
100
AcDbLine
 10
60.5
 20
37.5
 30
0.0
 11
60.5
 21
40.3
 31
0.0
  0
LINE
  5
4D
330
1E
100
AcDbEntity
  8
0
100
AcDbLine
 10
60.5
 20
37.5
 30
0.0
 11
60.5
 21
36.5
 31
0.0
  0
LINE
  5
4E
330
1E
100
AcDbEntity
  8
0
100
AcDbLine
 10
37.0
 20
37.0
 30
0.0
 11
59.0
 21
37.0
 31
0.0
  0
LINE
  5
4F
330
1E
100
AcDbEntity
  8
0
100
AcDbLine
 10
59.0
 20
37.0
 30
0.0
 11
60.5
 21
36.5
 31
0.0
  0
LINE
  5
50
330
1E
100
AcDbEntity
  8
0
100
AcDbLine
 10
61.0
 20
39.5
 30
0.0
 11
61.0
 21
44.2
 31
0.0
  0
LINE
  5
51
330
1E
100
AcDbEntity
  8
0
100
AcDbLine
 10
61.0
 20
39.5
 30
0.0
 11
61.0
 21
36.6
 31
0.0
  0
LINE
  5
52
330
1E
100
AcDbEntity
  8
0
100
AcDbLine
 10
61.0
 20
36.6
 30
0.0
 11
61.0
 21
39.5
 31
0.0
  0
LINE
  5
53
330
1E
100
AcDbEntity
  8
0
100
AcDbLine
 10
61.0
 20
36.6
 30
0.0
 11
61.0
 21
35.5
 31
0.0
  0
LINE
  5
54
330
1E
100
AcDbEntity
  8
0
100
AcDbLine
 10
60.5
 20
36.5
 30
0.0
 11
61.0
 21
35.5
 31
0.0
  0
LINE
  5
55
330
1E
100
AcDbEntity
  8
0
100
AcDbLine
 10
60.5
 20
36.5
 30
0.0
 11
60.5
 21
37.5
 31
0.0
  0
LINE
  5
56
330
1E
100
AcDbEntity
  8
0
100
AcDbLine
 10
64.5
 20
35.5
 30
0.0
 11
65.5
 21
36.5
 31
0.0
  0
LINE
  5
57
330
1E
100
AcDbEntity
  8
0
100
AcDbLine
 10
85.0
 20
-0.0000000000000088
 30
0.0
 11
85.0
 21
0.664772999999991
 31
0.0
  0
LINE
  5
58
330
1E
100
AcDbEntity
  8
0
100
AcDbLine
 10
71.76470000000001
 20
9.97158999999999
 30
0.0
 11
72.2059
 21
8.863639999999991
 31
0.0
  0
LINE
  5
59
330
1E
100
AcDbEntity
  8
0
100
AcDbLine
 10
72.2059
 20
8.863639999999991
 30
0.0
 11
73.0882
 21
8.124999999999991
 31
0.0
  0
LINE
  5
5A
330
1E
100
AcDbEntity
  8
0
100
AcDbLine
 10
73.0882
 20
8.124999999999991
 30
0.0
 11
74.4118
 21
7.75567999999999
 31
0.0
  0
LINE
  5
5B
330
1E
100
AcDbEntity
  8
0
100
AcDbLine
 10
75.2941
 20
29.9886
 30
0.0
 11
75.2941
 21
24.3011
 31
0.0
  0
LINE
  5
5C
330
1E
100
AcDbEntity
  8
0
100
AcDbLine
 10
75.2941
 20
29.9886
 30
0.0
 11
75.2941
 21
36.3409
 31
0.0
  0
LINE
  5
5D
330
1E
100
AcDbEntity
  8
0
100
AcDbLine
 10
75.2941
 20
36.3409
 30
0.0
 11
75.2941
 21
29.9886
 31
0.0
  0
LINE
  5
5E
330
1E
100
AcDbEntity
  8
0
100
AcDbLine
 10
75.2941
 20
36.3409
 30
0.0
 11
75.2941
 21
42.9886
 31
0.0
  0
LINE
  5
5F
330
1E
100
AcDbEntity
  8
0
100
AcDbLine
 10
75.2941
 20
24.3011
 30
0.0
 11
75.2941
 21
19.35229999999999
 31
0.0
  0
LINE
  5
60
330
1E
100
AcDbEntity
  8
0
100
AcDbLine
 10
75.2941
 20
24.3011
 30
0.0
 11
75.2941
 21
29.9886
 31
0.0
  0
LINE
  5
61
330
1E
100
AcDbEntity
  8
0
100
AcDbLine
 10
75.2941
 20
19.35229999999999
 30
0.0
 11
75.2941
 21
15.0682
 31
0.0
  0
LINE
  5
62
330
1E
100
AcDbEntity
  8
0
100
AcDbLine
 10
75.2941
 20
19.35229999999999
 30
0.0
 11
75.2941
 21
24.3011
 31
0.0
  0
LINE
  5
63
330
1E
100
AcDbEntity
  8
0
100
AcDbLine
 10
75.2941
 20
15.0682
 30
0.0
 11
75.2941
 21
11.892
 31
0.0
  0
LINE
  5
64
330
1E
100
AcDbEntity
  8
0
100
AcDbLine
 10
75.2941
 20
15.0682
 30
0.0
 11
75.2941
 21
19.35229999999999
 31
0.0
  0
LINE
  5
65
330
1E
100
AcDbEntity
  8
0
100
AcDbLine
 10
75.2941
 20
11.892
 30
0.0
 11
75.2941
 21
9.45454999999999
 31
0.0
  0
LINE
  5
66
330
1E
100
AcDbEntity
  8
0
100
AcDbLine
 10
75.2941
 20
11.892
 30
0.0
 11
75.2941
 21
15.0682
 31
0.0
  0
LINE
  5
67
330
1E
100
AcDbEntity
  8
0
100
AcDbLine
 10
75.2941
 20
9.45454999999999
 30
0.0
 11
75.2941
 21
7.97726999999999
 31
0.0
  0
LINE
  5
68
330
1E
100
AcDbEntity
  8
0
100
AcDbLine
 10
75.2941
 20
9.45454999999999
 30
0.0
 11
75.2941
 21
11.892
 31
0.0
  0
LINE
  5
69
330
1E
100
AcDbEntity
  8
0
100
AcDbLine
 10
75.2941
 20
7.97726999999999
 30
0.0
 11
75.2941
 21
7.38635999999999
 31
0.0
  0
LINE
  5
6A
330
1E
100
AcDbEntity
  8
0
100
AcDbLine
 10
75.2941
 20
7.97726999999999
 30
0.0
 11
75.2941
 21
9.45454999999999
 31
0.0
  0
LINE
  5
6B
330
1E
100
AcDbEntity
  8
0
100
AcDbLine
 10
74.4118
 20
7.75567999999999
 30
0.0
 11
75.2941
 21
7.38635999999999
 31
0.0
  0
LINE
  5
6C
330
1E
100
AcDbEntity
  8
0
100
AcDbLine
 10
75.2941
 20
7.38635999999999
 30
0.0
 11
76.17650000000001
 21
5.90908999999999
 31
0.0
  0
LINE
  5
6D
330
1E
100
AcDbEntity
  8
0
100
AcDbLine
 10
75.2941
 20
7.38635999999999
 30
0.0
 11
75.2941
 21
7.97726999999999
 31
0.0
  0
LINE
  5
6E
330
1E
100
AcDbEntity
  8
0
100
AcDbLine
 10
77.0588
 20
2.95454999999999
 30
0.0
 11
79.7059
 21
0.7386359999999921
 31
0.0
  0
LINE
  5
6F
330
1E
100
AcDbEntity
  8
0
100
AcDbLine
 10
76.17650000000001
 20
5.90908999999999
 30
0.0
 11
77.0588
 21
2.95454999999999
 31
0.0
  0
LINE
  5
70
330
1E
100
AcDbEntity
  8
0
100
AcDbLine
 10
77.0588
 20
2.95454999999999
 30
0.0
 11
79.7059
 21
0.7386359999999921
 31
0.0
  0
LINE
  5
71
330
1E
100
AcDbEntity
  8
0
100
AcDbLine
 10
85.0
 20
25.483
 30
0.0
 11
85.0
 21
19.1307
 31
0.0
  0
LINE
  5
72
330
1E
100
AcDbEntity
  8
0
100
AcDbLine
 10
85.0
 20
25.483
 30
0.0
 11
85.0
 21
32.6477
 31
0.0
  0
LINE
  5
73
330
1E
100
AcDbEntity
  8
0
100
AcDbLine
 10
85.0
 20
32.6477
 30
0.0
 11
85.0
 21
25.483
 31
0.0
  0
LINE
  5
74
330
1E
100
AcDbEntity
  8
0
100
AcDbLine
 10
85.0
 20
32.6477
 30
0.0
 11
85.0
 21
40.1818
 31
0.0
  0
LINE
  5
75
330
1E
100
AcDbEntity
  8
0
100
AcDbLine
 10
85.0
 20
19.1307
 30
0.0
 11
85.0
 21
13.517
 31
0.0
  0
LINE
  5
76
330
1E
100
AcDbEntity
  8
0
100
AcDbLine
 10
85.0
 20
19.1307
 30
0.0
 11
85.0
 21
25.483
 31
0.0
  0
LINE
  5
77
330
1E
100
AcDbEntity
  8
0
100
AcDbLine
 10
85.0
 20
13.517
 30
0.0
 11
85.0
 21
8.71590999999999
 31
0.0
  0
LINE
  5
78
330
1E
100
AcDbEntity
  8
0
100
AcDbLine
 10
85.0
 20
13.517
 30
0.0
 11
85.0
 21
19.1307
 31
0.0
  0
LINE
  5
79
330
1E
100
AcDbEntity
  8
0
100
AcDbLine
 10
85.0
 20
8.71590999999999
 30
0.0
 11
85.0
 21
5.09658999999999
 31
0.0
  0
LINE
  5
7A
330
1E
100
AcDbEntity
  8
0
100
AcDbLine
 10
85.0
 20
8.71590999999999
 30
0.0
 11
85.0
 21
13.517
 31
0.0
  0
LINE
  5
7B
330
1E
100
AcDbEntity
  8
0
100
AcDbLine
 10
85.0
 20
5.09658999999999
 30
0.0
 11
85.0
 21
2.363639999999989
 31
0.0
  0
LINE
  5
7C
330
1E
100
AcDbEntity
  8
0
100
AcDbLine
 10
85.0
 20
5.09658999999999
 30
0.0
 11
85.0
 21
8.71590999999999
 31
0.0
  0
LINE
  5
7D
330
1E
100
AcDbEntity
  8
0
100
AcDbLine
 10
85.0
 20
2.363639999999989
 30
0.0
 11
85.0
 21
0.664772999999991
 31
0.0
  0
LINE
  5
7E
330
1E
100
AcDbEntity
  8
0
100
AcDbLine
 10
85.0
 20
2.363639999999989
 30
0.0
 11
85.0
 21
5.09658999999999
 31
0.0
  0
LINE
  5
7F
330
1E
100
AcDbEntity
  8
0
100
AcDbLine
 10
85.0
 20
0.664772999999991
 30
0.0
 11
85.0
 21
-0.0000000000000088
 31
0.0
  0
LINE
  5
80
330
1E
100
AcDbEntity
  8
0
100
AcDbLine
 10
85.0
 20
0.664772999999991
 30
0.0
 11
85.0
 21
2.363639999999989
 31
0.0
  0
LINE
  5
81
330
1E
100
AcDbEntity
  8
0
100
AcDbLine
 10
79.7059
 20
0.7386359999999921
 30
0.0
 11
83.23529999999999
 21
-0.0000000000000087
 31
0.0
  0
LINE
  5
82
330
1E
100
AcDbEntity
  8
0
100
AcDbLine
 10
79.7059
 20
0.7386359999999921
 30
0.0
 11
83.23529999999999
 21
-0.0000000000000087
 31
0.0
  0
LINE
  5
83
330
1E
100
AcDbEntity
  8
0
100
AcDbLine
 10
83.23529999999999
 20
-0.0000000000000087
 30
0.0
 11
85.0
 21
-0.0000000000000088
 31
0.0
  0
LINE
  5
84
330
1E
100
AcDbEntity
  8
0
100
AcDbLine
 10
65.5
 20
36.5
 30
0.0
 11
66.0
 21
38.0
 31
0.0
  0
LINE
  5
85
330
1E
100
AcDbEntity
  8
0
100
AcDbLine
 10
11.788
 20
42.0229
 30
0.0
 11
11.908
 21
40.1252
 31
0.0
  0
LINE
  5
86
330
1E
100
AcDbEntity
  8
0
100
AcDbLine
 10
35.0
 20
39.0
 30
0.0
 11
35.0
 21
42.5
 31
0.0
  0
LINE
  5
87
330
1E
100
AcDbEntity
  8
0
100
AcDbLine
 10
33.5
 20
45.7
 30
0.0
 11
33.5
 21
47.7
 31
0.0
  0
LINE
  5
88
330
1E
100
AcDbEntity
  8
0
100
AcDbLine
 10
33.5
 20
45.7
 30
0.0
 11
33.5
 21
45.0
 31
0.0
  0
LINE
  5
89
330
1E
100
AcDbEntity
  8
0
100
AcDbLine
 10
35.5
 20
41.2
 30
0.0
 11
35.5
 21
45.6
 31
0.0
  0
LINE
  5
8A
330
1E
100
AcDbEntity
  8
0
100
AcDbLine
 10
35.5
 20
41.2
 30
0.0
 11
35.5
 21
38.5
 31
0.0
  0
LINE
  5
8B
330
1E
100
AcDbEntity
  8
0
100
AcDbLine
 10
85.0
 20
40.1818
 30
0.0
 11
85.0
 21
32.6477
 31
0.0
  0
LINE
  5
8C
330
1E
100
AcDbEntity
  8
0
100
AcDbLine
 10
85.0
 20
40.1818
 30
0.0
 11
85.0
 21
48.233
 31
0.0
  0
LINE
  5
8D
330
1E
100
AcDbEntity
  8
0
100
AcDbLine
 10
60.5
 20
40.3
 30
0.0
 11
60.5
 21
44.9
 31
0.0
  0
LINE
  5
8E
330
1E
100
AcDbEntity
  8
0
100
AcDbLine
 10
60.5
 20
40.3
 30
0.0
 11
60.5
 21
37.5
 31
0.0
  0
LINE
  5
8F
330
1E
100
AcDbEntity
  8
0
100
AcDbLine
 10
35.0
 20
45.2
 30
0.0
 11
35.0
 21
44.5
 31
0.0
  0
LINE
  5
90
330
1E
100
AcDbEntity
  8
0
100
AcDbLine
 10
66.0
 20
44.0
 30
0.0
 11
70.6798339429917
 21
44.0
 31
0.0
  0
LINE
  5
91
330
1E
100
AcDbEntity
  8
0
100
AcDbLine
 10
75.2941
 20
42.9886
 30
0.0
 11
75.2941
 21
36.3409
 31
0.0
  0
LINE
  5
92
330
1E
100
AcDbEntity
  8
0
100
AcDbLine
 10
75.2941
 20
42.9886
 30
0.0
 11
75.2941
 21
50.1534
 31
0.0
  0
LINE
  5
93
330
1E
100
AcDbEntity
  8
0
100
AcDbLine
 10
70.67344667963329
 20
44.0
 30
0.0
 11
71.76470000000001
 21
9.97158999999999
 31
0.0
  0
LINE
  5
94
330
1E
100
AcDbEntity
  8
0
100
AcDbLine
 10
35.5
 20
45.6
 30
0.0
 11
35.5
 21
41.2
 31
0.0
  0
LINE
  5
95
330
1E
100
AcDbEntity
  8
0
100
AcDbLine
 10
35.5
 20
45.6
 30
0.0
 11
35.5
 21
51.29999999999999
 31
0.0
  0
LINE
  5
96
330
1E
100
AcDbEntity
  8
0
100
AcDbLine
 10
60.5
 20
44.9
 30
0.0
 11
60.5
 21
40.3
 31
0.0
  0
LINE
  5
97
330
1E
100
AcDbEntity
  8
0
100
AcDbLine
 10
60.5
 20
44.9
 30
0.0
 11
60.5
 21
50.8
 31
0.0
  0
LINE
  5
98
330
1E
100
AcDbEntity
  8
0
100
AcDbLine
 10
61.0
 20
44.2
 30
0.0
 11
61.0
 21
39.5
 31
0.0
  0
LINE
  5
99
330
1E
100
AcDbEntity
  8
0
100
AcDbLine
 10
61.0
 20
44.2
 30
0.0
 11
61.0
 21
50.3
 31
0.0
  0
LINE
  5
9A
330
1E
100
AcDbEntity
  8
0
100
AcDbLine
 10
35.0
 20
44.5
 30
0.0
 11
35.0
 21
42.5
 31
0.0
  0
LINE
  5
9B
330
1E
100
AcDbEntity
  8
0
100
AcDbLine
 10
35.0
 20
42.5
 30
0.0
 11
35.0
 21
39.0
 31
0.0
  0
LINE
  5
9C
330
1E
100
AcDbEntity
  8
0
100
AcDbLine
 10
35.0
 20
42.5
 30
0.0
 11
35.0
 21
44.5
 31
0.0
  0
LINE
  5
9D
330
1E
100
AcDbEntity
  8
0
100
AcDbLine
 10
33.5
 20
45.0
 30
0.0
 11
35.0
 21
44.5
 31
0.0
  0
LINE
  5
9E
330
1E
100
AcDbEntity
  8
0
100
AcDbLine
 10
33.5
 20
45.0
 30
0.0
 11
33.5
 21
45.7
 31
0.0
  0
LINE
  5
9F
330
1E
100
AcDbEntity
  8
0
100
AcDbLine
 10
11.807
 20
41.89639999999999
 30
0.0
 11
11.8311853926076
 21
41.3399590037382
 31
0.0
  0
LINE
  5
A0
330
1E
100
AcDbEntity
  8
0
100
AcDbLine
 10
11.80864463148109
 20
39.73711896551709
 30
0.0
 11
11.889
 21
40.0098
 31
0.0
  0
LINE
  5
A1
330
1E
100
AcDbEntity
  8
0
100
AcDbLine
 10
11.7262802842455
 20
42.5361678704928
 30
0.0
 11
11.807
 21
41.89639999999999
 31
0.0
  0
LINE
  5
A2
330
1E
100
AcDbEntity
  8
0
100
AcDbLine
 10
0.499999999999997
 20
54.9
 30
0.0
 11
0.499999999999997
 21
55.89999999999999
 31
0.0
  0
LINE
  5
A3
330
1E
100
AcDbEntity
  8
0
100
AcDbLine
 10
0.499999999999997
 20
54.9
 30
0.0
 11
0.499999999999997
 21
54.5
 31
0.0
  0
LINE
  5
A4
330
1E
100
AcDbEntity
  8
0
100
AcDbLine
 10
0.499999999999997
 20
54.5
 30
0.0
 11
1.78380833571012
 21
54.0720638880966
 31
0.0
  0
LINE
  5
A5
330
1E
100
AcDbEntity
  8
0
100
AcDbLine
 10
0.0919999999999974
 20
64.2
 30
0.0
 11
0.4759999999999971
 21
64.2
 31
0.0
  0
LINE
  5
A6
330
1E
100
AcDbEntity
  8
0
100
AcDbLine
 10
0.0919999999999974
 20
64.2
 30
0.0
 11
0.110999999999997
 21
65.0
 31
0.0
  0
LINE
  5
A7
330
1E
100
AcDbEntity
  8
0
100
AcDbLine
 10
0.0919999999999974
 20
64.2
 30
0.0
 11
0.5909999999999971
 21
63.7
 31
0.0
  0
LINE
  5
A8
330
1E
100
AcDbEntity
  8
0
100
AcDbLine
 10
-0.0000000000000023
 20
69.5
 30
0.0
 11
-0.0000000000000021
 21
71.4
 31
0.0
  0
LINE
  5
A9
330
1E
100
AcDbEntity
  8
0
100
AcDbLine
 10
-0.0000000000000024
 20
67.3
 30
0.0
 11
-0.0000000000000023
 21
69.5
 31
0.0
  0
LINE
  5
AA
330
1E
100
AcDbEntity
  8
0
100
AcDbLine
 10
-0.0000000000000025
 20
65.0
 30
0.0
 11
-0.0000000000000024
 21
67.3
 31
0.0
  0
LINE
  5
AB
330
1E
100
AcDbEntity
  8
0
100
AcDbLine
 10
-0.0000000000000021
 20
71.4
 30
0.0
 11
-0.0000000000000021
 21
72.8
 31
0.0
  0
LINE
  5
AC
330
1E
100
AcDbEntity
  8
0
100
AcDbLine
 10
-0.0000000000000021
 20
72.8
 30
0.0
 11
-0.000000000000002
 21
73.7
 31
0.0
  0
LINE
  5
AD
330
1E
100
AcDbEntity
  8
0
100
AcDbLine
 10
-0.000000000000002
 20
74.0
 30
0.0
 11
0.4999999999999981
 21
75.5
 31
0.0
  0
LINE
  5
AE
330
1E
100
AcDbEntity
  8
0
100
AcDbLine
 10
-0.000000000000002
 20
73.7
 30
0.0
 11
-0.000000000000002
 21
74.0
 31
0.0
  0
LINE
  5
AF
330
1E
100
AcDbEntity
  8
0
100
AcDbLine
 10
0.0919999999999975
 20
65.8
 30
0.0
 11
0.4759999999999981
 21
65.8
 31
0.0
  0
LINE
  5
B0
330
1E
100
AcDbEntity
  8
0
100
AcDbLine
 10
0.0919999999999975
 20
65.8
 30
0.0
 11
0.5909999999999971
 21
66.29999999999999
 31
0.0
  0
LINE
  5
B1
330
1E
100
AcDbEntity
  8
0
100
AcDbLine
 10
0.0919999999999975
 20
65.8
 30
0.0
 11
0.110999999999997
 21
65.0
 31
0.0
  0
LINE
  5
B2
330
1E
100
AcDbEntity
  8
0
100
AcDbLine
 10
0.0919999999999975
 20
65.8
 30
0.0
 11
0.4759999999999981
 21
65.8
 31
0.0
  0
LINE
  5
B3
330
1E
100
AcDbEntity
  8
0
100
AcDbLine
 10
0.0919999999999975
 20
65.8
 30
0.0
 11
0.5909999999999971
 21
66.29999999999999
 31
0.0
  0
LINE
  5
B4
330
1E
100
AcDbEntity
  8
0
100
AcDbLine
 10
-0.000000000000002
 20
74.0
 30
0.0
 11
0.4999999999999981
 21
75.5
 31
0.0
  0
LINE
  5
B5
330
1E
100
AcDbEntity
  8
0
100
AcDbLine
 10
0.091999999999999
 20
89.87479999999999
 30
0.0
 11
0.475999999999999
 21
91.3747
 31
0.0
  0
LINE
  5
B6
330
1E
100
AcDbEntity
  8
0
100
AcDbLine
 10
0.16881460739242
 20
88.66004099626172
 30
0.0
 11
0.192999999999999
 21
88.10360000000001
 31
0.0
  0
LINE
  5
B7
330
1E
100
AcDbEntity
  8
0
100
AcDbLine
 10
0.110999999999999
 20
89.99019999999999
 30
0.0
 11
0.191355368518863
 21
90.2628810344829
 31
0.0
  0
LINE
  5
B8
330
1E
100
AcDbEntity
  8
0
100
AcDbLine
 10
0.110999999999999
 20
89.99019999999999
 30
0.0
 11
0.191355368518863
 21
90.2628810344829
 31
0.0
  0
LINE
  5
B9
330
1E
100
AcDbEntity
  8
0
100
AcDbLine
 10
0.091999999999999
 20
89.87479999999999
 30
0.0
 11
0.475999999999999
 21
91.3747
 31
0.0
  0
LINE
  5
BA
330
1E
100
AcDbEntity
  8
0
100
AcDbLine
 10
0.091999999999999
 20
89.87479999999999
 30
0.0
 11
0.211999999999999
 21
87.9771
 31
0.0
  0
LINE
  5
BB
330
1E
100
AcDbEntity
  8
0
100
AcDbLine
 10
0.192999999999999
 20
88.10360000000001
 30
0.0
 11
0.273719715754462
 21
87.46383212950719
 31
0.0
  0
LINE
  5
BC
330
1E
100
AcDbEntity
  8
0
100
AcDbLine
 10
0.211999999999999
 20
87.9771
 30
0.0
 11
0.689999999999999
 21
84.00200000000001
 31
0.0
  0
LINE
  5
BD
330
1E
100
AcDbEntity
  8
0
100
AcDbLine
 10
0.4759999999999981
 20
65.8
 30
0.0
 11
1.187
 21
65.8
 31
0.0
  0
LINE
  5
BE
330
1E
100
AcDbEntity
  8
0
100
AcDbLine
 10
0.475999999999999
 20
91.3747
 30
0.0
 11
1.187
 21
92.4708
 31
0.0
  0
LINE
  5
BF
330
1E
100
AcDbEntity
  8
0
100
AcDbLine
 10
0.475999999999999
 20
91.3747
 30
0.0
 11
1.187
 21
92.4708
 31
0.0
  0
LINE
  5
C0
330
1E
100
AcDbEntity
  8
0
100
AcDbLine
 10
0.211999999999999
 20
87.9771
 30
0.0
 11
0.689999999999999
 21
84.00200000000001
 31
0.0
  0
LINE
  5
C1
330
1E
100
AcDbEntity
  8
0
100
AcDbLine
 10
0.4759999999999971
 20
64.2
 30
0.0
 11
1.187
 21
64.2
 31
0.0
  0
LINE
  5
C2
330
1E
100
AcDbEntity
  8
0
100
AcDbLine
 10
1.217
 20
49.54209999999999
 30
0.0
 11
1.551999999999999
 21
52.29600000000001
 31
0.0
  0
LINE
  5
C3
330
1E
100
AcDbEntity
  8
0
100
AcDbLine
 10
1.217
 20
49.54209999999999
 30
0.0
 11
1.242999999999999
 21
49.8618
 31
0.0
  0
LINE
  5
C4
330
1E
100
AcDbEntity
  8
0
100
AcDbLine
 10
1.242999999999999
 20
49.8618
 30
0.0
 11
1.347368270882
 21
50.61380501845359
 31
0.0
  0
LINE
  5
C5
330
1E
100
AcDbEntity
  8
0
100
AcDbLine
 10
10.757
 20
49.8618
 30
0.0
 11
10.783
 21
49.54209999999999
 31
0.0
  0
LINE
  5
C6
330
1E
100
AcDbEntity
  8
0
100
AcDbLine
 10
10.448
 20
52.29600000000001
 30
0.0
 11
10.783
 21
49.54209999999999
 31
0.0
  0
LINE
  5
C7
330
1E
100
AcDbEntity
  8
0
100
AcDbLine
 10
10.783
 20
49.54209999999999
 30
0.0
 11
11.31
 21
45.998
 31
0.0
  0
LINE
  5
C8
330
1E
100
AcDbEntity
  8
0
100
AcDbLine
 10
1.551999999999999
 20
52.29600000000001
 30
0.0
 11
1.76163133605916
 21
53.8642485884794
 31
0.0
  0
LINE
  5
C9
330
1E
100
AcDbEntity
  8
0
100
AcDbLine
 10
1.551999999999999
 20
52.29600000000001
 30
0.0
 11
1.857
 21
54.5777
 31
0.0
  0
LINE
  5
CA
330
1E
100
AcDbEntity
  8
0
100
AcDbLine
 10
0.499999999999997
 20
57.6
 30
0.0
 11
0.499999999999997
 21
59.8
 31
0.0
  0
LINE
  5
CB
330
1E
100
AcDbEntity
  8
0
100
AcDbLine
 10
0.499999999999997
 20
59.8
 30
0.0
 11
0.499999999999997
 21
62.3
 31
0.0
  0
LINE
  5
CC
330
1E
100
AcDbEntity
  8
0
100
AcDbLine
 10
0.499999999999997
 20
62.3
 30
0.0
 11
0.499999999999997
 21
63.7911823647295
 31
0.0
  0
LINE
  5
CD
330
1E
100
AcDbEntity
  8
0
100
AcDbLine
 10
0.499999999999997
 20
55.89999999999999
 30
0.0
 11
0.499999999999997
 21
57.6
 31
0.0
  0
LINE
  5
CE
330
1E
100
AcDbEntity
  8
0
100
AcDbLine
 10
0.5909999999999971
 20
63.7
 30
0.0
 11
3.051
 21
63.2
 31
0.0
  0
LINE
  5
CF
330
1E
100
AcDbEntity
  8
0
100
AcDbLine
 10
0.5909999999999971
 20
66.29999999999999
 30
0.0
 11
3.051
 21
66.79999999999999
 31
0.0
  0
LINE
  5
D1
330
1E
100
AcDbEntity
  8
0
100
AcDbLine
 10
0.5909999999999971
 20
66.29999999999999
 30
0.0
 11
3.051
 21
66.79999999999999
 31
0.0
  0
LINE
  5
D2
330
1E
100
AcDbEntity
  8
0
100
AcDbLine
 10
0.4999999999999981
 20
72.40000000000001
 30
0.0
 11
0.4999999999999981
 21
74.1
 31
0.0
  0
LINE
  5
D3
330
1E
100
AcDbEntity
  8
0
100
AcDbLine
 10
0.4999999999999981
 20
74.1
 30
0.0
 11
0.4999999999999981
 21
75.09999999999999
 31
0.0
  0
LINE
  5
D4
330
1E
100
AcDbEntity
  8
0
100
AcDbLine
 10
0.4999999999999981
 20
75.5
 30
0.0
 11
1.78380833571012
 21
75.92793611190341
 31
0.0
  0
LINE
  5
D5
330
1E
100
AcDbEntity
  8
0
100
AcDbLine
 10
0.4999999999999981
 20
75.09999999999999
 30
0.0
 11
0.4999999999999981
 21
75.5
 31
0.0
  0
LINE
  5
D6
330
1E
100
AcDbEntity
  8
0
100
AcDbLine
 10
0.4999999999999981
 20
75.5
 30
0.0
 11
1.78380833571012
 21
75.92793611190341
 31
0.0
  0
LINE
  5
D7
330
1E
100
AcDbEntity
  8
0
100
AcDbLine
 10
0.4999999999999981
 20
75.5
 30
0.0
 11
0.4999999999999981
 21
75.09999999999999
 31
0.0
  0
LINE
  5
D8
330
1E
100
AcDbEntity
  8
0
100
AcDbLine
 10
0.4999999999999981
 20
70.2
 30
0.0
 11
0.4999999999999981
 21
72.40000000000001
 31
0.0
  0
LINE
  5
D9
330
1E
100
AcDbEntity
  8
0
100
AcDbLine
 10
0.4999999999999981
 20
67.7
 30
0.0
 11
0.4999999999999981
 21
70.2
 31
0.0
  0
LINE
  5
DA
330
1E
100
AcDbEntity
  8
0
100
AcDbLine
 10
0.4999999999999981
 20
66.20881763527051
 30
0.0
 11
0.4999999999999981
 21
67.7
 31
0.0
  0
LINE
  5
DC
330
1E
100
AcDbEntity
  8
0
100
AcDbLine
 10
0.689999999999999
 20
84.00200000000001
 30
0.0
 11
1.217
 21
80.4579
 31
0.0
  0
LINE
  5
DE
330
1E
100
AcDbEntity
  8
0
100
AcDbLine
 10
0.5909999999999971
 20
63.7
 30
0.0
 11
3.051
 21
63.2
 31
0.0
  0
LINE
  5
DF
330
1E
100
AcDbEntity
  8
0
100
AcDbLine
 10
1.857
 20
54.5777
 30
0.0
 11
2.0
 21
56.5
 31
0.0
  0
LINE
  5
E0
330
1E
100
AcDbEntity
  8
0
100
AcDbLine
 10
1.857
 20
59.0
 30
0.0
 11
2.0
 21
56.5
 31
0.0
  0
LINE
  5
E1
330
1E
100
AcDbEntity
  8
0
100
AcDbLine
 10
10.0
 20
56.5
 30
0.0
 11
10.14299999999999
 21
54.5777
 31
0.0
  0
LINE
  5
E2
330
1E
100
AcDbEntity
  8
0
100
AcDbLine
 10
10.0
 20
56.5
 30
0.0
 11
10.14299999999999
 21
59.0
 31
0.0
  0
LINE
  5
E3
330
1E
100
AcDbEntity
  8
0
100
AcDbLine
 10
1.551999999999999
 20
61.00979999999999
 30
0.0
 11
1.857
 21
59.0
 31
0.0
  0
LINE
  5
E4
330
1E
100
AcDbEntity
  8
0
100
AcDbLine
 10
10.14299999999999
 20
59.0
 30
0.0
 11
10.448
 21
61.00979999999999
 31
0.0
  0
LINE
  5
E5
330
1E
100
AcDbEntity
  8
0
100
AcDbLine
 10
10.1695889339598
 20
54.50876680187939
 30
0.0
 11
11.0
 21
57.0
 31
0.0
  0
LINE
  5
E6
330
1E
100
AcDbEntity
  8
0
100
AcDbLine
 10
10.14299999999999
 20
54.5777
 30
0.0
 11
10.448
 21
52.29600000000001
 31
0.0
  0
LINE
  5
E7
330
1E
100
AcDbEntity
  8
0
100
AcDbLine
 10
3.051
 20
63.2
 30
0.0
 11
6.0
 21
63.0
 31
0.0
  0
LINE
  5
E8
330
1E
100
AcDbEntity
  8
0
100
AcDbLine
 10
6.0
 20
63.0
 30
0.0
 11
8.948999999999999
 21
63.2
 31
0.0
  0
LINE
  5
E9
330
1E
100
AcDbEntity
  8
0
100
AcDbLine
 10
8.948999999999999
 20
63.2
 30
0.0
 11
11.409
 21
63.7
 31
0.0
  0
LINE
  5
EA
330
1E
100
AcDbEntity
  8
0
100
AcDbLine
 10
10.448
 20
61.00979999999999
 30
0.0
 11
10.783
 21
62.8536
 31
0.0
  0
LINE
  5
EB
330
1E
100
AcDbEntity
  8
0
100
AcDbLine
 10
11.0
 20
61.0
 30
0.0
 11
11.0
 21
62.9
 31
0.0
  0
LINE
  5
EC
330
1E
100
AcDbEntity
  8
0
100
AcDbLine
 10
11.0
 20
61.0
 30
0.0
 11
11.0
 21
59.4
 31
0.0
  0
LINE
  5
ED
330
1E
100
AcDbEntity
  8
0
100
AcDbLine
 10
11.0
 20
63.28447058823529
 30
0.0
 11
11.0
 21
62.9
 31
0.0
  0
LINE
  5
EE
330
1E
100
AcDbEntity
  8
0
100
AcDbLine
 10
11.0
 20
62.9
 30
0.0
 11
11.0
 21
63.28447058823529
 31
0.0
  0
LINE
  5
EF
330
1E
100
AcDbEntity
  8
0
100
AcDbLine
 10
11.0
 20
62.9
 30
0.0
 11
11.0
 21
61.0
 31
0.0
  0
LINE
  5
F0
330
1E
100
AcDbEntity
  8
0
100
AcDbLine
 10
11.0
 20
59.4
 30
0.0
 11
11.0
 21
58.1
 31
0.0
  0
LINE
  5
F1
330
1E
100
AcDbEntity
  8
0
100
AcDbLine
 10
11.0
 20
59.4
 30
0.0
 11
11.0
 21
61.0
 31
0.0
  0
LINE
  5
F2
330
1E
100
AcDbEntity
  8
0
100
AcDbLine
 10
11.0
 20
58.1
 30
0.0
 11
11.0
 21
59.4
 31
0.0
  0
LINE
  5
F3
330
1E
100
AcDbEntity
  8
0
100
AcDbLine
 10
11.0
 20
58.1
 30
0.0
 11
11.0
 21
57.3
 31
0.0
  0
LINE
  5
F4
330
1E
100
AcDbEntity
  8
0
100
AcDbLine
 10
11.0
 20
57.3
 30
0.0
 11
11.0
 21
58.1
 31
0.0
  0
LINE
  5
F5
330
1E
100
AcDbEntity
  8
0
100
AcDbLine
 10
11.0
 20
57.3
 30
0.0
 11
11.0
 21
57.0
 31
0.0
  0
LINE
  5
F6
330
1E
100
AcDbEntity
  8
0
100
AcDbLine
 10
11.0
 20
57.0
 30
0.0
 11
13.0
 21
58.5
 31
0.0
  0
LINE
  5
F7
330
1E
100
AcDbEntity
  8
0
100
AcDbLine
 10
11.0
 20
57.0
 30
0.0
 11
11.0
 21
57.3
 31
0.0
  0
LINE
  5
F8
330
1E
100
AcDbEntity
  8
0
100
AcDbLine
 10
10.783
 20
62.8536
 30
0.0
 11
11.1714078588698
 21
63.6248143899836
 31
0.0
  0
LINE
  5
FA
330
1E
100
AcDbEntity
  8
0
100
AcDbLine
 10
1.217
 20
62.8536
 30
0.0
 11
1.551999999999999
 21
61.00979999999999
 31
0.0
  0
LINE
  5
FD
330
1E
100
AcDbEntity
  8
0
100
AcDbLine
 10
1.187
 20
64.2
 30
0.0
 11
1.955999999999999
 21
64.2
 31
0.0
  0
LINE
  5
FE
330
1E
100
AcDbEntity
  8
0
100
AcDbLine
 10
1.955999999999999
 20
64.2
 30
0.0
 11
3.071
 21
64.2
 31
0.0
  0
LINE
  5
100
330
1E
100
AcDbEntity
  8
0
100
AcDbLine
 10
0.8285921411301909
 20
66.3751856100164
 30
0.0
 11
1.217
 21
67.1464
 31
0.0
  0
LINE
  5
102
330
1E
100
AcDbEntity
  8
0
100
AcDbLine
 10
1.187
 20
65.8
 30
0.0
 11
1.955999999999999
 21
65.8
 31
0.0
  0
LINE
  5
103
330
1E
100
AcDbEntity
  8
0
100
AcDbLine
 10
1.217
 20
67.1464
 30
0.0
 11
1.551999999999999
 21
68.9902
 31
0.0
  0
LINE
  5
105
330
1E
100
AcDbEntity
  8
0
100
AcDbLine
 10
1.187
 20
92.4708
 30
0.0
 11
1.955999999999999
 21
93.12459999999999
 31
0.0
  0
LINE
  5
107
330
1E
100
AcDbEntity
  8
0
100
AcDbLine
 10
1.955999999999999
 20
65.8
 30
0.0
 11
3.071
 21
65.8
 31
0.0
  0
LINE
  5
108
330
1E
100
AcDbEntity
  8
0
100
AcDbLine
 10
3.071
 20
65.8
 30
0.0
 11
6.0
 21
65.8
 31
0.0
  0
LINE
  5
109
330
1E
100
AcDbEntity
  8
0
100
AcDbLine
 10
3.051
 20
66.79999999999999
 30
0.0
 11
6.0
 21
67.0
 31
0.0
  0
LINE
  5
10A
330
1E
100
AcDbEntity
  8
0
100
AcDbLine
 10
6.0
 20
67.0
 30
0.0
 11
8.948999999999999
 21
66.79999999999999
 31
0.0
  0
LINE
  5
10B
330
1E
100
AcDbEntity
  8
0
100
AcDbLine
 10
6.0
 20
65.8
 30
0.0
 11
8.929
 21
65.8
 31
0.0
  0
LINE
  5
10C
330
1E
100
AcDbEntity
  8
0
100
AcDbLine
 10
1.857
 20
71.0
 30
0.0
 11
2.0
 21
73.5
 31
0.0
  0
LINE
  5
10D
330
1E
100
AcDbEntity
  8
0
100
AcDbLine
 10
1.857
 20
75.4223
 30
0.0
 11
2.0
 21
73.5
 31
0.0
  0
LINE
  5
10E
330
1E
100
AcDbEntity
  8
0
100
AcDbLine
 10
1.551999999999999
 20
68.9902
 30
0.0
 11
1.857
 21
71.0
 31
0.0
  0
LINE
  5
10F
330
1E
100
AcDbEntity
  8
0
100
AcDbLine
 10
1.551999999999999
 20
77.70399999999999
 30
0.0
 11
1.857
 21
75.4223
 31
0.0
  0
LINE
  5
110
330
1E
100
AcDbEntity
  8
0
100
AcDbLine
 10
1.551999999999999
 20
77.70399999999999
 30
0.0
 11
1.76163133605916
 21
76.1357514115207
 31
0.0
  0
LINE
  5
112
330
1E
100
AcDbEntity
  8
0
100
AcDbLine
 10
1.283
 20
92.567
 30
0.0
 11
1.477332755632649
 21
92.7176394741647
 31
0.0
  0
LINE
  5
113
330
1E
100
AcDbEntity
  8
0
100
AcDbLine
 10
1.955999999999999
 20
93.12459999999999
 30
0.0
 11
3.071
 21
93.6438
 31
0.0
  0
LINE
  5
114
330
1E
100
AcDbEntity
  8
0
100
AcDbLine
 10
3.071
 20
93.6438
 30
0.0
 11
6.0
 21
94.0
 31
0.0
  0
LINE
  5
115
330
1E
100
AcDbEntity
  8
0
100
AcDbLine
 10
1.76163133605916
 20
76.1357514115207
 30
0.0
 11
1.90126073952831
 21
74.8273180447883
 31
0.0
  0
LINE
  5
116
330
1E
100
AcDbEntity
  8
0
100
AcDbLine
 10
1.76163133605916
 20
76.1357514115207
 30
0.0
 11
1.78380833571012
 21
75.92793611190341
 31
0.0
  0
LINE
  5
117
330
1E
100
AcDbEntity
  8
0
100
AcDbLine
 10
1.76163133605916
 20
76.1357514115207
 30
0.0
 11
1.90126073952831
 21
74.8273180447883
 31
0.0
  0
LINE
  5
118
330
1E
100
AcDbEntity
  8
0
100
AcDbLine
 10
1.217
 20
80.4579
 30
0.0
 11
1.551999999999999
 21
77.70399999999999
 31
0.0
  0
LINE
  5
119
330
1E
100
AcDbEntity
  8
0
100
AcDbLine
 10
1.217
 20
80.4579
 30
0.0
 11
1.242999999999999
 21
80.1382
 31
0.0
  0
LINE
  5
11A
330
1E
100
AcDbEntity
  8
0
100
AcDbLine
 10
3.071
 20
64.2
 30
0.0
 11
6.0
 21
64.2
 31
0.0
  0
LINE
  5
11D
330
1E
100
AcDbEntity
  8
0
100
AcDbLine
 10
10.81299999999999
 20
64.2
 30
0.0
 11
11.524
 21
64.2
 31
0.0
  0
LINE
  5
11E
330
1E
100
AcDbEntity
  8
0
100
AcDbLine
 10
10.044
 20
64.2
 30
0.0
 11
10.81299999999999
 21
64.2
 31
0.0
  0
LINE
  5
11F
330
1E
100
AcDbEntity
  8
0
100
AcDbLine
 10
8.948999999999999
 20
66.79999999999999
 30
0.0
 11
11.409
 21
66.29999999999999
 31
0.0
  0
LINE
  5
121
330
1E
100
AcDbEntity
  8
0
100
AcDbLine
 10
10.044
 20
65.8
 30
0.0
 11
10.81299999999999
 21
65.8
 31
0.0
  0
LINE
  5
122
330
1E
100
AcDbEntity
  8
0
100
AcDbLine
 10
8.929
 20
65.8
 30
0.0
 11
10.044
 21
65.8
 31
0.0
  0
LINE
  5
123
330
1E
100
AcDbEntity
  8
0
100
AcDbLine
 10
10.0
 20
73.5
 30
0.0
 11
10.14299999999999
 21
71.0
 31
0.0
  0
LINE
  5
124
330
1E
100
AcDbEntity
  8
0
100
AcDbLine
 10
10.0
 20
73.5
 30
0.0
 11
10.14299999999999
 21
75.4223
 31
0.0
  0
LINE
  5
125
330
1E
100
AcDbEntity
  8
0
100
AcDbLine
 10
10.14299999999999
 20
71.0
 30
0.0
 11
10.448
 21
68.9902
 31
0.0
  0
LINE
  5
127
330
1E
100
AcDbEntity
  8
0
100
AcDbLine
 10
10.448
 20
68.9902
 30
0.0
 11
10.783
 21
67.1464
 31
0.0
  0
LINE
  5
128
330
1E
100
AcDbEntity
  8
0
100
AcDbLine
 10
10.14299999999999
 20
75.4223
 30
0.0
 11
10.448
 21
77.70399999999999
 31
0.0
  0
LINE
  5
12A
330
1E
100
AcDbEntity
  8
0
100
AcDbLine
 10
10.044
 20
93.12459999999999
 30
0.0
 11
10.81299999999999
 21
92.4708
 31
0.0
  0
LINE
  5
12B
330
1E
100
AcDbEntity
  8
0
100
AcDbLine
 10
8.929
 20
93.6438
 30
0.0
 11
10.044
 21
93.12459999999999
 31
0.0
  0
LINE
  5
12C
330
1E
100
AcDbEntity
  8
0
100
AcDbLine
 10
6.0
 20
94.0
 30
0.0
 11
8.929
 21
93.6438
 31
0.0
  0
LINE
  5
12D
330
1E
100
AcDbEntity
  8
0
100
AcDbLine
 10
10.1695889339598
 20
75.49123319812069
 30
0.0
 11
10.2383686639408
 21
76.1357514115207
 31
0.0
  0
LINE
  5
12E
330
1E
100
AcDbEntity
  8
0
100
AcDbLine
 10
10.1695889339598
 20
75.49123319812069
 30
0.0
 11
11.0
 21
73.0
 31
0.0
  0
LINE
  5
130
330
1E
100
AcDbEntity
  8
0
100
AcDbLine
 10
10.5226672443674
 20
92.7176394741647
 30
0.0
 11
10.717
 21
92.567
 31
0.0
  0
LINE
  5
131
330
1E
100
AcDbEntity
  8
0
100
AcDbLine
 10
10.448
 20
77.70399999999999
 30
0.0
 11
10.783
 21
80.4579
 31
0.0
  0
LINE
  5
132
330
1E
100
AcDbEntity
  8
0
100
AcDbLine
 10
10.0987392604717
 20
74.8273180447883
 30
0.0
 11
10.2383686639408
 21
76.1357514115207
 31
0.0
  0
LINE
  5
134
330
1E
100
AcDbEntity
  8
0
100
AcDbLine
 10
11.0
 20
67.09999999999999
 30
0.0
 11
11.0
 21
69.0
 31
0.0
  0
LINE
  5
135
330
1E
100
AcDbEntity
  8
0
100
AcDbLine
 10
11.0
 20
67.09999999999999
 30
0.0
 11
11.0
 21
66.71552941176471
 31
0.0
  0
LINE
  5
136
330
1E
100
AcDbEntity
  8
0
100
AcDbLine
 10
11.0
 20
66.71552941176471
 30
0.0
 11
11.0
 21
67.09999999999999
 31
0.0
  0
LINE
  5
137
330
1E
100
AcDbEntity
  8
0
100
AcDbLine
 10
10.81299999999999
 20
65.8
 30
0.0
 11
11.524
 21
65.8
 31
0.0
  0
LINE
  5
138
330
1E
100
AcDbEntity
  8
0
100
AcDbLine
 10
11.0
 20
69.0
 30
0.0
 11
11.0
 21
70.59999999999999
 31
0.0
  0
LINE
  5
139
330
1E
100
AcDbEntity
  8
0
100
AcDbLine
 10
11.0
 20
70.59999999999999
 30
0.0
 11
11.0
 21
71.90000000000001
 31
0.0
  0
LINE
  5
13A
330
1E
100
AcDbEntity
  8
0
100
AcDbLine
 10
11.0
 20
70.59999999999999
 30
0.0
 11
11.0
 21
69.0
 31
0.0
  0
LINE
  5
13B
330
1E
100
AcDbEntity
  8
0
100
AcDbLine
 10
11.0
 20
71.90000000000001
 30
0.0
 11
11.0
 21
72.7
 31
0.0
  0
LINE
  5
13C
330
1E
100
AcDbEntity
  8
0
100
AcDbLine
 10
11.0
 20
71.90000000000001
 30
0.0
 11
11.0
 21
70.59999999999999
 31
0.0
  0
LINE
  5
13D
330
1E
100
AcDbEntity
  8
0
100
AcDbLine
 10
11.0
 20
73.0
 30
0.0
 11
13.0
 21
71.5
 31
0.0
  0
LINE
  5
13E
330
1E
100
AcDbEntity
  8
0
100
AcDbLine
 10
11.0
 20
73.0
 30
0.0
 11
11.0
 21
72.7
 31
0.0
  0
LINE
  5
13F
330
1E
100
AcDbEntity
  8
0
100
AcDbLine
 10
11.0
 20
72.7
 30
0.0
 11
11.0
 21
73.0
 31
0.0
  0
LINE
  5
140
330
1E
100
AcDbEntity
  8
0
100
AcDbLine
 10
11.0
 20
72.7
 30
0.0
 11
11.0
 21
71.90000000000001
 31
0.0
  0
LINE
  5
141
330
1E
100
AcDbEntity
  8
0
100
AcDbLine
 10
10.783
 20
67.1464
 30
0.0
 11
11.1714078588698
 21
66.3751856100164
 31
0.0
  0
LINE
  5
142
330
1E
100
AcDbEntity
  8
0
100
AcDbLine
 10
10.757
 20
80.1382
 30
0.0
 11
10.783
 21
80.4579
 31
0.0
  0
LINE
  5
143
330
1E
100
AcDbEntity
  8
0
100
AcDbLine
 10
10.81299999999999
 20
92.4708
 30
0.0
 11
11.524
 21
91.3747
 31
0.0
  0
LINE
  5
144
330
1E
100
AcDbEntity
  8
0
100
AcDbLine
 10
10.783
 20
80.4579
 30
0.0
 11
11.31
 21
84.00200000000001
 31
0.0
  0
LINE
  5
145
330
1E
100
AcDbEntity
  8
0
100
AcDbLine
 10
10.652631729118
 20
79.38619498154619
 30
0.0
 11
10.757
 21
80.1382
 31
0.0
  0
LINE
  5
146
330
1E
100
AcDbEntity
  8
0
100
AcDbLine
 10
8.929
 20
64.2
 30
0.0
 11
10.044
 21
64.2
 31
0.0
  0
LINE
  5
147
330
1E
100
AcDbEntity
  8
0
100
AcDbLine
 10
6.0
 20
64.2
 30
0.0
 11
8.929
 21
64.2
 31
0.0
  0
LINE
  5
148
330
1E
100
AcDbEntity
  8
0
100
AcDbLine
 10
0.8285921411301831
 20
63.6248143899836
 30
0.0
 11
1.217
 21
62.8536
 31
0.0
  0
LINE
  5
14A
330
1E
100
AcDbEntity
  8
0
100
AcDbLine
 10
10.2383686639408
 20
53.8642485884793
 30
0.0
 11
10.448
 21
52.29600000000001
 31
0.0
  0
LINE
  5
14B
330
1E
100
AcDbEntity
  8
0
100
AcDbLine
 10
0.499999999999997
 20
54.5
 30
0.0
 11
1.78380833571012
 21
54.0720638880966
 31
0.0
  0
LINE
  5
14C
330
1E
100
AcDbEntity
  8
0
100
AcDbLine
 10
0.499999999999997
 20
54.5
 30
0.0
 11
0.499999999999997
 21
54.9
 31
0.0
  0
LINE
  5
14D
330
1E
100
AcDbEntity
  8
0
100
AcDbLine
 10
11.0420475832426
 20
47.7999927139089
 30
0.0
 11
11.31
 21
45.998
 31
0.0
  0
LINE
  5
14F
330
1E
100
AcDbEntity
  8
0
100
AcDbLine
 10
11.409
 20
63.7
 30
0.0
 11
11.908
 21
64.2
 31
0.0
  0
LINE
  5
150
330
1E
100
AcDbEntity
  8
0
100
AcDbLine
 10
33.0
 20
46.5
 30
0.0
 11
33.0
 21
49.0
 31
0.0
  0
LINE
  5
151
330
1E
100
AcDbEntity
  8
0
100
AcDbLine
 10
33.0
 20
49.0
 30
0.0
 11
33.0
 21
46.5
 31
0.0
  0
LINE
  5
152
330
1E
100
AcDbEntity
  8
0
100
AcDbLine
 10
33.0
 20
49.0
 30
0.0
 11
33.0
 21
51.9
 31
0.0
  0
LINE
  5
153
330
1E
100
AcDbEntity
  8
0
100
AcDbLine
 10
33.0
 20
46.5
 30
0.0
 11
33.5
 21
45.0
 31
0.0
  0
LINE
  5
154
330
1E
100
AcDbEntity
  8
0
100
AcDbLine
 10
33.0
 20
51.9
 30
0.0
 11
33.0
 21
57.0
 31
0.0
  0
LINE
  5
155
330
1E
100
AcDbEntity
  8
0
100
AcDbLine
 10
33.0
 20
51.9
 30
0.0
 11
33.0
 21
49.0
 31
0.0
  0
LINE
  5
156
330
1E
100
AcDbEntity
  8
0
100
AcDbLine
 10
33.0
 20
57.0
 30
0.0
 11
33.0
 21
51.9
 31
0.0
  0
LINE
  5
157
330
1E
100
AcDbEntity
  8
0
100
AcDbLine
 10
18.0
 20
57.48
 30
0.0
 11
18.0
 21
57.192
 31
0.0
  0
LINE
  5
158
330
1E
100
AcDbEntity
  8
0
100
AcDbLine
 10
18.0
 20
57.48
 30
0.0
 11
18.0
 21
58.248
 31
0.0
  0
LINE
  5
159
330
1E
100
AcDbEntity
  8
0
100
AcDbLine
 10
18.0
 20
57.192
 30
0.0
 11
18.3333
 21
57.0
 31
0.0
  0
LINE
  5
15A
330
1E
100
AcDbEntity
  8
0
100
AcDbLine
 10
18.0
 20
57.192
 30
0.0
 11
18.0
 21
57.48
 31
0.0
  0
LINE
  5
15B
330
1E
100
AcDbEntity
  8
0
100
AcDbLine
 10
18.0
 20
58.5
 30
0.0
 11
18.0
 21
58.248
 31
0.0
  0
LINE
  5
15C
330
1E
100
AcDbEntity
  8
0
100
AcDbLine
 10
18.0
 20
58.248
 30
0.0
 11
18.0
 21
57.48
 31
0.0
  0
LINE
  5
15D
330
1E
100
AcDbEntity
  8
0
100
AcDbLine
 10
18.0
 20
58.248
 30
0.0
 11
18.0
 21
59.496
 31
0.0
  0
LINE
  5
15E
330
1E
100
AcDbEntity
  8
0
100
AcDbLine
 10
18.0
 20
58.248
 30
0.0
 11
18.0
 21
58.5
 31
0.0
  0
LINE
  5
15F
330
1E
100
AcDbEntity
  8
0
100
AcDbLine
 10
33.0
 20
58.056
 30
0.0
 11
33.0
 21
59.33600000000001
 31
0.0
  0
LINE
  5
160
330
1E
100
AcDbEntity
  8
0
100
AcDbLine
 10
33.0
 20
57.288
 30
0.0
 11
33.0
 21
58.056
 31
0.0
  0
LINE
  5
161
330
1E
100
AcDbEntity
  8
0
100
AcDbLine
 10
18.3333
 20
57.0
 30
0.0
 11
33.0
 21
57.0
 31
0.0
  0
LINE
  5
162
330
1E
100
AcDbEntity
  8
0
100
AcDbLine
 10
33.5
 20
47.7
 30
0.0
 11
33.5
 21
50.89999999999999
 31
0.0
  0
LINE
  5
163
330
1E
100
AcDbEntity
  8
0
100
AcDbLine
 10
33.5
 20
47.7
 30
0.0
 11
33.5
 21
45.7
 31
0.0
  0
LINE
  5
164
330
1E
100
AcDbEntity
  8
0
100
AcDbLine
 10
35.0
 20
47.2
 30
0.0
 11
35.0
 21
45.2
 31
0.0
  0
LINE
  5
165
330
1E
100
AcDbEntity
  8
0
100
AcDbLine
 10
35.0
 20
47.2
 30
0.0
 11
35.0
 21
58.3
 31
0.0
  0
LINE
  5
166
330
1E
100
AcDbEntity
  8
0
100
AcDbLine
 10
35.5
 20
51.29999999999999
 30
0.0
 11
35.5
 21
57.9
 31
0.0
  0
LINE
  5
167
330
1E
100
AcDbEntity
  8
0
100
AcDbLine
 10
35.5
 20
51.29999999999999
 30
0.0
 11
35.5
 21
45.6
 31
0.0
  0
LINE
  5
168
330
1E
100
AcDbEntity
  8
0
100
AcDbLine
 10
60.5
 20
50.8
 30
0.0
 11
60.5
 21
57.7
 31
0.0
  0
LINE
  5
169
330
1E
100
AcDbEntity
  8
0
100
AcDbLine
 10
60.5
 20
50.8
 30
0.0
 11
60.5
 21
44.9
 31
0.0
  0
LINE
  5
16A
330
1E
100
AcDbEntity
  8
0
100
AcDbLine
 10
75.2941
 20
50.1534
 30
0.0
 11
75.2941
 21
42.9886
 31
0.0
  0
LINE
  5
16B
330
1E
100
AcDbEntity
  8
0
100
AcDbLine
 10
75.2941
 20
50.1534
 30
0.0
 11
75.2941
 21
57.5398
 31
0.0
  0
LINE
  5
16C
330
1E
100
AcDbEntity
  8
0
100
AcDbLine
 10
85.0
 20
48.233
 30
0.0
 11
85.0
 21
56.5057
 31
0.0
  0
LINE
  5
16D
330
1E
100
AcDbEntity
  8
0
100
AcDbLine
 10
85.0
 20
48.233
 30
0.0
 11
85.0
 21
40.1818
 31
0.0
  0
LINE
  5
16E
330
1E
100
AcDbEntity
  8
0
100
AcDbLine
 10
61.0
 20
50.3
 30
0.0
 11
61.0
 21
57.4
 31
0.0
  0
LINE
  5
16F
330
1E
100
AcDbEntity
  8
0
100
AcDbLine
 10
35.0
 20
54.8
 30
0.0
 11
35.0
 21
47.2
 31
0.0
  0
LINE
  5
170
330
1E
100
AcDbEntity
  8
0
100
AcDbLine
 10
33.5
 20
50.89999999999999
 30
0.0
 11
33.5
 21
55.1
 31
0.0
  0
LINE
  5
171
330
1E
100
AcDbEntity
  8
0
100
AcDbLine
 10
33.5
 20
50.89999999999999
 30
0.0
 11
33.5
 21
47.7
 31
0.0
  0
LINE
  5
172
330
1E
100
AcDbEntity
  8
0
100
AcDbLine
 10
35.0
 20
58.3
 30
0.0
 11
35.0
 21
47.2
 31
0.0
  0
LINE
  5
173
330
1E
100
AcDbEntity
  8
0
100
AcDbLine
 10
35.5
 20
57.9
 30
0.0
 11
35.5
 21
65.0
 31
0.0
  0
LINE
  5
174
330
1E
100
AcDbEntity
  8
0
100
AcDbLine
 10
35.5
 20
57.9
 30
0.0
 11
35.5
 21
51.29999999999999
 31
0.0
  0
LINE
  5
175
330
1E
100
AcDbEntity
  8
0
100
AcDbLine
 10
60.5
 20
57.7
 30
0.0
 11
60.5
 21
65.0
 31
0.0
  0
LINE
  5
176
330
1E
100
AcDbEntity
  8
0
100
AcDbLine
 10
60.5
 20
57.7
 30
0.0
 11
60.5
 21
50.8
 31
0.0
  0
LINE
  5
177
330
1E
100
AcDbEntity
  8
0
100
AcDbLine
 10
75.2941
 20
57.5398
 30
0.0
 11
75.2941
 21
50.1534
 31
0.0
  0
LINE
  5
178
330
1E
100
AcDbEntity
  8
0
100
AcDbLine
 10
75.2941
 20
57.5398
 30
0.0
 11
75.2941
 21
65.0
 31
0.0
  0
LINE
  5
179
330
1E
100
AcDbEntity
  8
0
100
AcDbLine
 10
85.0
 20
56.5057
 30
0.0
 11
85.0
 21
65.0
 31
0.0
  0
LINE
  5
17A
330
1E
100
AcDbEntity
  8
0
100
AcDbLine
 10
61.0
 20
57.4
 30
0.0
 11
61.0
 21
65.0
 31
0.0
  0
LINE
  5
17B
330
1E
100
AcDbEntity
  8
0
100
AcDbLine
 10
61.0
 20
57.4
 30
0.0
 11
61.0
 21
50.3
 31
0.0
  0
LINE
  5
17C
330
1E
100
AcDbEntity
  8
0
100
AcDbLine
 10
33.5
 20
55.1
 30
0.0
 11
33.5
 21
59.9
 31
0.0
  0
LINE
  5
17D
330
1E
100
AcDbEntity
  8
0
100
AcDbLine
 10
33.5
 20
55.1
 30
0.0
 11
33.5
 21
50.89999999999999
 31
0.0
  0
LINE
  5
17E
330
1E
100
AcDbEntity
  8
0
100
AcDbLine
 10
33.0
 20
57.0
 30
0.0
 11
33.0
 21
57.288
 31
0.0
  0
LINE
  5
17F
330
1E
100
AcDbEntity
  8
0
100
AcDbLine
 10
13.0
 20
59.4
 30
0.0
 11
13.0
 21
60.4
 31
0.0
  0
LINE
  5
180
330
1E
100
AcDbEntity
  8
0
100
AcDbLine
 10
13.0
 20
59.4
 30
0.0
 11
13.0
 21
58.7
 31
0.0
  0
LINE
  5
181
330
1E
100
AcDbEntity
  8
0
100
AcDbLine
 10
13.0
 20
58.7
 30
0.0
 11
13.0
 21
59.4
 31
0.0
  0
LINE
  5
182
330
1E
100
AcDbEntity
  8
0
100
AcDbLine
 10
13.0
 20
58.7
 30
0.0
 11
13.0
 21
58.5
 31
0.0
  0
LINE
  5
183
330
1E
100
AcDbEntity
  8
0
100
AcDbLine
 10
18.0
 20
59.496
 30
0.0
 11
18.0
 21
58.248
 31
0.0
  0
LINE
  5
184
330
1E
100
AcDbEntity
  8
0
100
AcDbLine
 10
18.0
 20
59.496
 30
0.0
 11
18.0
 21
61.128
 31
0.0
  0
LINE
  5
185
330
1E
100
AcDbEntity
  8
0
100
AcDbLine
 10
13.0
 20
65.0
 30
0.0
 11
13.0
 21
63.3
 31
0.0
  0
LINE
  5
186
330
1E
100
AcDbEntity
  8
0
100
AcDbLine
 10
13.0
 20
65.0
 30
0.0
 11
13.0
 21
66.7
 31
0.0
  0
LINE
  5
187
330
1E
100
AcDbEntity
  8
0
100
AcDbLine
 10
13.0
 20
61.79999999999999
 30
0.0
 11
13.0
 21
63.3
 31
0.0
  0
LINE
  5
188
330
1E
100
AcDbEntity
  8
0
100
AcDbLine
 10
13.0
 20
61.79999999999999
 30
0.0
 11
13.0
 21
60.4
 31
0.0
  0
LINE
  5
189
330
1E
100
AcDbEntity
  8
0
100
AcDbLine
 10
18.0
 20
61.128
 30
0.0
 11
18.0
 21
59.496
 31
0.0
  0
LINE
  5
18A
330
1E
100
AcDbEntity
  8
0
100
AcDbLine
 10
18.0
 20
61.128
 30
0.0
 11
18.0
 21
62.98399999999999
 31
0.0
  0
LINE
  5
18B
330
1E
100
AcDbEntity
  8
0
100
AcDbLine
 10
18.0
 20
62.98399999999999
 30
0.0
 11
18.0
 21
61.128
 31
0.0
  0
LINE
  5
18C
330
1E
100
AcDbEntity
  8
0
100
AcDbLine
 10
18.0
 20
62.98399999999999
 30
0.0
 11
18.0
 21
65.0
 31
0.0
  0
LINE
  5
18D
330
1E
100
AcDbEntity
  8
0
100
AcDbLine
 10
18.0
 20
61.79999999999999
 30
0.0
 11
18.0
 21
60.4
 31
0.0
  0
LINE
  5
18E
330
1E
100
AcDbEntity
  8
0
100
AcDbLine
 10
18.0
 20
63.3
 30
0.0
 11
18.0
 21
61.79999999999999
 31
0.0
  0
LINE
  5
18F
330
1E
100
AcDbEntity
  8
0
100
AcDbLine
 10
18.0
 20
65.0
 30
0.0
 11
18.0
 21
63.3
 31
0.0
  0
LINE
  5
190
330
1E
100
AcDbEntity
  8
0
100
AcDbLine
 10
18.0
 20
65.0
 30
0.0
 11
18.0
 21
62.98399999999999
 31
0.0
  0
LINE
  5
191
330
1E
100
AcDbEntity
  8
0
100
AcDbLine
 10
18.0
 20
65.0
 30
0.0
 11
18.0
 21
67.016
 31
0.0
  0
LINE
  5
192
330
1E
100
AcDbEntity
  8
0
100
AcDbLine
 10
13.0
 20
63.3
 30
0.0
 11
13.0
 21
65.0
 31
0.0
  0
LINE
  5
193
330
1E
100
AcDbEntity
  8
0
100
AcDbLine
 10
13.0
 20
63.3
 30
0.0
 11
13.0
 21
61.79999999999999
 31
0.0
  0
LINE
  5
194
330
1E
100
AcDbEntity
  8
0
100
AcDbLine
 10
13.0
 20
60.4
 30
0.0
 11
13.0
 21
59.4
 31
0.0
  0
LINE
  5
195
330
1E
100
AcDbEntity
  8
0
100
AcDbLine
 10
13.0
 20
60.4
 30
0.0
 11
13.0
 21
61.79999999999999
 31
0.0
  0
LINE
  5
196
330
1E
100
AcDbEntity
  8
0
100
AcDbLine
 10
18.0
 20
60.4
 30
0.0
 11
18.0
 21
59.4
 31
0.0
  0
LINE
  5
197
330
1E
100
AcDbEntity
  8
0
100
AcDbLine
 10
18.0
 20
59.4
 30
0.0
 11
18.0
 21
58.7
 31
0.0
  0
LINE
  5
198
330
1E
100
AcDbEntity
  8
0
100
AcDbLine
 10
33.0
 20
65.0
 30
0.0
 11
33.0
 21
67.048
 31
0.0
  0
LINE
  5
199
330
1E
100
AcDbEntity
  8
0
100
AcDbLine
 10
33.0
 20
65.0
 30
0.0
 11
33.0
 21
69.8
 31
0.0
  0
LINE
  5
19A
330
1E
100
AcDbEntity
  8
0
100
AcDbLine
 10
33.0
 20
62.952
 30
0.0
 11
33.0
 21
65.0
 31
0.0
  0
LINE
  5
19B
330
1E
100
AcDbEntity
  8
0
100
AcDbLine
 10
35.0
 20
59.7
 30
0.0
 11
35.0
 21
54.8
 31
0.0
  0
LINE
  5
19C
330
1E
100
AcDbEntity
  8
0
100
AcDbLine
 10
33.5
 20
65.0
 30
0.0
 11
33.5
 21
59.9
 31
0.0
  0
LINE
  5
19D
330
1E
100
AcDbEntity
  8
0
100
AcDbLine
 10
33.5
 20
65.0
 30
0.0
 11
33.5
 21
70.09999999999999
 31
0.0
  0
LINE
  5
19E
330
1E
100
AcDbEntity
  8
0
100
AcDbLine
 10
75.2941
 20
65.0
 30
0.0
 11
75.2941
 21
57.5398
 31
0.0
  0
LINE
  5
19F
330
1E
100
AcDbEntity
  8
0
100
AcDbLine
 10
75.2941
 20
65.0
 30
0.0
 11
75.2941
 21
72.4602
 31
0.0
  0
LINE
  5
1A0
330
1E
100
AcDbEntity
  8
0
100
AcDbLine
 10
85.0
 20
65.0
 30
0.0
 11
85.0
 21
56.5057
 31
0.0
  0
LINE
  5
1A1
330
1E
100
AcDbEntity
  8
0
100
AcDbLine
 10
85.0
 20
65.0
 30
0.0
 11
85.0
 21
73.49429999999999
 31
0.0
  0
LINE
  5
1A2
330
1E
100
AcDbEntity
  8
0
100
AcDbLine
 10
60.5
 20
65.0
 30
0.0
 11
60.5
 21
57.7
 31
0.0
  0
LINE
  5
1A3
330
1E
100
AcDbEntity
  8
0
100
AcDbLine
 10
60.5
 20
65.0
 30
0.0
 11
60.5
 21
72.3
 31
0.0
  0
LINE
  5
1A4
330
1E
100
AcDbEntity
  8
0
100
AcDbLine
 10
35.5
 20
65.0
 30
0.0
 11
35.5
 21
57.9
 31
0.0
  0
LINE
  5
1A5
330
1E
100
AcDbEntity
  8
0
100
AcDbLine
 10
35.5
 20
65.0
 30
0.0
 11
35.5
 21
72.09999999999999
 31
0.0
  0
LINE
  5
1A6
330
1E
100
AcDbEntity
  8
0
100
AcDbLine
 10
61.0
 20
65.0
 30
0.0
 11
61.0
 21
57.4
 31
0.0
  0
LINE
  5
1A7
330
1E
100
AcDbEntity
  8
0
100
AcDbLine
 10
61.0
 20
65.0
 30
0.0
 11
61.0
 21
72.59999999999999
 31
0.0
  0
LINE
  5
1A8
330
1E
100
AcDbEntity
  8
0
100
AcDbLine
 10
35.0
 20
65.0
 30
0.0
 11
35.0
 21
59.7
 31
0.0
  0
LINE
  5
1A9
330
1E
100
AcDbEntity
  8
0
100
AcDbLine
 10
35.0
 20
65.0
 30
0.0
 11
35.0
 21
71.7
 31
0.0
  0
LINE
  5
1AA
330
1E
100
AcDbEntity
  8
0
100
AcDbLine
 10
33.5
 20
59.9
 30
0.0
 11
33.5
 21
65.0
 31
0.0
  0
LINE
  5
1AB
330
1E
100
AcDbEntity
  8
0
100
AcDbLine
 10
33.0
 20
61.032
 30
0.0
 11
33.0
 21
62.952
 31
0.0
  0
LINE
  5
1AC
330
1E
100
AcDbEntity
  8
0
100
AcDbLine
 10
33.0
 20
59.33600000000001
 30
0.0
 11
33.0
 21
61.032
 31
0.0
  0
LINE
  5
1AD
330
1E
100
AcDbEntity
  8
0
100
AcDbLine
 10
18.0
 20
58.7
 30
0.0
 11
18.0
 21
58.5
 31
0.0
  0
LINE
  5
1AE
330
1E
100
AcDbEntity
  8
0
100
AcDbLine
 10
13.0
 20
58.5
 30
0.0
 11
18.0
 21
58.5
 31
0.0
  0
LINE
  5
1AF
330
1E
100
AcDbEntity
  8
0
100
AcDbLine
 10
13.0
 20
58.5
 30
0.0
 11
13.0
 21
58.7
 31
0.0
  0
LINE
  5
1B0
330
1E
100
AcDbEntity
  8
0
100
AcDbLine
 10
11.524
 20
64.2
 30
0.0
 11
11.908
 21
64.2
 31
0.0
  0
LINE
  5
1B1
330
1E
100
AcDbEntity
  8
0
100
AcDbLine
 10
11.409
 20
66.29999999999999
 30
0.0
 11
11.908
 21
65.8
 31
0.0
  0
LINE
  5
1B3
330
1E
100
AcDbEntity
  8
0
100
AcDbLine
 10
11.524
 20
65.8
 30
0.0
 11
11.908
 21
65.8
 31
0.0
  0
LINE
  5
1B5
330
1E
100
AcDbEntity
  8
0
100
AcDbLine
 10
11.524
 20
91.3747
 30
0.0
 11
11.908
 21
89.87479999999999
 31
0.0
  0
LINE
  5
1B6
330
1E
100
AcDbEntity
  8
0
100
AcDbLine
 10
11.31
 20
84.00200000000001
 30
0.0
 11
11.788
 21
87.9771
 31
0.0
  0
LINE
  5
1B7
330
1E
100
AcDbEntity
  8
0
100
AcDbLine
 10
13.0
 20
68.2
 30
0.0
 11
13.0
 21
69.59999999999999
 31
0.0
  0
LINE
  5
1B8
330
1E
100
AcDbEntity
  8
0
100
AcDbLine
 10
13.0
 20
66.7
 30
0.0
 11
13.0
 21
68.2
 31
0.0
  0
LINE
  5
1B9
330
1E
100
AcDbEntity
  8
0
100
AcDbLine
 10
13.0
 20
66.7
 30
0.0
 11
13.0
 21
65.0
 31
0.0
  0
LINE
  5
1BA
330
1E
100
AcDbEntity
  8
0
100
AcDbLine
 10
13.0
 20
69.59999999999999
 30
0.0
 11
13.0
 21
70.59999999999999
 31
0.0
  0
LINE
  5
1BB
330
1E
100
AcDbEntity
  8
0
100
AcDbLine
 10
13.0
 20
69.59999999999999
 30
0.0
 11
13.0
 21
68.2
 31
0.0
  0
LINE
  5
1BC
330
1E
100
AcDbEntity
  8
0
100
AcDbLine
 10
13.0
 20
70.59999999999999
 30
0.0
 11
13.0
 21
71.29999999999999
 31
0.0
  0
LINE
  5
1BD
330
1E
100
AcDbEntity
  8
0
100
AcDbLine
 10
13.0
 20
70.59999999999999
 30
0.0
 11
13.0
 21
69.59999999999999
 31
0.0
  0
LINE
  5
1BE
330
1E
100
AcDbEntity
  8
0
100
AcDbLine
 10
13.0
 20
71.5
 30
0.0
 11
18.0
 21
71.5
 31
0.0
  0
LINE
  5
1BF
330
1E
100
AcDbEntity
  8
0
100
AcDbLine
 10
13.0
 20
71.5
 30
0.0
 11
13.0
 21
71.29999999999999
 31
0.0
  0
LINE
  5
1C0
330
1E
100
AcDbEntity
  8
0
100
AcDbLine
 10
18.0
 20
67.016
 30
0.0
 11
18.0
 21
65.0
 31
0.0
  0
LINE
  5
1C1
330
1E
100
AcDbEntity
  8
0
100
AcDbLine
 10
18.0
 20
67.016
 30
0.0
 11
18.0
 21
68.87199999999999
 31
0.0
  0
LINE
  5
1C2
330
1E
100
AcDbEntity
  8
0
100
AcDbLine
 10
18.0
 20
68.87199999999999
 30
0.0
 11
18.0
 21
67.016
 31
0.0
  0
LINE
  5
1C3
330
1E
100
AcDbEntity
  8
0
100
AcDbLine
 10
18.0
 20
68.87199999999999
 30
0.0
 11
18.0
 21
70.50399999999999
 31
0.0
  0
LINE
  5
1C4
330
1E
100
AcDbEntity
  8
0
100
AcDbLine
 10
18.0
 20
70.50399999999999
 30
0.0
 11
18.0
 21
68.87199999999999
 31
0.0
  0
LINE
  5
1C5
330
1E
100
AcDbEntity
  8
0
100
AcDbLine
 10
18.0
 20
70.50399999999999
 30
0.0
 11
18.0
 21
71.752
 31
0.0
  0
LINE
  5
1C6
330
1E
100
AcDbEntity
  8
0
100
AcDbLine
 10
18.0
 20
69.59999999999999
 30
0.0
 11
18.0
 21
68.2
 31
0.0
  0
LINE
  5
1C7
330
1E
100
AcDbEntity
  8
0
100
AcDbLine
 10
18.0
 20
68.2
 30
0.0
 11
18.0
 21
66.7
 31
0.0
  0
LINE
  5
1C8
330
1E
100
AcDbEntity
  8
0
100
AcDbLine
 10
18.0
 20
66.7
 30
0.0
 11
18.0
 21
65.0
 31
0.0
  0
LINE
  5
1C9
330
1E
100
AcDbEntity
  8
0
100
AcDbLine
 10
18.0
 20
70.59999999999999
 30
0.0
 11
18.0
 21
69.59999999999999
 31
0.0
  0
LINE
  5
1CA
330
1E
100
AcDbEntity
  8
0
100
AcDbLine
 10
33.0
 20
69.8
 30
0.0
 11
33.0
 21
65.0
 31
0.0
  0
LINE
  5
1CB
330
1E
100
AcDbEntity
  8
0
100
AcDbLine
 10
33.0
 20
67.048
 30
0.0
 11
33.0
 21
68.968
 31
0.0
  0
LINE
  5
1CC
330
1E
100
AcDbEntity
  8
0
100
AcDbLine
 10
33.5
 20
70.09999999999999
 30
0.0
 11
33.5
 21
74.90000000000001
 31
0.0
  0
LINE
  5
1CD
330
1E
100
AcDbEntity
  8
0
100
AcDbLine
 10
33.5
 20
70.09999999999999
 30
0.0
 11
33.5
 21
65.0
 31
0.0
  0
LINE
  5
1CE
330
1E
100
AcDbEntity
  8
0
100
AcDbLine
 10
35.0
 20
70.3
 30
0.0
 11
35.0
 21
65.0
 31
0.0
  0
LINE
  5
1D0
330
1E
100
AcDbEntity
  8
0
100
AcDbLine
 10
33.0
 20
68.968
 30
0.0
 11
33.0
 21
70.664
 31
0.0
  0
LINE
  5
1D1
330
1E
100
AcDbEntity
  8
0
100
AcDbLine
 10
33.0
 20
70.664
 30
0.0
 11
33.0
 21
71.944
 31
0.0
  0
LINE
  5
1D2
330
1E
100
AcDbEntity
  8
0
100
AcDbLine
 10
18.0
 20
71.29999999999999
 30
0.0
 11
18.0
 21
70.59999999999999
 31
0.0
  0
LINE
  5
1D3
330
1E
100
AcDbEntity
  8
0
100
AcDbLine
 10
18.0
 20
71.752
 30
0.0
 11
18.0
 21
70.50399999999999
 31
0.0
  0
LINE
  5
1D4
330
1E
100
AcDbEntity
  8
0
100
AcDbLine
 10
18.0
 20
71.752
 30
0.0
 11
18.0
 21
72.51999999999999
 31
0.0
  0
LINE
  5
1D5
330
1E
100
AcDbEntity
  8
0
100
AcDbLine
 10
18.0
 20
71.752
 30
0.0
 11
18.0
 21
71.5
 31
0.0
  0
LINE
  5
1D6
330
1E
100
AcDbEntity
  8
0
100
AcDbLine
 10
18.0
 20
72.51999999999999
 30
0.0
 11
18.0
 21
71.752
 31
0.0
  0
LINE
  5
1D7
330
1E
100
AcDbEntity
  8
0
100
AcDbLine
 10
18.0
 20
72.51999999999999
 30
0.0
 11
18.0
 21
72.80800000000001
 31
0.0
  0
LINE
  5
1D8
330
1E
100
AcDbEntity
  8
0
100
AcDbLine
 10
18.0
 20
72.80800000000001
 30
0.0
 11
18.0
 21
72.51999999999999
 31
0.0
  0
LINE
  5
1D9
330
1E
100
AcDbEntity
  8
0
100
AcDbLine
 10
18.0
 20
72.80800000000001
 30
0.0
 11
18.3333
 21
73.0
 31
0.0
  0
LINE
  5
1DA
330
1E
100
AcDbEntity
  8
0
100
AcDbLine
 10
33.0
 20
71.944
 30
0.0
 11
33.0
 21
72.712
 31
0.0
  0
LINE
  5
1DB
330
1E
100
AcDbEntity
  8
0
100
AcDbLine
 10
33.0
 20
82.79999999999999
 30
0.0
 11
33.0
 21
81.0
 31
0.0
  0
LINE
  5
1DC
330
1E
100
AcDbEntity
  8
0
100
AcDbLine
 10
33.0
 20
82.79999999999999
 30
0.0
 11
33.0
 21
83.49999999999999
 31
0.0
  0
LINE
  5
1DD
330
1E
100
AcDbEntity
  8
0
100
AcDbLine
 10
33.0
 20
81.0
 30
0.0
 11
33.0
 21
78.09999999999999
 31
0.0
  0
LINE
  5
1DE
330
1E
100
AcDbEntity
  8
0
100
AcDbLine
 10
33.0
 20
81.0
 30
0.0
 11
33.0
 21
82.79999999999999
 31
0.0
  0
LINE
  5
1DF
330
1E
100
AcDbEntity
  8
0
100
AcDbLine
 10
33.0
 20
83.49999999999999
 30
0.0
 11
33.5
 21
85.0
 31
0.0
  0
LINE
  5
1E0
330
1E
100
AcDbEntity
  8
0
100
AcDbLine
 10
33.0
 20
83.49999999999999
 30
0.0
 11
33.0
 21
82.79999999999999
 31
0.0
  0
LINE
  5
1E1
330
1E
100
AcDbEntity
  8
0
100
AcDbLine
 10
33.0
 20
73.0
 30
0.0
 11
33.0
 21
78.09999999999999
 31
0.0
  0
LINE
  5
1E2
330
1E
100
AcDbEntity
  8
0
100
AcDbLine
 10
33.0
 20
78.09999999999999
 30
0.0
 11
33.0
 21
73.0
 31
0.0
  0
LINE
  5
1E3
330
1E
100
AcDbEntity
  8
0
100
AcDbLine
 10
33.0
 20
78.09999999999999
 30
0.0
 11
33.0
 21
81.0
 31
0.0
  0
LINE
  5
1E4
330
1E
100
AcDbEntity
  8
0
100
AcDbLine
 10
18.3333
 20
73.0
 30
0.0
 11
33.0
 21
73.0
 31
0.0
  0
LINE
  5
1E5
330
1E
100
AcDbEntity
  8
0
100
AcDbLine
 10
33.5
 20
74.90000000000001
 30
0.0
 11
33.5
 21
79.1
 31
0.0
  0
LINE
  5
1E6
330
1E
100
AcDbEntity
  8
0
100
AcDbLine
 10
33.5
 20
74.90000000000001
 30
0.0
 11
33.5
 21
70.09999999999999
 31
0.0
  0
LINE
  5
1E7
330
1E
100
AcDbEntity
  8
0
100
AcDbLine
 10
33.5
 20
79.1
 30
0.0
 11
33.5
 21
82.3
 31
0.0
  0
LINE
  5
1E8
330
1E
100
AcDbEntity
  8
0
100
AcDbLine
 10
33.5
 20
79.1
 30
0.0
 11
33.5
 21
74.90000000000001
 31
0.0
  0
LINE
  5
1E9
330
1E
100
AcDbEntity
  8
0
100
AcDbLine
 10
35.0
 20
79.5
 30
0.0
 11
35.0
 21
75.2
 31
0.0
  0
LINE
  5
1EA
330
1E
100
AcDbEntity
  8
0
100
AcDbLine
 10
35.0
 20
75.2
 30
0.0
 11
35.0
 21
70.3
 31
0.0
  0
LINE
  5
1EB
330
1E
100
AcDbEntity
  8
0
100
AcDbLine
 10
35.0
 20
82.79999999999999
 30
0.0
 11
35.0
 21
79.5
 31
0.0
  0
LINE
  5
1EC
330
1E
100
AcDbEntity
  8
0
100
AcDbLine
 10
33.5
 20
82.3
 30
0.0
 11
33.5
 21
84.29999999999999
 31
0.0
  0
LINE
  5
1ED
330
1E
100
AcDbEntity
  8
0
100
AcDbLine
 10
33.5
 20
82.3
 30
0.0
 11
33.5
 21
79.1
 31
0.0
  0
LINE
  5
1EE
330
1E
100
AcDbEntity
  8
0
100
AcDbLine
 10
33.5
 20
84.29999999999999
 30
0.0
 11
33.5
 21
85.0
 31
0.0
  0
LINE
  5
1EF
330
1E
100
AcDbEntity
  8
0
100
AcDbLine
 10
33.5
 20
84.29999999999999
 30
0.0
 11
33.5
 21
82.3
 31
0.0
  0
LINE
  5
1F0
330
1E
100
AcDbEntity
  8
0
100
AcDbLine
 10
35.0
 20
84.8
 30
0.0
 11
35.0
 21
82.79999999999999
 31
0.0
  0
LINE
  5
1F1
330
1E
100
AcDbEntity
  8
0
100
AcDbLine
 10
33.5
 20
85.0
 30
0.0
 11
35.0
 21
85.5
 31
0.0
  0
LINE
  5
1F2
330
1E
100
AcDbEntity
  8
0
100
AcDbLine
 10
33.5
 20
85.0
 30
0.0
 11
33.5
 21
84.29999999999999
 31
0.0
  0
LINE
  5
1F3
330
1E
100
AcDbEntity
  8
0
100
AcDbLine
 10
35.0
 20
83.40000000000001
 30
0.0
 11
35.0
 21
77.9
 31
0.0
  0
LINE
  5
1F4
330
1E
100
AcDbEntity
  8
0
100
AcDbLine
 10
35.0
 20
83.40000000000001
 30
0.0
 11
35.0
 21
87.5
 31
0.0
  0
LINE
  5
1F5
330
1E
100
AcDbEntity
  8
0
100
AcDbLine
 10
35.0
 20
77.9
 30
0.0
 11
35.0
 21
83.40000000000001
 31
0.0
  0
LINE
  5
1F6
330
1E
100
AcDbEntity
  8
0
100
AcDbLine
 10
35.0
 20
77.9
 30
0.0
 11
35.0
 21
71.7
 31
0.0
  0
LINE
  5
1F7
330
1E
100
AcDbEntity
  8
0
100
AcDbLine
 10
35.0
 20
71.7
 30
0.0
 11
35.0
 21
77.9
 31
0.0
  0
LINE
  5
1F8
330
1E
100
AcDbEntity
  8
0
100
AcDbLine
 10
35.0
 20
71.7
 30
0.0
 11
35.0
 21
65.0
 31
0.0
  0
LINE
  5
1F9
330
1E
100
AcDbEntity
  8
0
100
AcDbLine
 10
35.5
 20
72.09999999999999
 30
0.0
 11
35.5
 21
78.7
 31
0.0
  0
LINE
  5
1FA
330
1E
100
AcDbEntity
  8
0
100
AcDbLine
 10
35.5
 20
72.09999999999999
 30
0.0
 11
35.5
 21
65.0
 31
0.0
  0
LINE
  5
1FB
330
1E
100
AcDbEntity
  8
0
100
AcDbLine
 10
60.5
 20
72.3
 30
0.0
 11
60.5
 21
79.2
 31
0.0
  0
LINE
  5
1FC
330
1E
100
AcDbEntity
  8
0
100
AcDbLine
 10
60.5
 20
72.3
 30
0.0
 11
60.5
 21
65.0
 31
0.0
  0
LINE
  5
1FE
330
1E
100
AcDbEntity
  8
0
100
AcDbLine
 10
75.2941
 20
72.4602
 30
0.0
 11
75.2941
 21
65.0
 31
0.0
  0
LINE
  5
1FF
330
1E
100
AcDbEntity
  8
0
100
AcDbLine
 10
75.2941
 20
72.4602
 30
0.0
 11
75.2941
 21
79.84659999999999
 31
0.0
  0
LINE
  5
200
330
1E
100
AcDbEntity
  8
0
100
AcDbLine
 10
85.0
 20
73.49429999999999
 30
0.0
 11
85.0
 21
65.0
 31
0.0
  0
LINE
  5
201
330
1E
100
AcDbEntity
  8
0
100
AcDbLine
 10
85.0
 20
73.49429999999999
 30
0.0
 11
85.0
 21
81.767
 31
0.0
  0
LINE
  5
202
330
1E
100
AcDbEntity
  8
0
100
AcDbLine
 10
61.0
 20
72.59999999999999
 30
0.0
 11
61.0
 21
79.7
 31
0.0
  0
LINE
  5
203
330
1E
100
AcDbEntity
  8
0
100
AcDbLine
 10
61.0
 20
72.59999999999999
 30
0.0
 11
61.0
 21
65.0
 31
0.0
  0
LINE
  5
204
330
1E
100
AcDbEntity
  8
0
100
AcDbLine
 10
35.5
 20
78.7
 30
0.0
 11
35.5
 21
84.40000000000001
 31
0.0
  0
LINE
  5
205
330
1E
100
AcDbEntity
  8
0
100
AcDbLine
 10
35.5
 20
78.7
 30
0.0
 11
35.5
 21
72.09999999999999
 31
0.0
  0
LINE
  5
206
330
1E
100
AcDbEntity
  8
0
100
AcDbLine
 10
60.5
 20
79.2
 30
0.0
 11
60.5
 21
85.09999999999999
 31
0.0
  0
LINE
  5
207
330
1E
100
AcDbEntity
  8
0
100
AcDbLine
 10
35.5
 20
84.40000000000001
 30
0.0
 11
35.5
 21
78.7
 31
0.0
  0
LINE
  5
208
330
1E
100
AcDbEntity
  8
0
100
AcDbLine
 10
35.5
 20
84.40000000000001
 30
0.0
 11
35.5
 21
88.8
 31
0.0
  0
LINE
  5
209
330
1E
100
AcDbEntity
  8
0
100
AcDbLine
 10
60.5
 20
85.09999999999999
 30
0.0
 11
60.5
 21
79.2
 31
0.0
  0
LINE
  5
20A
330
1E
100
AcDbEntity
  8
0
100
AcDbLine
 10
60.5
 20
85.09999999999999
 30
0.0
 11
60.5
 21
89.7
 31
0.0
  0
LINE
  5
20B
330
1E
100
AcDbEntity
  8
0
100
AcDbLine
 10
66.0
 20
86.0
 30
0.0
 11
70.6798389315918
 21
86.0
 31
0.0
  0
LINE
  5
20C
330
1E
100
AcDbEntity
  8
0
100
AcDbLine
 10
61.0
 20
85.8
 30
0.0
 11
61.0
 21
79.7
 31
0.0
  0
LINE
  5
20D
330
1E
100
AcDbEntity
  8
0
100
AcDbLine
 10
61.0
 20
85.8
 30
0.0
 11
61.0
 21
90.5
 31
0.0
  0
LINE
  5
20E
330
1E
100
AcDbEntity
  8
0
100
AcDbLine
 10
61.0
 20
79.7
 30
0.0
 11
61.0
 21
85.8
 31
0.0
  0
LINE
  5
20F
330
1E
100
AcDbEntity
  8
0
100
AcDbLine
 10
61.0
 20
79.7
 30
0.0
 11
61.0
 21
72.59999999999999
 31
0.0
  0
LINE
  5
210
330
1E
100
AcDbEntity
  8
0
100
AcDbLine
 10
75.2941
 20
79.84659999999999
 30
0.0
 11
75.2941
 21
72.4602
 31
0.0
  0
LINE
  5
211
330
1E
100
AcDbEntity
  8
0
100
AcDbLine
 10
75.2941
 20
79.84659999999999
 30
0.0
 11
75.2941
 21
87.0114
 31
0.0
  0
LINE
  5
212
330
1E
100
AcDbEntity
  8
0
100
AcDbLine
 10
85.0
 20
81.767
 30
0.0
 11
85.0
 21
73.49429999999999
 31
0.0
  0
LINE
  5
213
330
1E
100
AcDbEntity
  8
0
100
AcDbLine
 10
85.0
 20
81.767
 30
0.0
 11
85.0
 21
89.8182
 31
0.0
  0
LINE
  5
214
330
1E
100
AcDbEntity
  8
0
100
AcDbLine
 10
75.2941
 20
87.0114
 30
0.0
 11
75.2941
 21
79.84659999999999
 31
0.0
  0
LINE
  5
215
330
1E
100
AcDbEntity
  8
0
100
AcDbLine
 10
75.2941
 20
87.0114
 30
0.0
 11
75.2941
 21
93.65909999999999
 31
0.0
  0
LINE
  5
216
330
1E
100
AcDbEntity
  8
0
100
AcDbLine
 10
70.6734516973177
 20
86.0
 30
0.0
 11
71.76470000000001
 21
120.028
 31
0.0
  0
LINE
  5
217
330
1E
100
AcDbEntity
  8
0
100
AcDbLine
 10
66.0
 20
84.0
 30
0.0
 11
66.0
 21
38.0
 31
0.0
  0
LINE
  5
218
330
1E
100
AcDbEntity
  8
0
100
AcDbLine
 10
66.0
 20
84.0
 30
0.0
 11
66.0
 21
92.0
 31
0.0
  0
LINE
  5
219
330
1E
100
AcDbEntity
  8
0
100
AcDbLine
 10
66.0
 20
38.0
 30
0.0
 11
66.0
 21
84.0
 31
0.0
  0
LINE
  5
21A
330
1E
100
AcDbEntity
  8
0
100
AcDbLine
 10
35.0
 20
85.5
 30
0.0
 11
35.0
 21
87.5
 31
0.0
  0
LINE
  5
21B
330
1E
100
AcDbEntity
  8
0
100
AcDbLine
 10
35.0
 20
85.5
 30
0.0
 11
35.0
 21
84.8
 31
0.0
  0
LINE
  5
21C
330
1E
100
AcDbEntity
  8
0
100
AcDbLine
 10
35.0
 20
87.5
 30
0.0
 11
35.0
 21
85.5
 31
0.0
  0
LINE
  5
21D
330
1E
100
AcDbEntity
  8
0
100
AcDbLine
 10
35.0
 20
87.5
 30
0.0
 11
35.0
 21
90.09999999999999
 31
0.0
  0
LINE
  5
21E
330
1E
100
AcDbEntity
  8
0
100
AcDbLine
 10
35.0
 20
87.5
 30
0.0
 11
35.0
 21
83.40000000000001
 31
0.0
  0
LINE
  5
21F
330
1E
100
AcDbEntity
  8
0
100
AcDbLine
 10
33.0
 20
72.712
 30
0.0
 11
33.0
 21
73.0
 31
0.0
  0
LINE
  5
220
330
1E
100
AcDbEntity
  8
0
100
AcDbLine
 10
18.0
 20
71.5
 30
0.0
 11
18.0
 21
71.29999999999999
 31
0.0
  0
LINE
  5
221
330
1E
100
AcDbEntity
  8
0
100
AcDbLine
 10
18.0
 20
71.5
 30
0.0
 11
18.0
 21
71.752
 31
0.0
  0
LINE
  5
222
330
1E
100
AcDbEntity
  8
0
100
AcDbLine
 10
13.0
 20
71.29999999999999
 30
0.0
 11
13.0
 21
71.5
 31
0.0
  0
LINE
  5
223
330
1E
100
AcDbEntity
  8
0
100
AcDbLine
 10
13.0
 20
71.29999999999999
 30
0.0
 11
13.0
 21
70.59999999999999
 31
0.0
  0
LINE
  5
224
330
1E
100
AcDbEntity
  8
0
100
AcDbLine
 10
35.5
 20
88.8
 30
0.0
 11
35.5
 21
91.5
 31
0.0
  0
LINE
  5
225
330
1E
100
AcDbEntity
  8
0
100
AcDbLine
 10
35.5
 20
88.8
 30
0.0
 11
35.5
 21
84.40000000000001
 31
0.0
  0
LINE
  5
226
330
1E
100
AcDbEntity
  8
0
100
AcDbLine
 10
60.5
 20
89.7
 30
0.0
 11
60.5
 21
92.5
 31
0.0
  0
LINE
  5
227
330
1E
100
AcDbEntity
  8
0
100
AcDbLine
 10
60.5
 20
89.7
 30
0.0
 11
60.5
 21
85.09999999999999
 31
0.0
  0
LINE
  5
228
330
1E
100
AcDbEntity
  8
0
100
AcDbLine
 10
85.0
 20
89.8182
 30
0.0
 11
85.0
 21
81.767
 31
0.0
  0
LINE
  5
229
330
1E
100
AcDbEntity
  8
0
100
AcDbLine
 10
85.0
 20
89.8182
 30
0.0
 11
85.0
 21
97.35230000000001
 31
0.0
  0
LINE
  5
22A
330
1E
100
AcDbEntity
  8
0
100
AcDbLine
 10
66.0
 20
92.0
 30
0.0
 11
66.0
 21
84.0
 31
0.0
  0
LINE
  5
22B
330
1E
100
AcDbEntity
  8
0
100
AcDbLine
 10
35.0
 20
90.09999999999999
 30
0.0
 11
35.0
 21
87.5
 31
0.0
  0
LINE
  5
22C
330
1E
100
AcDbEntity
  8
0
100
AcDbLine
 10
35.0
 20
90.09999999999999
 30
0.0
 11
35.0
 21
91.0
 31
0.0
  0
LINE
  5
22D
330
1E
100
AcDbEntity
  8
0
100
AcDbLine
 10
11.807
 20
88.10360000000001
 30
0.0
 11
11.8311853926076
 21
88.66004099626172
 31
0.0
  0
LINE
  5
22E
330
1E
100
AcDbEntity
  8
0
100
AcDbLine
 10
11.788
 20
87.9771
 30
0.0
 11
11.908
 21
89.87479999999999
 31
0.0
  0
LINE
  5
22F
330
1E
100
AcDbEntity
  8
0
100
AcDbLine
 10
35.5
 20
91.5
 30
0.0
 11
35.5
 21
92.5
 31
0.0
  0
LINE
  5
230
330
1E
100
AcDbEntity
  8
0
100
AcDbLine
 10
35.5
 20
91.5
 30
0.0
 11
35.5
 21
88.8
 31
0.0
  0
LINE
  5
231
330
1E
100
AcDbEntity
  8
0
100
AcDbLine
 10
35.0
 20
91.0
 30
0.0
 11
35.0
 21
90.09999999999999
 31
0.0
  0
LINE
  5
232
330
1E
100
AcDbEntity
  8
0
100
AcDbLine
 10
35.0
 20
91.0
 30
0.0
 11
35.5
 21
92.5
 31
0.0
  0
LINE
  5
233
330
1E
100
AcDbEntity
  8
0
100
AcDbLine
 10
35.5
 20
92.5
 30
0.0
 11
37.0
 21
93.0
 31
0.0
  0
LINE
  5
234
330
1E
100
AcDbEntity
  8
0
100
AcDbLine
 10
35.5
 20
92.5
 30
0.0
 11
35.5
 21
91.5
 31
0.0
  0
LINE
  5
235
330
1E
100
AcDbEntity
  8
0
100
AcDbLine
 10
37.0
 20
93.0
 30
0.0
 11
59.0
 21
93.0
 31
0.0
  0
LINE
  5
236
330
1E
100
AcDbEntity
  8
0
100
AcDbLine
 10
60.5
 20
92.5
 30
0.0
 11
60.5
 21
93.49999999999999
 31
0.0
  0
LINE
  5
237
330
1E
100
AcDbEntity
  8
0
100
AcDbLine
 10
60.5
 20
92.5
 30
0.0
 11
60.5
 21
89.7
 31
0.0
  0
LINE
  5
238
330
1E
100
AcDbEntity
  8
0
100
AcDbLine
 10
61.0
 20
90.5
 30
0.0
 11
61.0
 21
93.40000000000001
 31
0.0
  0
LINE
  5
239
330
1E
100
AcDbEntity
  8
0
100
AcDbLine
 10
61.0
 20
90.5
 30
0.0
 11
61.0
 21
85.8
 31
0.0
  0
LINE
  5
23A
330
1E
100
AcDbEntity
  8
0
100
AcDbLine
 10
61.0
 20
93.40000000000001
 30
0.0
 11
61.0
 21
94.50000000000001
 31
0.0
  0
LINE
  5
23B
330
1E
100
AcDbEntity
  8
0
100
AcDbLine
 10
61.0
 20
93.40000000000001
 30
0.0
 11
61.0
 21
90.5
 31
0.0
  0
LINE
  5
23C
330
1E
100
AcDbEntity
  8
0
100
AcDbLine
 10
59.0
 20
93.0
 30
0.0
 11
60.5
 21
93.49999999999999
 31
0.0
  0
LINE
  5
23D
330
1E
100
AcDbEntity
  8
0
100
AcDbLine
 10
60.5
 20
93.49999999999999
 30
0.0
 11
61.0
 21
94.50000000000001
 31
0.0
  0
LINE
  5
23E
330
1E
100
AcDbEntity
  8
0
100
AcDbLine
 10
60.5
 20
93.49999999999999
 30
0.0
 11
60.5
 21
92.5
 31
0.0
  0
LINE
  5
23F
330
1E
100
AcDbEntity
  8
0
100
AcDbLine
 10
61.0
 20
94.50000000000001
 30
0.0
 11
62.5
 21
95.0
 31
0.0
  0
LINE
  5
240
330
1E
100
AcDbEntity
  8
0
100
AcDbLine
 10
61.0
 20
94.50000000000001
 30
0.0
 11
61.0
 21
93.40000000000001
 31
0.0
  0
LINE
  5
241
330
1E
100
AcDbEntity
  8
0
100
AcDbLine
 10
62.5
 20
95.0
 30
0.0
 11
63.0
 21
95.0
 31
0.0
  0
LINE
  5
242
330
1E
100
AcDbEntity
  8
0
100
AcDbLine
 10
63.0
 20
95.0
 30
0.0
 11
64.5
 21
94.50000000000001
 31
0.0
  0
LINE
  5
243
330
1E
100
AcDbEntity
  8
0
100
AcDbLine
 10
64.5
 20
94.50000000000001
 30
0.0
 11
65.5
 21
93.49999999999999
 31
0.0
  0
LINE
  5
244
330
1E
100
AcDbEntity
  8
0
100
AcDbLine
 10
71.76470000000001
 20
120.028
 30
0.0
 11
72.2059
 21
121.136
 31
0.0
  0
LINE
  5
245
330
1E
100
AcDbEntity
  8
0
100
AcDbLine
 10
72.2059
 20
121.136
 30
0.0
 11
73.0882
 21
121.875
 31
0.0
  0
LINE
  5
246
330
1E
100
AcDbEntity
  8
0
100
AcDbLine
 10
73.0882
 20
121.875
 30
0.0
 11
74.4118
 21
122.2439999999999
 31
0.0
  0
LINE
  5
247
330
1E
100
AcDbEntity
  8
0
100
AcDbLine
 10
75.2941
 20
105.699
 30
0.0
 11
75.2941
 21
100.011
 31
0.0
  0
LINE
  5
248
330
1E
100
AcDbEntity
  8
0
100
AcDbLine
 10
75.2941
 20
105.699
 30
0.0
 11
75.2941
 21
110.6479999999999
 31
0.0
  0
LINE
  5
249
330
1E
100
AcDbEntity
  8
0
100
AcDbLine
 10
75.2941
 20
110.6479999999999
 30
0.0
 11
75.2941
 21
114.932
 31
0.0
  0
LINE
  5
24A
330
1E
100
AcDbEntity
  8
0
100
AcDbLine
 10
75.2941
 20
114.932
 30
0.0
 11
75.2941
 21
110.6479999999999
 31
0.0
  0
LINE
  5
24B
330
1E
100
AcDbEntity
  8
0
100
AcDbLine
 10
75.2941
 20
114.932
 30
0.0
 11
75.2941
 21
118.1079999999999
 31
0.0
  0
LINE
  5
24C
330
1E
100
AcDbEntity
  8
0
100
AcDbLine
 10
75.2941
 20
118.1079999999999
 30
0.0
 11
75.2941
 21
114.932
 31
0.0
  0
LINE
  5
24D
330
1E
100
AcDbEntity
  8
0
100
AcDbLine
 10
75.2941
 20
118.1079999999999
 30
0.0
 11
75.2941
 21
120.545
 31
0.0
  0
LINE
  5
24E
330
1E
100
AcDbEntity
  8
0
100
AcDbLine
 10
75.2941
 20
120.545
 30
0.0
 11
75.2941
 21
118.1079999999999
 31
0.0
  0
LINE
  5
24F
330
1E
100
AcDbEntity
  8
0
100
AcDbLine
 10
75.2941
 20
120.545
 30
0.0
 11
75.2941
 21
122.0229999999999
 31
0.0
  0
LINE
  5
250
330
1E
100
AcDbEntity
  8
0
100
AcDbLine
 10
75.2941
 20
122.0229999999999
 30
0.0
 11
75.2941
 21
120.545
 31
0.0
  0
LINE
  5
251
330
1E
100
AcDbEntity
  8
0
100
AcDbLine
 10
75.2941
 20
122.0229999999999
 30
0.0
 11
75.2941
 21
122.614
 31
0.0
  0
LINE
  5
252
330
1E
100
AcDbEntity
  8
0
100
AcDbLine
 10
75.2941
 20
100.011
 30
0.0
 11
75.2941
 21
93.65909999999999
 31
0.0
  0
LINE
  5
253
330
1E
100
AcDbEntity
  8
0
100
AcDbLine
 10
75.2941
 20
100.011
 30
0.0
 11
75.2941
 21
105.699
 31
0.0
  0
LINE
  5
254
330
1E
100
AcDbEntity
  8
0
100
AcDbLine
 10
75.2941
 20
93.65909999999999
 30
0.0
 11
75.2941
 21
87.0114
 31
0.0
  0
LINE
  5
255
330
1E
100
AcDbEntity
  8
0
100
AcDbLine
 10
75.2941
 20
93.65909999999999
 30
0.0
 11
75.2941
 21
100.011
 31
0.0
  0
LINE
  5
256
330
1E
100
AcDbEntity
  8
0
100
AcDbLine
 10
74.4118
 20
122.2439999999999
 30
0.0
 11
75.2941
 21
122.614
 31
0.0
  0
LINE
  5
257
330
1E
100
AcDbEntity
  8
0
100
AcDbLine
 10
75.2941
 20
122.614
 30
0.0
 11
76.17650000000001
 21
124.091
 31
0.0
  0
LINE
  5
258
330
1E
100
AcDbEntity
  8
0
100
AcDbLine
 10
75.2941
 20
122.614
 30
0.0
 11
75.2941
 21
122.0229999999999
 31
0.0
  0
LINE
  5
259
330
1E
100
AcDbEntity
  8
0
100
AcDbLine
 10
76.17650000000001
 20
124.091
 30
0.0
 11
77.0588
 21
127.045
 31
0.0
  0
LINE
  5
25A
330
1E
100
AcDbEntity
  8
0
100
AcDbLine
 10
77.0588
 20
127.045
 30
0.0
 11
79.7059
 21
129.261
 31
0.0
  0
LINE
  5
25B
330
1E
100
AcDbEntity
  8
0
100
AcDbLine
 10
85.0
 20
116.483
 30
0.0
 11
85.0
 21
110.8689999999999
 31
0.0
  0
LINE
  5
25C
330
1E
100
AcDbEntity
  8
0
100
AcDbLine
 10
85.0
 20
116.483
 30
0.0
 11
85.0
 21
121.2839999999999
 31
0.0
  0
LINE
  5
25D
330
1E
100
AcDbEntity
  8
0
100
AcDbLine
 10
85.0
 20
121.2839999999999
 30
0.0
 11
85.0
 21
116.483
 31
0.0
  0
LINE
  5
25E
330
1E
100
AcDbEntity
  8
0
100
AcDbLine
 10
85.0
 20
121.2839999999999
 30
0.0
 11
85.0
 21
124.9029999999999
 31
0.0
  0
LINE
  5
25F
330
1E
100
AcDbEntity
  8
0
100
AcDbLine
 10
85.0
 20
124.9029999999999
 30
0.0
 11
85.0
 21
121.2839999999999
 31
0.0
  0
LINE
  5
260
330
1E
100
AcDbEntity
  8
0
100
AcDbLine
 10
85.0
 20
124.9029999999999
 30
0.0
 11
85.0
 21
127.636
 31
0.0
  0
LINE
  5
261
330
1E
100
AcDbEntity
  8
0
100
AcDbLine
 10
85.0
 20
127.636
 30
0.0
 11
85.0
 21
124.9029999999999
 31
0.0
  0
LINE
  5
262
330
1E
100
AcDbEntity
  8
0
100
AcDbLine
 10
85.0
 20
127.636
 30
0.0
 11
85.0
 21
129.335
 31
0.0
  0
LINE
  5
263
330
1E
100
AcDbEntity
  8
0
100
AcDbLine
 10
85.0
 20
129.335
 30
0.0
 11
85.0
 21
127.636
 31
0.0
  0
LINE
  5
264
330
1E
100
AcDbEntity
  8
0
100
AcDbLine
 10
85.0
 20
129.335
 30
0.0
 11
85.0
 21
130.0
 31
0.0
  0
LINE
  5
265
330
1E
100
AcDbEntity
  8
0
100
AcDbLine
 10
85.0
 20
130.0
 30
0.0
 11
85.0
 21
129.335
 31
0.0
  0
LINE
  5
266
330
1E
100
AcDbEntity
  8
0
100
AcDbLine
 10
85.0
 20
110.8689999999999
 30
0.0
 11
85.0
 21
104.517
 31
0.0
  0
LINE
  5
267
330
1E
100
AcDbEntity
  8
0
100
AcDbLine
 10
85.0
 20
110.8689999999999
 30
0.0
 11
85.0
 21
116.483
 31
0.0
  0
LINE
  5
268
330
1E
100
AcDbEntity
  8
0
100
AcDbLine
 10
85.0
 20
104.517
 30
0.0
 11
85.0
 21
97.35230000000001
 31
0.0
  0
LINE
  5
269
330
1E
100
AcDbEntity
  8
0
100
AcDbLine
 10
85.0
 20
104.517
 30
0.0
 11
85.0
 21
110.8689999999999
 31
0.0
  0
LINE
  5
26A
330
1E
100
AcDbEntity
  8
0
100
AcDbLine
 10
85.0
 20
97.35230000000001
 30
0.0
 11
85.0
 21
89.8182
 31
0.0
  0
LINE
  5
26B
330
1E
100
AcDbEntity
  8
0
100
AcDbLine
 10
85.0
 20
97.35230000000001
 30
0.0
 11
85.0
 21
104.517
 31
0.0
  0
LINE
  5
26C
330
1E
100
AcDbEntity
  8
0
100
AcDbLine
 10
79.7059
 20
129.261
 30
0.0
 11
83.23529999999999
 21
130.0
 31
0.0
  0
LINE
  5
26D
330
1E
100
AcDbEntity
  8
0
100
AcDbLine
 10
83.23529999999999
 20
130.0
 30
0.0
 11
85.0
 21
130.0
 31
0.0
  0
LINE
  5
26E
330
1E
100
AcDbEntity
  8
0
100
AcDbLine
 10
65.5
 20
93.49999999999999
 30
0.0
 11
66.0
 21
92.0
 31
0.0
  0
LINE
  5
26F
330
1E
100
AcDbEntity
  8
0
100
AcDbLine
 10
11.80864463148109
 20
90.2628810344829
 30
0.0
 11
11.889
 21
89.99019999999999
 31
0.0
  0
LINE
  5
270
330
1E
100
AcDbEntity
  8
0
100
AcDbLine
 10
11.7262802842455
 20
87.46383212950719
 30
0.0
 11
11.807
 21
88.10360000000001
 31
0.0
  0
LINE
  5
271
330
1E
100
AcDbEntity
  8
0
100
AcDbLine
 10
11.889
 20
65.0
 30
0.0
 11
11.908
 21
64.2
 31
0.0
  0
LINE
  5
272
330
1E
100
AcDbEntity
  8
0
100
AcDbLine
 10
11.889
 20
65.0
 30
0.0
 11
11.908
 21
65.8
 31
0.0
  0
LINE
  5
273
330
1E
100
AcDbEntity
  8
0
100
AcDbLine
 10
11.0420475832426
 20
47.7999927139089
 30
0.0
 11
11.31
 21
45.998
 31
0.0
  0
LINE
  5
274
330
1E
100
AcDbEntity
  8
0
100
AcDbLine
 10
0.689999999999996
 20
45.998
 30
0.0
 11
0.9579524167574309
 21
47.799992713909
 31
0.0
  0
LINE
  5
275
330
1E
100
AcDbEntity
  8
0
100
AcDbLine
 10
0.689999999999996
 20
45.998
 30
0.0
 11
1.217
 21
49.54209999999999
 31
0.0
  0
LINE
  5
276
330
1E
100
AcDbEntity
  8
0
100
AcDbLine
 10
-0.0000000000000027
 20
62.7
 30
0.0
 11
-0.0000000000000025
 21
65.0
 31
0.0
  0
LINE
  5
27B
330
1E
100
AcDbEntity
  8
0
100
AcDbLine
 10
70.6798389315918
 20
86.0
 30
0.0
 11
70.6798339429917
 21
44.0
 31
0.0
  0
ENDSEC
  0
SECTION
  2
OBJECTS
  0
DICTIONARY
  5
C
330
0
100
AcDbDictionary
281
     1
  3
ACAD_GROUP
350
D
  3
ACAD_LAYOUT
350
19
  3
ACAD_MLINESTYLE
350
16
  3
ACAD_PLOTSETTINGS
350
18
  3
ACAD_PLOTSTYLENAME
350
E
  3
AcDbVariableDictionary
350
27C
  0
DICTIONARY
  5
D
102
{ACAD_REACTORS
330
C
102
}
330
C
100
AcDbDictionary
281
     1
  0
DICTIONARY
  5
19
102
{ACAD_REACTORS
330
C
102
}
330
C
100
AcDbDictionary
281
     1
  3
Layout1
350
1D
  3
Model
350
21
  0
DICTIONARY
  5
16
102
{ACAD_REACTORS
330
C
102
}
330
C
100
AcDbDictionary
281
     1
  3
Standard
350
17
  0
DICTIONARY
  5
18
102
{ACAD_REACTORS
330
C
102
}
330
C
100
AcDbDictionary
281
     1
  0
ACDBDICTIONARYWDFLT
  5
E
102
{ACAD_REACTORS
330
C
102
}
330
C
100
AcDbDictionary
281
     1
  3
Normal
350
F
100
AcDbDictionaryWithDefault
340
F
  0
DICTIONARY
  5
27C
102
{ACAD_REACTORS
330
C
102
}
330
C
100
AcDbDictionary
281
     1
  3
DIMASSOC
350
27D
  0
LAYOUT
  5
1D
102
{ACAD_REACTORS
330
19
102
}
330
19
100
AcDbPlotSettings
  1

  2
hp deskjet 980c series
  4

  6

 40
0.0
 41
0.0
 42
0.0
 43
0.0
 44
0.0
 45
0.0
 46
0.0
 47
0.0
 48
0.0
 49
0.0
140
0.0
141
0.0
142
1.0
143
1.0
 70
   688
 72
     0
 73
     0
 74
     5
  7

 75
    16
147
1.0
148
0.0
149
0.0
100
AcDbLayout
  1
Layout1
 70
     1
 71
     1
 10
0.0
 20
0.0
 11
12.0
 21
9.0
 12
0.0
 22
0.0
 32
0.0
 14
1.000000000000000E+20
 24
1.000000000000000E+20
 34
1.000000000000000E+20
 15
-1.000000000000000E+20
 25
-1.000000000000000E+20
 35
-1.000000000000000E+20
146
0.0
 13
0.0
 23
0.0
 33
0.0
 16
1.0
 26
0.0
 36
0.0
 17
0.0
 27
1.0
 37
0.0
 76
     0
330
1A
  0
LAYOUT
  5
21
102
{ACAD_REACTORS
330
19
102
}
330
19
100
AcDbPlotSettings
  1

  2
hp deskjet 980c series
  4

  6

 40
0.0
 41
0.0
 42
0.0
 43
0.0
 44
0.0
 45
0.0
 46
0.0
 47
0.0
 48
0.0
 49
0.0
140
0.0
141
0.0
142
1.0
143
1.0
 70
  1712
 72
     0
 73
     0
 74
     0
  7

 75
     0
147
1.0
148
0.0
149
0.0
100
AcDbLayout
  1
Model
 70
     1
 71
     0
 10
0.0
 20
0.0
 11
12.0
 21
9.0
 12
0.0
 22
0.0
 32
0.0
 14
0.0
 24
0.0
 34
0.0
 15
0.0
 25
0.0
 35
0.0
146
0.0
 13
0.0
 23
0.0
 33
0.0
 16
1.0
 26
0.0
 36
0.0
 17
0.0
 27
1.0
 37
0.0
 76
     0
330
1E
  0
MLINESTYLE
  5
17
102
{ACAD_REACTORS
330
16
102
}
330
16
100
AcDbMlineStyle
  2
STANDARD
 70
     0
  3

 62
   256
 51
90.0
 52
90.0
 71
     2
 49
0.5
 62
   256
  6
BYLAYER
 49
-0.5
 62
   256
  6
BYLAYER
  0
ACDBPLACEHOLDER
  5
F
102
{ACAD_REACTORS
330
E
102
}
330
E
  0
DICTIONARYVAR
  5
27D
102
{ACAD_REACTORS
330
27C
102
}
330
27C
100
DictionaryVariables
280
     0
  1
1
  0
ENDSEC
  0
EOF
