  0
SECTION
  2
HEADER
  9
$ACADVER
  1
AC1015
  9
$ACADMAINTVER
 70
    13
  9
$DWGCODEPAGE
  3
ANSI_1252
  9
$INSBASE
 10
0.0
 20
0.0
 30
0.0
  9
$EXTMIN
 10
-0.0000000000000024
 20
-0.0000000000000035
 30
0.0
  9
$EXTMAX
 10
176.0
 20
88.0
 30
0.0
  9
$LIMMIN
 10
0.0
 20
0.0
  9
$LIMMAX
 10
12.0
 20
9.0
  9
$ORTHOMODE
 70
     0
  9
$REGENMODE
 70
     1
  9
$FILLMODE
 70
     1
  9
$QTEXTMODE
 70
     0
  9
$MIRRTEXT
 70
     1
  9
$LTSCALE
 40
1.0
  9
$ATTMODE
 70
     1
  9
$TEXTSIZE
 40
0.2
  9
$TRACEWID
 40
0.05
  9
$TEXTSTYLE
  7
Standard
  9
$CLAYER
  8
0
  9
$CELTYPE
  6
Continuous
  9
$CECOLOR
 62
   256
  9
$CELTSCALE
 40
1.0
  9
$DISPSILH
 70
     0
  9
$DIMSCALE
 40
1.0
  9
$DIMASZ
 40
0.18
  9
$DIMEXO
 40
0.0625
  9
$DIMDLI
 40
0.38
  9
$DIMRND
 40
0.0
  9
$DIMDLE
 40
0.0
  9
$DIMEXE
 40
0.18
  9
$DIMTP
 40
0.0
  9
$DIMTM
 40
0.0
  9
$DIMTXT
 40
0.18
  9
$DIMCEN
 40
0.09
  9
$DIMTSZ
 40
0.0
  9
$DIMTOL
 70
     0
  9
$DIMLIM
 70
     0
  9
$DIMTIH
 70
     1
  9
$DIMTOH
 70
     1
  9
$DIMSE1
 70
     0
  9
$DIMSE2
 70
     0
  9
$DIMTAD
 70
     0
  9
$DIMZIN
 70
     0
  9
$DIMBLK
  1

  9
$DIMASO
 70
     1
  9
$DIMSHO
 70
     1
  9
$DIMPOST
  1

  9
$DIMAPOST
  1

  9
$DIMALT
 70
     0
  9
$DIMALTD
 70
     2
  9
$DIMALTF
 40
25.4
  9
$DIMLFAC
 40
1.0
  9
$DIMTOFL
 70
     0
  9
$DIMTVP
 40
0.0
  9
$DIMTIX
 70
     0
  9
$DIMSOXD
 70
     0
  9
$DIMSAH
 70
     0
  9
$DIMBLK1
  1

  9
$DIMBLK2
  1

  9
$DIMSTYLE
  2
Standard
  9
$DIMCLRD
 70
     0
  9
$DIMCLRE
 70
     0
  9
$DIMCLRT
 70
     0
  9
$DIMTFAC
 40
1.0
  9
$DIMGAP
 40
0.09
  9
$DIMJUST
 70
     0
  9
$DIMSD1
 70
     0
  9
$DIMSD2
 70
     0
  9
$DIMTOLJ
 70
     1
  9
$DIMTZIN
 70
     0
  9
$DIMALTZ
 70
     0
  9
$DIMALTTZ
 70
     0
  9
$DIMUPT
 70
     0
  9
$DIMDEC
 70
     4
  9
$DIMTDEC
 70
     4
  9
$DIMALTU
 70
     2
  9
$DIMALTTD
 70
     2
  9
$DIMTXSTY
  7
Standard
  9
$DIMAUNIT
 70
     0
  9
$DIMADEC
 70
     0
  9
$DIMALTRND
 40
0.0
  9
$DIMAZIN
 70
     0
  9
$DIMDSEP
 70
    46
  9
$DIMATFIT
 70
     3
  9
$DIMFRAC
 70
     0
  9
$DIMLDRBLK
  1

  9
$DIMLUNIT
 70
     2
  9
$DIMLWD
 70
    -2
  9
$DIMLWE
 70
    -2
  9
$DIMTMOVE
 70
     0
  9
$LUNITS
 70
     2
  9
$LUPREC
 70
     4
  9
$SKETCHINC
 40
0.1
  9
$FILLETRAD
 40
0.0
  9
$AUNITS
 70
     0
  9
$AUPREC
 70
     0
  9
$MENU
  1
.
  9
$ELEVATION
 40
0.0
  9
$PELEVATION
 40
0.0
  9
$THICKNESS
 40
0.0
  9
$LIMCHECK
 70
     0
  9
$CHAMFERA
 40
0.0
  9
$CHAMFERB
 40
0.0
  9
$CHAMFERC
 40
0.0
  9
$CHAMFERD
 40
0.0
  9
$SKPOLY
 70
     0
  9
$TDCREATE
 40
2454749.783221747
  9
$TDUCREATE
 40
2454749.699888414
  9
$TDUPDATE
 40
2454749.788967546
  9
$TDUUPDATE
 40
2454749.705634213
  9
$TDINDWG
 40
0.0057457986
  9
$TDUSRTIMER
 40
0.0057457986
  9
$USRTIMER
 70
     1
  9
$ANGBASE
 50
0.0
  9
$ANGDIR
 70
     0
  9
$PDMODE
 70
     0
  9
$PDSIZE
 40
0.0
  9
$PLINEWID
 40
0.0
  9
$SPLFRAME
 70
     0
  9
$SPLINETYPE
 70
     6
  9
$SPLINESEGS
 70
     8
  9
$HANDSEED
  5
244
  9
$SURFTAB1
 70
     6
  9
$SURFTAB2
 70
     6
  9
$SURFTYPE
 70
     6
  9
$SURFU
 70
     6
  9
$SURFV
 70
     6
  9
$UCSBASE
  2

  9
$UCSNAME
  2

  9
$UCSORG
 10
0.0
 20
0.0
 30
0.0
  9
$UCSXDIR
 10
1.0
 20
0.0
 30
0.0
  9
$UCSYDIR
 10
0.0
 20
1.0
 30
0.0
  9
$UCSORTHOREF
  2

  9
$UCSORTHOVIEW
 70
     1
  9
$UCSORGTOP
 10
0.0
 20
0.0
 30
0.0
  9
$UCSORGBOTTOM
 10
0.0
 20
0.0
 30
0.0
  9
$UCSORGLEFT
 10
0.0
 20
0.0
 30
0.0
  9
$UCSORGRIGHT
 10
0.0
 20
0.0
 30
0.0
  9
$UCSORGFRONT
 10
0.0
 20
0.0
 30
0.0
  9
$UCSORGBACK
 10
0.0
 20
0.0
 30
0.0
  9
$PUCSBASE
  2

  9
$PUCSNAME
  2

  9
$PUCSORG
 10
0.0
 20
0.0
 30
0.0
  9
$PUCSXDIR
 10
1.0
 20
0.0
 30
0.0
  9
$PUCSYDIR
 10
0.0
 20
1.0
 30
0.0
  9
$PUCSORTHOREF
  2

  9
$PUCSORTHOVIEW
 70
     0
  9
$PUCSORGTOP
 10
0.0
 20
0.0
 30
0.0
  9
$PUCSORGBOTTOM
 10
0.0
 20
0.0
 30
0.0
  9
$PUCSORGLEFT
 10
0.0
 20
0.0
 30
0.0
  9
$PUCSORGRIGHT
 10
0.0
 20
0.0
 30
0.0
  9
$PUCSORGFRONT
 10
0.0
 20
0.0
 30
0.0
  9
$PUCSORGBACK
 10
0.0
 20
0.0
 30
0.0
  9
$USERI1
 70
     0
  9
$USERI2
 70
     0
  9
$USERI3
 70
     0
  9
$USERI4
 70
     0
  9
$USERI5
 70
     0
  9
$USERR1
 40
0.0
  9
$USERR2
 40
0.0
  9
$USERR3
 40
0.0
  9
$USERR4
 40
0.0
  9
$USERR5
 40
0.0
  9
$WORLDVIEW
 70
     1
  9
$SHADEDGE
 70
     3
  9
$SHADEDIF
 70
    70
  9
$TILEMODE
 70
     1
  9
$MAXACTVP
 70
    64
  9
$PINSBASE
 10
0.0
 20
0.0
 30
0.0
  9
$PLIMCHECK
 70
     0
  9
$PEXTMIN
 10
1.000000000000000E+20
 20
1.000000000000000E+20
 30
1.000000000000000E+20
  9
$PEXTMAX
 10
-1.000000000000000E+20
 20
-1.000000000000000E+20
 30
-1.000000000000000E+20
  9
$PLIMMIN
 10
0.0
 20
0.0
  9
$PLIMMAX
 10
12.0
 20
9.0
  9
$UNITMODE
 70
     0
  9
$VISRETAIN
 70
     1
  9
$PLINEGEN
 70
     0
  9
$PSLTSCALE
 70
     1
  9
$TREEDEPTH
 70
  3020
  9
$CMLSTYLE
  2
Standard
  9
$CMLJUST
 70
     0
  9
$CMLSCALE
 40
1.0
  9
$PROXYGRAPHICS
 70
     1
  9
$MEASUREMENT
 70
     0
  9
$CELWEIGHT
370
    -1
  9
$ENDCAPS
280
     0
  9
$JOINSTYLE
280
     0
  9
$LWDISPLAY
290
     0
  9
$INSUNITS
 70
     0
  9
$HYPERLINKBASE
  1

  9
$STYLESHEET
  1

  9
$XEDIT
290
     1
  9
$CEPSNTYPE
380
     0
  9
$PSTYLEMODE
290
     1
  9
$FINGERPRINTGUID
  2
{440A5B16-1984-4F85-91B2-F4FB7E22560D}
  9
$VERSIONGUID
  2
{0FD988B6-C41B-43C0-AF9B-5B7A13D91A66}
  9
$EXTNAMES
290
     1
  9
$PSVPSCALE
 40
0.0
  9
$OLESTARTUP
290
     0
  0
ENDSEC
  0
SECTION
  2
CLASSES
  0
CLASS
  1
ACDBDICTIONARYWDFLT
  2
AcDbDictionaryWithDefault
  3
AutoCAD 2000
 90
        0
280
     0
281
     0
  0
CLASS
  1
ACDBPLACEHOLDER
  2
AcDbPlaceHolder
  3
AutoCAD 2000
 90
        0
280
     0
281
     0
  0
CLASS
  1
LAYOUT
  2
AcDbLayout
  3
AutoCAD 2000
 90
        0
280
     0
281
     0
  0
CLASS
  1
DICTIONARYVAR
  2
AcDbDictionaryVar
  3
AutoCAD 2000
 90
        0
280
     0
281
     0
  0
ENDSEC
  0
SECTION
  2
TABLES
  0
TABLE
  2
VPORT
  5
8
330
0
100
AcDbSymbolTable
 70
     2
  0
VPORT
  5
243
330
8
100
AcDbSymbolTableRecord
100
AcDbViewportTableRecord
  2
*Active
 70
     0
 10
0.0
 20
0.0
 11
1.0
 21
1.0
 12
88.0
 22
44.0
 13
0.0
 23
0.0
 14
1.0
 24
1.0
 15
0.0
 25
0.0
 16
0.0
 26
0.0
 36
1.0
 17
0.0
 27
0.0
 37
0.0
 40
88.67519181585677
 41
2.078104993597951
 42
50.0
 43
0.0
 44
0.0
 50
0.0
 51
0.0
 71
     0
 72
   100
 73
     1
 74
     3
 75
     0
 76
     0
 77
     0
 78
     0
281
     0
 65
     1
110
0.0
120
0.0
130
0.0
111
1.0
121
0.0
131
0.0
112
0.0
122
1.0
132
0.0
 79
     1
146
0.0
  0
ENDTAB
  0
TABLE
  2
LTYPE
  5
5
330
0
100
AcDbSymbolTable
 70
     1
  0
LTYPE
  5
13
330
5
100
AcDbSymbolTableRecord
100
AcDbLinetypeTableRecord
  2
ByBlock
 70
     0
  3

 72
    65
 73
     0
 40
0.0
  0
LTYPE
  5
14
330
5
100
AcDbSymbolTableRecord
100
AcDbLinetypeTableRecord
  2
ByLayer
 70
     0
  3

 72
    65
 73
     0
 40
0.0
  0
LTYPE
  5
15
330
5
100
AcDbSymbolTableRecord
100
AcDbLinetypeTableRecord
  2
Continuous
 70
     0
  3
Solid line
 72
    65
 73
     0
 40
0.0
  0
ENDTAB
  0
TABLE
  2
LAYER
  5
2
330
0
100
AcDbSymbolTable
 70
     1
  0
LAYER
  5
10
330
2
100
AcDbSymbolTableRecord
100
AcDbLayerTableRecord
  2
0
 70
     0
 62
     7
  6
Continuous
370
    -3
390
F
  0
ENDTAB
  0
TABLE
  2
STYLE
  5
3
330
0
100
AcDbSymbolTable
 70
     1
  0
STYLE
  5
11
330
3
100
AcDbSymbolTableRecord
100
AcDbTextStyleTableRecord
  2
Standard
 70
     0
 40
0.0
 41
1.0
 50
0.0
 71
     0
 42
0.2
  3
txt
  4

  0
ENDTAB
  0
TABLE
  2
VIEW
  5
6
330
0
100
AcDbSymbolTable
 70
     0
  0
ENDTAB
  0
TABLE
  2
UCS
  5
7
330
0
100
AcDbSymbolTable
 70
     0
  0
ENDTAB
  0
TABLE
  2
APPID
  5
9
330
0
100
AcDbSymbolTable
 70
     1
  0
APPID
  5
12
330
9
100
AcDbSymbolTableRecord
100
AcDbRegAppTableRecord
  2
ACAD
 70
     0
  0
ENDTAB
  0
TABLE
  2
DIMSTYLE
  5
A
330
0
100
AcDbSymbolTable
 70
     1
100
AcDbDimStyleTable
 71
     0
  0
DIMSTYLE
105
23C
330
A
100
AcDbSymbolTableRecord
100
AcDbDimStyleTableRecord
  2
Standard
 70
     0
340
11
  0
ENDTAB
  0
TABLE
  2
BLOCK_RECORD
  5
1
330
0
100
AcDbSymbolTable
 70
     0
  0
BLOCK_RECORD
  5
1E
330
1
100
AcDbSymbolTableRecord
100
AcDbBlockTableRecord
  2
*Model_Space
340
21
  0
BLOCK_RECORD
  5
1A
330
1
100
AcDbSymbolTableRecord
100
AcDbBlockTableRecord
  2
*Paper_Space
340
1D
  0
ENDTAB
  0
ENDSEC
  0
SECTION
  2
BLOCKS
  0
BLOCK
  5
1F
330
1E
100
AcDbEntity
  8
0
100
AcDbBlockBegin
  2
*Model_Space
 70
     0
 10
0.0
 20
0.0
 30
0.0
  3
*Model_Space
  1

  0
ENDBLK
  5
20
330
1E
100
AcDbEntity
  8
0
100
AcDbBlockEnd
  0
BLOCK
  5
1B
330
1A
100
AcDbEntity
 67
     1
  8
0
100
AcDbBlockBegin
  2
*Paper_Space
 70
     0
 10
0.0
 20
0.0
 30
0.0
  3
*Paper_Space
  1

  0
ENDBLK
  5
1C
330
1A
100
AcDbEntity
 67
     1
  8
0
100
AcDbBlockEnd
  0
ENDSEC
  0
SECTION
  2
ENTITIES
  0
LINE
  5
22
330
1E
100
AcDbEntity
  8
0
100
AcDbLine
 10
-0.0000000000000024
 20
88.0
 30
0.0
 11
0.8999999999999978
 21
88.0
 31
0.0
  0
LINE
  5
23
330
1E
100
AcDbEntity
  8
0
100
AcDbLine
 10
-0.0000000000000024
 20
88.0
 30
0.0
 11
-0.0000000000000024
 21
86.0
 31
0.0
  0
LINE
  5
24
330
1E
100
AcDbEntity
  8
0
100
AcDbLine
 10
0.9999999999999978
 20
82.0
 30
0.0
 11
4.0
 21
79.0
 31
0.0
  0
LINE
  5
26
330
1E
100
AcDbEntity
  8
0
100
AcDbLine
 10
59.8754
 20
1.955999999999999
 30
0.0
 11
60.5292
 21
1.187
 31
0.0
  0
LINE
  5
27
330
1E
100
AcDbEntity
  8
0
100
AcDbLine
 10
59.3562
 20
3.071
 30
0.0
 11
59.8754
 21
1.955999999999999
 31
0.0
  0
LINE
  5
28
330
1E
100
AcDbEntity
  8
0
100
AcDbLine
 10
59.0
 20
6.0
 30
0.0
 11
59.3562
 21
8.929
 31
0.0
  0
LINE
  5
29
330
1E
100
AcDbEntity
  8
0
100
AcDbLine
 10
59.0
 20
6.0
 30
0.0
 11
59.3562
 21
3.071
 31
0.0
  0
LINE
  5
2A
330
1E
100
AcDbEntity
  8
0
100
AcDbLine
 10
58.5
 20
61.0
 30
0.0
 11
59.5
 21
60.5
 31
0.0
  0
LINE
  5
2B
330
1E
100
AcDbEntity
  8
0
100
AcDbLine
 10
58.5
 20
61.0
 30
0.0
 11
59.6
 21
61.0
 31
0.0
  0
LINE
  5
2C
330
1E
100
AcDbEntity
  8
0
100
AcDbLine
 10
58.0
 20
62.5
 30
0.0
 11
58.0
 21
63.0
 31
0.0
  0
LINE
  5
2D
330
1E
100
AcDbEntity
  8
0
100
AcDbLine
 10
58.0
 20
62.5
 30
0.0
 11
58.5
 21
61.0
 31
0.0
  0
LINE
  5
2E
330
1E
100
AcDbEntity
  8
0
100
AcDbLine
 10
58.0
 20
63.0
 30
0.0
 11
58.5
 21
64.5
 31
0.0
  0
LINE
  5
2F
330
1E
100
AcDbEntity
  8
0
100
AcDbLine
 10
58.0
 20
63.0
 30
0.0
 11
58.0
 21
62.5
 31
0.0
  0
LINE
  5
30
330
1E
100
AcDbEntity
  8
0
100
AcDbLine
 10
59.6
 20
61.0
 30
0.0
 11
62.5
 21
61.0
 31
0.0
  0
LINE
  5
31
330
1E
100
AcDbEntity
  8
0
100
AcDbLine
 10
59.5
 20
60.5
 30
0.0
 11
60.0
 21
59.0
 31
0.0
  0
LINE
  5
32
330
1E
100
AcDbEntity
  8
0
100
AcDbLine
 10
59.5
 20
60.5
 30
0.0
 11
60.5
 21
60.5
 31
0.0
  0
LINE
  5
33
330
1E
100
AcDbEntity
  8
0
100
AcDbLine
 10
58.5
 20
64.5
 30
0.0
 11
59.5
 21
65.5
 31
0.0
  0
LINE
  5
34
330
1E
100
AcDbEntity
  8
0
100
AcDbLine
 10
59.5
 20
65.5
 30
0.0
 11
61.0
 21
66.0
 31
0.0
  0
LINE
  5
35
330
1E
100
AcDbEntity
  8
0
100
AcDbLine
 10
60.0
 20
59.0
 30
0.0
 11
60.0
 21
37.0
 31
0.0
  0
LINE
  5
36
330
1E
100
AcDbEntity
  8
0
100
AcDbLine
 10
60.0
 20
37.0
 30
0.0
 11
60.0
 21
59.0
 31
0.0
  0
LINE
  5
37
330
1E
100
AcDbEntity
  8
0
100
AcDbLine
 10
60.0
 20
37.0
 30
0.0
 11
60.5
 21
35.5
 31
0.0
  0
LINE
  5
39
330
1E
100
AcDbEntity
  8
0
100
AcDbLine
 10
59.8754
 20
10.044
 30
0.0
 11
60.5292
 21
10.81299999999999
 31
0.0
  0
LINE
  5
3A
330
1E
100
AcDbEntity
  8
0
100
AcDbLine
 10
59.3562
 20
8.929
 30
0.0
 11
59.8754
 21
10.044
 31
0.0
  0
LINE
  5
3B
330
1E
100
AcDbEntity
  8
0
100
AcDbLine
 10
61.6253
 20
0.4759999999999971
 30
0.0
 11
63.1252
 21
0.0919999999999972
 31
0.0
  0
LINE
  5
3D
330
1E
100
AcDbEntity
  8
0
100
AcDbLine
 10
62.7371189655172
 20
0.191355368518834
 30
0.0
 11
63.0098
 21
0.110999999999997
 31
0.0
  0
LINE
  5
3E
330
1E
100
AcDbEntity
  8
0
100
AcDbLine
 10
61.6253
 20
0.4759999999999971
 30
0.0
 11
63.1252
 21
0.0919999999999972
 31
0.0
  0
LINE
  5
3F
330
1E
100
AcDbEntity
  8
0
100
AcDbLine
 10
60.5292
 20
1.187
 30
0.0
 11
61.6253
 21
0.4759999999999971
 31
0.0
  0
LINE
  5
40
330
1E
100
AcDbEntity
  8
0
100
AcDbLine
 10
60.5292
 20
1.187
 30
0.0
 11
61.6253
 21
0.4759999999999971
 31
0.0
  0
LINE
  5
41
330
1E
100
AcDbEntity
  8
0
100
AcDbLine
 10
63.1252
 20
0.0919999999999972
 30
0.0
 11
65.02290000000001
 21
0.211999999999997
 31
0.0
  0
LINE
  5
42
330
1E
100
AcDbEntity
  8
0
100
AcDbLine
 10
81.6
 20
-0.0000000000000033
 30
0.0
 11
83.49999999999999
 21
-0.0000000000000034
 31
0.0
  0
LINE
  5
43
330
1E
100
AcDbEntity
  8
0
100
AcDbLine
 10
83.49999999999999
 20
-0.0000000000000034
 30
0.0
 11
85.7
 21
-0.0000000000000035
 31
0.0
  0
LINE
  5
44
330
1E
100
AcDbEntity
  8
0
100
AcDbLine
 10
94.40000000000001
 20
-0.0000000000000033
 30
0.0
 11
95.8
 21
-0.0000000000000032
 31
0.0
  0
LINE
  5
45
330
1E
100
AcDbEntity
  8
0
100
AcDbLine
 10
95.8
 20
-0.0000000000000032
 30
0.0
 11
96.70000000000001
 21
-0.0000000000000031
 31
0.0
  0
LINE
  5
46
330
1E
100
AcDbEntity
  8
0
100
AcDbLine
 10
92.5
 20
-0.0000000000000034
 30
0.0
 11
94.40000000000001
 21
-0.0000000000000033
 31
0.0
  0
LINE
  5
47
330
1E
100
AcDbEntity
  8
0
100
AcDbLine
 10
90.29999999999999
 20
-0.0000000000000035
 30
0.0
 11
92.5
 21
-0.0000000000000034
 31
0.0
  0
LINE
  5
48
330
1E
100
AcDbEntity
  8
0
100
AcDbLine
 10
88.0
 20
-0.0000000000000035
 30
0.0
 11
90.29999999999999
 21
-0.0000000000000035
 31
0.0
  0
LINE
  5
49
330
1E
100
AcDbEntity
  8
0
100
AcDbLine
 10
85.7
 20
-0.0000000000000035
 30
0.0
 11
88.0
 21
-0.0000000000000035
 31
0.0
  0
LINE
  5
4A
330
1E
100
AcDbEntity
  8
0
100
AcDbLine
 10
97.0
 20
-0.0000000000000029
 30
0.0
 11
98.50000000000001
 21
0.499999999999997
 31
0.0
  0
LINE
  5
4B
330
1E
100
AcDbEntity
  8
0
100
AcDbLine
 10
96.70000000000001
 20
-0.0000000000000031
 30
0.0
 11
97.0
 21
-0.0000000000000029
 31
0.0
  0
LINE
  5
4C
330
1E
100
AcDbEntity
  8
0
100
AcDbLine
 10
80.20000000000001
 20
-0.0000000000000032
 30
0.0
 11
81.6
 21
-0.0000000000000033
 31
0.0
  0
LINE
  5
4D
330
1E
100
AcDbEntity
  8
0
100
AcDbLine
 10
79.29999999999999
 20
-0.0000000000000031
 30
0.0
 11
80.20000000000001
 21
-0.0000000000000032
 31
0.0
  0
LINE
  5
4E
330
1E
100
AcDbEntity
  8
0
100
AcDbLine
 10
87.2
 20
0.0919999999999986
 30
0.0
 11
87.2
 21
0.475999999999999
 31
0.0
  0
LINE
  5
4F
330
1E
100
AcDbEntity
  8
0
100
AcDbLine
 10
87.2
 20
0.0919999999999986
 30
0.0
 11
88.0
 21
0.110999999999999
 31
0.0
  0
LINE
  5
50
330
1E
100
AcDbEntity
  8
0
100
AcDbLine
 10
88.8
 20
0.0919999999999986
 30
0.0
 11
89.29999999999999
 21
0.5909999999999992
 31
0.0
  0
LINE
  5
51
330
1E
100
AcDbEntity
  8
0
100
AcDbLine
 10
112.8749999999999
 20
0.0919999999999972
 30
0.0
 11
114.375
 21
0.4759999999999971
 31
0.0
  0
LINE
  5
52
330
1E
100
AcDbEntity
  8
0
100
AcDbLine
 10
112.9899999999999
 20
0.110999999999997
 30
0.0
 11
113.26
 21
0.190560000000053
 31
0.0
  0
LINE
  5
53
330
1E
100
AcDbEntity
  8
0
100
AcDbLine
 10
112.8749999999999
 20
0.0919999999999972
 30
0.0
 11
114.375
 21
0.4759999999999971
 31
0.0
  0
LINE
  5
54
330
1E
100
AcDbEntity
  8
0
100
AcDbLine
 10
88.8
 20
0.0919999999999986
 30
0.0
 11
88.8
 21
0.475999999999999
 31
0.0
  0
LINE
  5
55
330
1E
100
AcDbEntity
  8
0
100
AcDbLine
 10
88.8
 20
0.0919999999999986
 30
0.0
 11
89.29999999999999
 21
0.5909999999999992
 31
0.0
  0
LINE
  5
56
330
1E
100
AcDbEntity
  8
0
100
AcDbLine
 10
97.0
 20
-0.0000000000000029
 30
0.0
 11
98.50000000000001
 21
0.499999999999997
 31
0.0
  0
LINE
  5
57
330
1E
100
AcDbEntity
  8
0
100
AcDbLine
 10
112.9899999999999
 20
0.110999999999997
 30
0.0
 11
113.26
 21
0.190560000000053
 31
0.0
  0
LINE
  5
58
330
1E
100
AcDbEntity
  8
0
100
AcDbLine
 10
79.0
 20
-0.0000000000000029
 30
0.0
 11
79.29999999999999
 21
-0.0000000000000031
 31
0.0
  0
LINE
  5
59
330
1E
100
AcDbEntity
  8
0
100
AcDbLine
 10
88.0
 20
0.110999999999999
 30
0.0
 11
88.8
 21
0.0919999999999986
 31
0.0
  0
LINE
  5
5A
330
1E
100
AcDbEntity
  8
0
100
AcDbLine
 10
64.8964
 20
0.192999999999997
 30
0.0
 11
65.5361678704927
 21
0.273719715754448
 31
0.0
  0
LINE
  5
5B
330
1E
100
AcDbEntity
  8
0
100
AcDbLine
 10
111.104
 20
0.192999999999997
 30
0.0
 11
111.6595754060319
 21
0.168844547563804
 31
0.0
  0
LINE
  5
5C
330
1E
100
AcDbEntity
  8
0
100
AcDbLine
 10
65.02290000000001
 20
0.211999999999997
 30
0.0
 11
68.998
 21
0.6899999999999971
 31
0.0
  0
LINE
  5
5D
330
1E
100
AcDbEntity
  8
0
100
AcDbLine
 10
65.02290000000001
 20
0.211999999999997
 30
0.0
 11
68.998
 21
0.6899999999999971
 31
0.0
  0
LINE
  5
5E
330
1E
100
AcDbEntity
  8
0
100
AcDbLine
 10
68.998
 20
0.6899999999999971
 30
0.0
 11
72.5421
 21
1.217
 31
0.0
  0
LINE
  5
5F
330
1E
100
AcDbEntity
  8
0
100
AcDbLine
 10
87.2
 20
0.475999999999999
 30
0.0
 11
87.2
 21
1.187
 31
0.0
  0
LINE
  5
60
330
1E
100
AcDbEntity
  8
0
100
AcDbLine
 10
87.2
 20
0.475999999999999
 30
0.0
 11
87.2
 21
0.0919999999999986
 31
0.0
  0
LINE
  5
61
330
1E
100
AcDbEntity
  8
0
100
AcDbLine
 10
88.8
 20
0.475999999999999
 30
0.0
 11
88.8
 21
0.0919999999999986
 31
0.0
  0
LINE
  5
62
330
1E
100
AcDbEntity
  8
0
100
AcDbLine
 10
88.8
 20
0.475999999999999
 30
0.0
 11
88.8
 21
1.187
 31
0.0
  0
LINE
  5
63
330
1E
100
AcDbEntity
  8
0
100
AcDbLine
 10
110.977
 20
0.211999999999997
 30
0.0
 11
112.8749999999999
 21
0.0919999999999972
 31
0.0
  0
LINE
  5
64
330
1E
100
AcDbEntity
  8
0
100
AcDbLine
 10
110.471904301649
 20
0.272738551902381
 30
0.0
 11
111.104
 21
0.192999999999997
 31
0.0
  0
LINE
  5
65
330
1E
100
AcDbEntity
  8
0
100
AcDbLine
 10
114.375
 20
0.4759999999999971
 30
0.0
 11
115.471
 21
1.187
 31
0.0
  0
LINE
  5
66
330
1E
100
AcDbEntity
  8
0
100
AcDbLine
 10
114.375
 20
0.4759999999999971
 30
0.0
 11
115.471
 21
1.187
 31
0.0
  0
LINE
  5
67
330
1E
100
AcDbEntity
  8
0
100
AcDbLine
 10
110.471904301649
 20
0.272738551902381
 30
0.0
 11
111.104
 21
0.192999999999997
 31
0.0
  0
LINE
  5
68
330
1E
100
AcDbEntity
  8
0
100
AcDbLine
 10
114.375
 20
0.4759999999999971
 30
0.0
 11
115.471
 21
1.187
 31
0.0
  0
LINE
  5
69
330
1E
100
AcDbEntity
  8
0
100
AcDbLine
 10
78.9
 20
0.499999999999997
 30
0.0
 11
80.6
 21
0.4999999999999981
 31
0.0
  0
LINE
  5
6A
330
1E
100
AcDbEntity
  8
0
100
AcDbLine
 10
77.9
 20
0.499999999999997
 30
0.0
 11
78.9
 21
0.499999999999997
 31
0.0
  0
LINE
  5
6B
330
1E
100
AcDbEntity
  8
0
100
AcDbLine
 10
80.6
 20
0.4999999999999981
 30
0.0
 11
82.79999999999999
 21
0.4999999999999981
 31
0.0
  0
LINE
  5
6C
330
1E
100
AcDbEntity
  8
0
100
AcDbLine
 10
82.79999999999999
 20
0.4999999999999981
 30
0.0
 11
85.29999999999999
 21
0.4999999999999981
 31
0.0
  0
LINE
  5
6D
330
1E
100
AcDbEntity
  8
0
100
AcDbLine
 10
85.29999999999999
 20
0.4999999999999981
 30
0.0
 11
86.7911823647295
 21
0.4999999999999981
 31
0.0
  0
LINE
  5
6E
330
1E
100
AcDbEntity
  8
0
100
AcDbLine
 10
89.2088176352705
 20
0.4999999999999981
 30
0.0
 11
90.7
 21
0.4999999999999981
 31
0.0
  0
LINE
  5
6F
330
1E
100
AcDbEntity
  8
0
100
AcDbLine
 10
86.69999999999999
 20
0.5909999999999992
 30
0.0
 11
87.2
 21
0.0919999999999986
 31
0.0
  0
LINE
  5
71
330
1E
100
AcDbEntity
  8
0
100
AcDbLine
 10
86.69999999999999
 20
0.5909999999999992
 30
0.0
 11
87.2
 21
0.0919999999999986
 31
0.0
  0
LINE
  5
72
330
1E
100
AcDbEntity
  8
0
100
AcDbLine
 10
93.2
 20
0.4999999999999981
 30
0.0
 11
95.4
 21
0.4999999999999981
 31
0.0
  0
LINE
  5
73
330
1E
100
AcDbEntity
  8
0
100
AcDbLine
 10
90.7
 20
0.4999999999999981
 30
0.0
 11
93.2
 21
0.4999999999999981
 31
0.0
  0
LINE
  5
74
330
1E
100
AcDbEntity
  8
0
100
AcDbLine
 10
95.4
 20
0.4999999999999981
 30
0.0
 11
97.1
 21
0.499999999999997
 31
0.0
  0
LINE
  5
76
330
1E
100
AcDbEntity
  8
0
100
AcDbLine
 10
97.1
 20
0.499999999999997
 30
0.0
 11
98.1
 21
0.499999999999997
 31
0.0
  0
LINE
  5
77
330
1E
100
AcDbEntity
  8
0
100
AcDbLine
 10
98.1
 20
0.499999999999997
 30
0.0
 11
98.50000000000001
 21
0.499999999999997
 31
0.0
  0
LINE
  5
79
330
1E
100
AcDbEntity
  8
0
100
AcDbLine
 10
89.29999999999999
 20
0.5909999999999992
 30
0.0
 11
89.8
 21
3.051
 31
0.0
  0
LINE
  5
7A
330
1E
100
AcDbEntity
  8
0
100
AcDbLine
 10
98.50000000000001
 20
0.499999999999997
 30
0.0
 11
98.9223699672633
 21
1.767109901789889
 31
0.0
  0
LINE
  5
7D
330
1E
100
AcDbEntity
  8
0
100
AcDbLine
 10
87.2
 20
1.187
 30
0.0
 11
87.2
 21
1.955999999999999
 31
0.0
  0
LINE
  5
7E
330
1E
100
AcDbEntity
  8
0
100
AcDbLine
 10
87.2
 20
1.187
 30
0.0
 11
87.2
 21
0.475999999999999
 31
0.0
  0
LINE
  5
81
330
1E
100
AcDbEntity
  8
0
100
AcDbLine
 10
88.8
 20
1.187
 30
0.0
 11
88.8
 21
0.475999999999999
 31
0.0
  0
LINE
  5
82
330
1E
100
AcDbEntity
  8
0
100
AcDbLine
 10
88.8
 20
1.187
 30
0.0
 11
88.8
 21
1.955999999999999
 31
0.0
  0
LINE
  5
83
330
1E
100
AcDbEntity
  8
0
100
AcDbLine
 10
89.3751856100164
 20
0.8285921411301831
 30
0.0
 11
90.14639999999999
 21
1.217
 31
0.0
  0
LINE
  5
85
330
1E
100
AcDbEntity
  8
0
100
AcDbLine
 10
107.002
 20
0.6899999999999971
 30
0.0
 11
110.977
 21
0.211999999999997
 31
0.0
  0
LINE
  5
86
330
1E
100
AcDbEntity
  8
0
100
AcDbLine
 10
107.002
 20
0.6899999999999971
 30
0.0
 11
110.977
 21
0.211999999999997
 31
0.0
  0
LINE
  5
88
330
1E
100
AcDbEntity
  8
0
100
AcDbLine
 10
115.471
 20
1.187
 30
0.0
 11
116.125
 21
1.955999999999999
 31
0.0
  0
LINE
  5
8A
330
1E
100
AcDbEntity
  8
0
100
AcDbLine
 10
107.002
 20
0.6899999999999971
 30
0.0
 11
110.977
 21
0.211999999999997
 31
0.0
  0
LINE
  5
8B
330
1E
100
AcDbEntity
  8
0
100
AcDbLine
 10
77.5
 20
0.499999999999997
 30
0.0
 11
79.0
 21
-0.0000000000000029
 31
0.0
  0
LINE
  5
8C
330
1E
100
AcDbEntity
  8
0
100
AcDbLine
 10
77.5
 20
0.499999999999997
 30
0.0
 11
77.9
 21
0.499999999999997
 31
0.0
  0
LINE
  5
8D
330
1E
100
AcDbEntity
  8
0
100
AcDbLine
 10
77.5
 20
0.499999999999997
 30
0.0
 11
79.0
 21
-0.0000000000000029
 31
0.0
  0
LINE
  5
8E
330
1E
100
AcDbEntity
  8
0
100
AcDbLine
 10
72.5421
 20
1.217
 30
0.0
 11
75.29600000000001
 21
1.551999999999999
 31
0.0
  0
LINE
  5
8F
330
1E
100
AcDbEntity
  8
0
100
AcDbLine
 10
72.5421
 20
1.217
 30
0.0
 11
72.8618
 21
1.242999999999999
 31
0.0
  0
LINE
  5
90
330
1E
100
AcDbEntity
  8
0
100
AcDbLine
 10
103.458
 20
1.217
 30
0.0
 11
107.002
 21
0.6899999999999971
 31
0.0
  0
LINE
  5
91
330
1E
100
AcDbEntity
  8
0
100
AcDbLine
 10
85.85359999999999
 20
1.217
 30
0.0
 11
86.6248143899836
 21
0.8285921411301879
 31
0.0
  0
LINE
  5
92
330
1E
100
AcDbEntity
  8
0
100
AcDbLine
 10
90.14639999999999
 20
1.217
 30
0.0
 11
91.9902
 21
1.551999999999999
 31
0.0
  0
LINE
  5
93
330
1E
100
AcDbEntity
  8
0
100
AcDbLine
 10
103.1379999999999
 20
1.242999999999999
 30
0.0
 11
103.458
 21
1.217
 31
0.0
  0
LINE
  5
95
330
1E
100
AcDbEntity
  8
0
100
AcDbLine
 10
72.8618
 20
1.242999999999999
 30
0.0
 11
73.6138050184536
 21
1.347368270882009
 31
0.0
  0
LINE
  5
96
330
1E
100
AcDbEntity
  8
0
100
AcDbLine
 10
115.567
 20
1.283
 30
0.0
 11
115.7145234294429
 21
1.47334482758626
 31
0.0
  0
LINE
  5
97
330
1E
100
AcDbEntity
  8
0
100
AcDbLine
 10
103.1379999999999
 20
1.242999999999999
 30
0.0
 11
103.458
 21
1.217
 31
0.0
  0
LINE
  5
98
330
1E
100
AcDbEntity
  8
0
100
AcDbLine
 10
65.02290000000001
 20
0.211999999999997
 30
0.0
 11
68.998
 21
0.6899999999999971
 31
0.0
  0
LINE
  5
99
330
1E
100
AcDbEntity
  8
0
100
AcDbLine
 10
64.3399590037383
 20
0.168814607392417
 30
0.0
 11
64.8964
 21
0.192999999999997
 31
0.0
  0
LINE
  5
9A
330
1E
100
AcDbEntity
  8
0
100
AcDbLine
 10
62.7371189655172
 20
0.191355368518834
 30
0.0
 11
63.0098
 21
0.110999999999997
 31
0.0
  0
LINE
  5
9D
330
1E
100
AcDbEntity
  8
0
100
AcDbLine
 10
60.5
 20
60.5
 30
0.0
 11
63.3
 21
60.5
 31
0.0
  0
LINE
  5
9E
330
1E
100
AcDbEntity
  8
0
100
AcDbLine
 10
60.5
 20
35.5
 30
0.0
 11
62.0
 21
35.0
 31
0.0
  0
LINE
  5
9F
330
1E
100
AcDbEntity
  8
0
100
AcDbLine
 10
60.5
 20
35.5
 30
0.0
 11
61.5
 21
35.5
 31
0.0
  0
LINE
  5
A0
330
1E
100
AcDbEntity
  8
0
100
AcDbLine
 10
60.5292
 20
10.81299999999999
 30
0.0
 11
61.6253
 21
11.524
 31
0.0
  0
LINE
  5
A1
330
1E
100
AcDbEntity
  8
0
100
AcDbLine
 10
60.2823605258354
 20
10.5226672443674
 30
0.0
 11
60.433
 21
10.717
 31
0.0
  0
LINE
  5
A2
330
1E
100
AcDbEntity
  8
0
100
AcDbLine
 10
75.29600000000001
 20
1.551999999999999
 30
0.0
 11
77.57769999999999
 21
1.857
 31
0.0
  0
LINE
  5
A3
330
1E
100
AcDbEntity
  8
0
100
AcDbLine
 10
75.29600000000001
 20
10.448
 30
0.0
 11
77.57769999999999
 21
10.14299999999999
 31
0.0
  0
LINE
  5
A5
330
1E
100
AcDbEntity
  8
0
100
AcDbLine
 10
61.5
 20
35.5
 30
0.0
 11
64.2
 21
35.5
 31
0.0
  0
LINE
  5
A6
330
1E
100
AcDbEntity
  8
0
100
AcDbLine
 10
62.0
 20
66.0
 30
0.0
 11
64.59999999999999
 21
66.0
 31
0.0
  0
LINE
  5
A7
330
1E
100
AcDbEntity
  8
0
100
AcDbLine
 10
61.0
 20
66.0
 30
0.0
 11
62.0
 21
66.0
 31
0.0
  0
LINE
  5
A8
330
1E
100
AcDbEntity
  8
0
100
AcDbLine
 10
62.5
 20
61.0
 30
0.0
 11
67.2
 21
61.0
 31
0.0
  0
LINE
  5
A9
330
1E
100
AcDbEntity
  8
0
100
AcDbLine
 10
62.0
 20
35.0
 30
0.0
 11
62.9
 21
35.0
 31
0.0
  0
LINE
  5
AA
330
1E
100
AcDbEntity
  8
0
100
AcDbLine
 10
61.6253
 20
11.524
 30
0.0
 11
63.1252
 21
11.908
 31
0.0
  0
LINE
  5
AB
330
1E
100
AcDbEntity
  8
0
100
AcDbLine
 10
72.5421
 20
10.783
 30
0.0
 11
75.29600000000001
 21
10.448
 31
0.0
  0
LINE
  5
AC
330
1E
100
AcDbEntity
  8
0
100
AcDbLine
 10
72.5421
 20
10.783
 30
0.0
 11
72.8618
 21
10.757
 31
0.0
  0
LINE
  5
AD
330
1E
100
AcDbEntity
  8
0
100
AcDbLine
 10
68.998
 20
11.31
 30
0.0
 11
72.5421
 21
10.783
 31
0.0
  0
LINE
  5
AE
330
1E
100
AcDbEntity
  8
0
100
AcDbLine
 10
65.02290000000001
 20
11.788
 30
0.0
 11
68.998
 21
11.31
 31
0.0
  0
LINE
  5
AF
330
1E
100
AcDbEntity
  8
0
100
AcDbLine
 10
72.8618
 20
10.757
 30
0.0
 11
73.61380501845371
 21
10.652631729118
 31
0.0
  0
LINE
  5
B0
330
1E
100
AcDbEntity
  8
0
100
AcDbLine
 10
64.8964
 20
11.807
 30
0.0
 11
65.53616787049278
 21
11.7262802842455
 31
0.0
  0
LINE
  5
B1
330
1E
100
AcDbEntity
  8
0
100
AcDbLine
 10
62.9
 20
35.0
 30
0.0
 11
65.5
 21
35.0
 31
0.0
  0
LINE
  5
B2
330
1E
100
AcDbEntity
  8
0
100
AcDbLine
 10
68.7
 20
33.5
 30
0.0
 11
70.7
 21
33.5
 31
0.0
  0
LINE
  5
B3
330
1E
100
AcDbEntity
  8
0
100
AcDbLine
 10
74.90000000000001
 20
33.0
 30
0.0
 11
78.79999999999999
 21
33.0
 31
0.0
  0
LINE
  5
B4
330
1E
100
AcDbEntity
  8
0
100
AcDbLine
 10
72.0
 20
33.0
 30
0.0
 11
74.90000000000001
 21
33.0
 31
0.0
  0
LINE
  5
B5
330
1E
100
AcDbEntity
  8
0
100
AcDbLine
 10
73.9
 20
33.5
 30
0.0
 11
78.09999999999999
 21
33.5
 31
0.0
  0
LINE
  5
B6
330
1E
100
AcDbEntity
  8
0
100
AcDbLine
 10
70.7
 20
33.5
 30
0.0
 11
73.9
 21
33.5
 31
0.0
  0
LINE
  5
B7
330
1E
100
AcDbEntity
  8
0
100
AcDbLine
 10
70.2
 20
33.0
 30
0.0
 11
72.0
 21
33.0
 31
0.0
  0
LINE
  5
B8
330
1E
100
AcDbEntity
  8
0
100
AcDbLine
 10
69.5
 20
33.0
 30
0.0
 11
70.2
 21
33.0
 31
0.0
  0
LINE
  5
B9
330
1E
100
AcDbEntity
  8
0
100
AcDbLine
 10
73.5
 20
35.0
 30
0.0
 11
77.8
 21
35.0
 31
0.0
  0
LINE
  5
BA
330
1E
100
AcDbEntity
  8
0
100
AcDbLine
 10
70.2
 20
35.0
 30
0.0
 11
73.5
 21
35.0
 31
0.0
  0
LINE
  5
BB
330
1E
100
AcDbEntity
  8
0
100
AcDbLine
 10
68.2
 20
35.0
 30
0.0
 11
70.2
 21
35.0
 31
0.0
  0
LINE
  5
BC
330
1E
100
AcDbEntity
  8
0
100
AcDbLine
 10
68.0
 20
33.5
 30
0.0
 11
69.5
 21
33.0
 31
0.0
  0
LINE
  5
BD
330
1E
100
AcDbEntity
  8
0
100
AcDbLine
 10
68.0
 20
33.5
 30
0.0
 11
68.7
 21
33.5
 31
0.0
  0
LINE
  5
BE
330
1E
100
AcDbEntity
  8
0
100
AcDbLine
 10
67.5
 20
35.0
 30
0.0
 11
68.0
 21
33.5
 31
0.0
  0
LINE
  5
BF
330
1E
100
AcDbEntity
  8
0
100
AcDbLine
 10
67.5
 20
35.0
 30
0.0
 11
68.2
 21
35.0
 31
0.0
  0
LINE
  5
C0
330
1E
100
AcDbEntity
  8
0
100
AcDbLine
 10
64.2
 20
35.5
 30
0.0
 11
68.59999999999999
 21
35.5
 31
0.0
  0
LINE
  5
C1
330
1E
100
AcDbEntity
  8
0
100
AcDbLine
 10
63.3
 20
60.5
 30
0.0
 11
67.9
 21
60.5
 31
0.0
  0
LINE
  5
C2
330
1E
100
AcDbEntity
  8
0
100
AcDbLine
 10
68.59999999999999
 20
35.5
 30
0.0
 11
74.29999999999999
 21
35.5
 31
0.0
  0
LINE
  5
C3
330
1E
100
AcDbEntity
  8
0
100
AcDbLine
 10
67.9
 20
60.5
 30
0.0
 11
73.79999999999999
 21
60.5
 31
0.0
  0
LINE
  5
C4
330
1E
100
AcDbEntity
  8
0
100
AcDbLine
 10
64.59999999999999
 20
66.0
 30
0.0
 11
69.0
 21
66.0
 31
0.0
  0
LINE
  5
C5
330
1E
100
AcDbEntity
  8
0
100
AcDbLine
 10
67.0
 20
66.0
 30
0.0
 11
67.0
 21
71.5691056910569
 31
0.0
  0
LINE
  5
C6
330
1E
100
AcDbEntity
  8
0
100
AcDbLine
 10
67.2
 20
61.0
 30
0.0
 11
73.3
 21
61.0
 31
0.0
  0
LINE
  5
C7
330
1E
100
AcDbEntity
  8
0
100
AcDbLine
 10
74.29999999999999
 20
35.5
 30
0.0
 11
80.90000000000001
 21
35.5
 31
0.0
  0
LINE
  5
C8
330
1E
100
AcDbEntity
  8
0
100
AcDbLine
 10
73.79999999999999
 20
60.5
 30
0.0
 11
80.7
 21
60.5
 31
0.0
  0
LINE
  5
C9
330
1E
100
AcDbEntity
  8
0
100
AcDbLine
 10
73.3
 20
61.0
 30
0.0
 11
80.4
 21
61.0
 31
0.0
  0
LINE
  5
CA
330
1E
100
AcDbEntity
  8
0
100
AcDbLine
 10
69.0
 20
66.0
 30
0.0
 11
74.59999999999999
 21
66.0
 31
0.0
  0
LINE
  5
CB
330
1E
100
AcDbEntity
  8
0
100
AcDbLine
 10
74.59999999999999
 20
66.0
 30
0.0
 11
81.09999999999999
 21
66.0
 31
0.0
  0
LINE
  5
CC
330
1E
100
AcDbEntity
  8
0
100
AcDbLine
 10
65.5
 20
35.0
 30
0.0
 11
67.5
 21
35.0
 31
0.0
  0
LINE
  5
CD
330
1E
100
AcDbEntity
  8
0
100
AcDbLine
 10
63.1252
 20
11.908
 30
0.0
 11
65.02290000000001
 21
11.788
 31
0.0
  0
LINE
  5
CE
330
1E
100
AcDbEntity
  8
0
100
AcDbLine
 10
64.3399590037382
 20
11.8311853926076
 30
0.0
 11
64.8964
 21
11.807
 31
0.0
  0
LINE
  5
CF
330
1E
100
AcDbEntity
  8
0
100
AcDbLine
 10
62.73711896551709
 20
11.80864463148109
 30
0.0
 11
63.0098
 21
11.889
 31
0.0
  0
LINE
  5
D0
330
1E
100
AcDbEntity
  8
0
100
AcDbLine
 10
73.61380501845371
 20
10.652631729118
 30
0.0
 11
75.29600000000001
 21
10.448
 31
0.0
  0
LINE
  5
D3
330
1E
100
AcDbEntity
  8
0
100
AcDbLine
 10
91.9902
 20
1.551999999999999
 30
0.0
 11
94.0
 21
1.857
 31
0.0
  0
LINE
  5
D4
330
1E
100
AcDbEntity
  8
0
100
AcDbLine
 10
100.7039999999999
 20
1.551999999999999
 30
0.0
 11
103.458
 21
1.217
 31
0.0
  0
LINE
  5
D7
330
1E
100
AcDbEntity
  8
0
100
AcDbLine
 10
77.57769999999999
 20
1.857
 30
0.0
 11
79.5
 21
2.0
 31
0.0
  0
LINE
  5
D8
330
1E
100
AcDbEntity
  8
0
100
AcDbLine
 10
82.0
 20
1.857
 30
0.0
 11
84.0098
 21
1.551999999999999
 31
0.0
  0
LINE
  5
D9
330
1E
100
AcDbEntity
  8
0
100
AcDbLine
 10
87.2
 20
1.955999999999999
 30
0.0
 11
87.2
 21
3.071
 31
0.0
  0
LINE
  5
DA
330
1E
100
AcDbEntity
  8
0
100
AcDbLine
 10
87.2
 20
1.955999999999999
 30
0.0
 11
87.2
 21
1.187
 31
0.0
  0
LINE
  5
DB
330
1E
100
AcDbEntity
  8
0
100
AcDbLine
 10
79.5
 20
2.0
 30
0.0
 11
82.0
 21
1.857
 31
0.0
  0
LINE
  5
DC
330
1E
100
AcDbEntity
  8
0
100
AcDbLine
 10
86.2
 20
3.051
 30
0.0
 11
86.69999999999999
 21
0.5909999999999992
 31
0.0
  0
LINE
  5
DE
330
1E
100
AcDbEntity
  8
0
100
AcDbLine
 10
87.2
 20
3.071
 30
0.0
 11
87.2
 21
6.0
 31
0.0
  0
LINE
  5
DF
330
1E
100
AcDbEntity
  8
0
100
AcDbLine
 10
87.2
 20
3.071
 30
0.0
 11
87.2
 21
1.955999999999999
 31
0.0
  0
LINE
  5
E0
330
1E
100
AcDbEntity
  8
0
100
AcDbLine
 10
88.8
 20
1.955999999999999
 30
0.0
 11
88.8
 21
1.187
 31
0.0
  0
LINE
  5
E1
330
1E
100
AcDbEntity
  8
0
100
AcDbLine
 10
88.8
 20
1.955999999999999
 30
0.0
 11
88.8
 21
3.071
 31
0.0
  0
LINE
  5
E2
330
1E
100
AcDbEntity
  8
0
100
AcDbLine
 10
96.5
 20
2.0
 30
0.0
 11
98.4223
 21
1.857
 31
0.0
  0
LINE
  5
E3
330
1E
100
AcDbEntity
  8
0
100
AcDbLine
 10
94.0
 20
1.857
 30
0.0
 11
96.5
 21
2.0
 31
0.0
  0
LINE
  5
E4
330
1E
100
AcDbEntity
  8
0
100
AcDbLine
 10
98.4223
 20
1.857
 30
0.0
 11
100.7039999999999
 21
1.551999999999999
 31
0.0
  0
LINE
  5
E5
330
1E
100
AcDbEntity
  8
0
100
AcDbLine
 10
89.8
 20
3.051
 30
0.0
 11
90.0
 21
6.0
 31
0.0
  0
LINE
  5
E7
330
1E
100
AcDbEntity
  8
0
100
AcDbLine
 10
88.8
 20
3.071
 30
0.0
 11
88.8
 21
1.955999999999999
 31
0.0
  0
LINE
  5
E8
330
1E
100
AcDbEntity
  8
0
100
AcDbLine
 10
88.8
 20
3.071
 30
0.0
 11
88.8
 21
6.0
 31
0.0
  0
LINE
  5
E9
330
1E
100
AcDbEntity
  8
0
100
AcDbLine
 10
84.0098
 20
1.551999999999999
 30
0.0
 11
85.85359999999999
 21
1.217
 31
0.0
  0
LINE
  5
EB
330
1E
100
AcDbEntity
  8
0
100
AcDbLine
 10
116.125
 20
1.955999999999999
 30
0.0
 11
116.6439999999999
 21
3.071
 31
0.0
  0
LINE
  5
EC
330
1E
100
AcDbEntity
  8
0
100
AcDbLine
 10
116.6439999999999
 20
3.071
 30
0.0
 11
117.0
 21
6.0
 31
0.0
  0
LINE
  5
ED
330
1E
100
AcDbEntity
  8
0
100
AcDbLine
 10
100.7039999999999
 20
1.551999999999999
 30
0.0
 11
102.3847837928039
 21
1.347547359989319
 31
0.0
  0
LINE
  5
EE
330
1E
100
AcDbEntity
  8
0
100
AcDbLine
 10
86.0
 20
6.0
 30
0.0
 11
86.2
 21
3.051
 31
0.0
  0
LINE
  5
EF
330
1E
100
AcDbEntity
  8
0
100
AcDbLine
 10
86.0
 20
6.0
 30
0.0
 11
86.2
 21
8.948999999999999
 31
0.0
  0
LINE
  5
F0
330
1E
100
AcDbEntity
  8
0
100
AcDbLine
 10
87.2
 20
6.0
 30
0.0
 11
87.2
 21
3.071
 31
0.0
  0
LINE
  5
F1
330
1E
100
AcDbEntity
  8
0
100
AcDbLine
 10
87.2
 20
6.0
 30
0.0
 11
87.2
 21
8.929
 31
0.0
  0
LINE
  5
F2
330
1E
100
AcDbEntity
  8
0
100
AcDbLine
 10
88.8
 20
6.0
 30
0.0
 11
88.8
 21
8.929
 31
0.0
  0
LINE
  5
F3
330
1E
100
AcDbEntity
  8
0
100
AcDbLine
 10
88.8
 20
6.0
 30
0.0
 11
88.8
 21
3.071
 31
0.0
  0
LINE
  5
F4
330
1E
100
AcDbEntity
  8
0
100
AcDbLine
 10
77.57769999999999
 20
10.14299999999999
 30
0.0
 11
79.5
 21
10.0
 31
0.0
  0
LINE
  5
F5
330
1E
100
AcDbEntity
  8
0
100
AcDbLine
 10
79.5
 20
10.0
 30
0.0
 11
82.0
 21
10.14299999999999
 31
0.0
  0
LINE
  5
F6
330
1E
100
AcDbEntity
  8
0
100
AcDbLine
 10
77.5335354046947
 20
10.1778451348982
 30
0.0
 11
80.0
 21
11.0
 31
0.0
  0
LINE
  5
F7
330
1E
100
AcDbEntity
  8
0
100
AcDbLine
 10
82.0
 20
10.14299999999999
 30
0.0
 11
84.0098
 21
10.448
 31
0.0
  0
LINE
  5
F8
330
1E
100
AcDbEntity
  8
0
100
AcDbLine
 10
87.2
 20
8.929
 30
0.0
 11
87.2
 21
10.044
 31
0.0
  0
LINE
  5
F9
330
1E
100
AcDbEntity
  8
0
100
AcDbLine
 10
87.2
 20
8.929
 30
0.0
 11
87.2
 21
6.0
 31
0.0
  0
LINE
  5
FA
330
1E
100
AcDbEntity
  8
0
100
AcDbLine
 10
86.2
 20
8.948999999999999
 30
0.0
 11
86.69999999999999
 21
11.409
 31
0.0
  0
LINE
  5
FE
330
1E
100
AcDbEntity
  8
0
100
AcDbLine
 10
87.2
 20
10.044
 30
0.0
 11
87.2
 21
10.81299999999999
 31
0.0
  0
LINE
  5
FF
330
1E
100
AcDbEntity
  8
0
100
AcDbLine
 10
87.2
 20
10.044
 30
0.0
 11
87.2
 21
8.929
 31
0.0
  0
LINE
  5
103
330
1E
100
AcDbEntity
  8
0
100
AcDbLine
 10
88.8
 20
10.044
 30
0.0
 11
88.8
 21
8.929
 31
0.0
  0
LINE
  5
104
330
1E
100
AcDbEntity
  8
0
100
AcDbLine
 10
88.8
 20
10.044
 30
0.0
 11
88.8
 21
10.81299999999999
 31
0.0
  0
LINE
  5
105
330
1E
100
AcDbEntity
  8
0
100
AcDbLine
 10
88.8
 20
8.929
 30
0.0
 11
88.8
 21
6.0
 31
0.0
  0
LINE
  5
106
330
1E
100
AcDbEntity
  8
0
100
AcDbLine
 10
88.8
 20
8.929
 30
0.0
 11
88.8
 21
10.044
 31
0.0
  0
LINE
  5
107
330
1E
100
AcDbEntity
  8
0
100
AcDbLine
 10
84.0098
 20
10.448
 30
0.0
 11
85.85359999999999
 21
10.783
 31
0.0
  0
LINE
  5
108
330
1E
100
AcDbEntity
  8
0
100
AcDbLine
 10
81.09999999999999
 20
11.0
 30
0.0
 11
82.4
 21
11.0
 31
0.0
  0
LINE
  5
109
330
1E
100
AcDbEntity
  8
0
100
AcDbLine
 10
80.29999999999999
 20
11.0
 30
0.0
 11
81.09999999999999
 21
11.0
 31
0.0
  0
LINE
  5
10A
330
1E
100
AcDbEntity
  8
0
100
AcDbLine
 10
82.4
 20
11.0
 30
0.0
 11
84.0
 21
11.0
 31
0.0
  0
LINE
  5
10B
330
1E
100
AcDbEntity
  8
0
100
AcDbLine
 10
84.0
 20
11.0
 30
0.0
 11
85.90000000000001
 21
11.0
 31
0.0
  0
LINE
  5
10C
330
1E
100
AcDbEntity
  8
0
100
AcDbLine
 10
80.0
 20
11.0
 30
0.0
 11
81.5
 21
13.0
 31
0.0
  0
LINE
  5
10D
330
1E
100
AcDbEntity
  8
0
100
AcDbLine
 10
80.0
 20
11.0
 30
0.0
 11
80.29999999999999
 21
11.0
 31
0.0
  0
LINE
  5
10E
330
1E
100
AcDbEntity
  8
0
100
AcDbLine
 10
87.2
 20
10.81299999999999
 30
0.0
 11
87.2
 21
11.524
 31
0.0
  0
LINE
  5
10F
330
1E
100
AcDbEntity
  8
0
100
AcDbLine
 10
87.2
 20
10.81299999999999
 30
0.0
 11
87.2
 21
10.044
 31
0.0
  0
LINE
  5
110
330
1E
100
AcDbEntity
  8
0
100
AcDbLine
 10
85.90000000000001
 20
11.0
 30
0.0
 11
86.2844705882353
 21
11.0
 31
0.0
  0
LINE
  5
115
330
1E
100
AcDbEntity
  8
0
100
AcDbLine
 10
88.8
 20
10.81299999999999
 30
0.0
 11
88.8
 21
10.044
 31
0.0
  0
LINE
  5
116
330
1E
100
AcDbEntity
  8
0
100
AcDbLine
 10
88.8
 20
10.81299999999999
 30
0.0
 11
88.8
 21
11.524
 31
0.0
  0
LINE
  5
117
330
1E
100
AcDbEntity
  8
0
100
AcDbLine
 10
85.85359999999999
 20
10.783
 30
0.0
 11
86.6248143899836
 21
11.1714078588698
 31
0.0
  0
LINE
  5
119
330
1E
100
AcDbEntity
  8
0
100
AcDbLine
 10
89.71552941176469
 20
11.0
 30
0.0
 11
90.09999999999999
 21
11.0
 31
0.0
  0
LINE
  5
11A
330
1E
100
AcDbEntity
  8
0
100
AcDbLine
 10
90.09999999999999
 20
11.0
 30
0.0
 11
92.0
 21
11.0
 31
0.0
  0
LINE
  5
11B
330
1E
100
AcDbEntity
  8
0
100
AcDbLine
 10
89.8
 20
8.948999999999999
 30
0.0
 11
90.0
 21
6.0
 31
0.0
  0
LINE
  5
11C
330
1E
100
AcDbEntity
  8
0
100
AcDbLine
 10
89.3751856100164
 20
11.1714078588698
 30
0.0
 11
90.14639999999999
 21
10.783
 31
0.0
  0
LINE
  5
11D
330
1E
100
AcDbEntity
  8
0
100
AcDbLine
 10
94.0
 20
10.14299999999999
 30
0.0
 11
96.5
 21
10.0
 31
0.0
  0
LINE
  5
11E
330
1E
100
AcDbEntity
  8
0
100
AcDbLine
 10
96.5
 20
10.0
 30
0.0
 11
98.4223
 21
10.14299999999999
 31
0.0
  0
LINE
  5
11F
330
1E
100
AcDbEntity
  8
0
100
AcDbLine
 10
98.4223
 20
10.14299999999999
 30
0.0
 11
100.7039999999999
 21
10.448
 31
0.0
  0
LINE
  5
120
330
1E
100
AcDbEntity
  8
0
100
AcDbLine
 10
93.59999999999999
 20
11.0
 30
0.0
 11
94.9
 21
11.0
 31
0.0
  0
LINE
  5
121
330
1E
100
AcDbEntity
  8
0
100
AcDbLine
 10
94.9
 20
11.0
 30
0.0
 11
95.7
 21
11.0
 31
0.0
  0
LINE
  5
122
330
1E
100
AcDbEntity
  8
0
100
AcDbLine
 10
95.7
 20
11.0
 30
0.0
 11
96.0
 21
11.0
 31
0.0
  0
LINE
  5
123
330
1E
100
AcDbEntity
  8
0
100
AcDbLine
 10
92.0
 20
11.0
 30
0.0
 11
93.59999999999999
 21
11.0
 31
0.0
  0
LINE
  5
124
330
1E
100
AcDbEntity
  8
0
100
AcDbLine
 10
96.0
 20
11.0
 30
0.0
 11
98.4664645953053
 21
10.1778451348982
 31
0.0
  0
LINE
  5
125
330
1E
100
AcDbEntity
  8
0
100
AcDbLine
 10
91.9902
 20
10.448
 30
0.0
 11
94.0
 21
10.14299999999999
 31
0.0
  0
LINE
  5
126
330
1E
100
AcDbEntity
  8
0
100
AcDbLine
 10
90.14639999999999
 20
10.783
 30
0.0
 11
91.9902
 21
10.448
 31
0.0
  0
LINE
  5
127
330
1E
100
AcDbEntity
  8
0
100
AcDbLine
 10
89.3751856100164
 20
11.1714078588698
 30
0.0
 11
90.14639999999999
 21
10.783
 31
0.0
  0
LINE
  5
129
330
1E
100
AcDbEntity
  8
0
100
AcDbLine
 10
103.1379999999999
 20
10.757
 30
0.0
 11
103.458
 21
10.783
 31
0.0
  0
LINE
  5
12A
330
1E
100
AcDbEntity
  8
0
100
AcDbLine
 10
103.458
 20
10.783
 30
0.0
 11
107.002
 21
11.31
 31
0.0
  0
LINE
  5
12B
330
1E
100
AcDbEntity
  8
0
100
AcDbLine
 10
100.7039999999999
 20
10.448
 30
0.0
 11
102.3847837928039
 21
10.65245264001069
 31
0.0
  0
LINE
  5
12C
330
1E
100
AcDbEntity
  8
0
100
AcDbLine
 10
100.7039999999999
 20
10.448
 30
0.0
 11
103.458
 21
10.783
 31
0.0
  0
LINE
  5
12D
330
1E
100
AcDbEntity
  8
0
100
AcDbLine
 10
86.69999999999999
 20
11.409
 30
0.0
 11
87.2
 21
11.908
 31
0.0
  0
LINE
  5
12F
330
1E
100
AcDbEntity
  8
0
100
AcDbLine
 10
87.2
 20
11.524
 30
0.0
 11
87.2
 21
11.908
 31
0.0
  0
LINE
  5
130
330
1E
100
AcDbEntity
  8
0
100
AcDbLine
 10
87.2
 20
11.524
 30
0.0
 11
87.2
 21
10.81299999999999
 31
0.0
  0
LINE
  5
131
330
1E
100
AcDbEntity
  8
0
100
AcDbLine
 10
87.2
 20
11.908
 30
0.0
 11
88.0
 21
11.889
 31
0.0
  0
LINE
  5
132
330
1E
100
AcDbEntity
  8
0
100
AcDbLine
 10
87.2
 20
11.908
 30
0.0
 11
87.2
 21
11.524
 31
0.0
  0
LINE
  5
133
330
1E
100
AcDbEntity
  8
0
100
AcDbLine
 10
88.0
 20
11.889
 30
0.0
 11
88.8
 21
11.908
 31
0.0
  0
LINE
  5
134
330
1E
100
AcDbEntity
  8
0
100
AcDbLine
 10
80.48
 20
18.0
 30
0.0
 11
81.248
 21
18.0
 31
0.0
  0
LINE
  5
135
330
1E
100
AcDbEntity
  8
0
100
AcDbLine
 10
81.248
 20
18.0
 30
0.0
 11
81.5
 21
18.0
 31
0.0
  0
LINE
  5
136
330
1E
100
AcDbEntity
  8
0
100
AcDbLine
 10
80.19199999999999
 20
18.0
 30
0.0
 11
80.48
 21
18.0
 31
0.0
  0
LINE
  5
137
330
1E
100
AcDbEntity
  8
0
100
AcDbLine
 10
80.19199999999999
 20
18.0
 30
0.0
 11
80.48
 21
18.0
 31
0.0
  0
LINE
  5
138
330
1E
100
AcDbEntity
  8
0
100
AcDbLine
 10
80.48
 20
18.0
 30
0.0
 11
81.248
 21
18.0
 31
0.0
  0
LINE
  5
139
330
1E
100
AcDbEntity
  8
0
100
AcDbLine
 10
81.248
 20
18.0
 30
0.0
 11
82.496
 21
18.0
 31
0.0
  0
LINE
  5
13A
330
1E
100
AcDbEntity
  8
0
100
AcDbLine
 10
78.79999999999999
 20
33.0
 30
0.0
 11
80.0
 21
33.0
 31
0.0
  0
LINE
  5
13B
330
1E
100
AcDbEntity
  8
0
100
AcDbLine
 10
80.0
 20
33.0
 30
0.0
 11
80.288
 21
33.0
 31
0.0
  0
LINE
  5
13C
330
1E
100
AcDbEntity
  8
0
100
AcDbLine
 10
80.0
 20
33.0
 30
0.0
 11
80.0
 21
18.3333
 31
0.0
  0
LINE
  5
13D
330
1E
100
AcDbEntity
  8
0
100
AcDbLine
 10
80.0
 20
18.3333
 30
0.0
 11
80.0
 21
33.0
 31
0.0
  0
LINE
  5
13E
330
1E
100
AcDbEntity
  8
0
100
AcDbLine
 10
80.0
 20
18.3333
 30
0.0
 11
80.19199999999999
 21
18.0
 31
0.0
  0
LINE
  5
13F
330
1E
100
AcDbEntity
  8
0
100
AcDbLine
 10
78.09999999999999
 20
33.5
 30
0.0
 11
82.9
 21
33.5
 31
0.0
  0
LINE
  5
140
330
1E
100
AcDbEntity
  8
0
100
AcDbLine
 10
77.8
 20
35.0
 30
0.0
 11
82.70000000000001
 21
35.0
 31
0.0
  0
LINE
  5
141
330
1E
100
AcDbEntity
  8
0
100
AcDbLine
 10
80.90000000000001
 20
35.5
 30
0.0
 11
88.0
 21
35.5
 31
0.0
  0
LINE
  5
142
330
1E
100
AcDbEntity
  8
0
100
AcDbLine
 10
80.7
 20
60.5
 30
0.0
 11
88.0
 21
60.5
 31
0.0
  0
LINE
  5
143
330
1E
100
AcDbEntity
  8
0
100
AcDbLine
 10
80.4
 20
61.0
 30
0.0
 11
88.0
 21
61.0
 31
0.0
  0
LINE
  5
144
330
1E
100
AcDbEntity
  8
0
100
AcDbLine
 10
80.288
 20
33.0
 30
0.0
 11
81.056
 21
33.0
 31
0.0
  0
LINE
  5
145
330
1E
100
AcDbEntity
  8
0
100
AcDbLine
 10
81.09999999999999
 20
66.0
 30
0.0
 11
88.0
 21
66.0
 31
0.0
  0
LINE
  5
146
330
1E
100
AcDbEntity
  8
0
100
AcDbLine
 10
81.056
 20
33.0
 30
0.0
 11
82.336
 21
33.0
 31
0.0
  0
LINE
  5
147
330
1E
100
AcDbEntity
  8
0
100
AcDbLine
 10
81.5
 20
18.0
 30
0.0
 11
81.5
 21
13.0
 31
0.0
  0
LINE
  5
148
330
1E
100
AcDbEntity
  8
0
100
AcDbLine
 10
81.5
 20
18.0
 30
0.0
 11
81.69999999999999
 21
18.0
 31
0.0
  0
LINE
  5
149
330
1E
100
AcDbEntity
  8
0
100
AcDbLine
 10
82.4
 20
13.0
 30
0.0
 11
83.40000000000001
 21
13.0
 31
0.0
  0
LINE
  5
14A
330
1E
100
AcDbEntity
  8
0
100
AcDbLine
 10
81.69999999999999
 20
13.0
 30
0.0
 11
82.4
 21
13.0
 31
0.0
  0
LINE
  5
14B
330
1E
100
AcDbEntity
  8
0
100
AcDbLine
 10
83.40000000000001
 20
13.0
 30
0.0
 11
84.8
 21
13.0
 31
0.0
  0
LINE
  5
14C
330
1E
100
AcDbEntity
  8
0
100
AcDbLine
 10
84.8
 20
13.0
 30
0.0
 11
86.3
 21
13.0
 31
0.0
  0
LINE
  5
14D
330
1E
100
AcDbEntity
  8
0
100
AcDbLine
 10
86.3
 20
13.0
 30
0.0
 11
88.0
 21
13.0
 31
0.0
  0
LINE
  5
14E
330
1E
100
AcDbEntity
  8
0
100
AcDbLine
 10
88.0
 20
13.0
 30
0.0
 11
89.7
 21
13.0
 31
0.0
  0
LINE
  5
14F
330
1E
100
AcDbEntity
  8
0
100
AcDbLine
 10
82.496
 20
18.0
 30
0.0
 11
84.12799999999998
 21
18.0
 31
0.0
  0
LINE
  5
150
330
1E
100
AcDbEntity
  8
0
100
AcDbLine
 10
84.12799999999998
 20
18.0
 30
0.0
 11
85.98399999999999
 21
18.0
 31
0.0
  0
LINE
  5
151
330
1E
100
AcDbEntity
  8
0
100
AcDbLine
 10
82.4
 20
18.0
 30
0.0
 11
83.40000000000001
 21
18.0
 31
0.0
  0
LINE
  5
152
330
1E
100
AcDbEntity
  8
0
100
AcDbLine
 10
81.69999999999999
 20
18.0
 30
0.0
 11
82.4
 21
18.0
 31
0.0
  0
LINE
  5
153
330
1E
100
AcDbEntity
  8
0
100
AcDbLine
 10
83.40000000000001
 20
18.0
 30
0.0
 11
84.8
 21
18.0
 31
0.0
  0
LINE
  5
154
330
1E
100
AcDbEntity
  8
0
100
AcDbLine
 10
85.98399999999999
 20
18.0
 30
0.0
 11
88.0
 21
18.0
 31
0.0
  0
LINE
  5
155
330
1E
100
AcDbEntity
  8
0
100
AcDbLine
 10
84.8
 20
18.0
 30
0.0
 11
86.3
 21
18.0
 31
0.0
  0
LINE
  5
156
330
1E
100
AcDbEntity
  8
0
100
AcDbLine
 10
82.336
 20
33.0
 30
0.0
 11
84.03200000000001
 21
33.0
 31
0.0
  0
LINE
  5
157
330
1E
100
AcDbEntity
  8
0
100
AcDbLine
 10
84.03200000000001
 20
33.0
 30
0.0
 11
85.95200000000001
 21
33.0
 31
0.0
  0
LINE
  5
158
330
1E
100
AcDbEntity
  8
0
100
AcDbLine
 10
82.9
 20
33.5
 30
0.0
 11
88.0
 21
33.5
 31
0.0
  0
LINE
  5
159
330
1E
100
AcDbEntity
  8
0
100
AcDbLine
 10
82.70000000000001
 20
35.0
 30
0.0
 11
88.0
 21
35.0
 31
0.0
  0
LINE
  5
15A
330
1E
100
AcDbEntity
  8
0
100
AcDbLine
 10
88.0
 20
35.0
 30
0.0
 11
93.3
 21
35.0
 31
0.0
  0
LINE
  5
15B
330
1E
100
AcDbEntity
  8
0
100
AcDbLine
 10
88.0
 20
33.5
 30
0.0
 11
93.1
 21
33.5
 31
0.0
  0
LINE
  5
15C
330
1E
100
AcDbEntity
  8
0
100
AcDbLine
 10
88.0
 20
45.096
 30
0.0
 11
89.008
 21
45.24
 31
0.0
  0
LINE
  5
15D
330
1E
100
AcDbEntity
  8
0
100
AcDbLine
 10
86.99200000000001
 20
45.24
 30
0.0
 11
88.0
 21
45.096
 31
0.0
  0
LINE
  5
15E
330
1E
100
AcDbEntity
  8
0
100
AcDbLine
 10
86.06399999999998
 20
45.62399999999999
 30
0.0
 11
86.99200000000001
 21
45.24
 31
0.0
  0
LINE
  5
15F
330
1E
100
AcDbEntity
  8
0
100
AcDbLine
 10
85.24799999999999
 20
46.248
 30
0.0
 11
86.06399999999998
 21
45.62399999999999
 31
0.0
  0
LINE
  5
160
330
1E
100
AcDbEntity
  8
0
100
AcDbLine
 10
84.624
 20
47.06399999999999
 30
0.0
 11
85.24799999999999
 21
46.248
 31
0.0
  0
LINE
  5
161
330
1E
100
AcDbEntity
  8
0
100
AcDbLine
 10
84.23999999999999
 20
50.008
 30
0.0
 11
84.624
 21
50.93600000000001
 31
0.0
  0
LINE
  5
162
330
1E
100
AcDbEntity
  8
0
100
AcDbLine
 10
85.24799999999999
 20
51.752
 30
0.0
 11
86.06399999999998
 21
52.376
 31
0.0
  0
LINE
  5
163
330
1E
100
AcDbEntity
  8
0
100
AcDbLine
 10
84.624
 20
50.93600000000001
 30
0.0
 11
85.24799999999999
 21
51.752
 31
0.0
  0
LINE
  5
164
330
1E
100
AcDbEntity
  8
0
100
AcDbLine
 10
86.99200000000001
 20
52.75999999999999
 30
0.0
 11
88.0
 21
52.90399999999999
 31
0.0
  0
LINE
  5
165
330
1E
100
AcDbEntity
  8
0
100
AcDbLine
 10
86.06399999999998
 20
52.376
 30
0.0
 11
86.99200000000001
 21
52.75999999999999
 31
0.0
  0
LINE
  5
16A
330
1E
100
AcDbEntity
  8
0
100
AcDbLine
 10
88.0
 20
52.90399999999999
 30
0.0
 11
89.008
 21
52.75999999999999
 31
0.0
  0
LINE
  5
16C
330
1E
100
AcDbEntity
  8
0
100
AcDbLine
 10
84.23999999999999
 20
47.99199999999999
 30
0.0
 11
84.624
 21
47.06399999999999
 31
0.0
  0
LINE
  5
16D
330
1E
100
AcDbEntity
  8
0
100
AcDbLine
 10
84.09600000000001
 20
49.0
 30
0.0
 11
84.23999999999999
 21
47.99199999999999
 31
0.0
  0
LINE
  5
16E
330
1E
100
AcDbEntity
  8
0
100
AcDbLine
 10
84.09600000000001
 20
49.0
 30
0.0
 11
84.23999999999999
 21
50.008
 31
0.0
  0
LINE
  5
171
330
1E
100
AcDbEntity
  8
0
100
AcDbLine
 10
88.0
 20
35.5
 30
0.0
 11
95.09999999999999
 21
35.5
 31
0.0
  0
LINE
  5
172
330
1E
100
AcDbEntity
  8
0
100
AcDbLine
 10
88.0
 20
60.5
 30
0.0
 11
95.29999999999999
 21
60.5
 31
0.0
  0
LINE
  5
173
330
1E
100
AcDbEntity
  8
0
100
AcDbLine
 10
88.0
 20
61.0
 30
0.0
 11
95.6
 21
61.0
 31
0.0
  0
LINE
  5
174
330
1E
100
AcDbEntity
  8
0
100
AcDbLine
 10
88.0
 20
66.0
 30
0.0
 11
94.9
 21
66.0
 31
0.0
  0
LINE
  5
175
330
1E
100
AcDbEntity
  8
0
100
AcDbLine
 10
85.95200000000001
 20
33.0
 30
0.0
 11
88.0
 21
33.0
 31
0.0
  0
LINE
  5
176
330
1E
100
AcDbEntity
  8
0
100
AcDbLine
 10
88.0
 20
33.0
 30
0.0
 11
90.04799999999999
 21
33.0
 31
0.0
  0
LINE
  5
177
330
1E
100
AcDbEntity
  8
0
100
AcDbLine
 10
86.3
 20
18.0
 30
0.0
 11
88.0
 21
18.0
 31
0.0
  0
LINE
  5
178
330
1E
100
AcDbEntity
  8
0
100
AcDbLine
 10
88.0
 20
18.0
 30
0.0
 11
89.7
 21
18.0
 31
0.0
  0
LINE
  5
179
330
1E
100
AcDbEntity
  8
0
100
AcDbLine
 10
88.0
 20
18.0
 30
0.0
 11
90.01600000000001
 21
18.0
 31
0.0
  0
LINE
  5
17A
330
1E
100
AcDbEntity
  8
0
100
AcDbLine
 10
81.5
 20
13.0
 30
0.0
 11
81.5
 21
18.0
 31
0.0
  0
LINE
  5
17B
330
1E
100
AcDbEntity
  8
0
100
AcDbLine
 10
81.5
 20
13.0
 30
0.0
 11
81.69999999999999
 21
13.0
 31
0.0
  0
LINE
  5
17C
330
1E
100
AcDbEntity
  8
0
100
AcDbLine
 10
88.8
 20
11.908
 30
0.0
 11
88.8
 21
11.524
 31
0.0
  0
LINE
  5
17D
330
1E
100
AcDbEntity
  8
0
100
AcDbLine
 10
88.8
 20
11.908
 30
0.0
 11
89.29999999999999
 21
11.409
 31
0.0
  0
LINE
  5
17E
330
1E
100
AcDbEntity
  8
0
100
AcDbLine
 10
89.008
 20
52.75999999999999
 30
0.0
 11
89.936
 21
52.376
 31
0.0
  0
LINE
  5
180
330
1E
100
AcDbEntity
  8
0
100
AcDbLine
 10
89.008
 20
45.24
 30
0.0
 11
89.936
 21
45.62399999999999
 31
0.0
  0
LINE
  5
181
330
1E
100
AcDbEntity
  8
0
100
AcDbLine
 10
89.7
 20
18.0
 30
0.0
 11
91.2
 21
18.0
 31
0.0
  0
LINE
  5
182
330
1E
100
AcDbEntity
  8
0
100
AcDbLine
 10
89.7
 20
13.0
 30
0.0
 11
91.2
 21
13.0
 31
0.0
  0
LINE
  5
183
330
1E
100
AcDbEntity
  8
0
100
AcDbLine
 10
92.59999999999999
 20
13.0
 30
0.0
 11
93.59999999999999
 21
13.0
 31
0.0
  0
LINE
  5
184
330
1E
100
AcDbEntity
  8
0
100
AcDbLine
 10
93.59999999999999
 20
13.0
 30
0.0
 11
94.29999999999999
 21
13.0
 31
0.0
  0
LINE
  5
185
330
1E
100
AcDbEntity
  8
0
100
AcDbLine
 10
94.29999999999999
 20
13.0
 30
0.0
 11
94.50000000000001
 21
13.0
 31
0.0
  0
LINE
  5
186
330
1E
100
AcDbEntity
  8
0
100
AcDbLine
 10
94.50000000000001
 20
18.0
 30
0.0
 11
94.752
 21
18.0
 31
0.0
  0
LINE
  5
187
330
1E
100
AcDbEntity
  8
0
100
AcDbLine
 10
91.2
 20
13.0
 30
0.0
 11
92.59999999999999
 21
13.0
 31
0.0
  0
LINE
  5
188
330
1E
100
AcDbEntity
  8
0
100
AcDbLine
 10
95.51999999999999
 20
18.0
 30
0.0
 11
95.80799999999999
 21
18.0
 31
0.0
  0
LINE
  5
189
330
1E
100
AcDbEntity
  8
0
100
AcDbLine
 10
94.752
 20
18.0
 30
0.0
 11
95.51999999999999
 21
18.0
 31
0.0
  0
LINE
  5
18A
330
1E
100
AcDbEntity
  8
0
100
AcDbLine
 10
94.50000000000001
 20
13.0
 30
0.0
 11
96.0
 21
11.0
 31
0.0
  0
LINE
  5
18B
330
1E
100
AcDbEntity
  8
0
100
AcDbLine
 10
94.50000000000001
 20
13.0
 30
0.0
 11
94.50000000000001
 21
18.0
 31
0.0
  0
LINE
  5
18C
330
1E
100
AcDbEntity
  8
0
100
AcDbLine
 10
91.87200000000002
 20
18.0
 30
0.0
 11
93.50399999999998
 21
18.0
 31
0.0
  0
LINE
  5
18D
330
1E
100
AcDbEntity
  8
0
100
AcDbLine
 10
90.01600000000001
 20
18.0
 30
0.0
 11
91.87200000000002
 21
18.0
 31
0.0
  0
LINE
  5
18E
330
1E
100
AcDbEntity
  8
0
100
AcDbLine
 10
93.50399999999998
 20
18.0
 30
0.0
 11
94.752
 21
18.0
 31
0.0
  0
LINE
  5
18F
330
1E
100
AcDbEntity
  8
0
100
AcDbLine
 10
92.59999999999999
 20
18.0
 30
0.0
 11
93.59999999999999
 21
18.0
 31
0.0
  0
LINE
  5
190
330
1E
100
AcDbEntity
  8
0
100
AcDbLine
 10
93.59999999999999
 20
18.0
 30
0.0
 11
94.29999999999999
 21
18.0
 31
0.0
  0
LINE
  5
191
330
1E
100
AcDbEntity
  8
0
100
AcDbLine
 10
94.29999999999999
 20
18.0
 30
0.0
 11
94.50000000000001
 21
18.0
 31
0.0
  0
LINE
  5
192
330
1E
100
AcDbEntity
  8
0
100
AcDbLine
 10
89.936
 20
52.376
 30
0.0
 11
90.752
 21
51.752
 31
0.0
  0
LINE
  5
193
330
1E
100
AcDbEntity
  8
0
100
AcDbLine
 10
89.936
 20
45.62399999999999
 30
0.0
 11
90.752
 21
46.248
 31
0.0
  0
LINE
  5
195
330
1E
100
AcDbEntity
  8
0
100
AcDbLine
 10
93.664
 20
33.0
 30
0.0
 11
94.944
 21
33.0
 31
0.0
  0
LINE
  5
196
330
1E
100
AcDbEntity
  8
0
100
AcDbLine
 10
90.752
 20
46.248
 30
0.0
 11
91.376
 21
47.06399999999999
 31
0.0
  0
LINE
  5
198
330
1E
100
AcDbEntity
  8
0
100
AcDbLine
 10
90.752
 20
51.752
 30
0.0
 11
91.376
 21
50.93600000000001
 31
0.0
  0
LINE
  5
199
330
1E
100
AcDbEntity
  8
0
100
AcDbLine
 10
91.376
 20
50.93600000000001
 30
0.0
 11
91.76
 21
50.008
 31
0.0
  0
LINE
  5
19A
330
1E
100
AcDbEntity
  8
0
100
AcDbLine
 10
91.76
 20
50.008
 30
0.0
 11
91.904
 21
49.0
 31
0.0
  0
LINE
  5
19B
330
1E
100
AcDbEntity
  8
0
100
AcDbLine
 10
91.376
 20
47.06399999999999
 30
0.0
 11
91.76
 21
47.99199999999999
 31
0.0
  0
LINE
  5
19D
330
1E
100
AcDbEntity
  8
0
100
AcDbLine
 10
91.76
 20
47.99199999999999
 30
0.0
 11
91.904
 21
49.0
 31
0.0
  0
LINE
  5
19F
330
1E
100
AcDbEntity
  8
0
100
AcDbLine
 10
93.3
 20
35.0
 30
0.0
 11
98.2
 21
35.0
 31
0.0
  0
LINE
  5
1A0
330
1E
100
AcDbEntity
  8
0
100
AcDbLine
 10
93.1
 20
33.5
 30
0.0
 11
97.9
 21
33.5
 31
0.0
  0
LINE
  5
1A1
330
1E
100
AcDbEntity
  8
0
100
AcDbLine
 10
91.96799999999999
 20
33.0
 30
0.0
 11
93.664
 21
33.0
 31
0.0
  0
LINE
  5
1A2
330
1E
100
AcDbEntity
  8
0
100
AcDbLine
 10
90.04799999999999
 20
33.0
 30
0.0
 11
91.96799999999999
 21
33.0
 31
0.0
  0
LINE
  5
1A3
330
1E
100
AcDbEntity
  8
0
100
AcDbLine
 10
91.2
 20
18.0
 30
0.0
 11
92.59999999999999
 21
18.0
 31
0.0
  0
LINE
  5
1A4
330
1E
100
AcDbEntity
  8
0
100
AcDbLine
 10
95.51999999999999
 20
18.0
 30
0.0
 11
95.80799999999999
 21
18.0
 31
0.0
  0
LINE
  5
1A5
330
1E
100
AcDbEntity
  8
0
100
AcDbLine
 10
94.752
 20
18.0
 30
0.0
 11
95.51999999999999
 21
18.0
 31
0.0
  0
LINE
  5
1A6
330
1E
100
AcDbEntity
  8
0
100
AcDbLine
 10
95.80799999999999
 20
18.0
 30
0.0
 11
96.0
 21
18.3333
 31
0.0
  0
LINE
  5
1A7
330
1E
100
AcDbEntity
  8
0
100
AcDbLine
 10
94.9
 20
66.0
 30
0.0
 11
101.4
 21
66.0
 31
0.0
  0
LINE
  5
1A8
330
1E
100
AcDbEntity
  8
0
100
AcDbLine
 10
97.2
 20
33.0
 30
0.0
 11
101.0999999999999
 21
33.0
 31
0.0
  0
LINE
  5
1A9
330
1E
100
AcDbEntity
  8
0
100
AcDbLine
 10
96.0
 20
33.0
 30
0.0
 11
97.2
 21
33.0
 31
0.0
  0
LINE
  5
1AA
330
1E
100
AcDbEntity
  8
0
100
AcDbLine
 10
101.0999999999999
 20
33.0
 30
0.0
 11
104.0
 21
33.0
 31
0.0
  0
LINE
  5
1AB
330
1E
100
AcDbEntity
  8
0
100
AcDbLine
 10
104.0
 20
33.0
 30
0.0
 11
105.8
 21
33.0
 31
0.0
  0
LINE
  5
1AC
330
1E
100
AcDbEntity
  8
0
100
AcDbLine
 10
106.4999999999999
 20
33.0
 30
0.0
 11
108.0
 21
33.5
 31
0.0
  0
LINE
  5
1AD
330
1E
100
AcDbEntity
  8
0
100
AcDbLine
 10
105.8
 20
33.0
 30
0.0
 11
106.4999999999999
 21
33.0
 31
0.0
  0
LINE
  5
1AE
330
1E
100
AcDbEntity
  8
0
100
AcDbLine
 10
95.71200000000001
 20
33.0
 30
0.0
 11
96.0
 21
33.0
 31
0.0
  0
LINE
  5
1AF
330
1E
100
AcDbEntity
  8
0
100
AcDbLine
 10
95.09999999999999
 20
35.5
 30
0.0
 11
101.7
 21
35.5
 31
0.0
  0
LINE
  5
1B0
330
1E
100
AcDbEntity
  8
0
100
AcDbLine
 10
95.29999999999999
 20
60.5
 30
0.0
 11
102.2
 21
60.5
 31
0.0
  0
LINE
  5
1B1
330
1E
100
AcDbEntity
  8
0
100
AcDbLine
 10
102.0999999999999
 20
33.5
 30
0.0
 11
105.2999999999999
 21
33.5
 31
0.0
  0
LINE
  5
1B2
330
1E
100
AcDbEntity
  8
0
100
AcDbLine
 10
98.2
 20
35.0
 30
0.0
 11
102.4999999999999
 21
35.0
 31
0.0
  0
LINE
  5
1B3
330
1E
100
AcDbEntity
  8
0
100
AcDbLine
 10
97.9
 20
33.5
 30
0.0
 11
102.0999999999999
 21
33.5
 31
0.0
  0
LINE
  5
1B4
330
1E
100
AcDbEntity
  8
0
100
AcDbLine
 10
101.7
 20
35.5
 30
0.0
 11
107.4
 21
35.5
 31
0.0
  0
LINE
  5
1B5
330
1E
100
AcDbEntity
  8
0
100
AcDbLine
 10
105.2999999999999
 20
33.5
 30
0.0
 11
107.2999999999999
 21
33.5
 31
0.0
  0
LINE
  5
1B6
330
1E
100
AcDbEntity
  8
0
100
AcDbLine
 10
102.4999999999999
 20
35.0
 30
0.0
 11
105.8
 21
35.0
 31
0.0
  0
LINE
  5
1B7
330
1E
100
AcDbEntity
  8
0
100
AcDbLine
 10
105.8
 20
35.0
 30
0.0
 11
107.8
 21
35.0
 31
0.0
  0
LINE
  5
1B8
330
1E
100
AcDbEntity
  8
0
100
AcDbLine
 10
107.2999999999999
 20
33.5
 30
0.0
 11
108.0
 21
33.5
 31
0.0
  0
LINE
  5
1B9
330
1E
100
AcDbEntity
  8
0
100
AcDbLine
 10
102.2
 20
60.5
 30
0.0
 11
108.0999999999999
 21
60.5
 31
0.0
  0
LINE
  5
1BA
330
1E
100
AcDbEntity
  8
0
100
AcDbLine
 10
102.7
 20
61.0
 30
0.0
 11
108.8
 21
61.0
 31
0.0
  0
LINE
  5
1BB
330
1E
100
AcDbEntity
  8
0
100
AcDbLine
 10
95.6
 20
61.0
 30
0.0
 11
102.7
 21
61.0
 31
0.0
  0
LINE
  5
1BC
330
1E
100
AcDbEntity
  8
0
100
AcDbLine
 10
101.4
 20
66.0
 30
0.0
 11
107.0
 21
66.0
 31
0.0
  0
LINE
  5
1BD
330
1E
100
AcDbEntity
  8
0
100
AcDbLine
 10
107.8
 20
35.0
 30
0.0
 11
108.4999999999999
 21
35.0
 31
0.0
  0
LINE
  5
1BE
330
1E
100
AcDbEntity
  8
0
100
AcDbLine
 10
107.4
 20
35.5
 30
0.0
 11
111.8
 21
35.5
 31
0.0
  0
LINE
  5
1BF
330
1E
100
AcDbEntity
  8
0
100
AcDbLine
 10
107.0
 20
66.0
 30
0.0
 11
111.4
 21
66.0
 31
0.0
  0
LINE
  5
1C0
330
1E
100
AcDbEntity
  8
0
100
AcDbLine
 10
108.0999999999999
 20
60.5
 30
0.0
 11
112.7
 21
60.5
 31
0.0
  0
LINE
  5
1C1
330
1E
100
AcDbEntity
  8
0
100
AcDbLine
 10
109.0
 20
66.0
 30
0.0
 11
109.0
 21
71.5691056910569
 31
0.0
  0
LINE
  5
1C2
330
1E
100
AcDbEntity
  8
0
100
AcDbLine
 10
108.8
 20
61.0
 30
0.0
 11
113.5
 21
61.0
 31
0.0
  0
LINE
  5
1C3
330
1E
100
AcDbEntity
  8
0
100
AcDbLine
 10
108.4999999999999
 20
35.0
 30
0.0
 11
110.4999999999999
 21
35.0
 31
0.0
  0
LINE
  5
1C4
330
1E
100
AcDbEntity
  8
0
100
AcDbLine
 10
108.0
 20
33.5
 30
0.0
 11
108.4999999999999
 21
35.0
 31
0.0
  0
LINE
  5
1C5
330
1E
100
AcDbEntity
  8
0
100
AcDbLine
 10
96.0
 20
33.0
 30
0.0
 11
96.0
 21
18.3333
 31
0.0
  0
LINE
  5
1C6
330
1E
100
AcDbEntity
  8
0
100
AcDbLine
 10
94.944
 20
33.0
 30
0.0
 11
95.71200000000001
 21
33.0
 31
0.0
  0
LINE
  5
1C7
330
1E
100
AcDbEntity
  8
0
100
AcDbLine
 10
96.0
 20
18.3333
 30
0.0
 11
96.0
 21
33.0
 31
0.0
  0
LINE
  5
1C8
330
1E
100
AcDbEntity
  8
0
100
AcDbLine
 10
94.50000000000001
 20
18.0
 30
0.0
 11
94.50000000000001
 21
13.0
 31
0.0
  0
LINE
  5
1CA
330
1E
100
AcDbEntity
  8
0
100
AcDbLine
 10
89.29999999999999
 20
11.409
 30
0.0
 11
89.8
 21
8.948999999999999
 31
0.0
  0
LINE
  5
1CB
330
1E
100
AcDbEntity
  8
0
100
AcDbLine
 10
88.8
 20
11.524
 30
0.0
 11
88.8
 21
10.81299999999999
 31
0.0
  0
LINE
  5
1CC
330
1E
100
AcDbEntity
  8
0
100
AcDbLine
 10
88.8
 20
11.524
 30
0.0
 11
88.8
 21
11.908
 31
0.0
  0
LINE
  5
1CD
330
1E
100
AcDbEntity
  8
0
100
AcDbLine
 10
107.002
 20
11.31
 30
0.0
 11
110.977
 21
11.788
 31
0.0
  0
LINE
  5
1CF
330
1E
100
AcDbEntity
  8
0
100
AcDbLine
 10
110.977
 20
11.788
 30
0.0
 11
112.8749999999999
 21
11.908
 31
0.0
  0
LINE
  5
1D1
330
1E
100
AcDbEntity
  8
0
100
AcDbLine
 10
111.104
 20
11.807
 30
0.0
 11
111.6595754060319
 21
11.83115545243619
 31
0.0
  0
LINE
  5
1D2
330
1E
100
AcDbEntity
  8
0
100
AcDbLine
 10
111.8
 20
35.5
 30
0.0
 11
114.5
 21
35.5
 31
0.0
  0
LINE
  5
1D3
330
1E
100
AcDbEntity
  8
0
100
AcDbLine
 10
112.7
 20
60.5
 30
0.0
 11
115.5
 21
60.5
 31
0.0
  0
LINE
  5
1D4
330
1E
100
AcDbEntity
  8
0
100
AcDbLine
 10
111.4
 20
66.0
 30
0.0
 11
114.0
 21
66.0
 31
0.0
  0
LINE
  5
1D5
330
1E
100
AcDbEntity
  8
0
100
AcDbLine
 10
110.4999999999999
 20
35.0
 30
0.0
 11
113.1
 21
35.0
 31
0.0
  0
LINE
  5
1D6
330
1E
100
AcDbEntity
  8
0
100
AcDbLine
 10
112.8749999999999
 20
11.908
 30
0.0
 11
114.375
 21
11.524
 31
0.0
  0
LINE
  5
1D7
330
1E
100
AcDbEntity
  8
0
100
AcDbLine
 10
113.5
 20
61.0
 30
0.0
 11
116.4
 21
61.0
 31
0.0
  0
LINE
  5
1D8
330
1E
100
AcDbEntity
  8
0
100
AcDbLine
 10
114.0
 20
66.0
 30
0.0
 11
115.0
 21
66.0
 31
0.0
  0
LINE
  5
1D9
330
1E
100
AcDbEntity
  8
0
100
AcDbLine
 10
114.0
 20
35.0
 30
0.0
 11
115.5
 21
35.5
 31
0.0
  0
LINE
  5
1DA
330
1E
100
AcDbEntity
  8
0
100
AcDbLine
 10
113.1
 20
35.0
 30
0.0
 11
114.0
 21
35.0
 31
0.0
  0
LINE
  5
1DC
330
1E
100
AcDbEntity
  8
0
100
AcDbLine
 10
114.5
 20
35.5
 30
0.0
 11
115.5
 21
35.5
 31
0.0
  0
LINE
  5
1DD
330
1E
100
AcDbEntity
  8
0
100
AcDbLine
 10
115.5
 20
60.5
 30
0.0
 11
116.5
 21
60.5
 31
0.0
  0
LINE
  5
1DE
330
1E
100
AcDbEntity
  8
0
100
AcDbLine
 10
115.5
 20
35.5
 30
0.0
 11
116.0
 21
37.0
 31
0.0
  0
LINE
  5
1DF
330
1E
100
AcDbEntity
  8
0
100
AcDbLine
 10
115.0
 20
66.0
 30
0.0
 11
116.5
 21
65.5
 31
0.0
  0
LINE
  5
1E0
330
1E
100
AcDbEntity
  8
0
100
AcDbLine
 10
114.375
 20
11.524
 30
0.0
 11
115.471
 21
10.81299999999999
 31
0.0
  0
LINE
  5
1E1
330
1E
100
AcDbEntity
  8
0
100
AcDbLine
 10
115.471
 20
10.81299999999999
 30
0.0
 11
116.125
 21
10.044
 31
0.0
  0
LINE
  5
1E2
330
1E
100
AcDbEntity
  8
0
100
AcDbLine
 10
112.9899999999999
 20
11.889
 30
0.0
 11
113.26
 21
11.8094399999999
 31
0.0
  0
LINE
  5
1E3
330
1E
100
AcDbEntity
  8
0
100
AcDbLine
 10
116.0
 20
37.0
 30
0.0
 11
116.0
 21
59.0
 31
0.0
  0
LINE
  5
1E4
330
1E
100
AcDbEntity
  8
0
100
AcDbLine
 10
116.0
 20
59.0
 30
0.0
 11
116.5
 21
60.5
 31
0.0
  0
LINE
  5
1E5
330
1E
100
AcDbEntity
  8
0
100
AcDbLine
 10
116.0
 20
59.0
 30
0.0
 11
116.0
 21
37.0
 31
0.0
  0
LINE
  5
1E6
330
1E
100
AcDbEntity
  8
0
100
AcDbLine
 10
116.4
 20
61.0
 30
0.0
 11
117.5
 21
61.0
 31
0.0
  0
LINE
  5
1E7
330
1E
100
AcDbEntity
  8
0
100
AcDbLine
 10
116.5
 20
60.5
 30
0.0
 11
117.5
 21
61.0
 31
0.0
  0
LINE
  5
1E8
330
1E
100
AcDbEntity
  8
0
100
AcDbLine
 10
118.0
 20
62.5
 30
0.0
 11
118.0
 21
63.0
 31
0.0
  0
LINE
  5
1E9
330
1E
100
AcDbEntity
  8
0
100
AcDbLine
 10
117.5
 20
61.0
 30
0.0
 11
118.0
 21
62.5
 31
0.0
  0
LINE
  5
1EA
330
1E
100
AcDbEntity
  8
0
100
AcDbLine
 10
118.0
 20
63.0
 30
0.0
 11
118.0
 21
62.5
 31
0.0
  0
LINE
  5
1EB
330
1E
100
AcDbEntity
  8
0
100
AcDbLine
 10
117.5
 20
64.5
 30
0.0
 11
118.0
 21
63.0
 31
0.0
  0
LINE
  5
1EC
330
1E
100
AcDbEntity
  8
0
100
AcDbLine
 10
116.5
 20
65.5
 30
0.0
 11
117.5
 21
64.5
 31
0.0
  0
LINE
  5
1ED
330
1E
100
AcDbEntity
  8
0
100
AcDbLine
 10
116.125
 20
10.044
 30
0.0
 11
116.6439999999999
 21
8.929
 31
0.0
  0
LINE
  5
1EE
330
1E
100
AcDbEntity
  8
0
100
AcDbLine
 10
115.567
 20
10.717
 30
0.0
 11
115.7145234294429
 21
10.52665517241369
 31
0.0
  0
LINE
  5
1EF
330
1E
100
AcDbEntity
  8
0
100
AcDbLine
 10
116.6439999999999
 20
8.929
 30
0.0
 11
117.0
 21
6.0
 31
0.0
  0
LINE
  5
1F0
330
1E
100
AcDbEntity
  8
0
100
AcDbLine
 10
110.471904301649
 20
11.72726144809759
 30
0.0
 11
111.104
 21
11.807
 31
0.0
  0
LINE
  5
1F1
330
1E
100
AcDbEntity
  8
0
100
AcDbLine
 10
77.07763003273671
 20
1.767109901789889
 30
0.0
 11
77.5
 21
0.499999999999997
 31
0.0
  0
LINE
  5
1F2
330
1E
100
AcDbEntity
  8
0
100
AcDbLine
 10
73.6138050184536
 20
1.347368270882
 30
0.0
 11
75.29600000000001
 21
1.551999999999999
 31
0.0
  0
LINE
  5
1F4
330
1E
100
AcDbEntity
  8
0
100
AcDbLine
 10
60.2823605258354
 20
1.47733275563261
 30
0.0
 11
60.433
 21
1.283
 31
0.0
  0
LINE
  5
1F5
330
1E
100
AcDbEntity
  8
0
100
AcDbLine
 10
109.0
 20
71.5691056910569
 30
0.0
 11
109.0
 21
66.0
 31
0.0
  0
LINE
  5
1F6
330
1E
100
AcDbEntity
  8
0
100
AcDbLine
 10
67.0
 20
71.5691056910569
 30
0.0
 11
67.0
 21
66.0
 31
0.0
  0
LINE
  5
1F7
330
1E
100
AcDbEntity
  8
0
100
AcDbLine
 10
13.5
 20
73.0
 30
0.0
 11
67.0
 21
71.5637583892617
 31
0.0
  0
LINE
  5
1F8
330
1E
100
AcDbEntity
  8
0
100
AcDbLine
 10
109.0
 20
71.5637583892617
 30
0.0
 11
162.5
 21
73.0
 31
0.0
  0
LINE
  5
1F9
330
1E
100
AcDbEntity
  8
0
100
AcDbLine
 10
162.5
 20
73.0
 30
0.0
 11
164.0
 21
73.5
 31
0.0
  0
LINE
  5
1FA
330
1E
100
AcDbEntity
  8
0
100
AcDbLine
 10
164.0
 20
73.5
 30
0.0
 11
165.0
 21
74.5
 31
0.0
  0
LINE
  5
1FB
330
1E
100
AcDbEntity
  8
0
100
AcDbLine
 10
13.5
 20
73.0
 30
0.0
 11
67.0
 21
71.5637583892617
 31
0.0
  0
LINE
  5
1FC
330
1E
100
AcDbEntity
  8
0
100
AcDbLine
 10
165.0
 20
74.5
 30
0.0
 11
165.5
 21
76.0
 31
0.0
  0
LINE
  5
1FD
330
1E
100
AcDbEntity
  8
0
100
AcDbLine
 10
165.5
 20
76.0
 30
0.0
 11
166.0
 21
77.0
 31
0.0
  0
LINE
  5
1FE
330
1E
100
AcDbEntity
  8
0
100
AcDbLine
 10
12.0
 20
73.5
 30
0.0
 11
13.5
 21
73.0
 31
0.0
  0
LINE
  5
1FF
330
1E
100
AcDbEntity
  8
0
100
AcDbLine
 10
11.0
 20
74.5
 30
0.0
 11
12.0
 21
73.5
 31
0.0
  0
LINE
  5
200
330
1E
100
AcDbEntity
  8
0
100
AcDbLine
 10
26.2
 20
77.0
 30
0.0
 11
32.9
 21
77.0
 31
0.0
  0
LINE
  5
201
330
1E
100
AcDbEntity
  8
0
100
AcDbLine
 10
20.4
 20
77.0
 30
0.0
 11
26.2
 21
77.0
 31
0.0
  0
LINE
  5
202
330
1E
100
AcDbEntity
  8
0
100
AcDbLine
 10
16.1
 20
77.0
 30
0.0
 11
20.4
 21
77.0
 31
0.0
  0
LINE
  5
203
330
1E
100
AcDbEntity
  8
0
100
AcDbLine
 10
12.8
 20
77.0
 30
0.0
 11
16.1
 21
77.0
 31
0.0
  0
LINE
  5
204
330
1E
100
AcDbEntity
  8
0
100
AcDbLine
 10
10.8
 20
77.0
 30
0.0
 11
12.8
 21
77.0
 31
0.0
  0
LINE
  5
205
330
1E
100
AcDbEntity
  8
0
100
AcDbLine
 10
32.9
 20
77.0
 30
0.0
 11
40.6
 21
77.0
 31
0.0
  0
LINE
  5
206
330
1E
100
AcDbEntity
  8
0
100
AcDbLine
 10
40.6
 20
77.0
 30
0.0
 11
49.2
 21
77.0
 31
0.0
  0
LINE
  5
207
330
1E
100
AcDbEntity
  8
0
100
AcDbLine
 10
49.2
 20
77.0
 30
0.0
 11
58.2
 21
77.0
 31
0.0
  0
LINE
  5
208
330
1E
100
AcDbEntity
  8
0
100
AcDbLine
 10
58.2
 20
77.0
 30
0.0
 11
67.9
 21
77.0
 31
0.0
  0
LINE
  5
209
330
1E
100
AcDbEntity
  8
0
100
AcDbLine
 10
67.9
 20
77.0
 30
0.0
 11
77.9
 21
77.0
 31
0.0
  0
LINE
  5
20A
330
1E
100
AcDbEntity
  8
0
100
AcDbLine
 10
135.4
 20
77.0
 30
0.0
 11
143.1
 21
77.0
 31
0.0
  0
LINE
  5
20B
330
1E
100
AcDbEntity
  8
0
100
AcDbLine
 10
126.8
 20
77.0
 30
0.0
 11
135.4
 21
77.0
 31
0.0
  0
LINE
  5
20C
330
1E
100
AcDbEntity
  8
0
100
AcDbLine
 10
117.7999999999999
 20
77.0
 30
0.0
 11
126.8
 21
77.0
 31
0.0
  0
LINE
  5
20D
330
1E
100
AcDbEntity
  8
0
100
AcDbLine
 10
108.0999999999999
 20
77.0
 30
0.0
 11
117.7999999999999
 21
77.0
 31
0.0
  0
LINE
  5
20E
330
1E
100
AcDbEntity
  8
0
100
AcDbLine
 10
98.1
 20
77.0
 30
0.0
 11
108.0999999999999
 21
77.0
 31
0.0
  0
LINE
  5
20F
330
1E
100
AcDbEntity
  8
0
100
AcDbLine
 10
88.0
 20
77.0
 30
0.0
 11
98.1
 21
77.0
 31
0.0
  0
LINE
  5
210
330
1E
100
AcDbEntity
  8
0
100
AcDbLine
 10
143.1
 20
77.0
 30
0.0
 11
149.8
 21
77.0
 31
0.0
  0
LINE
  5
211
330
1E
100
AcDbEntity
  8
0
100
AcDbLine
 10
149.8
 20
77.0
 30
0.0
 11
155.6
 21
77.0
 31
0.0
  0
LINE
  5
212
330
1E
100
AcDbEntity
  8
0
100
AcDbLine
 10
155.6
 20
77.0
 30
0.0
 11
159.9
 21
77.0
 31
0.0
  0
LINE
  5
213
330
1E
100
AcDbEntity
  8
0
100
AcDbLine
 10
159.9
 20
77.0
 30
0.0
 11
163.1999999999999
 21
77.0
 31
0.0
  0
LINE
  5
214
330
1E
100
AcDbEntity
  8
0
100
AcDbLine
 10
163.1999999999999
 20
77.0
 30
0.0
 11
165.1999999999999
 21
77.0
 31
0.0
  0
LINE
  5
215
330
1E
100
AcDbEntity
  8
0
100
AcDbLine
 10
165.1999999999999
 20
77.0
 30
0.0
 11
166.0
 21
77.0
 31
0.0
  0
LINE
  5
216
330
1E
100
AcDbEntity
  8
0
100
AcDbLine
 10
77.9
 20
77.0
 30
0.0
 11
88.0
 21
77.0
 31
0.0
  0
LINE
  5
217
330
1E
100
AcDbEntity
  8
0
100
AcDbLine
 10
166.0
 20
77.0
 30
0.0
 11
168.0
 21
78.0
 31
0.0
  0
LINE
  5
218
330
1E
100
AcDbEntity
  8
0
100
AcDbLine
 10
168.0
 20
78.0
 30
0.0
 11
172.0
 21
79.0
 31
0.0
  0
LINE
  5
219
330
1E
100
AcDbEntity
  8
0
100
AcDbLine
 10
10.5
 20
76.0
 30
0.0
 11
11.0
 21
74.5
 31
0.0
  0
LINE
  5
21A
330
1E
100
AcDbEntity
  8
0
100
AcDbLine
 10
10.0
 20
77.0
 30
0.0
 11
10.5
 21
76.0
 31
0.0
  0
LINE
  5
21B
330
1E
100
AcDbEntity
  8
0
100
AcDbLine
 10
10.0
 20
77.0
 30
0.0
 11
10.8
 21
77.0
 31
0.0
  0
LINE
  5
21C
330
1E
100
AcDbEntity
  8
0
100
AcDbLine
 10
172.0
 20
79.0
 30
0.0
 11
175.0
 21
82.0
 31
0.0
  0
LINE
  5
21D
330
1E
100
AcDbEntity
  8
0
100
AcDbLine
 10
175.0
 20
82.0
 30
0.0
 11
176.0
 21
86.0
 31
0.0
  0
LINE
  5
21E
330
1E
100
AcDbEntity
  8
0
100
AcDbLine
 10
8.0
 20
78.0
 30
0.0
 11
10.0
 21
77.0
 31
0.0
  0
LINE
  5
21F
330
1E
100
AcDbEntity
  8
0
100
AcDbLine
 10
4.0
 20
79.0
 30
0.0
 11
8.0
 21
78.0
 31
0.0
  0
LINE
  5
220
330
1E
100
AcDbEntity
  8
0
100
AcDbLine
 10
18.3
 20
88.0
 30
0.0
 11
25.89999999999999
 21
88.0
 31
0.0
  0
LINE
  5
221
330
1E
100
AcDbEntity
  8
0
100
AcDbLine
 10
11.8
 20
88.0
 30
0.0
 11
18.3
 21
88.0
 31
0.0
  0
LINE
  5
222
330
1E
100
AcDbEntity
  8
0
100
AcDbLine
 10
6.9
 20
88.0
 30
0.0
 11
11.8
 21
88.0
 31
0.0
  0
LINE
  5
223
330
1E
100
AcDbEntity
  8
0
100
AcDbLine
 10
3.2
 20
88.0
 30
0.0
 11
6.9
 21
88.0
 31
0.0
  0
LINE
  5
224
330
1E
100
AcDbEntity
  8
0
100
AcDbLine
 10
0.8999999999999978
 20
88.0
 30
0.0
 11
3.2
 21
88.0
 31
0.0
  0
LINE
  5
225
330
1E
100
AcDbEntity
  8
0
100
AcDbLine
 10
25.89999999999999
 20
88.0
 30
0.0
 11
34.5
 21
88.0
 31
0.0
  0
LINE
  5
226
330
1E
100
AcDbEntity
  8
0
100
AcDbLine
 10
34.5
 20
88.0
 30
0.0
 11
44.2
 21
88.0
 31
0.0
  0
LINE
  5
227
330
1E
100
AcDbEntity
  8
0
100
AcDbLine
 10
44.2
 20
88.0
 30
0.0
 11
54.4
 21
88.0
 31
0.0
  0
LINE
  5
228
330
1E
100
AcDbEntity
  8
0
100
AcDbLine
 10
54.4
 20
88.0
 30
0.0
 11
65.3
 21
88.0
 31
0.0
  0
LINE
  5
229
330
1E
100
AcDbEntity
  8
0
100
AcDbLine
 10
141.5
 20
88.0
 30
0.0
 11
150.0999999999999
 21
88.0
 31
0.0
  0
LINE
  5
22A
330
1E
100
AcDbEntity
  8
0
100
AcDbLine
 10
131.8
 20
88.0
 30
0.0
 11
141.5
 21
88.0
 31
0.0
  0
LINE
  5
22B
330
1E
100
AcDbEntity
  8
0
100
AcDbLine
 10
121.5999999999999
 20
88.0
 30
0.0
 11
131.8
 21
88.0
 31
0.0
  0
LINE
  5
22C
330
1E
100
AcDbEntity
  8
0
100
AcDbLine
 10
110.6999999999999
 20
88.0
 30
0.0
 11
121.5999999999999
 21
88.0
 31
0.0
  0
LINE
  5
22D
330
1E
100
AcDbEntity
  8
0
100
AcDbLine
 10
99.50000000000001
 20
88.0
 30
0.0
 11
110.6999999999999
 21
88.0
 31
0.0
  0
LINE
  5
22E
330
1E
100
AcDbEntity
  8
0
100
AcDbLine
 10
88.0
 20
88.0
 30
0.0
 11
99.50000000000001
 21
88.0
 31
0.0
  0
LINE
  5
22F
330
1E
100
AcDbEntity
  8
0
100
AcDbLine
 10
150.0999999999999
 20
88.0
 30
0.0
 11
157.6999999999999
 21
88.0
 31
0.0
  0
LINE
  5
230
330
1E
100
AcDbEntity
  8
0
100
AcDbLine
 10
157.6999999999999
 20
88.0
 30
0.0
 11
164.1999999999999
 21
88.0
 31
0.0
  0
LINE
  5
231
330
1E
100
AcDbEntity
  8
0
100
AcDbLine
 10
164.1999999999999
 20
88.0
 30
0.0
 11
169.1
 21
88.0
 31
0.0
  0
LINE
  5
232
330
1E
100
AcDbEntity
  8
0
100
AcDbLine
 10
169.1
 20
88.0
 30
0.0
 11
172.8
 21
88.0
 31
0.0
  0
LINE
  5
233
330
1E
100
AcDbEntity
  8
0
100
AcDbLine
 10
176.0
 20
86.0
 30
0.0
 11
176.0
 21
88.0
 31
0.0
  0
LINE
  5
234
330
1E
100
AcDbEntity
  8
0
100
AcDbLine
 10
172.8
 20
88.0
 30
0.0
 11
175.0999999999999
 21
88.0
 31
0.0
  0
LINE
  5
235
330
1E
100
AcDbEntity
  8
0
100
AcDbLine
 10
175.0999999999999
 20
88.0
 30
0.0
 11
176.0
 21
88.0
 31
0.0
  0
LINE
  5
236
330
1E
100
AcDbEntity
  8
0
100
AcDbLine
 10
65.3
 20
88.0
 30
0.0
 11
76.5
 21
88.0
 31
0.0
  0
LINE
  5
237
330
1E
100
AcDbEntity
  8
0
100
AcDbLine
 10
76.5
 20
88.0
 30
0.0
 11
88.0
 21
88.0
 31
0.0
  0
LINE
  5
238
330
1E
100
AcDbEntity
  8
0
100
AcDbLine
 10
176.0
 20
88.0
 30
0.0
 11
176.0
 21
86.0
 31
0.0
  0
LINE
  5
239
330
1E
100
AcDbEntity
  8
0
100
AcDbLine
 10
0.9999999999999978
 20
82.0
 30
0.0
 11
4.0
 21
79.0
 31
0.0
  0
LINE
  5
23A
330
1E
100
AcDbEntity
  8
0
100
AcDbLine
 10
-0.0000000000000024
 20
86.0
 30
0.0
 11
-0.0000000000000024
 21
88.0
 31
0.0
  0
LINE
  5
23B
330
1E
100
AcDbEntity
  8
0
100
AcDbLine
 10
-0.0000000000000024
 20
86.0
 30
0.0
 11
0.9999999999999978
 21
82.0
 31
0.0
  0
LINE
  5
240
330
1E
100
AcDbEntity
  8
0
100
AcDbLine
 10
67.0
 20
71.5637583892617
 30
0.0
 11
109.0
 21
71.5691056910569
 31
0.0
  0
ENDSEC
  0
SECTION
  2
OBJECTS
  0
DICTIONARY
  5
C
330
0
100
AcDbDictionary
281
     1
  3
ACAD_GROUP
350
D
  3
ACAD_LAYOUT
350
19
  3
ACAD_MLINESTYLE
350
16
  3
ACAD_PLOTSETTINGS
350
18
  3
ACAD_PLOTSTYLENAME
350
E
  3
AcDbVariableDictionary
350
241
  0
DICTIONARY
  5
D
102
{ACAD_REACTORS
330
C
102
}
330
C
100
AcDbDictionary
281
     1
  0
DICTIONARY
  5
19
102
{ACAD_REACTORS
330
C
102
}
330
C
100
AcDbDictionary
281
     1
  3
Layout1
350
1D
  3
Model
350
21
  0
DICTIONARY
  5
16
102
{ACAD_REACTORS
330
C
102
}
330
C
100
AcDbDictionary
281
     1
  3
Standard
350
17
  0
DICTIONARY
  5
18
102
{ACAD_REACTORS
330
C
102
}
330
C
100
AcDbDictionary
281
     1
  0
ACDBDICTIONARYWDFLT
  5
E
102
{ACAD_REACTORS
330
C
102
}
330
C
100
AcDbDictionary
281
     1
  3
Normal
350
F
100
AcDbDictionaryWithDefault
340
F
  0
DICTIONARY
  5
241
102
{ACAD_REACTORS
330
C
102
}
330
C
100
AcDbDictionary
281
     1
  3
DIMASSOC
350
242
  0
LAYOUT
  5
1D
102
{ACAD_REACTORS
330
19
102
}
330
19
100
AcDbPlotSettings
  1

  2
hp deskjet 980c series
  4

  6

 40
0.0
 41
0.0
 42
0.0
 43
0.0
 44
0.0
 45
0.0
 46
0.0
 47
0.0
 48
0.0
 49
0.0
140
0.0
141
0.0
142
1.0
143
1.0
 70
   688
 72
     0
 73
     0
 74
     5
  7

 75
    16
147
1.0
148
0.0
149
0.0
100
AcDbLayout
  1
Layout1
 70
     1
 71
     1
 10
0.0
 20
0.0
 11
12.0
 21
9.0
 12
0.0
 22
0.0
 32
0.0
 14
1.000000000000000E+20
 24
1.000000000000000E+20
 34
1.000000000000000E+20
 15
-1.000000000000000E+20
 25
-1.000000000000000E+20
 35
-1.000000000000000E+20
146
0.0
 13
0.0
 23
0.0
 33
0.0
 16
1.0
 26
0.0
 36
0.0
 17
0.0
 27
1.0
 37
0.0
 76
     0
330
1A
  0
LAYOUT
  5
21
102
{ACAD_REACTORS
330
19
102
}
330
19
100
AcDbPlotSettings
  1

  2
hp deskjet 980c series
  4

  6

 40
0.0
 41
0.0
 42
0.0
 43
0.0
 44
0.0
 45
0.0
 46
0.0
 47
0.0
 48
0.0
 49
0.0
140
0.0
141
0.0
142
1.0
143
1.0
 70
  1712
 72
     0
 73
     0
 74
     0
  7

 75
     0
147
1.0
148
0.0
149
0.0
100
AcDbLayout
  1
Model
 70
     1
 71
     0
 10
0.0
 20
0.0
 11
12.0
 21
9.0
 12
0.0
 22
0.0
 32
0.0
 14
0.0
 24
0.0
 34
0.0
 15
0.0
 25
0.0
 35
0.0
146
0.0
 13
0.0
 23
0.0
 33
0.0
 16
1.0
 26
0.0
 36
0.0
 17
0.0
 27
1.0
 37
0.0
 76
     0
330
1E
  0
MLINESTYLE
  5
17
102
{ACAD_REACTORS
330
16
102
}
330
16
100
AcDbMlineStyle
  2
STANDARD
 70
     0
  3

 62
   256
 51
90.0
 52
90.0
 71
     2
 49
0.5
 62
   256
  6
BYLAYER
 49
-0.5
 62
   256
  6
BYLAYER
  0
ACDBPLACEHOLDER
  5
F
102
{ACAD_REACTORS
330
E
102
}
330
E
  0
DICTIONARYVAR
  5
242
102
{ACAD_REACTORS
330
241
102
}
330
241
100
DictionaryVariables
280
     0
  1
1
  0
ENDSEC
  0
EOF
