  0
SECTION
  2
HEADER
  9
$ACADVER
  1
AC1015
  9
$ACADMAINTVER
 70
    13
  9
$DWGCODEPAGE
  3
ANSI_1252
  9
$INSBASE
 10
0.0
 20
0.0
 30
0.0
  9
$EXTMIN
 10
-0.0000000000000024
 20
-0.0000000000000078
 30
0.0
  9
$EXTMAX
 10
175.9113676361814
 20
176.0
 30
0.0
  9
$LIMMIN
 10
0.0
 20
0.0
  9
$LIMMAX
 10
12.0
 20
9.0
  9
$ORTHOMODE
 70
     0
  9
$REGENMODE
 70
     1
  9
$FILLMODE
 70
     1
  9
$QTEXTMODE
 70
     0
  9
$MIRRTEXT
 70
     1
  9
$LTSCALE
 40
1.0
  9
$ATTMODE
 70
     1
  9
$TEXTSIZE
 40
0.2
  9
$TRACEWID
 40
0.05
  9
$TEXTSTYLE
  7
Standard
  9
$CLAYER
  8
0
  9
$CELTYPE
  6
Continuous
  9
$CECOLOR
 62
   256
  9
$CELTSCALE
 40
1.0
  9
$DISPSILH
 70
     0
  9
$DIMSCALE
 40
1.0
  9
$DIMASZ
 40
0.18
  9
$DIMEXO
 40
0.0625
  9
$DIMDLI
 40
0.38
  9
$DIMRND
 40
0.0
  9
$DIMDLE
 40
0.0
  9
$DIMEXE
 40
0.18
  9
$DIMTP
 40
0.0
  9
$DIMTM
 40
0.0
  9
$DIMTXT
 40
0.18
  9
$DIMCEN
 40
0.09
  9
$DIMTSZ
 40
0.0
  9
$DIMTOL
 70
     0
  9
$DIMLIM
 70
     0
  9
$DIMTIH
 70
     1
  9
$DIMTOH
 70
     1
  9
$DIMSE1
 70
     0
  9
$DIMSE2
 70
     0
  9
$DIMTAD
 70
     0
  9
$DIMZIN
 70
     0
  9
$DIMBLK
  1

  9
$DIMASO
 70
     1
  9
$DIMSHO
 70
     1
  9
$DIMPOST
  1

  9
$DIMAPOST
  1

  9
$DIMALT
 70
     0
  9
$DIMALTD
 70
     2
  9
$DIMALTF
 40
25.4
  9
$DIMLFAC
 40
1.0
  9
$DIMTOFL
 70
     0
  9
$DIMTVP
 40
0.0
  9
$DIMTIX
 70
     0
  9
$DIMSOXD
 70
     0
  9
$DIMSAH
 70
     0
  9
$DIMBLK1
  1

  9
$DIMBLK2
  1

  9
$DIMSTYLE
  2
Standard
  9
$DIMCLRD
 70
     0
  9
$DIMCLRE
 70
     0
  9
$DIMCLRT
 70
     0
  9
$DIMTFAC
 40
1.0
  9
$DIMGAP
 40
0.09
  9
$DIMJUST
 70
     0
  9
$DIMSD1
 70
     0
  9
$DIMSD2
 70
     0
  9
$DIMTOLJ
 70
     1
  9
$DIMTZIN
 70
     0
  9
$DIMALTZ
 70
     0
  9
$DIMALTTZ
 70
     0
  9
$DIMUPT
 70
     0
  9
$DIMDEC
 70
     4
  9
$DIMTDEC
 70
     4
  9
$DIMALTU
 70
     2
  9
$DIMALTTD
 70
     2
  9
$DIMTXSTY
  7
Standard
  9
$DIMAUNIT
 70
     0
  9
$DIMADEC
 70
     0
  9
$DIMALTRND
 40
0.0
  9
$DIMAZIN
 70
     0
  9
$DIMDSEP
 70
    46
  9
$DIMATFIT
 70
     3
  9
$DIMFRAC
 70
     0
  9
$DIMLDRBLK
  1

  9
$DIMLUNIT
 70
     2
  9
$DIMLWD
 70
    -2
  9
$DIMLWE
 70
    -2
  9
$DIMTMOVE
 70
     0
  9
$LUNITS
 70
     2
  9
$LUPREC
 70
     4
  9
$SKETCHINC
 40
0.1
  9
$FILLETRAD
 40
0.0
  9
$AUNITS
 70
     0
  9
$AUPREC
 70
     0
  9
$MENU
  1
.
  9
$ELEVATION
 40
0.0
  9
$PELEVATION
 40
0.0
  9
$THICKNESS
 40
0.0
  9
$LIMCHECK
 70
     0
  9
$CHAMFERA
 40
0.0
  9
$CHAMFERB
 40
0.0
  9
$CHAMFERC
 40
0.0
  9
$CHAMFERD
 40
0.0
  9
$SKPOLY
 70
     0
  9
$TDCREATE
 40
2454749.783224641
  9
$TDUCREATE
 40
2454749.699891308
  9
$TDUPDATE
 40
2454749.788147963
  9
$TDUUPDATE
 40
2454749.704814629
  9
$TDINDWG
 40
0.0049233218
  9
$TDUSRTIMER
 40
0.0049233218
  9
$USRTIMER
 70
     1
  9
$ANGBASE
 50
0.0
  9
$ANGDIR
 70
     0
  9
$PDMODE
 70
     0
  9
$PDSIZE
 40
0.0
  9
$PLINEWID
 40
0.0
  9
$SPLFRAME
 70
     0
  9
$SPLINETYPE
 70
     6
  9
$SPLINESEGS
 70
     8
  9
$HANDSEED
  5
231
  9
$SURFTAB1
 70
     6
  9
$SURFTAB2
 70
     6
  9
$SURFTYPE
 70
     6
  9
$SURFU
 70
     6
  9
$SURFV
 70
     6
  9
$UCSBASE
  2

  9
$UCSNAME
  2

  9
$UCSORG
 10
0.0
 20
0.0
 30
0.0
  9
$UCSXDIR
 10
1.0
 20
0.0
 30
0.0
  9
$UCSYDIR
 10
0.0
 20
1.0
 30
0.0
  9
$UCSORTHOREF
  2

  9
$UCSORTHOVIEW
 70
     1
  9
$UCSORGTOP
 10
0.0
 20
0.0
 30
0.0
  9
$UCSORGBOTTOM
 10
0.0
 20
0.0
 30
0.0
  9
$UCSORGLEFT
 10
0.0
 20
0.0
 30
0.0
  9
$UCSORGRIGHT
 10
0.0
 20
0.0
 30
0.0
  9
$UCSORGFRONT
 10
0.0
 20
0.0
 30
0.0
  9
$UCSORGBACK
 10
0.0
 20
0.0
 30
0.0
  9
$PUCSBASE
  2

  9
$PUCSNAME
  2

  9
$PUCSORG
 10
0.0
 20
0.0
 30
0.0
  9
$PUCSXDIR
 10
1.0
 20
0.0
 30
0.0
  9
$PUCSYDIR
 10
0.0
 20
1.0
 30
0.0
  9
$PUCSORTHOREF
  2

  9
$PUCSORTHOVIEW
 70
     0
  9
$PUCSORGTOP
 10
0.0
 20
0.0
 30
0.0
  9
$PUCSORGBOTTOM
 10
0.0
 20
0.0
 30
0.0
  9
$PUCSORGLEFT
 10
0.0
 20
0.0
 30
0.0
  9
$PUCSORGRIGHT
 10
0.0
 20
0.0
 30
0.0
  9
$PUCSORGFRONT
 10
0.0
 20
0.0
 30
0.0
  9
$PUCSORGBACK
 10
0.0
 20
0.0
 30
0.0
  9
$USERI1
 70
     0
  9
$USERI2
 70
     0
  9
$USERI3
 70
     0
  9
$USERI4
 70
     0
  9
$USERI5
 70
     0
  9
$USERR1
 40
0.0
  9
$USERR2
 40
0.0
  9
$USERR3
 40
0.0
  9
$USERR4
 40
0.0
  9
$USERR5
 40
0.0
  9
$WORLDVIEW
 70
     1
  9
$SHADEDGE
 70
     3
  9
$SHADEDIF
 70
    70
  9
$TILEMODE
 70
     1
  9
$MAXACTVP
 70
    64
  9
$PINSBASE
 10
0.0
 20
0.0
 30
0.0
  9
$PLIMCHECK
 70
     0
  9
$PEXTMIN
 10
1.000000000000000E+20
 20
1.000000000000000E+20
 30
1.000000000000000E+20
  9
$PEXTMAX
 10
-1.000000000000000E+20
 20
-1.000000000000000E+20
 30
-1.000000000000000E+20
  9
$PLIMMIN
 10
0.0
 20
0.0
  9
$PLIMMAX
 10
12.0
 20
9.0
  9
$UNITMODE
 70
     0
  9
$VISRETAIN
 70
     1
  9
$PLINEGEN
 70
     0
  9
$PSLTSCALE
 70
     1
  9
$TREEDEPTH
 70
  3020
  9
$CMLSTYLE
  2
Standard
  9
$CMLJUST
 70
     0
  9
$CMLSCALE
 40
1.0
  9
$PROXYGRAPHICS
 70
     1
  9
$MEASUREMENT
 70
     0
  9
$CELWEIGHT
370
    -1
  9
$ENDCAPS
280
     0
  9
$JOINSTYLE
280
     0
  9
$LWDISPLAY
290
     0
  9
$INSUNITS
 70
     0
  9
$HYPERLINKBASE
  1

  9
$STYLESHEET
  1

  9
$XEDIT
290
     1
  9
$CEPSNTYPE
380
     0
  9
$PSTYLEMODE
290
     1
  9
$FINGERPRINTGUID
  2
{72937F20-744E-4363-836D-64AC2A2EDC5D}
  9
$VERSIONGUID
  2
{A8369FB2-3C6A-49DD-959A-3414D00C7D94}
  9
$EXTNAMES
290
     1
  9
$PSVPSCALE
 40
0.0
  9
$OLESTARTUP
290
     0
  0
ENDSEC
  0
SECTION
  2
CLASSES
  0
CLASS
  1
ACDBDICTIONARYWDFLT
  2
AcDbDictionaryWithDefault
  3
AutoCAD 2000
 90
        0
280
     0
281
     0
  0
CLASS
  1
ACDBPLACEHOLDER
  2
AcDbPlaceHolder
  3
AutoCAD 2000
 90
        0
280
     0
281
     0
  0
CLASS
  1
LAYOUT
  2
AcDbLayout
  3
AutoCAD 2000
 90
        0
280
     0
281
     0
  0
CLASS
  1
DICTIONARYVAR
  2
AcDbDictionaryVar
  3
AutoCAD 2000
 90
        0
280
     0
281
     0
  0
ENDSEC
  0
SECTION
  2
TABLES
  0
TABLE
  2
VPORT
  5
8
330
0
100
AcDbSymbolTable
 70
     3
  0
VPORT
  5
230
330
8
100
AcDbSymbolTableRecord
100
AcDbViewportTableRecord
  2
*Active
 70
     0
 10
0.0
 20
0.0
 11
1.0
 21
1.0
 12
87.95568381809074
 22
87.99999999999998
 13
0.0
 23
0.0
 14
1.0
 24
1.0
 15
0.0
 25
0.0
 16
0.0
 26
0.0
 36
1.0
 17
0.0
 27
0.0
 37
0.0
 40
177.3503836317135
 41
2.078104993597951
 42
50.0
 43
0.0
 44
0.0
 50
0.0
 51
0.0
 71
     0
 72
   100
 73
     1
 74
     3
 75
     0
 76
     0
 77
     0
 78
     0
281
     0
 65
     1
110
0.0
120
0.0
130
0.0
111
1.0
121
0.0
131
0.0
112
0.0
122
1.0
132
0.0
 79
     1
146
0.0
  0
ENDTAB
  0
TABLE
  2
LTYPE
  5
5
330
0
100
AcDbSymbolTable
 70
     1
  0
LTYPE
  5
13
330
5
100
AcDbSymbolTableRecord
100
AcDbLinetypeTableRecord
  2
ByBlock
 70
     0
  3

 72
    65
 73
     0
 40
0.0
  0
LTYPE
  5
14
330
5
100
AcDbSymbolTableRecord
100
AcDbLinetypeTableRecord
  2
ByLayer
 70
     0
  3

 72
    65
 73
     0
 40
0.0
  0
LTYPE
  5
15
330
5
100
AcDbSymbolTableRecord
100
AcDbLinetypeTableRecord
  2
Continuous
 70
     0
  3
Solid line
 72
    65
 73
     0
 40
0.0
  0
ENDTAB
  0
TABLE
  2
LAYER
  5
2
330
0
100
AcDbSymbolTable
 70
     1
  0
LAYER
  5
10
330
2
100
AcDbSymbolTableRecord
100
AcDbLayerTableRecord
  2
0
 70
     0
 62
     7
  6
Continuous
370
    -3
390
F
  0
ENDTAB
  0
TABLE
  2
STYLE
  5
3
330
0
100
AcDbSymbolTable
 70
     1
  0
STYLE
  5
11
330
3
100
AcDbSymbolTableRecord
100
AcDbTextStyleTableRecord
  2
Standard
 70
     0
 40
0.0
 41
1.0
 50
0.0
 71
     0
 42
0.2
  3
txt
  4

  0
ENDTAB
  0
TABLE
  2
VIEW
  5
6
330
0
100
AcDbSymbolTable
 70
     0
  0
ENDTAB
  0
TABLE
  2
UCS
  5
7
330
0
100
AcDbSymbolTable
 70
     0
  0
ENDTAB
  0
TABLE
  2
APPID
  5
9
330
0
100
AcDbSymbolTable
 70
     1
  0
APPID
  5
12
330
9
100
AcDbSymbolTableRecord
100
AcDbRegAppTableRecord
  2
ACAD
 70
     0
  0
ENDTAB
  0
TABLE
  2
DIMSTYLE
  5
A
330
0
100
AcDbSymbolTable
 70
     1
100
AcDbDimStyleTable
 71
     0
  0
DIMSTYLE
105
214
330
A
100
AcDbSymbolTableRecord
100
AcDbDimStyleTableRecord
  2
Standard
 70
     0
340
11
  0
ENDTAB
  0
TABLE
  2
BLOCK_RECORD
  5
1
330
0
100
AcDbSymbolTable
 70
     0
  0
BLOCK_RECORD
  5
1E
330
1
100
AcDbSymbolTableRecord
100
AcDbBlockTableRecord
  2
*Model_Space
340
21
  0
BLOCK_RECORD
  5
1A
330
1
100
AcDbSymbolTableRecord
100
AcDbBlockTableRecord
  2
*Paper_Space
340
1D
  0
ENDTAB
  0
ENDSEC
  0
SECTION
  2
BLOCKS
  0
BLOCK
  5
1F
330
1E
100
AcDbEntity
  8
0
100
AcDbBlockBegin
  2
*Model_Space
 70
     0
 10
0.0
 20
0.0
 30
0.0
  3
*Model_Space
  1

  0
ENDBLK
  5
20
330
1E
100
AcDbEntity
  8
0
100
AcDbBlockEnd
  0
BLOCK
  5
1B
330
1A
100
AcDbEntity
 67
     1
  8
0
100
AcDbBlockBegin
  2
*Paper_Space
 70
     0
 10
0.0
 20
0.0
 30
0.0
  3
*Paper_Space
  1

  0
ENDBLK
  5
1C
330
1A
100
AcDbEntity
 67
     1
  8
0
100
AcDbBlockEnd
  0
ENDSEC
  0
SECTION
  2
ENTITIES
  0
LINE
  5
22
330
1E
100
AcDbEntity
  8
0
100
AcDbLine
 10
88.0
 20
-0.0000000000000078
 30
0.0
 11
99.50000000000001
 21
0.8999999999999921
 31
0.0
  0
LINE
  5
23
330
1E
100
AcDbEntity
  8
0
100
AcDbLine
 10
88.0
 20
-0.0000000000000078
 30
0.0
 11
99.50000000000001
 21
0.8999999999999921
 31
0.0
  0
LINE
  5
24
330
1E
100
AcDbEntity
  8
0
100
AcDbLine
 10
32.9
 20
32.9
 30
0.0
 11
40.6
 21
26.2
 31
0.0
  0
LINE
  5
25
330
1E
100
AcDbEntity
  8
0
100
AcDbLine
 10
40.6
 20
26.2
 30
0.0
 11
49.2
 21
20.4
 31
0.0
  0
LINE
  5
26
330
1E
100
AcDbEntity
  8
0
100
AcDbLine
 10
49.2
 20
20.4
 30
0.0
 11
58.2
 21
16.1
 31
0.0
  0
LINE
  5
27
330
1E
100
AcDbEntity
  8
0
100
AcDbLine
 10
34.5
 20
18.3
 30
0.0
 11
44.2
 21
11.8
 31
0.0
  0
LINE
  5
28
330
1E
100
AcDbEntity
  8
0
100
AcDbLine
 10
98.1
 20
10.8
 30
0.0
 11
108.0999999999999
 21
12.8
 31
0.0
  0
LINE
  5
29
330
1E
100
AcDbEntity
  8
0
100
AcDbLine
 10
88.0
 20
9.999999999999991
 30
0.0
 11
98.1
 21
10.8
 31
0.0
  0
LINE
  5
2A
330
1E
100
AcDbEntity
  8
0
100
AcDbLine
 10
121.5999999999999
 20
6.89999999999999
 30
0.0
 11
131.8
 21
11.8
 31
0.0
  0
LINE
  5
2B
330
1E
100
AcDbEntity
  8
0
100
AcDbLine
 10
58.2
 20
16.1
 30
0.0
 11
67.9
 21
12.8
 31
0.0
  0
LINE
  5
2C
330
1E
100
AcDbEntity
  8
0
100
AcDbLine
 10
143.1
 20
32.9
 30
0.0
 11
149.8
 21
40.6
 31
0.0
  0
LINE
  5
2D
330
1E
100
AcDbEntity
  8
0
100
AcDbLine
 10
135.4
 20
26.2
 30
0.0
 11
143.1
 21
32.9
 31
0.0
  0
LINE
  5
2E
330
1E
100
AcDbEntity
  8
0
100
AcDbLine
 10
126.8
 20
20.4
 30
0.0
 11
135.4
 21
26.2
 31
0.0
  0
LINE
  5
2F
330
1E
100
AcDbEntity
  8
0
100
AcDbLine
 10
117.7999999999999
 20
16.1
 30
0.0
 11
126.8
 21
20.4
 31
0.0
  0
LINE
  5
30
330
1E
100
AcDbEntity
  8
0
100
AcDbLine
 10
108.0999999999999
 20
12.8
 30
0.0
 11
117.7999999999999
 21
16.1
 31
0.0
  0
LINE
  5
31
330
1E
100
AcDbEntity
  8
0
100
AcDbLine
 10
131.8
 20
11.8
 30
0.0
 11
141.5
 21
18.3
 31
0.0
  0
LINE
  5
32
330
1E
100
AcDbEntity
  8
0
100
AcDbLine
 10
67.9
 20
12.8
 30
0.0
 11
77.9
 21
10.8
 31
0.0
  0
LINE
  5
33
330
1E
100
AcDbEntity
  8
0
100
AcDbLine
 10
77.9
 20
10.8
 30
0.0
 11
88.0
 21
9.999999999999991
 31
0.0
  0
LINE
  5
34
330
1E
100
AcDbEntity
  8
0
100
AcDbLine
 10
54.4
 20
6.89999999999999
 30
0.0
 11
65.3
 21
3.19999999999999
 31
0.0
  0
LINE
  5
35
330
1E
100
AcDbEntity
  8
0
100
AcDbLine
 10
76.5
 20
0.8999999999999921
 30
0.0
 11
88.0
 21
-0.0000000000000078
 31
0.0
  0
LINE
  5
36
330
1E
100
AcDbEntity
  8
0
100
AcDbLine
 10
76.5
 20
0.8999999999999921
 30
0.0
 11
88.0
 21
-0.0000000000000078
 31
0.0
  0
LINE
  5
37
330
1E
100
AcDbEntity
  8
0
100
AcDbLine
 10
25.89999999999999
 20
25.89999999999999
 30
0.0
 11
34.5
 21
18.3
 31
0.0
  0
LINE
  5
38
330
1E
100
AcDbEntity
  8
0
100
AcDbLine
 10
149.8
 20
40.6
 30
0.0
 11
155.6
 21
49.2
 31
0.0
  0
LINE
  5
3A
330
1E
100
AcDbEntity
  8
0
100
AcDbLine
 10
155.6
 20
49.2
 30
0.0
 11
159.9
 21
58.2
 31
0.0
  0
LINE
  5
3B
330
1E
100
AcDbEntity
  8
0
100
AcDbLine
 10
159.9
 20
58.2
 30
0.0
 11
163.1999999999999
 21
67.9
 31
0.0
  0
LINE
  5
3C
330
1E
100
AcDbEntity
  8
0
100
AcDbLine
 10
169.1
 20
54.4
 30
0.0
 11
172.8
 21
65.3
 31
0.0
  0
LINE
  5
3D
330
1E
100
AcDbEntity
  8
0
100
AcDbLine
 10
26.2
 20
40.6
 30
0.0
 11
32.9
 21
32.9
 31
0.0
  0
LINE
  5
3E
330
1E
100
AcDbEntity
  8
0
100
AcDbLine
 10
20.4
 20
49.2
 30
0.0
 11
26.2
 21
40.6
 31
0.0
  0
LINE
  5
3F
330
1E
100
AcDbEntity
  8
0
100
AcDbLine
 10
88.0
 20
58.5
 30
0.0
 11
95.6
 21
59.6
 31
0.0
  0
LINE
  5
40
330
1E
100
AcDbEntity
  8
0
100
AcDbLine
 10
88.8
 20
59.0
 30
0.0
 11
88.8
 21
59.3562
 31
0.0
  0
LINE
  5
41
330
1E
100
AcDbEntity
  8
0
100
AcDbLine
 10
88.8
 20
59.0
 30
0.0
 11
89.29999999999999
 21
59.5
 31
0.0
  0
LINE
  5
42
330
1E
100
AcDbEntity
  8
0
100
AcDbLine
 10
88.0
 20
59.0
 30
0.0
 11
88.8
 21
59.0
 31
0.0
  0
LINE
  5
43
330
1E
100
AcDbEntity
  8
0
100
AcDbLine
 10
80.7
 20
60.5
 30
0.0
 11
86.66338028169009
 21
59.6830985915493
 31
0.0
  0
LINE
  5
44
330
1E
100
AcDbEntity
  8
0
100
AcDbLine
 10
80.4
 20
59.6
 30
0.0
 11
88.0
 21
58.5
 31
0.0
  0
LINE
  5
45
330
1E
100
AcDbEntity
  8
0
100
AcDbLine
 10
80.90000000000001
 20
61.5
 30
0.0
 11
86.4565217391304
 21
60.7173913043478
 31
0.0
  0
LINE
  5
4C
330
1E
100
AcDbEntity
  8
0
100
AcDbLine
 10
74.29999999999999
 20
64.2
 30
0.0
 11
80.90000000000001
 21
61.5
 31
0.0
  0
LINE
  5
4D
330
1E
100
AcDbEntity
  8
0
100
AcDbLine
 10
73.79999999999999
 20
63.3
 30
0.0
 11
80.7
 21
60.5
 31
0.0
  0
LINE
  5
4E
330
1E
100
AcDbEntity
  8
0
100
AcDbLine
 10
73.3
 20
62.5
 30
0.0
 11
80.4
 21
59.6
 31
0.0
  0
LINE
  5
50
330
1E
100
AcDbEntity
  8
0
100
AcDbLine
 10
86.0
 20
65.0
 30
0.0
 11
86.2
 21
62.0
 31
0.0
  0
LINE
  5
51
330
1E
100
AcDbEntity
  8
0
100
AcDbLine
 10
86.2
 20
62.0
 30
0.0
 11
86.69999999999999
 21
59.5
 31
0.0
  0
LINE
  5
52
330
1E
100
AcDbEntity
  8
0
100
AcDbLine
 10
88.8
 20
59.3562
 30
0.0
 11
88.8
 21
59.0
 31
0.0
  0
LINE
  5
53
330
1E
100
AcDbEntity
  8
0
100
AcDbLine
 10
88.8
 20
59.3562
 30
0.0
 11
88.8
 21
59.8754
 31
0.0
  0
LINE
  5
54
330
1E
100
AcDbEntity
  8
0
100
AcDbLine
 10
87.2
 20
65.02290000000001
 30
0.0
 11
87.2
 21
63.1252
 31
0.0
  0
LINE
  5
55
330
1E
100
AcDbEntity
  8
0
100
AcDbLine
 10
87.2
 20
63.1252
 30
0.0
 11
87.2
 21
65.02290000000001
 31
0.0
  0
LINE
  5
56
330
1E
100
AcDbEntity
  8
0
100
AcDbLine
 10
87.2
 20
63.1252
 30
0.0
 11
87.2
 21
61.6253
 31
0.0
  0
LINE
  5
57
330
1E
100
AcDbEntity
  8
0
100
AcDbLine
 10
87.2
 20
61.6253
 30
0.0
 11
87.2
 21
63.1252
 31
0.0
  0
LINE
  5
58
330
1E
100
AcDbEntity
  8
0
100
AcDbLine
 10
87.2
 20
61.6253
 30
0.0
 11
87.2
 21
60.5292
 31
0.0
  0
LINE
  5
59
330
1E
100
AcDbEntity
  8
0
100
AcDbLine
 10
87.2
 20
60.5292
 30
0.0
 11
87.2
 21
61.6253
 31
0.0
  0
LINE
  5
5A
330
1E
100
AcDbEntity
  8
0
100
AcDbLine
 10
87.2
 20
60.5292
 30
0.0
 11
87.2
 21
59.8754
 31
0.0
  0
LINE
  5
5B
330
1E
100
AcDbEntity
  8
0
100
AcDbLine
 10
88.8
 20
63.1252
 30
0.0
 11
88.8
 21
61.6253
 31
0.0
  0
LINE
  5
5C
330
1E
100
AcDbEntity
  8
0
100
AcDbLine
 10
88.8
 20
63.1252
 30
0.0
 11
88.8
 21
65.02290000000001
 31
0.0
  0
LINE
  5
5D
330
1E
100
AcDbEntity
  8
0
100
AcDbLine
 10
88.8
 20
61.6253
 30
0.0
 11
88.8
 21
60.5292
 31
0.0
  0
LINE
  5
5E
330
1E
100
AcDbEntity
  8
0
100
AcDbLine
 10
88.8
 20
61.6253
 30
0.0
 11
88.8
 21
63.1252
 31
0.0
  0
LINE
  5
5F
330
1E
100
AcDbEntity
  8
0
100
AcDbLine
 10
88.8
 20
60.5292
 30
0.0
 11
88.8
 21
59.8754
 31
0.0
  0
LINE
  5
60
330
1E
100
AcDbEntity
  8
0
100
AcDbLine
 10
88.8
 20
60.5292
 30
0.0
 11
88.8
 21
61.6253
 31
0.0
  0
LINE
  5
63
330
1E
100
AcDbEntity
  8
0
100
AcDbLine
 10
89.5434782608695
 20
60.7173913043478
 30
0.0
 11
95.09999999999999
 21
61.5
 31
0.0
  0
LINE
  5
64
330
1E
100
AcDbEntity
  8
0
100
AcDbLine
 10
95.29999999999999
 20
60.5
 30
0.0
 11
102.2
 21
63.3
 31
0.0
  0
LINE
  5
65
330
1E
100
AcDbEntity
  8
0
100
AcDbLine
 10
89.3366197183098
 20
59.6830985915493
 30
0.0
 11
95.29999999999999
 21
60.5
 31
0.0
  0
LINE
  5
66
330
1E
100
AcDbEntity
  8
0
100
AcDbLine
 10
95.6
 20
59.6
 30
0.0
 11
102.7
 21
62.5
 31
0.0
  0
LINE
  5
67
330
1E
100
AcDbEntity
  8
0
100
AcDbLine
 10
89.29999999999999
 20
59.5
 30
0.0
 11
89.8
 21
62.0
 31
0.0
  0
LINE
  5
69
330
1E
100
AcDbEntity
  8
0
100
AcDbLine
 10
95.09999999999999
 20
61.5
 30
0.0
 11
101.7
 21
64.2
 31
0.0
  0
LINE
  5
6A
330
1E
100
AcDbEntity
  8
0
100
AcDbLine
 10
101.7
 20
64.2
 30
0.0
 11
107.4
 21
68.59999999999999
 31
0.0
  0
LINE
  5
6B
330
1E
100
AcDbEntity
  8
0
100
AcDbLine
 10
102.2
 20
63.3
 30
0.0
 11
108.0999999999999
 21
67.9
 31
0.0
  0
LINE
  5
6C
330
1E
100
AcDbEntity
  8
0
100
AcDbLine
 10
102.7
 20
62.5
 30
0.0
 11
108.8
 21
67.2
 31
0.0
  0
LINE
  5
6D
330
1E
100
AcDbEntity
  8
0
100
AcDbLine
 10
89.8
 20
62.0
 30
0.0
 11
90.0
 21
65.0
 31
0.0
  0
LINE
  5
72
330
1E
100
AcDbEntity
  8
0
100
AcDbLine
 10
88.8
 20
59.8754
 30
0.0
 11
88.8
 21
59.3562
 31
0.0
  0
LINE
  5
73
330
1E
100
AcDbEntity
  8
0
100
AcDbLine
 10
88.8
 20
59.8754
 30
0.0
 11
88.8
 21
60.5292
 31
0.0
  0
LINE
  5
74
330
1E
100
AcDbEntity
  8
0
100
AcDbLine
 10
88.8
 20
65.02290000000001
 30
0.0
 11
89.1
 21
68.998
 31
0.0
  0
LINE
  5
75
330
1E
100
AcDbEntity
  8
0
100
AcDbLine
 10
88.8
 20
65.02290000000001
 30
0.0
 11
88.8
 21
63.1252
 31
0.0
  0
LINE
  5
76
330
1E
100
AcDbEntity
  8
0
100
AcDbLine
 10
90.0
 20
65.0
 30
0.0
 11
90.29999999999999
 21
69.0
 31
0.0
  0
LINE
  5
77
330
1E
100
AcDbEntity
  8
0
100
AcDbLine
 10
87.2
 20
59.8754
 30
0.0
 11
87.2
 21
60.5292
 31
0.0
  0
LINE
  5
78
330
1E
100
AcDbEntity
  8
0
100
AcDbLine
 10
87.2
 20
59.8754
 30
0.0
 11
87.2
 21
59.3562
 31
0.0
  0
LINE
  5
79
330
1E
100
AcDbEntity
  8
0
100
AcDbLine
 10
87.2
 20
59.3562
 30
0.0
 11
87.2
 21
59.8754
 31
0.0
  0
LINE
  5
7A
330
1E
100
AcDbEntity
  8
0
100
AcDbLine
 10
87.2
 20
59.3562
 30
0.0
 11
87.2
 21
59.0
 31
0.0
  0
LINE
  5
7B
330
1E
100
AcDbEntity
  8
0
100
AcDbLine
 10
86.69999999999999
 20
59.5
 30
0.0
 11
87.2
 21
59.0
 31
0.0
  0
LINE
  5
7C
330
1E
100
AcDbEntity
  8
0
100
AcDbLine
 10
87.2
 20
59.0
 30
0.0
 11
88.0
 21
59.0
 31
0.0
  0
LINE
  5
7D
330
1E
100
AcDbEntity
  8
0
100
AcDbLine
 10
87.2
 20
59.0
 30
0.0
 11
87.2
 21
59.3562
 31
0.0
  0
LINE
  5
7E
330
1E
100
AcDbEntity
  8
0
100
AcDbLine
 10
172.8
 20
65.3
 30
0.0
 11
175.0999999999999
 21
76.5
 31
0.0
  0
LINE
  5
7F
330
1E
100
AcDbEntity
  8
0
100
AcDbLine
 10
16.1
 20
58.2
 30
0.0
 11
20.4
 21
49.2
 31
0.0
  0
LINE
  5
80
330
1E
100
AcDbEntity
  8
0
100
AcDbLine
 10
18.3
 20
34.5
 30
0.0
 11
25.89999999999999
 21
25.89999999999999
 31
0.0
  0
LINE
  5
81
330
1E
100
AcDbEntity
  8
0
100
AcDbLine
 10
6.9
 20
54.4
 30
0.0
 11
11.8
 21
44.2
 31
0.0
  0
LINE
  5
82
330
1E
100
AcDbEntity
  8
0
100
AcDbLine
 10
0.8999999999999978
 20
99.50000000000001
 30
0.0
 11
3.2
 21
110.6999999999999
 31
0.0
  0
LINE
  5
83
330
1E
100
AcDbEntity
  8
0
100
AcDbLine
 10
90.20938542162928
 20
67.7918056217246
 30
0.0
 11
93.3
 21
68.2
 31
0.0
  0
LINE
  5
84
330
1E
100
AcDbEntity
  8
0
100
AcDbLine
 10
108.0999999999999
 20
67.9
 30
0.0
 11
112.7
 21
73.79999999999999
 31
0.0
  0
LINE
  5
85
330
1E
100
AcDbEntity
  8
0
100
AcDbLine
 10
108.8
 20
67.2
 30
0.0
 11
113.5
 21
73.3
 31
0.0
  0
LINE
  5
86
330
1E
100
AcDbEntity
  8
0
100
AcDbLine
 10
67.9
 20
67.9
 30
0.0
 11
73.79999999999999
 21
63.3
 31
0.0
  0
LINE
  5
87
330
1E
100
AcDbEntity
  8
0
100
AcDbLine
 10
67.2
 20
67.2
 30
0.0
 11
73.3
 21
62.5
 31
0.0
  0
LINE
  5
89
330
1E
100
AcDbEntity
  8
0
100
AcDbLine
 10
163.1999999999999
 20
67.9
 30
0.0
 11
165.1999999999999
 21
77.9
 31
0.0
  0
LINE
  5
8C
330
1E
100
AcDbEntity
  8
0
100
AcDbLine
 10
60.5
 20
80.7
 30
0.0
 11
63.3
 21
73.79999999999999
 31
0.0
  0
LINE
  5
8D
330
1E
100
AcDbEntity
  8
0
100
AcDbLine
 10
59.6830985915493
 20
86.66338028169009
 30
0.0
 11
60.5
 21
80.7
 31
0.0
  0
LINE
  5
8E
330
1E
100
AcDbEntity
  8
0
100
AcDbLine
 10
59.6
 20
80.4
 30
0.0
 11
62.5
 21
73.3
 31
0.0
  0
LINE
  5
8F
330
1E
100
AcDbEntity
  8
0
100
AcDbLine
 10
59.5
 20
86.69999999999999
 30
0.0
 11
62.0
 21
86.2
 31
0.0
  0
LINE
  5
91
330
1E
100
AcDbEntity
  8
0
100
AcDbLine
 10
61.5
 20
80.90000000000001
 30
0.0
 11
64.2
 21
74.29999999999999
 31
0.0
  0
LINE
  5
92
330
1E
100
AcDbEntity
  8
0
100
AcDbLine
 10
60.7173913043478
 20
86.4565217391304
 30
0.0
 11
61.5
 21
80.90000000000001
 31
0.0
  0
LINE
  5
93
330
1E
100
AcDbEntity
  8
0
100
AcDbLine
 10
62.5
 20
73.3
 30
0.0
 11
67.2
 21
67.2
 31
0.0
  0
LINE
  5
95
330
1E
100
AcDbEntity
  8
0
100
AcDbLine
 10
62.0
 20
86.2
 30
0.0
 11
65.0
 21
86.0
 31
0.0
  0
LINE
  5
98
330
1E
100
AcDbEntity
  8
0
100
AcDbLine
 10
68.59999999999999
 20
68.59999999999999
 30
0.0
 11
74.29999999999999
 21
64.2
 31
0.0
  0
LINE
  5
99
330
1E
100
AcDbEntity
  8
0
100
AcDbLine
 10
68.7
 20
82.9
 30
0.0
 11
70.7
 21
78.09999999999999
 31
0.0
  0
LINE
  5
9A
330
1E
100
AcDbEntity
  8
0
100
AcDbLine
 10
68.2
 20
82.70000000000001
 30
0.0
 11
70.2
 21
77.8
 31
0.0
  0
LINE
  5
9B
330
1E
100
AcDbEntity
  8
0
100
AcDbLine
 10
68.308568598316
 20
85.75185735512629
 30
0.0
 11
68.7
 21
82.9
 31
0.0
  0
LINE
  5
9C
330
1E
100
AcDbEntity
  8
0
100
AcDbLine
 10
67.7918056217246
 20
85.7906145783707
 30
0.0
 11
68.2
 21
82.70000000000001
 31
0.0
  0
LINE
  5
9D
330
1E
100
AcDbEntity
  8
0
100
AcDbLine
 10
64.2
 20
74.29999999999999
 30
0.0
 11
68.59999999999999
 21
68.59999999999999
 31
0.0
  0
LINE
  5
9F
330
1E
100
AcDbEntity
  8
0
100
AcDbLine
 10
63.3
 20
73.79999999999999
 30
0.0
 11
67.9
 21
67.9
 31
0.0
  0
LINE
  5
A0
330
1E
100
AcDbEntity
  8
0
100
AcDbLine
 10
73.5
 20
73.5
 30
0.0
 11
77.8
 21
70.2
 31
0.0
  0
LINE
  5
A1
330
1E
100
AcDbEntity
  8
0
100
AcDbLine
 10
73.9
 20
73.9
 30
0.0
 11
78.09999999999999
 21
70.7
 31
0.0
  0
LINE
  5
A2
330
1E
100
AcDbEntity
  8
0
100
AcDbLine
 10
70.7
 20
78.09999999999999
 30
0.0
 11
73.9
 21
73.9
 31
0.0
  0
LINE
  5
A3
330
1E
100
AcDbEntity
  8
0
100
AcDbLine
 10
70.2
 20
77.8
 30
0.0
 11
73.5
 21
73.5
 31
0.0
  0
LINE
  5
A4
330
1E
100
AcDbEntity
  8
0
100
AcDbLine
 10
77.8
 20
70.2
 30
0.0
 11
82.70000000000001
 21
68.2
 31
0.0
  0
LINE
  5
A5
330
1E
100
AcDbEntity
  8
0
100
AcDbLine
 10
78.09999999999999
 20
70.7
 30
0.0
 11
82.9
 21
68.7
 31
0.0
  0
LINE
  5
A6
330
1E
100
AcDbEntity
  8
0
100
AcDbLine
 10
78.7
 20
78.7
 30
0.0
 11
81.4
 21
76.6
 31
0.0
  0
LINE
  5
A7
330
1E
100
AcDbEntity
  8
0
100
AcDbLine
 10
77.57769999999999
 20
82.0
 30
0.0
 11
79.5
 21
79.5
 31
0.0
  0
LINE
  5
A8
330
1E
100
AcDbEntity
  8
0
100
AcDbLine
 10
76.6
 20
81.4
 30
0.0
 11
78.7
 21
78.7
 31
0.0
  0
LINE
  5
A9
330
1E
100
AcDbEntity
  8
0
100
AcDbLine
 10
82.70000000000001
 20
68.2
 30
0.0
 11
85.7906145783707
 21
67.7918056217246
 31
0.0
  0
LINE
  5
AA
330
1E
100
AcDbEntity
  8
0
100
AcDbLine
 10
82.9
 20
68.7
 30
0.0
 11
85.75185735512629
 21
68.308568598316
 31
0.0
  0
LINE
  5
AB
330
1E
100
AcDbEntity
  8
0
100
AcDbLine
 10
93.3
 20
68.2
 30
0.0
 11
98.2
 21
70.2
 31
0.0
  0
LINE
  5
AC
330
1E
100
AcDbEntity
  8
0
100
AcDbLine
 10
93.1
 20
68.7
 30
0.0
 11
97.9
 21
70.7
 31
0.0
  0
LINE
  5
AD
330
1E
100
AcDbEntity
  8
0
100
AcDbLine
 10
90.24814264487369
 20
68.308568598316
 30
0.0
 11
93.1
 21
68.7
 31
0.0
  0
LINE
  5
AE
330
1E
100
AcDbEntity
  8
0
100
AcDbLine
 10
107.4
 20
68.59999999999999
 30
0.0
 11
111.8
 21
74.29999999999999
 31
0.0
  0
LINE
  5
B0
330
1E
100
AcDbEntity
  8
0
100
AcDbLine
 10
89.1
 20
68.998
 30
0.0
 11
90.14639999999999
 21
72.5421
 31
0.0
  0
LINE
  5
B1
330
1E
100
AcDbEntity
  8
0
100
AcDbLine
 10
90.29999999999999
 20
69.0
 30
0.0
 11
91.2296
 21
71.8861
 31
0.0
  0
LINE
  5
B2
330
1E
100
AcDbEntity
  8
0
100
AcDbLine
 10
86.90000000000001
 20
68.998
 30
0.0
 11
87.2
 21
65.02290000000001
 31
0.0
  0
LINE
  5
B3
330
1E
100
AcDbEntity
  8
0
100
AcDbLine
 10
82.0
 20
77.57769999999999
 30
0.0
 11
84.0098
 21
75.29600000000001
 31
0.0
  0
LINE
  5
B4
330
1E
100
AcDbEntity
  8
0
100
AcDbLine
 10
81.4
 20
76.6
 30
0.0
 11
83.2492
 21
74.60720000000001
 31
0.0
  0
LINE
  5
B5
330
1E
100
AcDbEntity
  8
0
100
AcDbLine
 10
79.5
 20
79.5
 30
0.0
 11
82.0
 21
77.57769999999999
 31
0.0
  0
LINE
  5
B6
330
1E
100
AcDbEntity
  8
0
100
AcDbLine
 10
80.6
 20
80.6
 30
0.0
 11
82.79999999999999
 21
78.9
 31
0.0
  0
LINE
  5
B7
330
1E
100
AcDbEntity
  8
0
100
AcDbLine
 10
82.79999999999999
 20
78.9
 30
0.0
 11
85.29999999999999
 21
77.9
 31
0.0
  0
LINE
  5
B8
330
1E
100
AcDbEntity
  8
0
100
AcDbLine
 10
84.0098
 20
75.29600000000001
 30
0.0
 11
85.85359999999999
 21
72.5421
 31
0.0
  0
LINE
  5
B9
330
1E
100
AcDbEntity
  8
0
100
AcDbLine
 10
83.2492
 20
74.60720000000001
 30
0.0
 11
84.7704
 21
71.8861
 31
0.0
  0
LINE
  5
BA
330
1E
100
AcDbEntity
  8
0
100
AcDbLine
 10
90.14639999999999
 20
72.5421
 30
0.0
 11
91.9902
 21
75.29600000000001
 31
0.0
  0
LINE
  5
BB
330
1E
100
AcDbEntity
  8
0
100
AcDbLine
 10
98.2
 20
70.2
 30
0.0
 11
102.4999999999999
 21
73.5
 31
0.0
  0
LINE
  5
BC
330
1E
100
AcDbEntity
  8
0
100
AcDbLine
 10
97.9
 20
70.7
 30
0.0
 11
102.0999999999999
 21
73.9
 31
0.0
  0
LINE
  5
BD
330
1E
100
AcDbEntity
  8
0
100
AcDbLine
 10
91.2296
 20
71.8861
 30
0.0
 11
92.7508
 21
74.60720000000001
 31
0.0
  0
LINE
  5
BE
330
1E
100
AcDbEntity
  8
0
100
AcDbLine
 10
90.7
 20
77.9
 30
0.0
 11
93.2
 21
78.9
 31
0.0
  0
LINE
  5
BF
330
1E
100
AcDbEntity
  8
0
100
AcDbLine
 10
88.0
 20
77.5
 30
0.0
 11
90.7
 21
77.9
 31
0.0
  0
LINE
  5
C0
330
1E
100
AcDbEntity
  8
0
100
AcDbLine
 10
91.9902
 20
75.29600000000001
 30
0.0
 11
94.0
 21
77.57769999999999
 31
0.0
  0
LINE
  5
C1
330
1E
100
AcDbEntity
  8
0
100
AcDbLine
 10
94.0
 20
77.57769999999999
 30
0.0
 11
96.5
 21
79.5
 31
0.0
  0
LINE
  5
C2
330
1E
100
AcDbEntity
  8
0
100
AcDbLine
 10
102.0999999999999
 20
73.9
 30
0.0
 11
105.2999999999999
 21
78.09999999999999
 31
0.0
  0
LINE
  5
C3
330
1E
100
AcDbEntity
  8
0
100
AcDbLine
 10
102.4999999999999
 20
73.5
 30
0.0
 11
105.8
 21
77.8
 31
0.0
  0
LINE
  5
C4
330
1E
100
AcDbEntity
  8
0
100
AcDbLine
 10
105.2999999999999
 20
78.09999999999999
 30
0.0
 11
107.2999999999999
 21
82.9
 31
0.0
  0
LINE
  5
C5
330
1E
100
AcDbEntity
  8
0
100
AcDbLine
 10
111.8
 20
74.29999999999999
 30
0.0
 11
114.5
 21
80.90000000000001
 31
0.0
  0
LINE
  5
C6
330
1E
100
AcDbEntity
  8
0
100
AcDbLine
 10
112.7
 20
73.79999999999999
 30
0.0
 11
115.5
 21
80.7
 31
0.0
  0
LINE
  5
C7
330
1E
100
AcDbEntity
  8
0
100
AcDbLine
 10
113.5
 20
73.3
 30
0.0
 11
116.4
 21
80.4
 31
0.0
  0
LINE
  5
C9
330
1E
100
AcDbEntity
  8
0
100
AcDbLine
 10
105.8
 20
77.8
 30
0.0
 11
107.8
 21
82.70000000000001
 31
0.0
  0
LINE
  5
CA
330
1E
100
AcDbEntity
  8
0
100
AcDbLine
 10
97.3
 20
78.7
 30
0.0
 11
99.40000000000001
 21
81.4
 31
0.0
  0
LINE
  5
CB
330
1E
100
AcDbEntity
  8
0
100
AcDbLine
 10
94.59999999999999
 20
76.6
 30
0.0
 11
97.3
 21
78.7
 31
0.0
  0
LINE
  5
CC
330
1E
100
AcDbEntity
  8
0
100
AcDbLine
 10
95.4
 20
80.6
 30
0.0
 11
97.1
 21
82.79999999999999
 31
0.0
  0
LINE
  5
CD
330
1E
100
AcDbEntity
  8
0
100
AcDbLine
 10
114.5
 20
80.90000000000001
 30
0.0
 11
115.282608695652
 21
86.4565217391304
 31
0.0
  0
LINE
  5
CF
330
1E
100
AcDbEntity
  8
0
100
AcDbLine
 10
115.5
 20
80.7
 30
0.0
 11
116.316901408451
 21
86.66338028169009
 31
0.0
  0
LINE
  5
D0
330
1E
100
AcDbEntity
  8
0
100
AcDbLine
 10
116.4
 20
80.4
 30
0.0
 11
117.5
 21
88.0
 31
0.0
  0
LINE
  5
D1
330
1E
100
AcDbEntity
  8
0
100
AcDbLine
 10
96.5
 20
79.5
 30
0.0
 11
98.4223
 21
82.0
 31
0.0
  0
LINE
  5
D2
330
1E
100
AcDbEntity
  8
0
100
AcDbLine
 10
107.8
 20
82.70000000000001
 30
0.0
 11
108.208194378275
 21
85.7906145783707
 31
0.0
  0
LINE
  5
D3
330
1E
100
AcDbEntity
  8
0
100
AcDbLine
 10
98.4223
 20
82.0
 30
0.0
 11
100.7039999999999
 21
84.0098
 31
0.0
  0
LINE
  5
D4
330
1E
100
AcDbEntity
  8
0
100
AcDbLine
 10
99.40000000000001
 20
81.4
 30
0.0
 11
101.3929999999999
 21
83.2492
 31
0.0
  0
LINE
  5
D6
330
1E
100
AcDbEntity
  8
0
100
AcDbLine
 10
107.2999999999999
 20
82.9
 30
0.0
 11
107.691431401684
 21
85.75185735512629
 31
0.0
  0
LINE
  5
D7
330
1E
100
AcDbEntity
  8
0
100
AcDbLine
 10
97.1
 20
82.79999999999999
 30
0.0
 11
98.1
 21
85.29999999999999
 31
0.0
  0
LINE
  5
D9
330
1E
100
AcDbEntity
  8
0
100
AcDbLine
 10
93.2
 20
78.9
 30
0.0
 11
95.4
 21
80.6
 31
0.0
  0
LINE
  5
DA
330
1E
100
AcDbEntity
  8
0
100
AcDbLine
 10
92.7508
 20
74.60720000000001
 30
0.0
 11
94.59999999999999
 21
76.6
 31
0.0
  0
LINE
  5
DB
330
1E
100
AcDbEntity
  8
0
100
AcDbLine
 10
100.7039999999999
 20
84.0098
 30
0.0
 11
103.458
 21
85.85359999999999
 31
0.0
  0
LINE
  5
DC
330
1E
100
AcDbEntity
  8
0
100
AcDbLine
 10
101.3929999999999
 20
83.2492
 30
0.0
 11
104.1139999999999
 21
84.7704
 31
0.0
  0
LINE
  5
DD
330
1E
100
AcDbEntity
  8
0
100
AcDbLine
 10
85.29999999999999
 20
77.9
 30
0.0
 11
88.0
 21
77.5
 31
0.0
  0
LINE
  5
DE
330
1E
100
AcDbEntity
  8
0
100
AcDbLine
 10
85.85359999999999
 20
72.5421
 30
0.0
 11
86.90000000000001
 21
68.998
 31
0.0
  0
LINE
  5
DF
330
1E
100
AcDbEntity
  8
0
100
AcDbLine
 10
84.7704
 20
71.8861
 30
0.0
 11
85.7
 21
69.0
 31
0.0
  0
LINE
  5
E0
330
1E
100
AcDbEntity
  8
0
100
AcDbLine
 10
85.7
 20
69.0
 30
0.0
 11
86.0
 21
65.0
 31
0.0
  0
LINE
  5
E1
330
1E
100
AcDbEntity
  8
0
100
AcDbLine
 10
78.9
 20
82.79999999999999
 30
0.0
 11
80.6
 21
80.6
 31
0.0
  0
LINE
  5
E2
330
1E
100
AcDbEntity
  8
0
100
AcDbLine
 10
104.1139999999999
 20
84.7704
 30
0.0
 11
107.0
 21
85.7
 31
0.0
  0
LINE
  5
E3
330
1E
100
AcDbEntity
  8
0
100
AcDbLine
 10
75.29600000000001
 20
84.0098
 30
0.0
 11
77.57769999999999
 21
82.0
 31
0.0
  0
LINE
  5
E4
330
1E
100
AcDbEntity
  8
0
100
AcDbLine
 10
74.60720000000001
 20
83.2492
 30
0.0
 11
76.6
 21
81.4
 31
0.0
  0
LINE
  5
E5
330
1E
100
AcDbEntity
  8
0
100
AcDbLine
 10
98.1
 20
85.29999999999999
 30
0.0
 11
98.50000000000001
 21
88.0
 31
0.0
  0
LINE
  5
E6
330
1E
100
AcDbEntity
  8
0
100
AcDbLine
 10
103.458
 20
85.85359999999999
 30
0.0
 11
107.002
 21
86.90000000000001
 31
0.0
  0
LINE
  5
E7
330
1E
100
AcDbEntity
  8
0
100
AcDbLine
 10
111.0
 20
86.0
 30
0.0
 11
114.0
 21
86.2
 31
0.0
  0
LINE
  5
E8
330
1E
100
AcDbEntity
  8
0
100
AcDbLine
 10
107.0
 20
85.7
 30
0.0
 11
111.0
 21
86.0
 31
0.0
  0
LINE
  5
E9
330
1E
100
AcDbEntity
  8
0
100
AcDbLine
 10
77.9
 20
85.29999999999999
 30
0.0
 11
78.9
 21
82.79999999999999
 31
0.0
  0
LINE
  5
EA
330
1E
100
AcDbEntity
  8
0
100
AcDbLine
 10
72.5421
 20
85.85359999999999
 30
0.0
 11
75.29600000000001
 21
84.0098
 31
0.0
  0
LINE
  5
EB
330
1E
100
AcDbEntity
  8
0
100
AcDbLine
 10
71.8861
 20
84.7704
 30
0.0
 11
74.60720000000001
 21
83.2492
 31
0.0
  0
LINE
  5
EC
330
1E
100
AcDbEntity
  8
0
100
AcDbLine
 10
69.0
 20
85.7
 30
0.0
 11
71.8861
 21
84.7704
 31
0.0
  0
LINE
  5
F0
330
1E
100
AcDbEntity
  8
0
100
AcDbLine
 10
114.0
 20
86.2
 30
0.0
 11
116.5
 21
86.69999999999999
 31
0.0
  0
LINE
  5
F1
330
1E
100
AcDbEntity
  8
0
100
AcDbLine
 10
116.5
 20
86.69999999999999
 30
0.0
 11
117.0
 21
87.2
 31
0.0
  0
LINE
  5
F2
330
1E
100
AcDbEntity
  8
0
100
AcDbLine
 10
107.002
 20
86.90000000000001
 30
0.0
 11
110.977
 21
87.2
 31
0.0
  0
LINE
  5
F3
330
1E
100
AcDbEntity
  8
0
100
AcDbLine
 10
110.977
 20
87.2
 30
0.0
 11
112.8749999999999
 21
87.2
 31
0.0
  0
LINE
  5
F4
330
1E
100
AcDbEntity
  8
0
100
AcDbLine
 10
112.8749999999999
 20
87.2
 30
0.0
 11
114.375
 21
87.2
 31
0.0
  0
LINE
  5
F5
330
1E
100
AcDbEntity
  8
0
100
AcDbLine
 10
114.375
 20
87.2
 30
0.0
 11
115.471
 21
87.2
 31
0.0
  0
LINE
  5
F6
330
1E
100
AcDbEntity
  8
0
100
AcDbLine
 10
115.471
 20
87.2
 30
0.0
 11
116.125
 21
87.2
 31
0.0
  0
LINE
  5
F7
330
1E
100
AcDbEntity
  8
0
100
AcDbLine
 10
116.125
 20
87.2
 30
0.0
 11
116.6439999999999
 21
87.2
 31
0.0
  0
LINE
  5
F8
330
1E
100
AcDbEntity
  8
0
100
AcDbLine
 10
116.6439999999999
 20
87.2
 30
0.0
 11
117.0
 21
87.2
 31
0.0
  0
LINE
  5
F9
330
1E
100
AcDbEntity
  8
0
100
AcDbLine
 10
117.0
 20
87.2
 30
0.0
 11
117.0
 21
88.0
 31
0.0
  0
LINE
  5
FA
330
1E
100
AcDbEntity
  8
0
100
AcDbLine
 10
68.998
 20
86.90000000000001
 30
0.0
 11
72.5421
 21
85.85359999999999
 31
0.0
  0
LINE
  5
FB
330
1E
100
AcDbEntity
  8
0
100
AcDbLine
 10
65.02290000000001
 20
87.2
 30
0.0
 11
68.998
 21
86.90000000000001
 31
0.0
  0
LINE
  5
FC
330
1E
100
AcDbEntity
  8
0
100
AcDbLine
 10
65.0
 20
86.0
 30
0.0
 11
69.0
 21
85.7
 31
0.0
  0
LINE
  5
FD
330
1E
100
AcDbEntity
  8
0
100
AcDbLine
 10
63.1252
 20
87.2
 30
0.0
 11
65.02290000000001
 21
87.2
 31
0.0
  0
LINE
  5
FE
330
1E
100
AcDbEntity
  8
0
100
AcDbLine
 10
61.6253
 20
87.2
 30
0.0
 11
63.1252
 21
87.2
 31
0.0
  0
LINE
  5
FF
330
1E
100
AcDbEntity
  8
0
100
AcDbLine
 10
60.5292
 20
87.2
 30
0.0
 11
61.6253
 21
87.2
 31
0.0
  0
LINE
  5
100
330
1E
100
AcDbEntity
  8
0
100
AcDbLine
 10
59.8754
 20
87.2
 30
0.0
 11
60.5292
 21
87.2
 31
0.0
  0
LINE
  5
101
330
1E
100
AcDbEntity
  8
0
100
AcDbLine
 10
59.3562
 20
87.2
 30
0.0
 11
59.8754
 21
87.2
 31
0.0
  0
LINE
  5
102
330
1E
100
AcDbEntity
  8
0
100
AcDbLine
 10
58.5
 20
88.0
 30
0.0
 11
59.6
 21
80.4
 31
0.0
  0
LINE
  5
103
330
1E
100
AcDbEntity
  8
0
100
AcDbLine
 10
58.5
 20
88.0
 30
0.0
 11
59.6
 21
95.6
 31
0.0
  0
LINE
  5
106
330
1E
100
AcDbEntity
  8
0
100
AcDbLine
 10
59.0
 20
88.0
 30
0.0
 11
59.0
 21
87.2
 31
0.0
  0
LINE
  5
107
330
1E
100
AcDbEntity
  8
0
100
AcDbLine
 10
59.0
 20
88.0
 30
0.0
 11
59.0
 21
88.8
 31
0.0
  0
LINE
  5
108
330
1E
100
AcDbEntity
  8
0
100
AcDbLine
 10
117.0
 20
88.0
 30
0.0
 11
117.0
 21
87.2
 31
0.0
  0
LINE
  5
109
330
1E
100
AcDbEntity
  8
0
100
AcDbLine
 10
117.0
 20
88.0
 30
0.0
 11
117.0
 21
88.8
 31
0.0
  0
LINE
  5
10A
330
1E
100
AcDbEntity
  8
0
100
AcDbLine
 10
77.5
 20
88.0
 30
0.0
 11
77.9
 21
85.29999999999999
 31
0.0
  0
LINE
  5
10B
330
1E
100
AcDbEntity
  8
0
100
AcDbLine
 10
77.5
 20
88.0
 30
0.0
 11
77.9
 21
90.7
 31
0.0
  0
LINE
  5
10C
330
1E
100
AcDbEntity
  8
0
100
AcDbLine
 10
59.0
 20
87.2
 30
0.0
 11
59.0
 21
88.0
 31
0.0
  0
LINE
  5
10D
330
1E
100
AcDbEntity
  8
0
100
AcDbLine
 10
59.0
 20
87.2
 30
0.0
 11
59.3562
 21
87.2
 31
0.0
  0
LINE
  5
10E
330
1E
100
AcDbEntity
  8
0
100
AcDbLine
 10
59.0
 20
87.2
 30
0.0
 11
59.5
 21
86.69999999999999
 31
0.0
  0
LINE
  5
10F
330
1E
100
AcDbEntity
  8
0
100
AcDbLine
 10
165.1999999999999
 20
77.9
 30
0.0
 11
166.0
 21
88.0
 31
0.0
  0
LINE
  5
110
330
1E
100
AcDbEntity
  8
0
100
AcDbLine
 10
12.8
 20
67.9
 30
0.0
 11
16.1
 21
58.2
 31
0.0
  0
LINE
  5
111
330
1E
100
AcDbEntity
  8
0
100
AcDbLine
 10
10.8
 20
77.9
 30
0.0
 11
12.8
 21
67.9
 31
0.0
  0
LINE
  5
112
330
1E
100
AcDbEntity
  8
0
100
AcDbLine
 10
12.8
 20
108.0999999999999
 30
0.0
 11
16.1
 21
117.7999999999999
 31
0.0
  0
LINE
  5
113
330
1E
100
AcDbEntity
  8
0
100
AcDbLine
 10
10.8
 20
98.1
 30
0.0
 11
12.8
 21
108.0999999999999
 31
0.0
  0
LINE
  5
114
330
1E
100
AcDbEntity
  8
0
100
AcDbLine
 10
16.1
 20
117.7999999999999
 30
0.0
 11
20.4
 21
126.8
 31
0.0
  0
LINE
  5
115
330
1E
100
AcDbEntity
  8
0
100
AcDbLine
 10
11.8
 20
131.8
 30
0.0
 11
18.3
 21
141.5
 31
0.0
  0
LINE
  5
116
330
1E
100
AcDbEntity
  8
0
100
AcDbLine
 10
6.9
 20
121.5999999999999
 30
0.0
 11
11.8
 21
131.8
 31
0.0
  0
LINE
  5
117
330
1E
100
AcDbEntity
  8
0
100
AcDbLine
 10
26.2
 20
135.4
 30
0.0
 11
32.9
 21
143.1
 31
0.0
  0
LINE
  5
118
330
1E
100
AcDbEntity
  8
0
100
AcDbLine
 10
20.4
 20
126.8
 30
0.0
 11
26.2
 21
135.4
 31
0.0
  0
LINE
  5
119
330
1E
100
AcDbEntity
  8
0
100
AcDbLine
 10
18.3
 20
141.5
 30
0.0
 11
25.89999999999999
 21
150.0999999999999
 31
0.0
  0
LINE
  5
11A
330
1E
100
AcDbEntity
  8
0
100
AcDbLine
 10
3.2
 20
110.6999999999999
 30
0.0
 11
6.9
 21
121.5999999999999
 31
0.0
  0
LINE
  5
11B
330
1E
100
AcDbEntity
  8
0
100
AcDbLine
 10
32.9
 20
143.1
 30
0.0
 11
40.6
 21
149.8
 31
0.0
  0
LINE
  5
11C
330
1E
100
AcDbEntity
  8
0
100
AcDbLine
 10
40.6
 20
149.8
 30
0.0
 11
49.2
 21
155.6
 31
0.0
  0
LINE
  5
11D
330
1E
100
AcDbEntity
  8
0
100
AcDbLine
 10
63.1252
 20
88.8
 30
0.0
 11
65.02290000000001
 21
88.8
 31
0.0
  0
LINE
  5
11E
330
1E
100
AcDbEntity
  8
0
100
AcDbLine
 10
61.6253
 20
88.8
 30
0.0
 11
63.1252
 21
88.8
 31
0.0
  0
LINE
  5
11F
330
1E
100
AcDbEntity
  8
0
100
AcDbLine
 10
60.5292
 20
88.8
 30
0.0
 11
61.6253
 21
88.8
 31
0.0
  0
LINE
  5
120
330
1E
100
AcDbEntity
  8
0
100
AcDbLine
 10
59.8754
 20
88.8
 30
0.0
 11
60.5292
 21
88.8
 31
0.0
  0
LINE
  5
121
330
1E
100
AcDbEntity
  8
0
100
AcDbLine
 10
59.3562
 20
88.8
 30
0.0
 11
59.8754
 21
88.8
 31
0.0
  0
LINE
  5
123
330
1E
100
AcDbEntity
  8
0
100
AcDbLine
 10
59.6830985915493
 20
89.3366197183098
 30
0.0
 11
60.5
 21
95.29999999999999
 31
0.0
  0
LINE
  5
125
330
1E
100
AcDbEntity
  8
0
100
AcDbLine
 10
60.7173913043478
 20
89.5434782608695
 30
0.0
 11
61.5
 21
95.09999999999999
 31
0.0
  0
LINE
  5
128
330
1E
100
AcDbEntity
  8
0
100
AcDbLine
 10
62.0
 20
89.8
 30
0.0
 11
65.0
 21
90.0
 31
0.0
  0
LINE
  5
129
330
1E
100
AcDbEntity
  8
0
100
AcDbLine
 10
59.5
 20
89.29999999999999
 30
0.0
 11
62.0
 21
89.8
 31
0.0
  0
LINE
  5
12A
330
1E
100
AcDbEntity
  8
0
100
AcDbLine
 10
59.0
 20
88.8
 30
0.0
 11
59.0
 21
88.0
 31
0.0
  0
LINE
  5
12B
330
1E
100
AcDbEntity
  8
0
100
AcDbLine
 10
59.0
 20
88.8
 30
0.0
 11
59.5
 21
89.29999999999999
 31
0.0
  0
LINE
  5
12C
330
1E
100
AcDbEntity
  8
0
100
AcDbLine
 10
59.0
 20
88.8
 30
0.0
 11
59.3562
 21
88.8
 31
0.0
  0
LINE
  5
12D
330
1E
100
AcDbEntity
  8
0
100
AcDbLine
 10
65.02290000000001
 20
88.8
 30
0.0
 11
68.998
 21
89.1
 31
0.0
  0
LINE
  5
12E
330
1E
100
AcDbEntity
  8
0
100
AcDbLine
 10
61.5
 20
95.09999999999999
 30
0.0
 11
64.2
 21
101.7
 31
0.0
  0
LINE
  5
130
330
1E
100
AcDbEntity
  8
0
100
AcDbLine
 10
60.5
 20
95.29999999999999
 30
0.0
 11
63.3
 21
102.2
 31
0.0
  0
LINE
  5
131
330
1E
100
AcDbEntity
  8
0
100
AcDbLine
 10
59.6
 20
95.6
 30
0.0
 11
62.5
 21
102.7
 31
0.0
  0
LINE
  5
132
330
1E
100
AcDbEntity
  8
0
100
AcDbLine
 10
64.2
 20
101.7
 30
0.0
 11
68.59999999999999
 21
107.4
 31
0.0
  0
LINE
  5
134
330
1E
100
AcDbEntity
  8
0
100
AcDbLine
 10
63.3
 20
102.2
 30
0.0
 11
67.9
 21
108.0999999999999
 31
0.0
  0
LINE
  5
135
330
1E
100
AcDbEntity
  8
0
100
AcDbLine
 10
62.5
 20
102.7
 30
0.0
 11
67.2
 21
108.8
 31
0.0
  0
LINE
  5
137
330
1E
100
AcDbEntity
  8
0
100
AcDbLine
 10
67.7918056217246
 20
90.20938542162928
 30
0.0
 11
68.2
 21
93.3
 31
0.0
  0
LINE
  5
138
330
1E
100
AcDbEntity
  8
0
100
AcDbLine
 10
67.9
 20
108.0999999999999
 30
0.0
 11
73.79999999999999
 21
112.7
 31
0.0
  0
LINE
  5
139
330
1E
100
AcDbEntity
  8
0
100
AcDbLine
 10
67.2
 20
108.8
 30
0.0
 11
73.3
 21
113.5
 31
0.0
  0
LINE
  5
13A
330
1E
100
AcDbEntity
  8
0
100
AcDbLine
 10
65.0
 20
90.0
 30
0.0
 11
69.0
 21
90.29999999999999
 31
0.0
  0
LINE
  5
13B
330
1E
100
AcDbEntity
  8
0
100
AcDbLine
 10
49.2
 20
155.6
 30
0.0
 11
58.2
 21
159.9
 31
0.0
  0
LINE
  5
13C
330
1E
100
AcDbEntity
  8
0
100
AcDbLine
 10
58.2
 20
159.9
 30
0.0
 11
67.9
 21
163.1999999999999
 31
0.0
  0
LINE
  5
13D
330
1E
100
AcDbEntity
  8
0
100
AcDbLine
 10
68.308568598316
 20
90.24814264487369
 30
0.0
 11
68.7
 21
93.1
 31
0.0
  0
LINE
  5
13E
330
1E
100
AcDbEntity
  8
0
100
AcDbLine
 10
72.5421
 20
90.14639999999999
 30
0.0
 11
75.29600000000001
 21
91.9902
 31
0.0
  0
LINE
  5
13F
330
1E
100
AcDbEntity
  8
0
100
AcDbLine
 10
68.998
 20
89.1
 30
0.0
 11
72.5421
 21
90.14639999999999
 31
0.0
  0
LINE
  5
140
330
1E
100
AcDbEntity
  8
0
100
AcDbLine
 10
68.2
 20
93.3
 30
0.0
 11
70.2
 21
98.2
 31
0.0
  0
LINE
  5
141
330
1E
100
AcDbEntity
  8
0
100
AcDbLine
 10
70.2
 20
98.2
 30
0.0
 11
73.5
 21
102.4999999999999
 31
0.0
  0
LINE
  5
142
330
1E
100
AcDbEntity
  8
0
100
AcDbLine
 10
70.7
 20
97.9
 30
0.0
 11
73.9
 21
102.0999999999999
 31
0.0
  0
LINE
  5
143
330
1E
100
AcDbEntity
  8
0
100
AcDbLine
 10
68.7
 20
93.1
 30
0.0
 11
70.7
 21
97.9
 31
0.0
  0
LINE
  5
144
330
1E
100
AcDbEntity
  8
0
100
AcDbLine
 10
68.59999999999999
 20
107.4
 30
0.0
 11
74.29999999999999
 21
111.8
 31
0.0
  0
LINE
  5
146
330
1E
100
AcDbEntity
  8
0
100
AcDbLine
 10
75.29600000000001
 20
91.9902
 30
0.0
 11
77.57769999999999
 21
94.0
 31
0.0
  0
LINE
  5
147
330
1E
100
AcDbEntity
  8
0
100
AcDbLine
 10
73.5
 20
102.4999999999999
 30
0.0
 11
77.8
 21
105.8
 31
0.0
  0
LINE
  5
148
330
1E
100
AcDbEntity
  8
0
100
AcDbLine
 10
73.9
 20
102.0999999999999
 30
0.0
 11
78.09999999999999
 21
105.2999999999999
 31
0.0
  0
LINE
  5
149
330
1E
100
AcDbEntity
  8
0
100
AcDbLine
 10
74.29999999999999
 20
111.8
 30
0.0
 11
80.90000000000001
 21
114.5
 31
0.0
  0
LINE
  5
14B
330
1E
100
AcDbEntity
  8
0
100
AcDbLine
 10
73.79999999999999
 20
112.7
 30
0.0
 11
80.7
 21
115.5
 31
0.0
  0
LINE
  5
14C
330
1E
100
AcDbEntity
  8
0
100
AcDbLine
 10
73.3
 20
113.5
 30
0.0
 11
80.4
 21
116.4
 31
0.0
  0
LINE
  5
14E
330
1E
100
AcDbEntity
  8
0
100
AcDbLine
 10
74.60720000000001
 20
92.7508
 30
0.0
 11
76.6
 21
94.59999999999999
 31
0.0
  0
LINE
  5
14F
330
1E
100
AcDbEntity
  8
0
100
AcDbLine
 10
71.8861
 20
91.2296
 30
0.0
 11
74.60720000000001
 21
92.7508
 31
0.0
  0
LINE
  5
150
330
1E
100
AcDbEntity
  8
0
100
AcDbLine
 10
69.0
 20
90.29999999999999
 30
0.0
 11
71.8861
 21
91.2296
 31
0.0
  0
LINE
  5
151
330
1E
100
AcDbEntity
  8
0
100
AcDbLine
 10
67.9
 20
163.1999999999999
 30
0.0
 11
77.9
 21
165.1999999999999
 31
0.0
  0
LINE
  5
152
330
1E
100
AcDbEntity
  8
0
100
AcDbLine
 10
65.3
 20
172.8
 30
0.0
 11
76.5
 21
175.0999999999999
 31
0.0
  0
LINE
  5
153
330
1E
100
AcDbEntity
  8
0
100
AcDbLine
 10
77.57769999999999
 20
94.0
 30
0.0
 11
79.5
 21
96.5
 31
0.0
  0
LINE
  5
154
330
1E
100
AcDbEntity
  8
0
100
AcDbLine
 10
76.6
 20
94.59999999999999
 30
0.0
 11
78.7
 21
97.3
 31
0.0
  0
LINE
  5
155
330
1E
100
AcDbEntity
  8
0
100
AcDbLine
 10
78.9
 20
93.2
 30
0.0
 11
80.6
 21
95.4
 31
0.0
  0
LINE
  5
156
330
1E
100
AcDbEntity
  8
0
100
AcDbLine
 10
77.9
 20
90.7
 30
0.0
 11
78.9
 21
93.2
 31
0.0
  0
LINE
  5
157
330
1E
100
AcDbEntity
  8
0
100
AcDbLine
 10
79.5
 20
96.5
 30
0.0
 11
82.0
 21
98.4223
 31
0.0
  0
LINE
  5
158
330
1E
100
AcDbEntity
  8
0
100
AcDbLine
 10
78.7
 20
97.3
 30
0.0
 11
81.4
 21
99.40000000000001
 31
0.0
  0
LINE
  5
15A
330
1E
100
AcDbEntity
  8
0
100
AcDbLine
 10
80.6
 20
95.4
 30
0.0
 11
82.79999999999999
 21
97.1
 31
0.0
  0
LINE
  5
15B
330
1E
100
AcDbEntity
  8
0
100
AcDbLine
 10
82.79999999999999
 20
97.1
 30
0.0
 11
85.29999999999999
 21
98.1
 31
0.0
  0
LINE
  5
15C
330
1E
100
AcDbEntity
  8
0
100
AcDbLine
 10
82.0
 20
98.4223
 30
0.0
 11
84.0098
 21
100.7039999999999
 31
0.0
  0
LINE
  5
15D
330
1E
100
AcDbEntity
  8
0
100
AcDbLine
 10
81.4
 20
99.40000000000001
 30
0.0
 11
83.2492
 21
101.3929999999999
 31
0.0
  0
LINE
  5
15E
330
1E
100
AcDbEntity
  8
0
100
AcDbLine
 10
84.0098
 20
100.7039999999999
 30
0.0
 11
85.85359999999999
 21
103.458
 31
0.0
  0
LINE
  5
15F
330
1E
100
AcDbEntity
  8
0
100
AcDbLine
 10
77.8
 20
105.8
 30
0.0
 11
82.70000000000001
 21
107.8
 31
0.0
  0
LINE
  5
160
330
1E
100
AcDbEntity
  8
0
100
AcDbLine
 10
78.09999999999999
 20
105.2999999999999
 30
0.0
 11
82.9
 21
107.2999999999999
 31
0.0
  0
LINE
  5
161
330
1E
100
AcDbEntity
  8
0
100
AcDbLine
 10
83.2492
 20
101.3929999999999
 30
0.0
 11
84.7704
 21
104.1139999999999
 31
0.0
  0
LINE
  5
162
330
1E
100
AcDbEntity
  8
0
100
AcDbLine
 10
85.29999999999999
 20
98.1
 30
0.0
 11
88.0
 21
98.50000000000001
 31
0.0
  0
LINE
  5
163
330
1E
100
AcDbEntity
  8
0
100
AcDbLine
 10
88.0
 20
98.50000000000001
 30
0.0
 11
90.7
 21
98.1
 31
0.0
  0
LINE
  5
164
330
1E
100
AcDbEntity
  8
0
100
AcDbLine
 10
85.85359999999999
 20
103.458
 30
0.0
 11
86.90000000000001
 21
107.002
 31
0.0
  0
LINE
  5
165
330
1E
100
AcDbEntity
  8
0
100
AcDbLine
 10
84.7704
 20
104.1139999999999
 30
0.0
 11
85.7
 21
107.0
 31
0.0
  0
LINE
  5
166
330
1E
100
AcDbEntity
  8
0
100
AcDbLine
 10
86.90000000000001
 20
107.002
 30
0.0
 11
87.2
 21
110.977
 31
0.0
  0
LINE
  5
167
330
1E
100
AcDbEntity
  8
0
100
AcDbLine
 10
85.7
 20
107.0
 30
0.0
 11
86.0
 21
111.0
 31
0.0
  0
LINE
  5
168
330
1E
100
AcDbEntity
  8
0
100
AcDbLine
 10
90.14639999999999
 20
103.458
 30
0.0
 11
91.9902
 21
100.7039999999999
 31
0.0
  0
LINE
  5
169
330
1E
100
AcDbEntity
  8
0
100
AcDbLine
 10
82.70000000000001
 20
107.8
 30
0.0
 11
85.7906145783707
 21
108.208194378275
 31
0.0
  0
LINE
  5
16A
330
1E
100
AcDbEntity
  8
0
100
AcDbLine
 10
82.9
 20
107.2999999999999
 30
0.0
 11
85.75185735512629
 21
107.691431401684
 31
0.0
  0
LINE
  5
16B
330
1E
100
AcDbEntity
  8
0
100
AcDbLine
 10
90.24814264487369
 20
107.691431401684
 30
0.0
 11
93.1
 21
107.2999999999999
 31
0.0
  0
LINE
  5
16C
330
1E
100
AcDbEntity
  8
0
100
AcDbLine
 10
89.1
 20
107.002
 30
0.0
 11
90.14639999999999
 21
103.458
 31
0.0
  0
LINE
  5
16D
330
1E
100
AcDbEntity
  8
0
100
AcDbLine
 10
98.1
 20
90.7
 30
0.0
 11
98.50000000000001
 21
88.0
 31
0.0
  0
LINE
  5
16E
330
1E
100
AcDbEntity
  8
0
100
AcDbLine
 10
103.458
 20
90.14639999999999
 30
0.0
 11
107.002
 21
89.1
 31
0.0
  0
LINE
  5
16F
330
1E
100
AcDbEntity
  8
0
100
AcDbLine
 10
93.2
 20
97.1
 30
0.0
 11
95.4
 21
95.4
 31
0.0
  0
LINE
  5
170
330
1E
100
AcDbEntity
  8
0
100
AcDbLine
 10
91.9902
 20
100.7039999999999
 30
0.0
 11
94.0
 21
98.4223
 31
0.0
  0
LINE
  5
171
330
1E
100
AcDbEntity
  8
0
100
AcDbLine
 10
94.0
 20
98.4223
 30
0.0
 11
96.5
 21
96.5
 31
0.0
  0
LINE
  5
172
330
1E
100
AcDbEntity
  8
0
100
AcDbLine
 10
94.59999999999999
 20
99.40000000000001
 30
0.0
 11
97.3
 21
97.3
 31
0.0
  0
LINE
  5
173
330
1E
100
AcDbEntity
  8
0
100
AcDbLine
 10
92.7508
 20
101.3929999999999
 30
0.0
 11
94.59999999999999
 21
99.40000000000001
 31
0.0
  0
LINE
  5
174
330
1E
100
AcDbEntity
  8
0
100
AcDbLine
 10
90.7
 20
98.1
 30
0.0
 11
93.2
 21
97.1
 31
0.0
  0
LINE
  5
175
330
1E
100
AcDbEntity
  8
0
100
AcDbLine
 10
96.5
 20
96.5
 30
0.0
 11
98.4223
 21
94.0
 31
0.0
  0
LINE
  5
177
330
1E
100
AcDbEntity
  8
0
100
AcDbLine
 10
95.4
 20
95.4
 30
0.0
 11
97.1
 21
93.2
 31
0.0
  0
LINE
  5
178
330
1E
100
AcDbEntity
  8
0
100
AcDbLine
 10
98.4223
 20
94.0
 30
0.0
 11
100.7039999999999
 21
91.9902
 31
0.0
  0
LINE
  5
179
330
1E
100
AcDbEntity
  8
0
100
AcDbLine
 10
97.3
 20
97.3
 30
0.0
 11
99.40000000000001
 21
94.59999999999999
 31
0.0
  0
LINE
  5
17A
330
1E
100
AcDbEntity
  8
0
100
AcDbLine
 10
99.40000000000001
 20
94.59999999999999
 30
0.0
 11
101.3929999999999
 21
92.7508
 31
0.0
  0
LINE
  5
17B
330
1E
100
AcDbEntity
  8
0
100
AcDbLine
 10
97.1
 20
93.2
 30
0.0
 11
98.1
 21
90.7
 31
0.0
  0
LINE
  5
17C
330
1E
100
AcDbEntity
  8
0
100
AcDbLine
 10
100.7039999999999
 20
91.9902
 30
0.0
 11
103.458
 21
90.14639999999999
 31
0.0
  0
LINE
  5
17D
330
1E
100
AcDbEntity
  8
0
100
AcDbLine
 10
102.4999999999999
 20
102.4999999999999
 30
0.0
 11
105.8
 21
98.2
 31
0.0
  0
LINE
  5
17E
330
1E
100
AcDbEntity
  8
0
100
AcDbLine
 10
102.0999999999999
 20
102.0999999999999
 30
0.0
 11
105.2999999999999
 21
97.9
 31
0.0
  0
LINE
  5
17F
330
1E
100
AcDbEntity
  8
0
100
AcDbLine
 10
105.8
 20
98.2
 30
0.0
 11
107.8
 21
93.3
 31
0.0
  0
LINE
  5
180
330
1E
100
AcDbEntity
  8
0
100
AcDbLine
 10
105.2999999999999
 20
97.9
 30
0.0
 11
107.2999999999999
 21
93.1
 31
0.0
  0
LINE
  5
181
330
1E
100
AcDbEntity
  8
0
100
AcDbLine
 10
101.3929999999999
 20
92.7508
 30
0.0
 11
104.1139999999999
 21
91.2296
 31
0.0
  0
LINE
  5
182
330
1E
100
AcDbEntity
  8
0
100
AcDbLine
 10
104.1139999999999
 20
91.2296
 30
0.0
 11
107.0
 21
90.29999999999999
 31
0.0
  0
LINE
  5
183
330
1E
100
AcDbEntity
  8
0
100
AcDbLine
 10
110.977
 20
88.8
 30
0.0
 11
112.8749999999999
 21
88.8
 31
0.0
  0
LINE
  5
184
330
1E
100
AcDbEntity
  8
0
100
AcDbLine
 10
112.8749999999999
 20
88.8
 30
0.0
 11
114.375
 21
88.8
 31
0.0
  0
LINE
  5
185
330
1E
100
AcDbEntity
  8
0
100
AcDbLine
 10
114.375
 20
88.8
 30
0.0
 11
115.471
 21
88.8
 31
0.0
  0
LINE
  5
186
330
1E
100
AcDbEntity
  8
0
100
AcDbLine
 10
115.471
 20
88.8
 30
0.0
 11
116.125
 21
88.8
 31
0.0
  0
LINE
  5
187
330
1E
100
AcDbEntity
  8
0
100
AcDbLine
 10
116.125
 20
88.8
 30
0.0
 11
116.6439999999999
 21
88.8
 31
0.0
  0
LINE
  5
188
330
1E
100
AcDbEntity
  8
0
100
AcDbLine
 10
116.6439999999999
 20
88.8
 30
0.0
 11
117.0
 21
88.8
 31
0.0
  0
LINE
  5
189
330
1E
100
AcDbEntity
  8
0
100
AcDbLine
 10
117.0
 20
88.8
 30
0.0
 11
117.0
 21
88.0
 31
0.0
  0
LINE
  5
18D
330
1E
100
AcDbEntity
  8
0
100
AcDbLine
 10
107.2999999999999
 20
93.1
 30
0.0
 11
107.691431401684
 21
90.24814264487369
 31
0.0
  0
LINE
  5
18E
330
1E
100
AcDbEntity
  8
0
100
AcDbLine
 10
107.8
 20
93.3
 30
0.0
 11
108.208194378275
 21
90.20938542162928
 31
0.0
  0
LINE
  5
18F
330
1E
100
AcDbEntity
  8
0
100
AcDbLine
 10
111.8
 20
101.7
 30
0.0
 11
114.5
 21
95.09999999999999
 31
0.0
  0
LINE
  5
190
330
1E
100
AcDbEntity
  8
0
100
AcDbLine
 10
114.5
 20
95.09999999999999
 30
0.0
 11
115.282608695652
 21
89.5434782608695
 31
0.0
  0
LINE
  5
193
330
1E
100
AcDbEntity
  8
0
100
AcDbLine
 10
112.7
 20
102.2
 30
0.0
 11
115.5
 21
95.29999999999999
 31
0.0
  0
LINE
  5
194
330
1E
100
AcDbEntity
  8
0
100
AcDbLine
 10
115.5
 20
95.29999999999999
 30
0.0
 11
116.316901408451
 21
89.3366197183098
 31
0.0
  0
LINE
  5
195
330
1E
100
AcDbEntity
  8
0
100
AcDbLine
 10
113.5
 20
102.7
 30
0.0
 11
116.4
 21
95.6
 31
0.0
  0
LINE
  5
196
330
1E
100
AcDbEntity
  8
0
100
AcDbLine
 10
116.4
 20
95.6
 30
0.0
 11
117.5
 21
88.0
 31
0.0
  0
LINE
  5
198
330
1E
100
AcDbEntity
  8
0
100
AcDbLine
 10
111.0
 20
90.0
 30
0.0
 11
114.0
 21
89.8
 31
0.0
  0
LINE
  5
199
330
1E
100
AcDbEntity
  8
0
100
AcDbLine
 10
114.0
 20
89.8
 30
0.0
 11
116.5
 21
89.29999999999999
 31
0.0
  0
LINE
  5
19A
330
1E
100
AcDbEntity
  8
0
100
AcDbLine
 10
116.5
 20
89.29999999999999
 30
0.0
 11
117.0
 21
88.8
 31
0.0
  0
LINE
  5
19B
330
1E
100
AcDbEntity
  8
0
100
AcDbLine
 10
107.002
 20
89.1
 30
0.0
 11
110.977
 21
88.8
 31
0.0
  0
LINE
  5
19C
330
1E
100
AcDbEntity
  8
0
100
AcDbLine
 10
107.0
 20
90.29999999999999
 30
0.0
 11
111.0
 21
90.0
 31
0.0
  0
LINE
  5
19D
330
1E
100
AcDbEntity
  8
0
100
AcDbLine
 10
98.2
 20
105.8
 30
0.0
 11
102.4999999999999
 21
102.4999999999999
 31
0.0
  0
LINE
  5
19E
330
1E
100
AcDbEntity
  8
0
100
AcDbLine
 10
97.9
 20
105.2999999999999
 30
0.0
 11
102.0999999999999
 21
102.0999999999999
 31
0.0
  0
LINE
  5
19F
330
1E
100
AcDbEntity
  8
0
100
AcDbLine
 10
93.3
 20
107.8
 30
0.0
 11
98.2
 21
105.8
 31
0.0
  0
LINE
  5
1A0
330
1E
100
AcDbEntity
  8
0
100
AcDbLine
 10
93.1
 20
107.2999999999999
 30
0.0
 11
97.9
 21
105.2999999999999
 31
0.0
  0
LINE
  5
1A1
330
1E
100
AcDbEntity
  8
0
100
AcDbLine
 10
107.4
 20
107.4
 30
0.0
 11
111.8
 21
101.7
 31
0.0
  0
LINE
  5
1A3
330
1E
100
AcDbEntity
  8
0
100
AcDbLine
 10
108.0999999999999
 20
108.0999999999999
 30
0.0
 11
112.7
 21
102.2
 31
0.0
  0
LINE
  5
1A4
330
1E
100
AcDbEntity
  8
0
100
AcDbLine
 10
91.2296
 20
104.1139999999999
 30
0.0
 11
92.7508
 21
101.3929999999999
 31
0.0
  0
LINE
  5
1A5
330
1E
100
AcDbEntity
  8
0
100
AcDbLine
 10
90.29999999999999
 20
107.0
 30
0.0
 11
91.2296
 21
104.1139999999999
 31
0.0
  0
LINE
  5
1A6
330
1E
100
AcDbEntity
  8
0
100
AcDbLine
 10
86.0
 20
111.0
 30
0.0
 11
86.2
 21
114.0
 31
0.0
  0
LINE
  5
1A7
330
1E
100
AcDbEntity
  8
0
100
AcDbLine
 10
87.2
 20
110.977
 30
0.0
 11
87.2
 21
112.8749999999999
 31
0.0
  0
LINE
  5
1A8
330
1E
100
AcDbEntity
  8
0
100
AcDbLine
 10
90.20938542162928
 20
108.208194378275
 30
0.0
 11
93.3
 21
107.8
 31
0.0
  0
LINE
  5
1A9
330
1E
100
AcDbEntity
  8
0
100
AcDbLine
 10
108.8
 20
108.8
 30
0.0
 11
113.5
 21
102.7
 31
0.0
  0
LINE
  5
1AA
330
1E
100
AcDbEntity
  8
0
100
AcDbLine
 10
88.8
 20
110.977
 30
0.0
 11
89.1
 21
107.002
 31
0.0
  0
LINE
  5
1AB
330
1E
100
AcDbEntity
  8
0
100
AcDbLine
 10
88.8
 20
110.977
 30
0.0
 11
88.8
 21
112.8749999999999
 31
0.0
  0
LINE
  5
1AC
330
1E
100
AcDbEntity
  8
0
100
AcDbLine
 10
86.2
 20
114.0
 30
0.0
 11
86.69999999999999
 21
116.5
 31
0.0
  0
LINE
  5
1B0
330
1E
100
AcDbEntity
  8
0
100
AcDbLine
 10
87.2
 20
112.8749999999999
 30
0.0
 11
87.2
 21
114.375
 31
0.0
  0
LINE
  5
1B1
330
1E
100
AcDbEntity
  8
0
100
AcDbLine
 10
87.2
 20
112.8749999999999
 30
0.0
 11
87.2
 21
110.977
 31
0.0
  0
LINE
  5
1B2
330
1E
100
AcDbEntity
  8
0
100
AcDbLine
 10
80.90000000000001
 20
114.5
 30
0.0
 11
86.4565217391304
 21
115.282608695652
 31
0.0
  0
LINE
  5
1B3
330
1E
100
AcDbEntity
  8
0
100
AcDbLine
 10
84.0
 20
115.4444444444439
 30
0.0
 11
84.0
 21
119.7529999999999
 31
0.0
  0
LINE
  5
1B4
330
1E
100
AcDbEntity
  8
0
100
AcDbLine
 10
80.7
 20
115.5
 30
0.0
 11
84.0
 21
115.9520547945209
 31
0.0
  0
LINE
  5
1B8
330
1E
100
AcDbEntity
  8
0
100
AcDbLine
 10
87.2
 20
114.375
 30
0.0
 11
87.2
 21
115.471
 31
0.0
  0
LINE
  5
1B9
330
1E
100
AcDbEntity
  8
0
100
AcDbLine
 10
87.2
 20
114.375
 30
0.0
 11
87.2
 21
112.8749999999999
 31
0.0
  0
LINE
  5
1BA
330
1E
100
AcDbEntity
  8
0
100
AcDbLine
 10
87.2
 20
115.471
 30
0.0
 11
87.2
 21
116.125
 31
0.0
  0
LINE
  5
1BB
330
1E
100
AcDbEntity
  8
0
100
AcDbLine
 10
87.2
 20
115.471
 30
0.0
 11
87.2
 21
114.375
 31
0.0
  0
LINE
  5
1BC
330
1E
100
AcDbEntity
  8
0
100
AcDbLine
 10
80.4
 20
116.4
 30
0.0
 11
84.0
 21
116.921052631579
 31
0.0
  0
LINE
  5
1BE
330
1E
100
AcDbEntity
  8
0
100
AcDbLine
 10
86.69999999999999
 20
116.5
 30
0.0
 11
87.2
 21
117.0
 31
0.0
  0
LINE
  5
1BF
330
1E
100
AcDbEntity
  8
0
100
AcDbLine
 10
87.2
 20
116.125
 30
0.0
 11
87.2
 21
116.6439999999999
 31
0.0
  0
LINE
  5
1C0
330
1E
100
AcDbEntity
  8
0
100
AcDbLine
 10
87.2
 20
116.125
 30
0.0
 11
87.2
 21
115.471
 31
0.0
  0
LINE
  5
1C1
330
1E
100
AcDbEntity
  8
0
100
AcDbLine
 10
87.2
 20
116.6439999999999
 30
0.0
 11
87.2
 21
117.0
 31
0.0
  0
LINE
  5
1C2
330
1E
100
AcDbEntity
  8
0
100
AcDbLine
 10
87.2
 20
116.6439999999999
 30
0.0
 11
87.2
 21
116.125
 31
0.0
  0
LINE
  5
1C3
330
1E
100
AcDbEntity
  8
0
100
AcDbLine
 10
88.0
 20
120.0
 30
0.0
 11
89.008
 21
120.0
 31
0.0
  0
LINE
  5
1C4
330
1E
100
AcDbEntity
  8
0
100
AcDbLine
 10
86.99200000000001
 20
120.0
 30
0.0
 11
88.0
 21
120.0
 31
0.0
  0
LINE
  5
1C5
330
1E
100
AcDbEntity
  8
0
100
AcDbLine
 10
86.06399999999998
 20
120.0
 30
0.0
 11
86.99200000000001
 21
120.0
 31
0.0
  0
LINE
  5
1C6
330
1E
100
AcDbEntity
  8
0
100
AcDbLine
 10
85.24799999999999
 20
120.0
 30
0.0
 11
86.06399999999998
 21
120.0
 31
0.0
  0
LINE
  5
1C7
330
1E
100
AcDbEntity
  8
0
100
AcDbLine
 10
84.624
 20
120.0
 30
0.0
 11
85.24799999999999
 21
120.0
 31
0.0
  0
LINE
  5
1C8
330
1E
100
AcDbEntity
  8
0
100
AcDbLine
 10
84.23999999999999
 20
120.0
 30
0.0
 11
84.624
 21
120.0
 31
0.0
  0
LINE
  5
1C9
330
1E
100
AcDbEntity
  8
0
100
AcDbLine
 10
84.09600000000001
 20
120.0
 30
0.0
 11
84.23999999999999
 21
120.0
 31
0.0
  0
LINE
  5
1CA
330
1E
100
AcDbEntity
  8
0
100
AcDbLine
 10
84.0
 20
119.7529999999999
 30
0.0
 11
84.0
 21
115.4444444444439
 31
0.0
  0
LINE
  5
1CB
330
1E
100
AcDbEntity
  8
0
100
AcDbLine
 10
84.0
 20
119.7529999999999
 30
0.0
 11
84.09600000000001
 21
120.0
 31
0.0
  0
LINE
  5
1CC
330
1E
100
AcDbEntity
  8
0
100
AcDbLine
 10
87.2
 20
117.0
 30
0.0
 11
88.0
 21
117.0
 31
0.0
  0
LINE
  5
1CD
330
1E
100
AcDbEntity
  8
0
100
AcDbLine
 10
87.2
 20
117.0
 30
0.0
 11
87.2
 21
116.6439999999999
 31
0.0
  0
LINE
  5
1CE
330
1E
100
AcDbEntity
  8
0
100
AcDbLine
 10
88.8
 20
112.8749999999999
 30
0.0
 11
88.8
 21
110.977
 31
0.0
  0
LINE
  5
1CF
330
1E
100
AcDbEntity
  8
0
100
AcDbLine
 10
88.8
 20
112.8749999999999
 30
0.0
 11
88.8
 21
114.375
 31
0.0
  0
LINE
  5
1D0
330
1E
100
AcDbEntity
  8
0
100
AcDbLine
 10
88.8
 20
114.375
 30
0.0
 11
88.8
 21
112.8749999999999
 31
0.0
  0
LINE
  5
1D1
330
1E
100
AcDbEntity
  8
0
100
AcDbLine
 10
88.8
 20
114.375
 30
0.0
 11
88.8
 21
115.471
 31
0.0
  0
LINE
  5
1D2
330
1E
100
AcDbEntity
  8
0
100
AcDbLine
 10
88.8
 20
115.471
 30
0.0
 11
88.8
 21
114.375
 31
0.0
  0
LINE
  5
1D3
330
1E
100
AcDbEntity
  8
0
100
AcDbLine
 10
88.8
 20
115.471
 30
0.0
 11
88.8
 21
116.125
 31
0.0
  0
LINE
  5
1DA
330
1E
100
AcDbEntity
  8
0
100
AcDbLine
 10
88.8
 20
116.125
 30
0.0
 11
88.8
 21
115.471
 31
0.0
  0
LINE
  5
1DB
330
1E
100
AcDbEntity
  8
0
100
AcDbLine
 10
88.8
 20
116.125
 30
0.0
 11
88.8
 21
116.6439999999999
 31
0.0
  0
LINE
  5
1DC
330
1E
100
AcDbEntity
  8
0
100
AcDbLine
 10
88.8
 20
116.6439999999999
 30
0.0
 11
88.8
 21
116.125
 31
0.0
  0
LINE
  5
1DD
330
1E
100
AcDbEntity
  8
0
100
AcDbLine
 10
88.8
 20
116.6439999999999
 30
0.0
 11
88.8
 21
117.0
 31
0.0
  0
LINE
  5
1DE
330
1E
100
AcDbEntity
  8
0
100
AcDbLine
 10
101.7
 20
111.8
 30
0.0
 11
107.4
 21
107.4
 31
0.0
  0
LINE
  5
1E0
330
1E
100
AcDbEntity
  8
0
100
AcDbLine
 10
102.2
 20
112.7
 30
0.0
 11
108.0999999999999
 21
108.0999999999999
 31
0.0
  0
LINE
  5
1E1
330
1E
100
AcDbEntity
  8
0
100
AcDbLine
 10
102.7
 20
113.5
 30
0.0
 11
108.8
 21
108.8
 31
0.0
  0
LINE
  5
1E2
330
1E
100
AcDbEntity
  8
0
100
AcDbLine
 10
95.09999999999999
 20
114.5
 30
0.0
 11
101.7
 21
111.8
 31
0.0
  0
LINE
  5
1E3
330
1E
100
AcDbEntity
  8
0
100
AcDbLine
 10
92.0
 20
115.4444444444439
 30
0.0
 11
92.0
 21
119.7529999999999
 31
0.0
  0
LINE
  5
1E4
330
1E
100
AcDbEntity
  8
0
100
AcDbLine
 10
89.5434782608695
 20
115.282608695652
 30
0.0
 11
95.09999999999999
 21
114.5
 31
0.0
  0
LINE
  5
1E6
330
1E
100
AcDbEntity
  8
0
100
AcDbLine
 10
95.29999999999999
 20
115.5
 30
0.0
 11
102.2
 21
112.7
 31
0.0
  0
LINE
  5
1E7
330
1E
100
AcDbEntity
  8
0
100
AcDbLine
 10
92.0
 20
115.9520547945209
 30
0.0
 11
95.29999999999999
 21
115.5
 31
0.0
  0
LINE
  5
1E8
330
1E
100
AcDbEntity
  8
0
100
AcDbLine
 10
95.6
 20
116.4
 30
0.0
 11
102.7
 21
113.5
 31
0.0
  0
LINE
  5
1E9
330
1E
100
AcDbEntity
  8
0
100
AcDbLine
 10
92.0
 20
116.921052631579
 30
0.0
 11
95.6
 21
116.4
 31
0.0
  0
LINE
  5
1EB
330
1E
100
AcDbEntity
  8
0
100
AcDbLine
 10
89.8
 20
114.0
 30
0.0
 11
90.0
 21
111.0
 31
0.0
  0
LINE
  5
1EC
330
1E
100
AcDbEntity
  8
0
100
AcDbLine
 10
89.29999999999999
 20
116.5
 30
0.0
 11
89.8
 21
114.0
 31
0.0
  0
LINE
  5
1ED
330
1E
100
AcDbEntity
  8
0
100
AcDbLine
 10
89.008
 20
120.0
 30
0.0
 11
89.936
 21
120.0
 31
0.0
  0
LINE
  5
1EE
330
1E
100
AcDbEntity
  8
0
100
AcDbLine
 10
89.936
 20
120.0
 30
0.0
 11
90.752
 21
120.0
 31
0.0
  0
LINE
  5
1EF
330
1E
100
AcDbEntity
  8
0
100
AcDbLine
 10
90.752
 20
120.0
 30
0.0
 11
91.376
 21
120.0
 31
0.0
  0
LINE
  5
1F0
330
1E
100
AcDbEntity
  8
0
100
AcDbLine
 10
91.376
 20
120.0
 30
0.0
 11
91.76
 21
120.0
 31
0.0
  0
LINE
  5
1F1
330
1E
100
AcDbEntity
  8
0
100
AcDbLine
 10
92.0
 20
119.7529999999999
 30
0.0
 11
92.0
 21
115.4444444444439
 31
0.0
  0
LINE
  5
1F2
330
1E
100
AcDbEntity
  8
0
100
AcDbLine
 10
91.76
 20
120.0
 30
0.0
 11
91.904
 21
120.0
 31
0.0
  0
LINE
  5
1F3
330
1E
100
AcDbEntity
  8
0
100
AcDbLine
 10
91.904
 20
120.0
 30
0.0
 11
92.0
 21
119.7529999999999
 31
0.0
  0
LINE
  5
1F5
330
1E
100
AcDbEntity
  8
0
100
AcDbLine
 10
88.8
 20
117.0
 30
0.0
 11
89.29999999999999
 21
116.5
 31
0.0
  0
LINE
  5
1F6
330
1E
100
AcDbEntity
  8
0
100
AcDbLine
 10
88.8
 20
117.0
 30
0.0
 11
88.8
 21
116.6439999999999
 31
0.0
  0
LINE
  5
1F7
330
1E
100
AcDbEntity
  8
0
100
AcDbLine
 10
88.0
 20
117.0
 30
0.0
 11
88.8
 21
117.0
 31
0.0
  0
LINE
  5
1F8
330
1E
100
AcDbEntity
  8
0
100
AcDbLine
 10
90.0
 20
111.0
 30
0.0
 11
90.29999999999999
 21
107.0
 31
0.0
  0
LINE
  5
1F9
330
1E
100
AcDbEntity
  8
0
100
AcDbLine
 10
159.9
 20
117.7999999999999
 30
0.0
 11
163.1999999999999
 21
108.0999999999999
 31
0.0
  0
LINE
  5
1FA
330
1E
100
AcDbEntity
  8
0
100
AcDbLine
 10
163.1999999999999
 20
108.0999999999999
 30
0.0
 11
165.1999999999999
 21
98.1
 31
0.0
  0
LINE
  5
1FB
330
1E
100
AcDbEntity
  8
0
100
AcDbLine
 10
165.1999999999999
 20
98.1
 30
0.0
 11
166.0
 21
88.0
 31
0.0
  0
LINE
  5
1FC
330
1E
100
AcDbEntity
  8
0
100
AcDbLine
 10
149.8
 20
135.4
 30
0.0
 11
155.6
 21
126.8
 31
0.0
  0
LINE
  5
1FD
330
1E
100
AcDbEntity
  8
0
100
AcDbLine
 10
155.6
 20
126.8
 30
0.0
 11
159.9
 21
117.7999999999999
 31
0.0
  0
LINE
  5
1FE
330
1E
100
AcDbEntity
  8
0
100
AcDbLine
 10
135.4
 20
149.8
 30
0.0
 11
143.1
 21
143.1
 31
0.0
  0
LINE
  5
1FF
330
1E
100
AcDbEntity
  8
0
100
AcDbLine
 10
126.8
 20
155.6
 30
0.0
 11
135.4
 21
149.8
 31
0.0
  0
LINE
  5
200
330
1E
100
AcDbEntity
  8
0
100
AcDbLine
 10
117.7999999999999
 20
159.9
 30
0.0
 11
126.8
 21
155.6
 31
0.0
  0
LINE
  5
201
330
1E
100
AcDbEntity
  8
0
100
AcDbLine
 10
108.0999999999999
 20
163.1999999999999
 30
0.0
 11
117.7999999999999
 21
159.9
 31
0.0
  0
LINE
  5
202
330
1E
100
AcDbEntity
  8
0
100
AcDbLine
 10
98.1
 20
165.1999999999999
 30
0.0
 11
108.0999999999999
 21
163.1999999999999
 31
0.0
  0
LINE
  5
203
330
1E
100
AcDbEntity
  8
0
100
AcDbLine
 10
143.1
 20
143.1
 30
0.0
 11
149.8
 21
135.4
 31
0.0
  0
LINE
  5
204
330
1E
100
AcDbEntity
  8
0
100
AcDbLine
 10
157.6999999999999
 20
141.5
 30
0.0
 11
164.1999999999999
 21
131.8
 31
0.0
  0
LINE
  5
205
330
1E
100
AcDbEntity
  8
0
100
AcDbLine
 10
164.1999999999999
 20
131.8
 30
0.0
 11
169.1
 21
121.5999999999999
 31
0.0
  0
LINE
  5
206
330
1E
100
AcDbEntity
  8
0
100
AcDbLine
 10
169.1
 20
121.5999999999999
 30
0.0
 11
172.8
 21
110.6999999999999
 31
0.0
  0
LINE
  5
207
330
1E
100
AcDbEntity
  8
0
100
AcDbLine
 10
172.8
 20
110.6999999999999
 30
0.0
 11
175.0999999999999
 21
99.50000000000001
 31
0.0
  0
LINE
  5
208
330
1E
100
AcDbEntity
  8
0
100
AcDbLine
 10
88.0
 20
166.0
 30
0.0
 11
98.1
 21
165.1999999999999
 31
0.0
  0
LINE
  5
209
330
1E
100
AcDbEntity
  8
0
100
AcDbLine
 10
99.50000000000001
 20
175.0999999999999
 30
0.0
 11
110.6999999999999
 21
172.8
 31
0.0
  0
LINE
  5
20A
330
1E
100
AcDbEntity
  8
0
100
AcDbLine
 10
121.5999999999999
 20
169.1
 30
0.0
 11
131.8
 21
164.1999999999999
 31
0.0
  0
LINE
  5
20B
330
1E
100
AcDbEntity
  8
0
100
AcDbLine
 10
88.0
 20
176.0
 30
0.0
 11
99.50000000000001
 21
175.0999999999999
 31
0.0
  0
LINE
  5
20C
330
1E
100
AcDbEntity
  8
0
100
AcDbLine
 10
77.9
 20
165.1999999999999
 30
0.0
 11
88.0
 21
166.0
 31
0.0
  0
LINE
  5
20D
330
1E
100
AcDbEntity
  8
0
100
AcDbLine
 10
76.5
 20
175.0999999999999
 30
0.0
 11
88.0
 21
176.0
 31
0.0
  0
LINE
  5
20E
330
1E
100
AcDbEntity
  8
0
100
AcDbLine
 10
10.0
 20
88.0
 30
0.0
 11
10.8
 21
77.9
 31
0.0
  0
LINE
  5
20F
330
1E
100
AcDbEntity
  8
0
100
AcDbLine
 10
10.0
 20
88.0
 30
0.0
 11
10.8
 21
98.1
 31
0.0
  0
LINE
  5
210
330
1E
100
AcDbEntity
  8
0
100
AcDbLine
 10
0.8999999999999978
 20
76.5
 30
0.0
 11
3.2
 21
65.3
 31
0.0
  0
LINE
  5
211
330
1E
100
AcDbEntity
  8
0
100
AcDbLine
 10
3.2
 20
65.3
 30
0.0
 11
6.9
 21
54.4
 31
0.0
  0
LINE
  5
212
330
1E
100
AcDbEntity
  8
0
100
AcDbLine
 10
-0.0000000000000024
 20
88.0
 30
0.0
 11
0.8999999999999978
 21
76.5
 31
0.0
  0
LINE
  5
213
330
1E
100
AcDbEntity
  8
0
100
AcDbLine
 10
-0.0000000000000024
 20
88.0
 30
0.0
 11
0.8999999999999978
 21
99.50000000000001
 31
0.0
  0
LINE
  5
218
330
1E
100
AcDbEntity
  8
0
100
AcDbLine
 10
121.5999999999999
 20
169.1
 30
0.0
 11
110.6999999999999
 21
172.8
 31
0.0
  0
LINE
  5
219
330
1E
100
AcDbEntity
  8
0
100
AcDbLine
 10
76.5
 20
0.8999999999999921
 30
0.0
 11
65.3
 21
3.19999999999999
 31
0.0
  0
LINE
  5
21A
330
1E
100
AcDbEntity
  8
0
100
AcDbLine
 10
54.4
 20
6.89999999999999
 30
0.0
 11
44.2
 21
11.8
 31
0.0
  0
LINE
  5
21B
330
1E
100
AcDbEntity
  8
0
100
AcDbLine
 10
18.3
 20
34.5
 30
0.0
 11
11.8
 21
44.2
 31
0.0
  0
LINE
  5
21C
330
1E
100
AcDbEntity
  8
0
100
AcDbLine
 10
131.8
 20
164.1999999999999
 30
0.0
 11
140.2612011259745
 21
159.3817063420591
 31
0.0
  0
LINE
  5
21D
330
1E
100
AcDbEntity
  8
0
100
AcDbLine
 10
140.2612011259745
 20
159.3817063420591
 30
0.0
 11
148.6092454781303
 21
152.9013660557943
 31
0.0
  0
LINE
  5
21E
330
1E
100
AcDbEntity
  8
0
100
AcDbLine
 10
148.6092454781303
 20
152.9013660557943
 30
0.0
 11
153.37955702685
 21
147.24037963267
 31
0.0
  0
LINE
  5
21F
330
1E
100
AcDbEntity
  8
0
100
AcDbLine
 10
153.37955702685
 20
147.24037963267
 30
0.0
 11
157.6999999999999
 21
141.5
 31
0.0
  0
LINE
  5
220
330
1E
100
AcDbEntity
  8
0
100
AcDbLine
 10
175.0999999999999
 20
99.50000000000001
 30
0.0
 11
175.9113676361814
 21
91.57630886975523
 31
0.0
  0
LINE
  5
221
330
1E
100
AcDbEntity
  8
0
100
AcDbLine
 10
175.9113676361814
 20
91.57630886975523
 30
0.0
 11
175.9113676361814
 21
83.15015578631937
 31
0.0
  0
LINE
  5
222
330
1E
100
AcDbEntity
  8
0
100
AcDbLine
 10
175.9113676361814
 20
83.15015578631937
 30
0.0
 11
175.0999999999999
 21
76.5
 31
0.0
  0
LINE
  5
223
330
1E
100
AcDbEntity
  8
0
100
AcDbLine
 10
141.5
 20
18.3
 30
0.0
 11
149.6001767267441
 21
25.30586443641022
 31
0.0
  0
LINE
  5
224
330
1E
100
AcDbEntity
  8
0
100
AcDbLine
 10
149.6001767267441
 20
25.30586443641022
 30
0.0
 11
157.7672633197199
 21
34.95147317907549
 31
0.0
  0
LINE
  5
225
330
1E
100
AcDbEntity
  8
0
100
AcDbLine
 10
157.7672633197199
 20
34.95147317907549
 30
0.0
 11
164.1312278347752
 21
44.06710332410591
 31
0.0
  0
LINE
  5
226
330
1E
100
AcDbEntity
  8
0
100
AcDbLine
 10
164.1312278347752
 20
44.06710332410591
 30
0.0
 11
169.1
 21
54.4
 31
0.0
  0
LINE
  5
227
330
1E
100
AcDbEntity
  8
0
100
AcDbLine
 10
99.50000000000001
 20
0.8999999999999921
 30
0.0
 11
109.5135936690694
 21
2.97725632126486
 31
0.0
  0
LINE
  5
228
330
1E
100
AcDbEntity
  8
0
100
AcDbLine
 10
109.5135936690694
 20
2.97725632126486
 30
0.0
 11
121.5999999999999
 21
6.89999999999999
 31
0.0
  0
LINE
  5
229
330
1E
100
AcDbEntity
  8
0
100
AcDbLine
 10
65.3
 20
172.8
 30
0.0
 11
52.94982758468268
 21
168.932553926556
 31
0.0
  0
LINE
  5
22A
330
1E
100
AcDbEntity
  8
0
100
AcDbLine
 10
52.94982758468268
 20
168.932553926556
 30
0.0
 11
42.97838067019642
 21
164.0847984992493
 31
0.0
  0
LINE
  5
22B
330
1E
100
AcDbEntity
  8
0
100
AcDbLine
 10
42.97838067019642
 20
164.0847984992493
 30
0.0
 11
34.48917654878391
 21
157.8904437686268
 31
0.0
  0
LINE
  5
22C
330
1E
100
AcDbEntity
  8
0
100
AcDbLine
 10
34.48917654878391
 20
157.8904437686268
 30
0.0
 11
25.89999999999999
 21
150.0999999999999
 31
0.0
  0
ENDSEC
  0
SECTION
  2
OBJECTS
  0
DICTIONARY
  5
C
330
0
100
AcDbDictionary
281
     1
  3
ACAD_GROUP
350
D
  3
ACAD_LAYOUT
350
19
  3
ACAD_MLINESTYLE
350
16
  3
ACAD_PLOTSETTINGS
350
18
  3
ACAD_PLOTSTYLENAME
350
E
  3
AcDbVariableDictionary
350
22D
  0
DICTIONARY
  5
D
102
{ACAD_REACTORS
330
C
102
}
330
C
100
AcDbDictionary
281
     1
  0
DICTIONARY
  5
19
102
{ACAD_REACTORS
330
C
102
}
330
C
100
AcDbDictionary
281
     1
  3
Layout1
350
1D
  3
Model
350
21
  0
DICTIONARY
  5
16
102
{ACAD_REACTORS
330
C
102
}
330
C
100
AcDbDictionary
281
     1
  3
Standard
350
17
  0
DICTIONARY
  5
18
102
{ACAD_REACTORS
330
C
102
}
330
C
100
AcDbDictionary
281
     1
  0
ACDBDICTIONARYWDFLT
  5
E
102
{ACAD_REACTORS
330
C
102
}
330
C
100
AcDbDictionary
281
     1
  3
Normal
350
F
100
AcDbDictionaryWithDefault
340
F
  0
DICTIONARY
  5
22D
102
{ACAD_REACTORS
330
C
102
}
330
C
100
AcDbDictionary
281
     1
  3
DIMASSOC
350
22E
  0
LAYOUT
  5
1D
102
{ACAD_REACTORS
330
19
102
}
330
19
100
AcDbPlotSettings
  1

  2
hp deskjet 980c series
  4

  6

 40
0.0
 41
0.0
 42
0.0
 43
0.0
 44
0.0
 45
0.0
 46
0.0
 47
0.0
 48
0.0
 49
0.0
140
0.0
141
0.0
142
1.0
143
1.0
 70
   688
 72
     0
 73
     0
 74
     5
  7

 75
    16
147
1.0
148
0.0
149
0.0
100
AcDbLayout
  1
Layout1
 70
     1
 71
     1
 10
0.0
 20
0.0
 11
12.0
 21
9.0
 12
0.0
 22
0.0
 32
0.0
 14
1.000000000000000E+20
 24
1.000000000000000E+20
 34
1.000000000000000E+20
 15
-1.000000000000000E+20
 25
-1.000000000000000E+20
 35
-1.000000000000000E+20
146
0.0
 13
0.0
 23
0.0
 33
0.0
 16
1.0
 26
0.0
 36
0.0
 17
0.0
 27
1.0
 37
0.0
 76
     0
330
1A
  0
LAYOUT
  5
21
102
{ACAD_REACTORS
330
19
102
}
330
19
100
AcDbPlotSettings
  1

  2
hp deskjet 980c series
  4

  6

 40
0.0
 41
0.0
 42
0.0
 43
0.0
 44
0.0
 45
0.0
 46
0.0
 47
0.0
 48
0.0
 49
0.0
140
0.0
141
0.0
142
1.0
143
1.0
 70
  1712
 72
     0
 73
     0
 74
     0
  7

 75
     0
147
1.0
148
0.0
149
0.0
100
AcDbLayout
  1
Model
 70
     1
 71
     0
 10
0.0
 20
0.0
 11
12.0
 21
9.0
 12
0.0
 22
0.0
 32
0.0
 14
0.0
 24
0.0
 34
0.0
 15
0.0
 25
0.0
 35
0.0
146
0.0
 13
0.0
 23
0.0
 33
0.0
 16
1.0
 26
0.0
 36
0.0
 17
0.0
 27
1.0
 37
0.0
 76
     0
330
1E
  0
MLINESTYLE
  5
17
102
{ACAD_REACTORS
330
16
102
}
330
16
100
AcDbMlineStyle
  2
STANDARD
 70
     0
  3

 62
   256
 51
90.0
 52
90.0
 71
     2
 49
0.5
 62
   256
  6
BYLAYER
 49
-0.5
 62
   256
  6
BYLAYER
  0
ACDBPLACEHOLDER
  5
F
102
{ACAD_REACTORS
330
E
102
}
330
E
  0
DICTIONARYVAR
  5
22E
102
{ACAD_REACTORS
330
22D
102
}
330
22D
100
DictionaryVariables
280
     0
  1
1
  0
ENDSEC
  0
EOF
