  0
SECTION
  2
HEADER
  9
$ACADVER
  1
AC1015
  9
$ACADMAINTVER
 70
    13
  9
$DWGCODEPAGE
  3
ANSI_1252
  9
$INSBASE
 10
0.0
 20
0.0
 30
0.0
  9
$EXTMIN
 10
-0.0000000000000021
 20
-0.0457999999999868
 30
0.0
  9
$EXTMAX
 10
159.0
 20
152.0458
 30
0.0
  9
$LIMMIN
 10
0.0
 20
0.0
  9
$LIMMAX
 10
12.0
 20
9.0
  9
$ORTHOMODE
 70
     0
  9
$REGENMODE
 70
     1
  9
$FILLMODE
 70
     1
  9
$QTEXTMODE
 70
     0
  9
$MIRRTEXT
 70
     1
  9
$LTSCALE
 40
1.0
  9
$ATTMODE
 70
     1
  9
$TEXTSIZE
 40
0.2
  9
$TRACEWID
 40
0.05
  9
$TEXTSTYLE
  7
Standard
  9
$CLAYER
  8
0
  9
$CELTYPE
  6
Continuous
  9
$CECOLOR
 62
   256
  9
$CELTSCALE
 40
1.0
  9
$DISPSILH
 70
     0
  9
$DIMSCALE
 40
1.0
  9
$DIMASZ
 40
0.18
  9
$DIMEXO
 40
0.0625
  9
$DIMDLI
 40
0.38
  9
$DIMRND
 40
0.0
  9
$DIMDLE
 40
0.0
  9
$DIMEXE
 40
0.18
  9
$DIMTP
 40
0.0
  9
$DIMTM
 40
0.0
  9
$DIMTXT
 40
0.18
  9
$DIMCEN
 40
0.09
  9
$DIMTSZ
 40
0.0
  9
$DIMTOL
 70
     0
  9
$DIMLIM
 70
     0
  9
$DIMTIH
 70
     1
  9
$DIMTOH
 70
     1
  9
$DIMSE1
 70
     0
  9
$DIMSE2
 70
     0
  9
$DIMTAD
 70
     0
  9
$DIMZIN
 70
     0
  9
$DIMBLK
  1

  9
$DIMASO
 70
     1
  9
$DIMSHO
 70
     1
  9
$DIMPOST
  1

  9
$DIMAPOST
  1

  9
$DIMALT
 70
     0
  9
$DIMALTD
 70
     2
  9
$DIMALTF
 40
25.4
  9
$DIMLFAC
 40
1.0
  9
$DIMTOFL
 70
     0
  9
$DIMTVP
 40
0.0
  9
$DIMTIX
 70
     0
  9
$DIMSOXD
 70
     0
  9
$DIMSAH
 70
     0
  9
$DIMBLK1
  1

  9
$DIMBLK2
  1

  9
$DIMSTYLE
  2
Standard
  9
$DIMCLRD
 70
     0
  9
$DIMCLRE
 70
     0
  9
$DIMCLRT
 70
     0
  9
$DIMTFAC
 40
1.0
  9
$DIMGAP
 40
0.09
  9
$DIMJUST
 70
     0
  9
$DIMSD1
 70
     0
  9
$DIMSD2
 70
     0
  9
$DIMTOLJ
 70
     1
  9
$DIMTZIN
 70
     0
  9
$DIMALTZ
 70
     0
  9
$DIMALTTZ
 70
     0
  9
$DIMUPT
 70
     0
  9
$DIMDEC
 70
     4
  9
$DIMTDEC
 70
     4
  9
$DIMALTU
 70
     2
  9
$DIMALTTD
 70
     2
  9
$DIMTXSTY
  7
Standard
  9
$DIMAUNIT
 70
     0
  9
$DIMADEC
 70
     0
  9
$DIMALTRND
 40
0.0
  9
$DIMAZIN
 70
     0
  9
$DIMDSEP
 70
    46
  9
$DIMATFIT
 70
     3
  9
$DIMFRAC
 70
     0
  9
$DIMLDRBLK
  1

  9
$DIMLUNIT
 70
     2
  9
$DIMLWD
 70
    -2
  9
$DIMLWE
 70
    -2
  9
$DIMTMOVE
 70
     0
  9
$LUNITS
 70
     2
  9
$LUPREC
 70
     4
  9
$SKETCHINC
 40
0.1
  9
$FILLETRAD
 40
0.0
  9
$AUNITS
 70
     0
  9
$AUPREC
 70
     0
  9
$MENU
  1
.
  9
$ELEVATION
 40
0.0
  9
$PELEVATION
 40
0.0
  9
$THICKNESS
 40
0.0
  9
$LIMCHECK
 70
     0
  9
$CHAMFERA
 40
0.0
  9
$CHAMFERB
 40
0.0
  9
$CHAMFERC
 40
0.0
  9
$CHAMFERD
 40
0.0
  9
$SKPOLY
 70
     0
  9
$TDCREATE
 40
2454751.894233217
  9
$TDUCREATE
 40
2454751.810899884
  9
$TDUPDATE
 40
2454751.895615405
  9
$TDUUPDATE
 40
2454751.812282072
  9
$TDINDWG
 40
0.0013825579
  9
$TDUSRTIMER
 40
0.0013825579
  9
$USRTIMER
 70
     1
  9
$ANGBASE
 50
0.0
  9
$ANGDIR
 70
     0
  9
$PDMODE
 70
     0
  9
$PDSIZE
 40
0.0
  9
$PLINEWID
 40
0.0
  9
$SPLFRAME
 70
     0
  9
$SPLINETYPE
 70
     6
  9
$SPLINESEGS
 70
     8
  9
$HANDSEED
  5
3FA
  9
$SURFTAB1
 70
     6
  9
$SURFTAB2
 70
     6
  9
$SURFTYPE
 70
     6
  9
$SURFU
 70
     6
  9
$SURFV
 70
     6
  9
$UCSBASE
  2

  9
$UCSNAME
  2

  9
$UCSORG
 10
0.0
 20
0.0
 30
0.0
  9
$UCSXDIR
 10
1.0
 20
0.0
 30
0.0
  9
$UCSYDIR
 10
0.0
 20
1.0
 30
0.0
  9
$UCSORTHOREF
  2

  9
$UCSORTHOVIEW
 70
     1
  9
$UCSORGTOP
 10
0.0
 20
0.0
 30
0.0
  9
$UCSORGBOTTOM
 10
0.0
 20
0.0
 30
0.0
  9
$UCSORGLEFT
 10
0.0
 20
0.0
 30
0.0
  9
$UCSORGRIGHT
 10
0.0
 20
0.0
 30
0.0
  9
$UCSORGFRONT
 10
0.0
 20
0.0
 30
0.0
  9
$UCSORGBACK
 10
0.0
 20
0.0
 30
0.0
  9
$PUCSBASE
  2

  9
$PUCSNAME
  2

  9
$PUCSORG
 10
0.0
 20
0.0
 30
0.0
  9
$PUCSXDIR
 10
1.0
 20
0.0
 30
0.0
  9
$PUCSYDIR
 10
0.0
 20
1.0
 30
0.0
  9
$PUCSORTHOREF
  2

  9
$PUCSORTHOVIEW
 70
     0
  9
$PUCSORGTOP
 10
0.0
 20
0.0
 30
0.0
  9
$PUCSORGBOTTOM
 10
0.0
 20
0.0
 30
0.0
  9
$PUCSORGLEFT
 10
0.0
 20
0.0
 30
0.0
  9
$PUCSORGRIGHT
 10
0.0
 20
0.0
 30
0.0
  9
$PUCSORGFRONT
 10
0.0
 20
0.0
 30
0.0
  9
$PUCSORGBACK
 10
0.0
 20
0.0
 30
0.0
  9
$USERI1
 70
     0
  9
$USERI2
 70
     0
  9
$USERI3
 70
     0
  9
$USERI4
 70
     0
  9
$USERI5
 70
     0
  9
$USERR1
 40
0.0
  9
$USERR2
 40
0.0
  9
$USERR3
 40
0.0
  9
$USERR4
 40
0.0
  9
$USERR5
 40
0.0
  9
$WORLDVIEW
 70
     1
  9
$SHADEDGE
 70
     3
  9
$SHADEDIF
 70
    70
  9
$TILEMODE
 70
     1
  9
$MAXACTVP
 70
    64
  9
$PINSBASE
 10
0.0
 20
0.0
 30
0.0
  9
$PLIMCHECK
 70
     0
  9
$PEXTMIN
 10
1.000000000000000E+20
 20
1.000000000000000E+20
 30
1.000000000000000E+20
  9
$PEXTMAX
 10
-1.000000000000000E+20
 20
-1.000000000000000E+20
 30
-1.000000000000000E+20
  9
$PLIMMIN
 10
0.0
 20
0.0
  9
$PLIMMAX
 10
12.0
 20
9.0
  9
$UNITMODE
 70
     0
  9
$VISRETAIN
 70
     1
  9
$PLINEGEN
 70
     0
  9
$PSLTSCALE
 70
     1
  9
$TREEDEPTH
 70
  3020
  9
$CMLSTYLE
  2
Standard
  9
$CMLJUST
 70
     0
  9
$CMLSCALE
 40
1.0
  9
$PROXYGRAPHICS
 70
     1
  9
$MEASUREMENT
 70
     0
  9
$CELWEIGHT
370
    -1
  9
$ENDCAPS
280
     0
  9
$JOINSTYLE
280
     0
  9
$LWDISPLAY
290
     0
  9
$INSUNITS
 70
     0
  9
$HYPERLINKBASE
  1

  9
$STYLESHEET
  1

  9
$XEDIT
290
     1
  9
$CEPSNTYPE
380
     0
  9
$PSTYLEMODE
290
     1
  9
$FINGERPRINTGUID
  2
{B66052A6-8A0D-42CF-AB58-B0056354AFC0}
  9
$VERSIONGUID
  2
{2441EA7E-D9C1-4BA5-863A-2E3D86D1CF4B}
  9
$EXTNAMES
290
     1
  9
$PSVPSCALE
 40
0.0
  9
$OLESTARTUP
290
     0
  0
ENDSEC
  0
SECTION
  2
CLASSES
  0
CLASS
  1
ACDBDICTIONARYWDFLT
  2
AcDbDictionaryWithDefault
  3
AutoCAD 2000
 90
        0
280
     0
281
     0
  0
CLASS
  1
ACDBPLACEHOLDER
  2
AcDbPlaceHolder
  3
AutoCAD 2000
 90
        0
280
     0
281
     0
  0
CLASS
  1
LAYOUT
  2
AcDbLayout
  3
AutoCAD 2000
 90
        0
280
     0
281
     0
  0
CLASS
  1
DICTIONARYVAR
  2
AcDbDictionaryVar
  3
AutoCAD 2000
 90
        0
280
     0
281
     0
  0
ENDSEC
  0
SECTION
  2
TABLES
  0
TABLE
  2
VPORT
  5
8
330
0
100
AcDbSymbolTable
 70
     2
  0
VPORT
  5
3F9
330
8
100
AcDbSymbolTableRecord
100
AcDbViewportTableRecord
  2
*Active
 70
     0
 10
0.0
 20
0.0
 11
1.0
 21
1.0
 12
79.5
 22
76.00000000000001
 13
0.0
 23
0.0
 14
1.0
 24
1.0
 15
0.0
 25
0.0
 16
0.0
 26
0.0
 36
1.0
 17
0.0
 27
0.0
 37
0.0
 40
153.2585432225064
 41
2.078104993597951
 42
50.0
 43
0.0
 44
0.0
 50
0.0
 51
0.0
 71
     0
 72
   100
 73
     1
 74
     3
 75
     0
 76
     0
 77
     0
 78
     0
281
     0
 65
     1
110
0.0
120
0.0
130
0.0
111
1.0
121
0.0
131
0.0
112
0.0
122
1.0
132
0.0
 79
     1
146
0.0
  0
ENDTAB
  0
TABLE
  2
LTYPE
  5
5
330
0
100
AcDbSymbolTable
 70
     1
  0
LTYPE
  5
13
330
5
100
AcDbSymbolTableRecord
100
AcDbLinetypeTableRecord
  2
ByBlock
 70
     0
  3

 72
    65
 73
     0
 40
0.0
  0
LTYPE
  5
14
330
5
100
AcDbSymbolTableRecord
100
AcDbLinetypeTableRecord
  2
ByLayer
 70
     0
  3

 72
    65
 73
     0
 40
0.0
  0
LTYPE
  5
15
330
5
100
AcDbSymbolTableRecord
100
AcDbLinetypeTableRecord
  2
Continuous
 70
     0
  3
Solid line
 72
    65
 73
     0
 40
0.0
  0
ENDTAB
  0
TABLE
  2
LAYER
  5
2
330
0
100
AcDbSymbolTable
 70
     1
  0
LAYER
  5
10
330
2
100
AcDbSymbolTableRecord
100
AcDbLayerTableRecord
  2
0
 70
     0
 62
     7
  6
Continuous
370
    -3
390
F
  0
ENDTAB
  0
TABLE
  2
STYLE
  5
3
330
0
100
AcDbSymbolTable
 70
     1
  0
STYLE
  5
11
330
3
100
AcDbSymbolTableRecord
100
AcDbTextStyleTableRecord
  2
Standard
 70
     0
 40
0.0
 41
1.0
 50
0.0
 71
     0
 42
0.2
  3
txt
  4

  0
ENDTAB
  0
TABLE
  2
VIEW
  5
6
330
0
100
AcDbSymbolTable
 70
     0
  0
ENDTAB
  0
TABLE
  2
UCS
  5
7
330
0
100
AcDbSymbolTable
 70
     0
  0
ENDTAB
  0
TABLE
  2
APPID
  5
9
330
0
100
AcDbSymbolTable
 70
     1
  0
APPID
  5
12
330
9
100
AcDbSymbolTableRecord
100
AcDbRegAppTableRecord
  2
ACAD
 70
     0
  0
ENDTAB
  0
TABLE
  2
DIMSTYLE
  5
A
330
0
100
AcDbSymbolTable
 70
     1
100
AcDbDimStyleTable
 71
     0
  0
DIMSTYLE
105
3F3
330
A
100
AcDbSymbolTableRecord
100
AcDbDimStyleTableRecord
  2
Standard
 70
     0
340
11
  0
ENDTAB
  0
TABLE
  2
BLOCK_RECORD
  5
1
330
0
100
AcDbSymbolTable
 70
     0
  0
BLOCK_RECORD
  5
1E
330
1
100
AcDbSymbolTableRecord
100
AcDbBlockTableRecord
  2
*Model_Space
340
21
  0
BLOCK_RECORD
  5
1A
330
1
100
AcDbSymbolTableRecord
100
AcDbBlockTableRecord
  2
*Paper_Space
340
1D
  0
ENDTAB
  0
ENDSEC
  0
SECTION
  2
BLOCKS
  0
BLOCK
  5
1F
330
1E
100
AcDbEntity
  8
0
100
AcDbBlockBegin
  2
*Model_Space
 70
     0
 10
0.0
 20
0.0
 30
0.0
  3
*Model_Space
  1

  0
ENDBLK
  5
20
330
1E
100
AcDbEntity
  8
0
100
AcDbBlockEnd
  0
BLOCK
  5
1B
330
1A
100
AcDbEntity
 67
     1
  8
0
100
AcDbBlockBegin
  2
*Paper_Space
 70
     0
 10
0.0
 20
0.0
 30
0.0
  3
*Paper_Space
  1

  0
ENDBLK
  5
1C
330
1A
100
AcDbEntity
 67
     1
  8
0
100
AcDbBlockEnd
  0
ENDSEC
  0
SECTION
  2
ENTITIES
  0
LINE
  5
22
330
1E
100
AcDbEntity
  8
0
100
AcDbLine
 10
0.4759999999999971
 20
80.67109999999999
 30
0.0
 11
1.187
 21
79.575
 31
0.0
  0
LINE
  5
23
330
1E
100
AcDbEntity
  8
0
100
AcDbLine
 10
0.110999999999997
 20
82.0556
 30
0.0
 11
0.191355368518815
 21
81.7829189655173
 31
0.0
  0
LINE
  5
24
330
1E
100
AcDbEntity
  8
0
100
AcDbLine
 10
0.091999999999997
 20
82.171
 30
0.0
 11
0.211999999999997
 21
84.06870000000001
 31
0.0
  0
LINE
  5
25
330
1E
100
AcDbEntity
  8
0
100
AcDbLine
 10
0.091999999999997
 20
82.171
 30
0.0
 11
0.4759999999999971
 21
80.67109999999999
 31
0.0
  0
LINE
  5
26
330
1E
100
AcDbEntity
  8
0
100
AcDbLine
 10
0.192999999999997
 20
83.9422
 30
0.0
 11
0.273719715754408
 21
84.5819678704924
 31
0.0
  0
LINE
  5
27
330
1E
100
AcDbEntity
  8
0
100
AcDbLine
 10
0.192999999999997
 20
83.9422
 30
0.0
 11
0.273719715754408
 21
84.5819678704924
 31
0.0
  0
LINE
  5
28
330
1E
100
AcDbEntity
  8
0
100
AcDbLine
 10
0.168814607392419
 20
83.38575900373831
 30
0.0
 11
0.192999999999997
 21
83.9422
 31
0.0
  0
LINE
  5
29
330
1E
100
AcDbEntity
  8
0
100
AcDbLine
 10
0.091999999999997
 20
82.171
 30
0.0
 11
0.4759999999999971
 21
80.67109999999999
 31
0.0
  0
LINE
  5
2A
330
1E
100
AcDbEntity
  8
0
100
AcDbLine
 10
0.110999999999997
 20
82.0556
 30
0.0
 11
0.191355368518815
 21
81.7829189655173
 31
0.0
  0
LINE
  5
2C
330
1E
100
AcDbEntity
  8
0
100
AcDbLine
 10
0.211999999999997
 20
84.06870000000001
 30
0.0
 11
0.6899999999999979
 21
88.0438
 31
0.0
  0
LINE
  5
2D
330
1E
100
AcDbEntity
  8
0
100
AcDbLine
 10
0.4999999999999981
 20
96.94580000000001
 30
0.0
 11
0.4999999999999981
 21
97.94580000000001
 31
0.0
  0
LINE
  5
2E
330
1E
100
AcDbEntity
  8
0
100
AcDbLine
 10
0.4999999999999981
 20
96.94580000000001
 30
0.0
 11
0.4999999999999981
 21
96.54580000000001
 31
0.0
  0
LINE
  5
2F
330
1E
100
AcDbEntity
  8
0
100
AcDbLine
 10
0.4999999999999981
 20
96.54580000000001
 30
0.0
 11
1.78380833571012
 21
96.1178638880966
 31
0.0
  0
LINE
  5
30
330
1E
100
AcDbEntity
  8
0
100
AcDbLine
 10
0.4999999999999981
 20
96.54580000000001
 30
0.0
 11
0.4999999999999981
 21
96.94580000000001
 31
0.0
  0
LINE
  5
31
330
1E
100
AcDbEntity
  8
0
100
AcDbLine
 10
0.4999999999999981
 20
96.54580000000001
 30
0.0
 11
1.78380833571012
 21
96.1178638880966
 31
0.0
  0
LINE
  5
32
330
1E
100
AcDbEntity
  8
0
100
AcDbLine
 10
0.211999999999997
 20
84.06870000000001
 30
0.0
 11
0.6899999999999979
 21
88.0438
 31
0.0
  0
LINE
  5
33
330
1E
100
AcDbEntity
  8
0
100
AcDbLine
 10
0.192999999999997
 20
83.9422
 30
0.0
 11
0.273719715754408
 21
84.5819678704924
 31
0.0
  0
LINE
  5
34
330
1E
100
AcDbEntity
  8
0
100
AcDbLine
 10
0.4759999999999971
 20
80.67109999999999
 30
0.0
 11
1.187
 21
79.575
 31
0.0
  0
LINE
  5
35
330
1E
100
AcDbEntity
  8
0
100
AcDbLine
 10
3.071
 20
78.402
 30
0.0
 11
6.0
 21
78.0458
 31
0.0
  0
LINE
  5
36
330
1E
100
AcDbEntity
  8
0
100
AcDbLine
 10
6.0
 20
78.0458
 30
0.0
 11
8.929
 21
78.402
 31
0.0
  0
LINE
  5
39
330
1E
100
AcDbEntity
  8
0
100
AcDbLine
 10
1.283
 20
79.47880000000001
 30
0.0
 11
1.47733275563254
 21
79.32816052583541
 31
0.0
  0
LINE
  5
3A
330
1E
100
AcDbEntity
  8
0
100
AcDbLine
 10
1.187
 20
79.575
 30
0.0
 11
1.955999999999999
 21
78.9212
 31
0.0
  0
LINE
  5
3B
330
1E
100
AcDbEntity
  8
0
100
AcDbLine
 10
1.217
 20
91.58790000000001
 30
0.0
 11
1.551999999999999
 21
94.34180000000001
 31
0.0
  0
LINE
  5
3C
330
1E
100
AcDbEntity
  8
0
100
AcDbLine
 10
1.217
 20
91.58790000000001
 30
0.0
 11
1.242999999999999
 21
91.9076
 31
0.0
  0
LINE
  5
3D
330
1E
100
AcDbEntity
  8
0
100
AcDbLine
 10
1.955999999999999
 20
78.9212
 30
0.0
 11
3.071
 21
78.402
 31
0.0
  0
LINE
  5
41
330
1E
100
AcDbEntity
  8
0
100
AcDbLine
 10
10.81299999999999
 20
79.575
 30
0.0
 11
11.524
 21
80.67109999999999
 31
0.0
  0
LINE
  5
42
330
1E
100
AcDbEntity
  8
0
100
AcDbLine
 10
10.5226672443675
 20
79.3281605258355
 30
0.0
 11
10.717
 21
79.47880000000001
 31
0.0
  0
LINE
  5
43
330
1E
100
AcDbEntity
  8
0
100
AcDbLine
 10
10.044
 20
78.9212
 30
0.0
 11
10.81299999999999
 21
79.575
 31
0.0
  0
LINE
  5
44
330
1E
100
AcDbEntity
  8
0
100
AcDbLine
 10
10.783
 20
91.58790000000001
 30
0.0
 11
11.31
 21
88.0438
 31
0.0
  0
LINE
  5
45
330
1E
100
AcDbEntity
  8
0
100
AcDbLine
 10
11.524
 20
80.67109999999999
 30
0.0
 11
11.908
 21
82.171
 31
0.0
  0
LINE
  5
46
330
1E
100
AcDbEntity
  8
0
100
AcDbLine
 10
11.7262802842456
 20
84.58196787049249
 30
0.0
 11
11.807
 21
83.9422
 31
0.0
  0
LINE
  5
47
330
1E
100
AcDbEntity
  8
0
100
AcDbLine
 10
11.788
 20
84.06870000000001
 30
0.0
 11
11.908
 21
82.171
 31
0.0
  0
LINE
  5
48
330
1E
100
AcDbEntity
  8
0
100
AcDbLine
 10
11.807
 20
83.9422
 30
0.0
 11
11.8311853926076
 21
83.38575900373831
 31
0.0
  0
LINE
  5
49
330
1E
100
AcDbEntity
  8
0
100
AcDbLine
 10
11.80864463148119
 20
81.78291896551721
 30
0.0
 11
11.889
 21
82.0556
 31
0.0
  0
LINE
  5
4A
330
1E
100
AcDbEntity
  8
0
100
AcDbLine
 10
11.31
 20
88.0438
 30
0.0
 11
11.788
 21
84.06870000000001
 31
0.0
  0
LINE
  5
4B
330
1E
100
AcDbEntity
  8
0
100
AcDbLine
 10
10.1695889339598
 20
96.5545668018794
 30
0.0
 11
11.0
 21
99.04580000000001
 31
0.0
  0
LINE
  5
4C
330
1E
100
AcDbEntity
  8
0
100
AcDbLine
 10
1.857
 20
96.62350000000001
 30
0.0
 11
2.0
 21
98.5458
 31
0.0
  0
LINE
  5
4D
330
1E
100
AcDbEntity
  8
0
100
AcDbLine
 10
10.14299999999999
 20
96.62350000000001
 30
0.0
 11
10.448
 21
94.34180000000001
 31
0.0
  0
LINE
  5
4E
330
1E
100
AcDbEntity
  8
0
100
AcDbLine
 10
32.0
 20
95.54579999999999
 30
0.0
 11
32.5
 21
95.0458
 31
0.0
  0
LINE
  5
4F
330
1E
100
AcDbEntity
  8
0
100
AcDbLine
 10
32.0
 20
95.54579999999999
 30
0.0
 11
32.0
 21
95.9458
 31
0.0
  0
LINE
  5
50
330
1E
100
AcDbEntity
  8
0
100
AcDbLine
 10
10.448
 20
94.34180000000001
 30
0.0
 11
10.783
 21
91.58790000000001
 31
0.0
  0
LINE
  5
51
330
1E
100
AcDbEntity
  8
0
100
AcDbLine
 10
10.757
 20
91.9076
 30
0.0
 11
11.0420475832426
 21
89.84579271390881
 31
0.0
  0
LINE
  5
52
330
1E
100
AcDbEntity
  8
0
100
AcDbLine
 10
10.757
 20
91.9076
 30
0.0
 11
10.783
 21
91.58790000000001
 31
0.0
  0
LINE
  5
53
330
1E
100
AcDbEntity
  8
0
100
AcDbLine
 10
1.551999999999999
 20
94.34180000000001
 30
0.0
 11
1.76163133605916
 21
95.9100485884794
 31
0.0
  0
LINE
  5
54
330
1E
100
AcDbEntity
  8
0
100
AcDbLine
 10
1.551999999999999
 20
94.34180000000001
 30
0.0
 11
1.857
 21
96.62350000000001
 31
0.0
  0
LINE
  5
55
330
1E
100
AcDbEntity
  8
0
100
AcDbLine
 10
8.929
 20
78.402
 30
0.0
 11
10.044
 21
78.9212
 31
0.0
  0
LINE
  5
56
330
1E
100
AcDbEntity
  8
0
100
AcDbLine
 10
0.6899999999999979
 20
88.0438
 30
0.0
 11
0.9579524167574239
 21
89.8457927139089
 31
0.0
  0
LINE
  5
57
330
1E
100
AcDbEntity
  8
0
100
AcDbLine
 10
0.6899999999999979
 20
88.0438
 30
0.0
 11
1.217
 21
91.58790000000001
 31
0.0
  0
LINE
  5
58
330
1E
100
AcDbEntity
  8
0
100
AcDbLine
 10
-0.0000000000000021
 20
98.04580000000001
 30
0.0
 11
0.4999999999999981
 21
96.54580000000001
 31
0.0
  0
LINE
  5
59
330
1E
100
AcDbEntity
  8
0
100
AcDbLine
 10
0.4999999999999981
 20
97.94580000000001
 30
0.0
 11
0.4999999999999981
 21
99.64579999999999
 31
0.0
  0
LINE
  5
5A
330
1E
100
AcDbEntity
  8
0
100
AcDbLine
 10
11.0
 20
99.3458
 30
0.0
 11
11.0
 21
100.1457999999999
 31
0.0
  0
LINE
  5
5B
330
1E
100
AcDbEntity
  8
0
100
AcDbLine
 10
11.0
 20
99.3458
 30
0.0
 11
11.0
 21
99.04580000000001
 31
0.0
  0
LINE
  5
5C
330
1E
100
AcDbEntity
  8
0
100
AcDbLine
 10
11.0
 20
99.04580000000001
 30
0.0
 11
11.0
 21
99.3458
 31
0.0
  0
LINE
  5
5D
330
1E
100
AcDbEntity
  8
0
100
AcDbLine
 10
11.0
 20
99.04580000000001
 30
0.0
 11
13.0
 21
100.5457999999999
 31
0.0
  0
LINE
  5
5E
330
1E
100
AcDbEntity
  8
0
100
AcDbLine
 10
10.0
 20
98.5458
 30
0.0
 11
10.14299999999999
 21
101.0458
 31
0.0
  0
LINE
  5
5F
330
1E
100
AcDbEntity
  8
0
100
AcDbLine
 10
10.0
 20
98.5458
 30
0.0
 11
10.14299999999999
 21
96.62350000000001
 31
0.0
  0
LINE
  5
60
330
1E
100
AcDbEntity
  8
0
100
AcDbLine
 10
11.0
 20
100.1457999999999
 30
0.0
 11
11.0
 21
101.4458
 31
0.0
  0
LINE
  5
61
330
1E
100
AcDbEntity
  8
0
100
AcDbLine
 10
11.0
 20
100.1457999999999
 30
0.0
 11
11.0
 21
99.3458
 31
0.0
  0
LINE
  5
62
330
1E
100
AcDbEntity
  8
0
100
AcDbLine
 10
0.4999999999999981
 20
99.64579999999999
 30
0.0
 11
0.4999999999999981
 21
101.8458
 31
0.0
  0
LINE
  5
63
330
1E
100
AcDbEntity
  8
0
100
AcDbLine
 10
21.0
 20
100.5457999999999
 30
0.0
 11
21.0
 21
100.7457999999999
 31
0.0
  0
LINE
  5
64
330
1E
100
AcDbEntity
  8
0
100
AcDbLine
 10
13.0
 20
100.5457999999999
 30
0.0
 11
21.0
 21
100.5457999999999
 31
0.0
  0
LINE
  5
65
330
1E
100
AcDbEntity
  8
0
100
AcDbLine
 10
13.0
 20
100.5457999999999
 30
0.0
 11
13.0
 21
100.7457999999999
 31
0.0
  0
LINE
  5
66
330
1E
100
AcDbEntity
  8
0
100
AcDbLine
 10
13.0
 20
100.7457999999999
 30
0.0
 11
13.0
 21
101.4458
 31
0.0
  0
LINE
  5
67
330
1E
100
AcDbEntity
  8
0
100
AcDbLine
 10
13.0
 20
100.7457999999999
 30
0.0
 11
13.0
 21
100.5457999999999
 31
0.0
  0
LINE
  5
68
330
1E
100
AcDbEntity
  8
0
100
AcDbLine
 10
21.0
 20
100.7457999999999
 30
0.0
 11
21.0
 21
101.4458
 31
0.0
  0
LINE
  5
69
330
1E
100
AcDbEntity
  8
0
100
AcDbLine
 10
21.0
 20
100.7457999999999
 30
0.0
 11
21.0
 21
100.5457999999999
 31
0.0
  0
LINE
  5
6A
330
1E
100
AcDbEntity
  8
0
100
AcDbLine
 10
10.14299999999999
 20
101.0458
 30
0.0
 11
10.448
 21
103.0556
 31
0.0
  0
LINE
  5
6B
330
1E
100
AcDbEntity
  8
0
100
AcDbLine
 10
1.857
 20
101.0458
 30
0.0
 11
2.0
 21
98.5458
 31
0.0
  0
LINE
  5
6C
330
1E
100
AcDbEntity
  8
0
100
AcDbLine
 10
21.0
 20
101.0458
 30
0.0
 11
32.0
 21
101.0458
 31
0.0
  0
LINE
  5
6D
330
1E
100
AcDbEntity
  8
0
100
AcDbLine
 10
-0.0000000000000019
 20
100.6457999999999
 30
0.0
 11
-0.0000000000000018
 21
102.5457999999999
 31
0.0
  0
LINE
  5
6E
330
1E
100
AcDbEntity
  8
0
100
AcDbLine
 10
-0.000000000000002
 20
99.2458
 30
0.0
 11
-0.0000000000000019
 21
100.6457999999999
 31
0.0
  0
LINE
  5
6F
330
1E
100
AcDbEntity
  8
0
100
AcDbLine
 10
-0.0000000000000021
 20
98.3458
 30
0.0
 11
-0.000000000000002
 21
99.2458
 31
0.0
  0
LINE
  5
70
330
1E
100
AcDbEntity
  8
0
100
AcDbLine
 10
-0.0000000000000021
 20
98.04580000000001
 30
0.0
 11
-0.0000000000000021
 21
98.3458
 31
0.0
  0
LINE
  5
71
330
1E
100
AcDbEntity
  8
0
100
AcDbLine
 10
-0.0000000000000021
 20
98.04580000000001
 30
0.0
 11
0.4999999999999981
 21
96.54580000000001
 31
0.0
  0
LINE
  5
72
330
1E
100
AcDbEntity
  8
0
100
AcDbLine
 10
32.0
 20
97.04579999999999
 30
0.0
 11
32.0
 21
98.94580000000001
 31
0.0
  0
LINE
  5
73
330
1E
100
AcDbEntity
  8
0
100
AcDbLine
 10
32.0
 20
97.04579999999999
 30
0.0
 11
32.0
 21
95.9458
 31
0.0
  0
LINE
  5
74
330
1E
100
AcDbEntity
  8
0
100
AcDbLine
 10
32.0
 20
95.9458
 30
0.0
 11
32.0
 21
97.04579999999999
 31
0.0
  0
LINE
  5
75
330
1E
100
AcDbEntity
  8
0
100
AcDbLine
 10
-0.0000000000000018
 20
102.5457999999999
 30
0.0
 11
-0.0000000000000017
 21
104.7458
 31
0.0
  0
LINE
  5
76
330
1E
100
AcDbEntity
  8
0
100
AcDbLine
 10
0.4999999999999981
 20
101.8458
 30
0.0
 11
0.4999999999999981
 21
104.3457999999999
 31
0.0
  0
LINE
  5
77
330
1E
100
AcDbEntity
  8
0
100
AcDbLine
 10
0.4999999999999981
 20
104.3457999999999
 30
0.0
 11
0.4999999999999981
 21
105.836982364729
 31
0.0
  0
LINE
  5
78
330
1E
100
AcDbEntity
  8
0
100
AcDbLine
 10
0.5909999999999979
 20
105.7458
 30
0.0
 11
3.051
 21
105.2458
 31
0.0
  0
LINE
  5
79
330
1E
100
AcDbEntity
  8
0
100
AcDbLine
 10
0.8285921411301831
 20
105.6706143899839
 30
0.0
 11
1.217
 21
104.8993999999999
 31
0.0
  0
LINE
  5
7C
330
1E
100
AcDbEntity
  8
0
100
AcDbLine
 10
0.5909999999999979
 20
105.7458
 30
0.0
 11
3.051
 21
105.2458
 31
0.0
  0
LINE
  5
7D
330
1E
100
AcDbEntity
  8
0
100
AcDbLine
 10
0.0919999999999985
 20
106.2458
 30
0.0
 11
0.4759999999999981
 21
106.2458
 31
0.0
  0
LINE
  5
7E
330
1E
100
AcDbEntity
  8
0
100
AcDbLine
 10
0.0919999999999985
 20
106.2458
 30
0.0
 11
0.5909999999999979
 21
105.7458
 31
0.0
  0
LINE
  5
80
330
1E
100
AcDbEntity
  8
0
100
AcDbLine
 10
0.0919999999999985
 20
106.2458
 30
0.0
 11
0.4759999999999981
 21
106.2458
 31
0.0
  0
LINE
  5
81
330
1E
100
AcDbEntity
  8
0
100
AcDbLine
 10
0.0919999999999985
 20
106.2458
 30
0.0
 11
0.110999999999999
 21
107.0458
 31
0.0
  0
LINE
  5
82
330
1E
100
AcDbEntity
  8
0
100
AcDbLine
 10
0.0919999999999985
 20
106.2458
 30
0.0
 11
0.5909999999999979
 21
105.7458
 31
0.0
  0
LINE
  5
83
330
1E
100
AcDbEntity
  8
0
100
AcDbLine
 10
0.4759999999999981
 20
106.2458
 30
0.0
 11
1.187
 21
106.2458
 31
0.0
  0
LINE
  5
84
330
1E
100
AcDbEntity
  8
0
100
AcDbLine
 10
1.551999999999999
 20
103.0556
 30
0.0
 11
1.857
 21
101.0458
 31
0.0
  0
LINE
  5
85
330
1E
100
AcDbEntity
  8
0
100
AcDbLine
 10
1.217
 20
104.8993999999999
 30
0.0
 11
1.551999999999999
 21
103.0556
 31
0.0
  0
LINE
  5
86
330
1E
100
AcDbEntity
  8
0
100
AcDbLine
 10
3.051
 20
105.2458
 30
0.0
 11
6.0
 21
105.0458
 31
0.0
  0
LINE
  5
88
330
1E
100
AcDbEntity
  8
0
100
AcDbLine
 10
1.187
 20
106.2458
 30
0.0
 11
1.955999999999999
 21
106.2458
 31
0.0
  0
LINE
  5
89
330
1E
100
AcDbEntity
  8
0
100
AcDbLine
 10
1.955999999999999
 20
106.2458
 30
0.0
 11
3.071
 21
106.2458
 31
0.0
  0
LINE
  5
8A
330
1E
100
AcDbEntity
  8
0
100
AcDbLine
 10
6.0
 20
105.0458
 30
0.0
 11
8.948999999999999
 21
105.2458
 31
0.0
  0
LINE
  5
8B
330
1E
100
AcDbEntity
  8
0
100
AcDbLine
 10
8.948999999999999
 20
105.2458
 30
0.0
 11
11.409
 21
105.7458
 31
0.0
  0
LINE
  5
8C
330
1E
100
AcDbEntity
  8
0
100
AcDbLine
 10
10.448
 20
103.0556
 30
0.0
 11
10.783
 21
104.8993999999999
 31
0.0
  0
LINE
  5
8D
330
1E
100
AcDbEntity
  8
0
100
AcDbLine
 10
13.0
 20
101.4458
 30
0.0
 11
13.0
 21
102.4458
 31
0.0
  0
LINE
  5
8E
330
1E
100
AcDbEntity
  8
0
100
AcDbLine
 10
13.0
 20
101.4458
 30
0.0
 11
13.0
 21
100.7457999999999
 31
0.0
  0
LINE
  5
8F
330
1E
100
AcDbEntity
  8
0
100
AcDbLine
 10
11.0
 20
101.4458
 30
0.0
 11
11.0
 21
103.0458
 31
0.0
  0
LINE
  5
90
330
1E
100
AcDbEntity
  8
0
100
AcDbLine
 10
21.0
 20
101.4458
 30
0.0
 11
21.0
 21
102.4458
 31
0.0
  0
LINE
  5
91
330
1E
100
AcDbEntity
  8
0
100
AcDbLine
 10
21.0
 20
101.4458
 30
0.0
 11
21.0
 21
100.7457999999999
 31
0.0
  0
LINE
  5
92
330
1E
100
AcDbEntity
  8
0
100
AcDbLine
 10
13.0
 20
102.4458
 30
0.0
 11
13.0
 21
103.8457999999999
 31
0.0
  0
LINE
  5
93
330
1E
100
AcDbEntity
  8
0
100
AcDbLine
 10
13.0
 20
102.4458
 30
0.0
 11
13.0
 21
101.4458
 31
0.0
  0
LINE
  5
94
330
1E
100
AcDbEntity
  8
0
100
AcDbLine
 10
11.0
 20
103.0458
 30
0.0
 11
11.0
 21
104.9458
 31
0.0
  0
LINE
  5
95
330
1E
100
AcDbEntity
  8
0
100
AcDbLine
 10
11.0
 20
103.0458
 30
0.0
 11
11.0
 21
101.4458
 31
0.0
  0
LINE
  5
96
330
1E
100
AcDbEntity
  8
0
100
AcDbLine
 10
13.0
 20
103.8457999999999
 30
0.0
 11
13.0
 21
105.3458
 31
0.0
  0
LINE
  5
97
330
1E
100
AcDbEntity
  8
0
100
AcDbLine
 10
13.0
 20
103.8457999999999
 30
0.0
 11
13.0
 21
102.4458
 31
0.0
  0
LINE
  5
98
330
1E
100
AcDbEntity
  8
0
100
AcDbLine
 10
21.0
 20
102.4458
 30
0.0
 11
21.0
 21
103.8457999999999
 31
0.0
  0
LINE
  5
99
330
1E
100
AcDbEntity
  8
0
100
AcDbLine
 10
21.0
 20
102.4458
 30
0.0
 11
21.0
 21
101.4458
 31
0.0
  0
LINE
  5
9A
330
1E
100
AcDbEntity
  8
0
100
AcDbLine
 10
32.0
 20
101.3457999999999
 30
0.0
 11
32.0
 21
98.94580000000001
 31
0.0
  0
LINE
  5
9B
330
1E
100
AcDbEntity
  8
0
100
AcDbLine
 10
32.0
 20
101.3457999999999
 30
0.0
 11
32.0
 21
104.0458
 31
0.0
  0
LINE
  5
9C
330
1E
100
AcDbEntity
  8
0
100
AcDbLine
 10
32.0
 20
102.8458
 30
0.0
 11
32.0
 21
101.8458
 31
0.0
  0
LINE
  5
9D
330
1E
100
AcDbEntity
  8
0
100
AcDbLine
 10
32.0
 20
101.8458
 30
0.0
 11
32.0
 21
101.2458
 31
0.0
  0
LINE
  5
9E
330
1E
100
AcDbEntity
  8
0
100
AcDbLine
 10
32.0
 20
101.2458
 30
0.0
 11
32.0
 21
101.0458
 31
0.0
  0
LINE
  5
9F
330
1E
100
AcDbEntity
  8
0
100
AcDbLine
 10
21.0
 20
103.8457999999999
 30
0.0
 11
21.0
 21
105.3458
 31
0.0
  0
LINE
  5
A0
330
1E
100
AcDbEntity
  8
0
100
AcDbLine
 10
21.0
 20
103.8457999999999
 30
0.0
 11
21.0
 21
102.4458
 31
0.0
  0
LINE
  5
A1
330
1E
100
AcDbEntity
  8
0
100
AcDbLine
 10
11.0
 20
105.3302705882349
 30
0.0
 11
11.0
 21
104.9458
 31
0.0
  0
LINE
  5
A2
330
1E
100
AcDbEntity
  8
0
100
AcDbLine
 10
11.0
 20
104.9458
 30
0.0
 11
11.0
 21
105.3302705882349
 31
0.0
  0
LINE
  5
A3
330
1E
100
AcDbEntity
  8
0
100
AcDbLine
 10
11.0
 20
104.9458
 30
0.0
 11
11.0
 21
103.0458
 31
0.0
  0
LINE
  5
A4
330
1E
100
AcDbEntity
  8
0
100
AcDbLine
 10
13.0
 20
105.3458
 30
0.0
 11
13.0
 21
107.0458
 31
0.0
  0
LINE
  5
A5
330
1E
100
AcDbEntity
  8
0
100
AcDbLine
 10
13.0
 20
105.3458
 30
0.0
 11
13.0
 21
103.8457999999999
 31
0.0
  0
LINE
  5
A6
330
1E
100
AcDbEntity
  8
0
100
AcDbLine
 10
21.0
 20
105.3458
 30
0.0
 11
21.0
 21
107.0458
 31
0.0
  0
LINE
  5
A7
330
1E
100
AcDbEntity
  8
0
100
AcDbLine
 10
21.0
 20
105.3458
 30
0.0
 11
21.0
 21
103.8457999999999
 31
0.0
  0
LINE
  5
A8
330
1E
100
AcDbEntity
  8
0
100
AcDbLine
 10
32.0
 20
104.0458
 30
0.0
 11
32.0
 21
102.8458
 31
0.0
  0
LINE
  5
A9
330
1E
100
AcDbEntity
  8
0
100
AcDbLine
 10
32.0
 20
104.0458
 30
0.0
 11
32.0
 21
101.3457999999999
 31
0.0
  0
LINE
  5
AA
330
1E
100
AcDbEntity
  8
0
100
AcDbLine
 10
32.0
 20
104.0458
 30
0.0
 11
32.0
 21
107.0458
 31
0.0
  0
LINE
  5
AB
330
1E
100
AcDbEntity
  8
0
100
AcDbLine
 10
10.783
 20
104.8993999999999
 30
0.0
 11
11.1714078588698
 21
105.6706143899839
 31
0.0
  0
LINE
  5
AE
330
1E
100
AcDbEntity
  8
0
100
AcDbLine
 10
11.409
 20
105.7458
 30
0.0
 11
11.908
 21
106.2458
 31
0.0
  0
LINE
  5
B0
330
1E
100
AcDbEntity
  8
0
100
AcDbLine
 10
32.0
 20
105.5458
 30
0.0
 11
32.0
 21
104.0458
 31
0.0
  0
LINE
  5
B1
330
1E
100
AcDbEntity
  8
0
100
AcDbLine
 10
11.524
 20
106.2458
 30
0.0
 11
11.908
 21
106.2458
 31
0.0
  0
LINE
  5
B2
330
1E
100
AcDbEntity
  8
0
100
AcDbLine
 10
10.81299999999999
 20
106.2458
 30
0.0
 11
11.524
 21
106.2458
 31
0.0
  0
LINE
  5
B3
330
1E
100
AcDbEntity
  8
0
100
AcDbLine
 10
10.044
 20
106.2458
 30
0.0
 11
10.81299999999999
 21
106.2458
 31
0.0
  0
LINE
  5
B4
330
1E
100
AcDbEntity
  8
0
100
AcDbLine
 10
21.0
 20
107.0458
 30
0.0
 11
21.0
 21
105.3458
 31
0.0
  0
LINE
  5
B5
330
1E
100
AcDbEntity
  8
0
100
AcDbLine
 10
21.0
 20
107.0458
 30
0.0
 11
21.0
 21
108.7458
 31
0.0
  0
LINE
  5
B6
330
1E
100
AcDbEntity
  8
0
100
AcDbLine
 10
13.0
 20
107.0458
 30
0.0
 11
13.0
 21
105.3458
 31
0.0
  0
LINE
  5
B7
330
1E
100
AcDbEntity
  8
0
100
AcDbLine
 10
13.0
 20
107.0458
 30
0.0
 11
13.0
 21
108.7458
 31
0.0
  0
LINE
  5
B8
330
1E
100
AcDbEntity
  8
0
100
AcDbLine
 10
32.0
 20
107.0458
 30
0.0
 11
32.0
 21
105.5458
 31
0.0
  0
LINE
  5
B9
330
1E
100
AcDbEntity
  8
0
100
AcDbLine
 10
32.0
 20
107.0458
 30
0.0
 11
32.0
 21
104.0458
 31
0.0
  0
LINE
  5
BA
330
1E
100
AcDbEntity
  8
0
100
AcDbLine
 10
32.0
 20
107.0458
 30
0.0
 11
32.0
 21
110.0457999999999
 31
0.0
  0
LINE
  5
BB
330
1E
100
AcDbEntity
  8
0
100
AcDbLine
 10
11.889
 20
107.0458
 30
0.0
 11
11.908
 21
106.2458
 31
0.0
  0
LINE
  5
BC
330
1E
100
AcDbEntity
  8
0
100
AcDbLine
 10
11.889
 20
107.0458
 30
0.0
 11
11.908
 21
107.8457999999999
 31
0.0
  0
LINE
  5
BD
330
1E
100
AcDbEntity
  8
0
100
AcDbLine
 10
8.929
 20
106.2458
 30
0.0
 11
10.044
 21
106.2458
 31
0.0
  0
LINE
  5
BE
330
1E
100
AcDbEntity
  8
0
100
AcDbLine
 10
6.0
 20
106.2458
 30
0.0
 11
8.929
 21
106.2458
 31
0.0
  0
LINE
  5
C0
330
1E
100
AcDbEntity
  8
0
100
AcDbLine
 10
3.071
 20
106.2458
 30
0.0
 11
6.0
 21
106.2458
 31
0.0
  0
LINE
  5
C1
330
1E
100
AcDbEntity
  8
0
100
AcDbLine
 10
0.0919999999999986
 20
107.8457999999999
 30
0.0
 11
0.475999999999999
 21
107.8457999999999
 31
0.0
  0
LINE
  5
C2
330
1E
100
AcDbEntity
  8
0
100
AcDbLine
 10
0.0919999999999986
 20
107.8457999999999
 30
0.0
 11
0.5909999999999992
 21
108.3458
 31
0.0
  0
LINE
  5
C3
330
1E
100
AcDbEntity
  8
0
100
AcDbLine
 10
0.475999999999999
 20
107.8457999999999
 30
0.0
 11
1.187
 21
107.8457999999999
 31
0.0
  0
LINE
  5
C4
330
1E
100
AcDbEntity
  8
0
100
AcDbLine
 10
0.0919999999999986
 20
107.8457999999999
 30
0.0
 11
0.110999999999999
 21
107.0458
 31
0.0
  0
LINE
  5
C5
330
1E
100
AcDbEntity
  8
0
100
AcDbLine
 10
0.0919999999999986
 20
107.8457999999999
 30
0.0
 11
0.475999999999999
 21
107.8457999999999
 31
0.0
  0
LINE
  5
C6
330
1E
100
AcDbEntity
  8
0
100
AcDbLine
 10
0.0919999999999986
 20
107.8457999999999
 30
0.0
 11
0.5909999999999992
 21
108.3458
 31
0.0
  0
LINE
  5
C7
330
1E
100
AcDbEntity
  8
0
100
AcDbLine
 10
0.499999999999999
 20
109.7458
 30
0.0
 11
0.499999999999999
 21
112.2457999999999
 31
0.0
  0
LINE
  5
C8
330
1E
100
AcDbEntity
  8
0
100
AcDbLine
 10
0.499999999999999
 20
108.2546176352709
 30
0.0
 11
0.499999999999999
 21
109.7458
 31
0.0
  0
LINE
  5
CA
330
1E
100
AcDbEntity
  8
0
100
AcDbLine
 10
0.5909999999999992
 20
108.3458
 30
0.0
 11
3.051
 21
108.8457999999999
 31
0.0
  0
LINE
  5
CB
330
1E
100
AcDbEntity
  8
0
100
AcDbLine
 10
0.475999999999999
 20
107.8457999999999
 30
0.0
 11
1.187
 21
107.8457999999999
 31
0.0
  0
LINE
  5
CC
330
1E
100
AcDbEntity
  8
0
100
AcDbLine
 10
1.187
 20
107.8457999999999
 30
0.0
 11
1.955999999999999
 21
107.8457999999999
 31
0.0
  0
LINE
  5
CD
330
1E
100
AcDbEntity
  8
0
100
AcDbLine
 10
1.955999999999999
 20
107.8457999999999
 30
0.0
 11
3.071
 21
107.8457999999999
 31
0.0
  0
LINE
  5
D0
330
1E
100
AcDbEntity
  8
0
100
AcDbLine
 10
3.071
 20
107.8457999999999
 30
0.0
 11
6.0
 21
107.8457999999999
 31
0.0
  0
LINE
  5
D1
330
1E
100
AcDbEntity
  8
0
100
AcDbLine
 10
11.524
 20
107.8457999999999
 30
0.0
 11
11.908
 21
107.8457999999999
 31
0.0
  0
LINE
  5
D2
330
1E
100
AcDbEntity
  8
0
100
AcDbLine
 10
10.81299999999999
 20
107.8457999999999
 30
0.0
 11
11.524
 21
107.8457999999999
 31
0.0
  0
LINE
  5
D3
330
1E
100
AcDbEntity
  8
0
100
AcDbLine
 10
10.044
 20
107.8457999999999
 30
0.0
 11
10.81299999999999
 21
107.8457999999999
 31
0.0
  0
LINE
  5
D5
330
1E
100
AcDbEntity
  8
0
100
AcDbLine
 10
11.409
 20
108.3458
 30
0.0
 11
11.908
 21
107.8457999999999
 31
0.0
  0
LINE
  5
D8
330
1E
100
AcDbEntity
  8
0
100
AcDbLine
 10
8.929
 20
107.8457999999999
 30
0.0
 11
10.044
 21
107.8457999999999
 31
0.0
  0
LINE
  5
D9
330
1E
100
AcDbEntity
  8
0
100
AcDbLine
 10
6.0
 20
107.8457999999999
 30
0.0
 11
8.929
 21
107.8457999999999
 31
0.0
  0
LINE
  5
DA
330
1E
100
AcDbEntity
  8
0
100
AcDbLine
 10
32.0
 20
108.5458
 30
0.0
 11
32.0
 21
107.0458
 31
0.0
  0
LINE
  5
DB
330
1E
100
AcDbEntity
  8
0
100
AcDbLine
 10
3.051
 20
108.8457999999999
 30
0.0
 11
6.0
 21
109.0457999999999
 31
0.0
  0
LINE
  5
DC
330
1E
100
AcDbEntity
  8
0
100
AcDbLine
 10
1.551999999999999
 20
111.036
 30
0.0
 11
1.857
 21
113.0457999999999
 31
0.0
  0
LINE
  5
DD
330
1E
100
AcDbEntity
  8
0
100
AcDbLine
 10
6.0
 20
109.0457999999999
 30
0.0
 11
8.948999999999999
 21
108.8457999999999
 31
0.0
  0
LINE
  5
DE
330
1E
100
AcDbEntity
  8
0
100
AcDbLine
 10
8.948999999999999
 20
108.8457999999999
 30
0.0
 11
11.409
 21
108.3458
 31
0.0
  0
LINE
  5
DF
330
1E
100
AcDbEntity
  8
0
100
AcDbLine
 10
10.448
 20
111.036
 30
0.0
 11
10.783
 21
109.1922
 31
0.0
  0
LINE
  5
E0
330
1E
100
AcDbEntity
  8
0
100
AcDbLine
 10
11.0
 20
109.1458
 30
0.0
 11
11.0
 21
111.0457999999999
 31
0.0
  0
LINE
  5
E1
330
1E
100
AcDbEntity
  8
0
100
AcDbLine
 10
11.0
 20
109.1458
 30
0.0
 11
11.0
 21
108.761329411765
 31
0.0
  0
LINE
  5
E2
330
1E
100
AcDbEntity
  8
0
100
AcDbLine
 10
11.0
 20
108.761329411765
 30
0.0
 11
11.0
 21
109.1458
 31
0.0
  0
LINE
  5
E3
330
1E
100
AcDbEntity
  8
0
100
AcDbLine
 10
13.0
 20
108.7458
 30
0.0
 11
13.0
 21
110.2458
 31
0.0
  0
LINE
  5
E4
330
1E
100
AcDbEntity
  8
0
100
AcDbLine
 10
13.0
 20
108.7458
 30
0.0
 11
13.0
 21
107.0458
 31
0.0
  0
LINE
  5
E5
330
1E
100
AcDbEntity
  8
0
100
AcDbLine
 10
21.0
 20
108.7458
 30
0.0
 11
21.0
 21
110.2458
 31
0.0
  0
LINE
  5
E6
330
1E
100
AcDbEntity
  8
0
100
AcDbLine
 10
21.0
 20
108.7458
 30
0.0
 11
21.0
 21
107.0458
 31
0.0
  0
LINE
  5
E7
330
1E
100
AcDbEntity
  8
0
100
AcDbLine
 10
13.0
 20
110.2458
 30
0.0
 11
13.0
 21
111.6457999999999
 31
0.0
  0
LINE
  5
E8
330
1E
100
AcDbEntity
  8
0
100
AcDbLine
 10
13.0
 20
110.2458
 30
0.0
 11
13.0
 21
108.7458
 31
0.0
  0
LINE
  5
E9
330
1E
100
AcDbEntity
  8
0
100
AcDbLine
 10
11.0
 20
111.0457999999999
 30
0.0
 11
11.0
 21
112.6457999999999
 31
0.0
  0
LINE
  5
EA
330
1E
100
AcDbEntity
  8
0
100
AcDbLine
 10
11.0
 20
111.0457999999999
 30
0.0
 11
11.0
 21
109.1458
 31
0.0
  0
LINE
  5
EB
330
1E
100
AcDbEntity
  8
0
100
AcDbLine
 10
21.0
 20
110.2458
 30
0.0
 11
21.0
 21
111.6457999999999
 31
0.0
  0
LINE
  5
EC
330
1E
100
AcDbEntity
  8
0
100
AcDbLine
 10
21.0
 20
110.2458
 30
0.0
 11
21.0
 21
108.7458
 31
0.0
  0
LINE
  5
ED
330
1E
100
AcDbEntity
  8
0
100
AcDbLine
 10
32.0
 20
111.2457999999999
 30
0.0
 11
32.0
 21
110.0457999999999
 31
0.0
  0
LINE
  5
EE
330
1E
100
AcDbEntity
  8
0
100
AcDbLine
 10
32.0
 20
110.0457999999999
 30
0.0
 11
32.0
 21
108.5458
 31
0.0
  0
LINE
  5
EF
330
1E
100
AcDbEntity
  8
0
100
AcDbLine
 10
32.0
 20
110.0457999999999
 30
0.0
 11
32.0
 21
107.0458
 31
0.0
  0
LINE
  5
F0
330
1E
100
AcDbEntity
  8
0
100
AcDbLine
 10
32.0
 20
110.0457999999999
 30
0.0
 11
32.0
 21
112.7458
 31
0.0
  0
LINE
  5
F1
330
1E
100
AcDbEntity
  8
0
100
AcDbLine
 10
10.783
 20
109.1922
 30
0.0
 11
11.1714078588698
 21
108.420985610016
 31
0.0
  0
LINE
  5
F3
330
1E
100
AcDbEntity
  8
0
100
AcDbLine
 10
1.217
 20
109.1922
 30
0.0
 11
1.551999999999999
 21
111.036
 31
0.0
  0
LINE
  5
F4
330
1E
100
AcDbEntity
  8
0
100
AcDbLine
 10
0.8285921411301831
 20
108.420985610016
 30
0.0
 11
1.217
 21
109.1922
 31
0.0
  0
LINE
  5
F6
330
1E
100
AcDbEntity
  8
0
100
AcDbLine
 10
13.0
 20
111.6457999999999
 30
0.0
 11
13.0
 21
112.6457999999999
 31
0.0
  0
LINE
  5
F7
330
1E
100
AcDbEntity
  8
0
100
AcDbLine
 10
13.0
 20
111.6457999999999
 30
0.0
 11
13.0
 21
110.2458
 31
0.0
  0
LINE
  5
F8
330
1E
100
AcDbEntity
  8
0
100
AcDbLine
 10
21.0
 20
111.6457999999999
 30
0.0
 11
21.0
 21
112.6457999999999
 31
0.0
  0
LINE
  5
F9
330
1E
100
AcDbEntity
  8
0
100
AcDbLine
 10
21.0
 20
111.6457999999999
 30
0.0
 11
21.0
 21
110.2458
 31
0.0
  0
LINE
  5
FA
330
1E
100
AcDbEntity
  8
0
100
AcDbLine
 10
11.0
 20
112.6457999999999
 30
0.0
 11
11.0
 21
113.9458
 31
0.0
  0
LINE
  5
FB
330
1E
100
AcDbEntity
  8
0
100
AcDbLine
 10
11.0
 20
112.6457999999999
 30
0.0
 11
11.0
 21
111.0457999999999
 31
0.0
  0
LINE
  5
FC
330
1E
100
AcDbEntity
  8
0
100
AcDbLine
 10
13.0
 20
112.6457999999999
 30
0.0
 11
13.0
 21
113.3458
 31
0.0
  0
LINE
  5
FD
330
1E
100
AcDbEntity
  8
0
100
AcDbLine
 10
13.0
 20
112.6457999999999
 30
0.0
 11
13.0
 21
111.6457999999999
 31
0.0
  0
LINE
  5
FE
330
1E
100
AcDbEntity
  8
0
100
AcDbLine
 10
32.0
 20
112.7458
 30
0.0
 11
32.0
 21
110.0457999999999
 31
0.0
  0
LINE
  5
FF
330
1E
100
AcDbEntity
  8
0
100
AcDbLine
 10
32.0
 20
112.7458
 30
0.0
 11
32.0
 21
115.1457999999999
 31
0.0
  0
LINE
  5
100
330
1E
100
AcDbEntity
  8
0
100
AcDbLine
 10
21.0
 20
112.6457999999999
 30
0.0
 11
21.0
 21
113.3458
 31
0.0
  0
LINE
  5
101
330
1E
100
AcDbEntity
  8
0
100
AcDbLine
 10
21.0
 20
112.6457999999999
 30
0.0
 11
21.0
 21
111.6457999999999
 31
0.0
  0
LINE
  5
102
330
1E
100
AcDbEntity
  8
0
100
AcDbLine
 10
32.0
 20
112.2457999999999
 30
0.0
 11
32.0
 21
111.2457999999999
 31
0.0
  0
LINE
  5
103
330
1E
100
AcDbEntity
  8
0
100
AcDbLine
 10
32.0
 20
112.8457999999999
 30
0.0
 11
32.0
 21
112.2457999999999
 31
0.0
  0
LINE
  5
104
330
1E
100
AcDbEntity
  8
0
100
AcDbLine
 10
21.0
 20
113.0457999999999
 30
0.0
 11
32.0
 21
113.0457999999999
 31
0.0
  0
LINE
  5
105
330
1E
100
AcDbEntity
  8
0
100
AcDbLine
 10
1.857
 20
113.0457999999999
 30
0.0
 11
2.0
 21
115.5458
 31
0.0
  0
LINE
  5
106
330
1E
100
AcDbEntity
  8
0
100
AcDbLine
 10
10.14299999999999
 20
113.0457999999999
 30
0.0
 11
10.448
 21
111.036
 31
0.0
  0
LINE
  5
107
330
1E
100
AcDbEntity
  8
0
100
AcDbLine
 10
0.499999999999999
 20
112.2457999999999
 30
0.0
 11
0.499999999999999
 21
114.4457999999999
 31
0.0
  0
LINE
  5
108
330
1E
100
AcDbEntity
  8
0
100
AcDbLine
 10
-0.0000000000000012
 20
111.5458
 30
0.0
 11
-0.0000000000000011
 21
113.4458
 31
0.0
  0
LINE
  5
109
330
1E
100
AcDbEntity
  8
0
100
AcDbLine
 10
-0.0000000000000014
 20
109.3458
 30
0.0
 11
-0.0000000000000012
 21
111.5458
 31
0.0
  0
LINE
  5
10A
330
1E
100
AcDbEntity
  8
0
100
AcDbLine
 10
-0.0000000000000015
 20
107.0458
 30
0.0
 11
-0.0000000000000014
 21
109.3458
 31
0.0
  0
LINE
  5
10B
330
1E
100
AcDbEntity
  8
0
100
AcDbLine
 10
-0.0000000000000017
 20
104.7458
 30
0.0
 11
-0.0000000000000015
 21
107.0458
 31
0.0
  0
LINE
  5
10C
330
1E
100
AcDbEntity
  8
0
100
AcDbLine
 10
-0.0000000000000011
 20
113.4458
 30
0.0
 11
-0.000000000000001
 21
114.8457999999999
 31
0.0
  0
LINE
  5
10D
330
1E
100
AcDbEntity
  8
0
100
AcDbLine
 10
-0.000000000000001
 20
114.8457999999999
 30
0.0
 11
-0.000000000000001
 21
115.7458
 31
0.0
  0
LINE
  5
10E
330
1E
100
AcDbEntity
  8
0
100
AcDbLine
 10
-0.000000000000001
 20
116.0457999999999
 30
0.0
 11
0.499999999999999
 21
117.5458
 31
0.0
  0
LINE
  5
10F
330
1E
100
AcDbEntity
  8
0
100
AcDbLine
 10
0.499999999999999
 20
114.4457999999999
 30
0.0
 11
0.499999999999999
 21
116.1457999999999
 31
0.0
  0
LINE
  5
110
330
1E
100
AcDbEntity
  8
0
100
AcDbLine
 10
0.499999999999999
 20
116.1457999999999
 30
0.0
 11
0.499999999999999
 21
117.1457999999999
 31
0.0
  0
LINE
  5
111
330
1E
100
AcDbEntity
  8
0
100
AcDbLine
 10
11.0
 20
113.9458
 30
0.0
 11
11.0
 21
114.7458
 31
0.0
  0
LINE
  5
112
330
1E
100
AcDbEntity
  8
0
100
AcDbLine
 10
11.0
 20
113.9458
 30
0.0
 11
11.0
 21
112.6457999999999
 31
0.0
  0
LINE
  5
113
330
1E
100
AcDbEntity
  8
0
100
AcDbLine
 10
11.0
 20
114.7458
 30
0.0
 11
11.0
 21
115.0457999999999
 31
0.0
  0
LINE
  5
114
330
1E
100
AcDbEntity
  8
0
100
AcDbLine
 10
11.0
 20
114.7458
 30
0.0
 11
11.0
 21
113.9458
 31
0.0
  0
LINE
  5
115
330
1E
100
AcDbEntity
  8
0
100
AcDbLine
 10
10.0
 20
115.5458
 30
0.0
 11
10.14299999999999
 21
117.4681
 31
0.0
  0
LINE
  5
116
330
1E
100
AcDbEntity
  8
0
100
AcDbLine
 10
10.0
 20
115.5458
 30
0.0
 11
10.14299999999999
 21
113.0457999999999
 31
0.0
  0
LINE
  5
117
330
1E
100
AcDbEntity
  8
0
100
AcDbLine
 10
1.857
 20
117.4681
 30
0.0
 11
2.0
 21
115.5458
 31
0.0
  0
LINE
  5
118
330
1E
100
AcDbEntity
  8
0
100
AcDbLine
 10
0.499999999999999
 20
117.1457999999999
 30
0.0
 11
0.499999999999999
 21
117.5458
 31
0.0
  0
LINE
  5
119
330
1E
100
AcDbEntity
  8
0
100
AcDbLine
 10
10.14299999999999
 20
117.4681
 30
0.0
 11
10.448
 21
119.7497999999999
 31
0.0
  0
LINE
  5
11A
330
1E
100
AcDbEntity
  8
0
100
AcDbLine
 10
-0.000000000000001
 20
116.0457999999999
 30
0.0
 11
0.499999999999999
 21
117.5458
 31
0.0
  0
LINE
  5
11B
330
1E
100
AcDbEntity
  8
0
100
AcDbLine
 10
10.1695889339598
 20
117.5370331981209
 30
0.0
 11
11.0
 21
115.0457999999999
 31
0.0
  0
LINE
  5
11C
330
1E
100
AcDbEntity
  8
0
100
AcDbLine
 10
21.0
 20
113.5458
 30
0.0
 11
21.0
 21
113.3458
 31
0.0
  0
LINE
  5
11D
330
1E
100
AcDbEntity
  8
0
100
AcDbLine
 10
13.0
 20
113.3458
 30
0.0
 11
13.0
 21
113.5458
 31
0.0
  0
LINE
  5
11E
330
1E
100
AcDbEntity
  8
0
100
AcDbLine
 10
13.0
 20
113.3458
 30
0.0
 11
13.0
 21
112.6457999999999
 31
0.0
  0
LINE
  5
11F
330
1E
100
AcDbEntity
  8
0
100
AcDbLine
 10
21.0
 20
113.3458
 30
0.0
 11
21.0
 21
113.5458
 31
0.0
  0
LINE
  5
120
330
1E
100
AcDbEntity
  8
0
100
AcDbLine
 10
21.0
 20
113.3458
 30
0.0
 11
21.0
 21
112.6457999999999
 31
0.0
  0
LINE
  5
121
330
1E
100
AcDbEntity
  8
0
100
AcDbLine
 10
13.0
 20
113.5458
 30
0.0
 11
21.0
 21
113.5458
 31
0.0
  0
LINE
  5
122
330
1E
100
AcDbEntity
  8
0
100
AcDbLine
 10
13.0
 20
113.5458
 30
0.0
 11
13.0
 21
113.3458
 31
0.0
  0
LINE
  5
123
330
1E
100
AcDbEntity
  8
0
100
AcDbLine
 10
11.0
 20
115.0457999999999
 30
0.0
 11
13.0
 21
113.5458
 31
0.0
  0
LINE
  5
124
330
1E
100
AcDbEntity
  8
0
100
AcDbLine
 10
11.0
 20
115.0457999999999
 30
0.0
 11
11.0
 21
114.7458
 31
0.0
  0
LINE
  5
125
330
1E
100
AcDbEntity
  8
0
100
AcDbLine
 10
0.499999999999999
 20
117.5458
 30
0.0
 11
1.78380833571012
 21
117.973736111903
 31
0.0
  0
LINE
  5
126
330
1E
100
AcDbEntity
  8
0
100
AcDbLine
 10
0.499999999999999
 20
117.5458
 30
0.0
 11
0.499999999999999
 21
117.1457999999999
 31
0.0
  0
LINE
  5
127
330
1E
100
AcDbEntity
  8
0
100
AcDbLine
 10
-0.000000000000001
 20
115.7458
 30
0.0
 11
-0.000000000000001
 21
116.0457999999999
 31
0.0
  0
LINE
  5
128
330
1E
100
AcDbEntity
  8
0
100
AcDbLine
 10
0.499999999999999
 20
117.5458
 30
0.0
 11
1.78380833571012
 21
117.973736111903
 31
0.0
  0
LINE
  5
129
330
1E
100
AcDbEntity
  8
0
100
AcDbLine
 10
32.0
 20
117.0457999999999
 30
0.0
 11
32.0
 21
115.1457999999999
 31
0.0
  0
LINE
  5
12A
330
1E
100
AcDbEntity
  8
0
100
AcDbLine
 10
32.0
 20
117.0457999999999
 30
0.0
 11
32.0
 21
118.1457999999999
 31
0.0
  0
LINE
  5
12B
330
1E
100
AcDbEntity
  8
0
100
AcDbLine
 10
0.193
 20
130.1494
 30
0.0
 11
0.273719715754448
 21
129.5096321295069
 31
0.0
  0
LINE
  5
12C
330
1E
100
AcDbEntity
  8
0
100
AcDbLine
 10
0.212
 20
130.0228999999999
 30
0.0
 11
0.69
 21
126.0477999999999
 31
0.0
  0
LINE
  5
12D
330
1E
100
AcDbEntity
  8
0
100
AcDbLine
 10
0.212
 20
130.0228999999999
 30
0.0
 11
0.273719715754448
 21
129.5096321295069
 31
0.0
  0
LINE
  5
12E
330
1E
100
AcDbEntity
  8
0
100
AcDbLine
 10
0.212
 20
130.0228999999999
 30
0.0
 11
0.69
 21
126.0477999999999
 31
0.0
  0
LINE
  5
12F
330
1E
100
AcDbEntity
  8
0
100
AcDbLine
 10
0.0920000000000001
 20
131.9206
 30
0.0
 11
0.4760000000000001
 21
133.4205
 31
0.0
  0
LINE
  5
130
330
1E
100
AcDbEntity
  8
0
100
AcDbLine
 10
0.111
 20
132.0359999999999
 30
0.0
 11
0.191355368518884
 21
132.3086810344829
 31
0.0
  0
LINE
  5
131
330
1E
100
AcDbEntity
  8
0
100
AcDbLine
 10
0.092
 20
131.9206
 30
0.0
 11
0.4760000000000001
 21
133.4205
 31
0.0
  0
LINE
  5
132
330
1E
100
AcDbEntity
  8
0
100
AcDbLine
 10
0.092
 20
131.9206
 30
0.0
 11
0.212
 21
130.0228999999999
 31
0.0
  0
LINE
  5
133
330
1E
100
AcDbEntity
  8
0
100
AcDbLine
 10
0.168814607392422
 20
130.7058409962619
 30
0.0
 11
0.193
 21
130.1494
 31
0.0
  0
LINE
  5
134
330
1E
100
AcDbEntity
  8
0
100
AcDbLine
 10
0.111
 20
132.0359999999999
 30
0.0
 11
0.191355368518884
 21
132.3086810344829
 31
0.0
  0
LINE
  5
136
330
1E
100
AcDbEntity
  8
0
100
AcDbLine
 10
0.4760000000000001
 20
133.4205
 30
0.0
 11
1.187
 21
134.5166
 31
0.0
  0
LINE
  5
137
330
1E
100
AcDbEntity
  8
0
100
AcDbLine
 10
0.193
 20
130.1494
 30
0.0
 11
0.273719715754449
 21
129.5096321295069
 31
0.0
  0
LINE
  5
139
330
1E
100
AcDbEntity
  8
0
100
AcDbLine
 10
1.187
 20
134.5166
 30
0.0
 11
1.955999999999999
 21
135.1704
 31
0.0
  0
LINE
  5
13B
330
1E
100
AcDbEntity
  8
0
100
AcDbLine
 10
1.47733275563277
 20
134.763439474165
 30
0.0
 11
1.955999999999999
 21
135.1704
 31
0.0
  0
LINE
  5
13C
330
1E
100
AcDbEntity
  8
0
100
AcDbLine
 10
1.283
 20
134.6127999999999
 30
0.0
 11
1.47733275563277
 21
134.763439474165
 31
0.0
  0
LINE
  5
13D
330
1E
100
AcDbEntity
  8
0
100
AcDbLine
 10
1.217
 20
122.5036999999999
 30
0.0
 11
1.551999999999999
 21
119.7497999999999
 31
0.0
  0
LINE
  5
13E
330
1E
100
AcDbEntity
  8
0
100
AcDbLine
 10
1.217
 20
122.5036999999999
 30
0.0
 11
1.242999999999999
 21
122.184
 31
0.0
  0
LINE
  5
13F
330
1E
100
AcDbEntity
  8
0
100
AcDbLine
 10
0.69
 20
126.0477999999999
 30
0.0
 11
1.217
 21
122.5036999999999
 31
0.0
  0
LINE
  5
140
330
1E
100
AcDbEntity
  8
0
100
AcDbLine
 10
1.551999999999999
 20
119.7497999999999
 30
0.0
 11
1.76163133605917
 21
118.181551411521
 31
0.0
  0
LINE
  5
141
330
1E
100
AcDbEntity
  8
0
100
AcDbLine
 10
1.551999999999999
 20
119.7497999999999
 30
0.0
 11
1.857
 21
117.4681
 31
0.0
  0
LINE
  5
142
330
1E
100
AcDbEntity
  8
0
100
AcDbLine
 10
10.757
 20
122.184
 30
0.0
 11
10.783
 21
122.5036999999999
 31
0.0
  0
LINE
  5
143
330
1E
100
AcDbEntity
  8
0
100
AcDbLine
 10
10.448
 20
119.7497999999999
 30
0.0
 11
10.783
 21
122.5036999999999
 31
0.0
  0
LINE
  5
144
330
1E
100
AcDbEntity
  8
0
100
AcDbLine
 10
10.783
 20
122.5036999999999
 30
0.0
 11
11.31
 21
126.0477999999999
 31
0.0
  0
LINE
  5
145
330
1E
100
AcDbEntity
  8
0
100
AcDbLine
 10
11.31
 20
126.0477999999999
 30
0.0
 11
11.788
 21
130.0228999999999
 31
0.0
  0
LINE
  5
148
330
1E
100
AcDbEntity
  8
0
100
AcDbLine
 10
10.044
 20
135.1704
 30
0.0
 11
10.81299999999999
 21
134.5166
 31
0.0
  0
LINE
  5
149
330
1E
100
AcDbEntity
  8
0
100
AcDbLine
 10
8.929
 20
135.6896
 30
0.0
 11
10.044
 21
135.1704
 31
0.0
  0
LINE
  5
14A
330
1E
100
AcDbEntity
  8
0
100
AcDbLine
 10
6.0
 20
136.0458
 30
0.0
 11
8.929
 21
135.6896
 31
0.0
  0
LINE
  5
14B
330
1E
100
AcDbEntity
  8
0
100
AcDbLine
 10
3.071
 20
135.6896
 30
0.0
 11
6.0
 21
136.0458
 31
0.0
  0
LINE
  5
14C
330
1E
100
AcDbEntity
  8
0
100
AcDbLine
 10
11.788
 20
130.0228999999999
 30
0.0
 11
11.908
 21
131.9206
 31
0.0
  0
LINE
  5
14E
330
1E
100
AcDbEntity
  8
0
100
AcDbLine
 10
11.524
 20
133.4205
 30
0.0
 11
11.908
 21
131.9206
 31
0.0
  0
LINE
  5
14F
330
1E
100
AcDbEntity
  8
0
100
AcDbLine
 10
10.81299999999999
 20
134.5166
 30
0.0
 11
11.524
 21
133.4205
 31
0.0
  0
LINE
  5
150
330
1E
100
AcDbEntity
  8
0
100
AcDbLine
 10
11.807
 20
130.1494
 30
0.0
 11
11.8311853926076
 21
130.7058409962619
 31
0.0
  0
LINE
  5
151
330
1E
100
AcDbEntity
  8
0
100
AcDbLine
 10
11.80864463148109
 20
132.3086810344829
 30
0.0
 11
11.889
 21
132.0359999999999
 31
0.0
  0
LINE
  5
152
330
1E
100
AcDbEntity
  8
0
100
AcDbLine
 10
10.52266724436719
 20
134.763439474165
 30
0.0
 11
10.717
 21
134.6127999999999
 31
0.0
  0
LINE
  5
153
330
1E
100
AcDbEntity
  8
0
100
AcDbLine
 10
11.7262802842455
 20
129.5096321295069
 30
0.0
 11
11.807
 21
130.1494
 31
0.0
  0
LINE
  5
154
330
1E
100
AcDbEntity
  8
0
100
AcDbLine
 10
1.955999999999999
 20
135.1704
 30
0.0
 11
3.071
 21
135.6896
 31
0.0
  0
LINE
  5
155
330
1E
100
AcDbEntity
  8
0
100
AcDbLine
 10
1.76163133605917
 20
118.181551411521
 30
0.0
 11
1.78380833571012
 21
117.973736111903
 31
0.0
  0
LINE
  5
156
330
1E
100
AcDbEntity
  8
0
100
AcDbLine
 10
1.76163133605917
 20
118.181551411521
 30
0.0
 11
1.90126073952831
 21
116.8731180447879
 31
0.0
  0
LINE
  5
157
330
1E
100
AcDbEntity
  8
0
100
AcDbLine
 10
32.0
 20
118.1457999999999
 30
0.0
 11
32.0
 21
117.0457999999999
 31
0.0
  0
LINE
  5
158
330
1E
100
AcDbEntity
  8
0
100
AcDbLine
 10
32.0
 20
118.1457999999999
 30
0.0
 11
32.0
 21
118.5458
 31
0.0
  0
LINE
  5
159
330
1E
100
AcDbEntity
  8
0
100
AcDbLine
 10
32.0
 20
118.5458
 30
0.0
 11
32.0
 21
118.1457999999999
 31
0.0
  0
LINE
  5
15A
330
1E
100
AcDbEntity
  8
0
100
AcDbLine
 10
32.0
 20
118.5458
 30
0.0
 11
32.5
 21
119.0458
 31
0.0
  0
LINE
  5
15B
330
1E
100
AcDbEntity
  8
0
100
AcDbLine
 10
32.0
 20
113.0457999999999
 30
0.0
 11
32.0
 21
115.1457999999999
 31
0.0
  0
LINE
  5
15C
330
1E
100
AcDbEntity
  8
0
100
AcDbLine
 10
32.0
 20
113.0457999999999
 30
0.0
 11
32.0
 21
112.8457999999999
 31
0.0
  0
LINE
  5
15D
330
1E
100
AcDbEntity
  8
0
100
AcDbLine
 10
32.0
 20
115.1457999999999
 30
0.0
 11
32.0
 21
113.0457999999999
 31
0.0
  0
LINE
  5
15E
330
1E
100
AcDbEntity
  8
0
100
AcDbLine
 10
32.0
 20
115.1457999999999
 30
0.0
 11
32.0
 21
117.0457999999999
 31
0.0
  0
LINE
  5
15F
330
1E
100
AcDbEntity
  8
0
100
AcDbLine
 10
32.0
 20
115.1457999999999
 30
0.0
 11
32.0
 21
112.7458
 31
0.0
  0
LINE
  5
160
330
1E
100
AcDbEntity
  8
0
100
AcDbLine
 10
32.0
 20
101.0458
 30
0.0
 11
32.0
 21
98.94580000000001
 31
0.0
  0
LINE
  5
161
330
1E
100
AcDbEntity
  8
0
100
AcDbLine
 10
71.6367
 20
59.95416999999999
 30
0.0
 11
72.03669999999999
 21
59.95416999999999
 31
0.0
  0
LINE
  5
162
330
1E
100
AcDbEntity
  8
0
100
AcDbLine
 10
70.68870269739758
 20
88.39411751799222
 30
0.0
 11
71.6367
 21
59.95416999999999
 31
0.0
  0
LINE
  5
163
330
1E
100
AcDbEntity
  8
0
100
AcDbLine
 10
72.03669999999999
 20
59.95416999999999
 30
0.0
 11
73.0367
 21
59.95416999999999
 31
0.0
  0
LINE
  5
164
330
1E
100
AcDbEntity
  8
0
100
AcDbLine
 10
74.6367
 20
59.95416999999999
 30
0.0
 11
74.6367
 21
4.215900000000009
 31
0.0
  0
LINE
  5
165
330
1E
100
AcDbEntity
  8
0
100
AcDbLine
 10
74.6367
 20
59.95416999999999
 30
0.0
 11
74.9366
 21
59.95416999999999
 31
0.0
  0
LINE
  5
166
330
1E
100
AcDbEntity
  8
0
100
AcDbLine
 10
74.73659999999999
 20
59.95416999999999
 30
0.0
 11
76.9366
 21
59.95416999999999
 31
0.0
  0
LINE
  5
167
330
1E
100
AcDbEntity
  8
0
100
AcDbLine
 10
74.9366
 20
59.95416999999999
 30
0.0
 11
75.63670000000001
 21
59.95416999999999
 31
0.0
  0
LINE
  5
168
330
1E
100
AcDbEntity
  8
0
100
AcDbLine
 10
74.9366
 20
5.565300000000009
 30
0.0
 11
75.63670000000001
 21
6.764700000000009
 31
0.0
  0
LINE
  5
169
330
1E
100
AcDbEntity
  8
0
100
AcDbLine
 10
75.63670000000001
 20
6.764700000000009
 30
0.0
 11
76.8366
 21
7.964200000000019
 31
0.0
  0
LINE
  5
16A
330
1E
100
AcDbEntity
  8
0
100
AcDbLine
 10
75.63670000000001
 20
59.95416999999999
 30
0.0
 11
76.8366
 21
59.95416999999999
 31
0.0
  0
LINE
  5
16B
330
1E
100
AcDbEntity
  8
0
100
AcDbLine
 10
74.6367
 20
4.215900000000009
 30
0.0
 11
74.9366
 21
2.22940000000002
 31
0.0
  0
LINE
  5
16C
330
1E
100
AcDbEntity
  8
0
100
AcDbLine
 10
74.6367
 20
4.215900000000009
 30
0.0
 11
74.6367
 21
59.95416999999999
 31
0.0
  0
LINE
  5
16D
330
1E
100
AcDbEntity
  8
0
100
AcDbLine
 10
74.6367
 20
4.215900000000009
 30
0.0
 11
74.9366
 21
5.565300000000009
 31
0.0
  0
LINE
  5
16E
330
1E
100
AcDbEntity
  8
0
100
AcDbLine
 10
74.9366
 20
2.22940000000002
 30
0.0
 11
75.63670000000001
 21
1.104900000000009
 31
0.0
  0
LINE
  5
16F
330
1E
100
AcDbEntity
  8
0
100
AcDbLine
 10
76.9366
 20
59.95416999999999
 30
0.0
 11
79.4366
 21
59.95416999999999
 31
0.0
  0
LINE
  5
170
330
1E
100
AcDbEntity
  8
0
100
AcDbLine
 10
76.8366
 20
7.964200000000019
 30
0.0
 11
78.43659999999999
 21
9.013700000000008
 31
0.0
  0
LINE
  5
171
330
1E
100
AcDbEntity
  8
0
100
AcDbLine
 10
76.8366
 20
59.95416999999999
 30
0.0
 11
78.43659999999999
 21
59.95416999999999
 31
0.0
  0
LINE
  5
172
330
1E
100
AcDbEntity
  8
0
100
AcDbLine
 10
78.43659999999999
 20
9.013700000000008
 30
0.0
 11
80.23659999999999
 21
9.725900000000018
 31
0.0
  0
LINE
  5
173
330
1E
100
AcDbEntity
  8
0
100
AcDbLine
 10
78.43659999999999
 20
59.95416999999999
 30
0.0
 11
80.23659999999999
 21
59.95416999999999
 31
0.0
  0
LINE
  5
174
330
1E
100
AcDbEntity
  8
0
100
AcDbLine
 10
75.63670000000001
 20
1.104900000000009
 30
0.0
 11
76.8366
 21
0.430200000000013
 31
0.0
  0
LINE
  5
175
330
1E
100
AcDbEntity
  8
0
100
AcDbLine
 10
76.8366
 20
0.430200000000013
 30
0.0
 11
78.43659999999999
 21
0.0554000000000121
 31
0.0
  0
LINE
  5
176
330
1E
100
AcDbEntity
  8
0
100
AcDbLine
 10
79.4366
 20
59.95416999999999
 30
0.0
 11
82.1367
 21
59.95416999999999
 31
0.0
  0
LINE
  5
177
330
1E
100
AcDbEntity
  8
0
100
AcDbLine
 10
80.23659999999999
 20
9.725900000000018
 30
0.0
 11
82.1367
 21
9.954200000000009
 31
0.0
  0
LINE
  5
178
330
1E
100
AcDbEntity
  8
0
100
AcDbLine
 10
80.23659999999999
 20
59.95416999999999
 30
0.0
 11
82.1367
 21
59.95416999999999
 31
0.0
  0
LINE
  5
179
330
1E
100
AcDbEntity
  8
0
100
AcDbLine
 10
78.43659999999999
 20
0.0554000000000121
 30
0.0
 11
80.23659999999999
 21
-0.0195999999999909
 31
0.0
  0
LINE
  5
17A
330
1E
100
AcDbEntity
  8
0
100
AcDbLine
 10
80.23659999999999
 20
-0.0195999999999909
 30
0.0
 11
82.1367
 21
-0.0457999999999868
 31
0.0
  0
LINE
  5
17B
330
1E
100
AcDbEntity
  8
0
100
AcDbLine
 10
73.0367
 20
59.95416999999999
 30
0.0
 11
74.6367
 21
59.95416999999999
 31
0.0
  0
LINE
  5
17C
330
1E
100
AcDbEntity
  8
0
100
AcDbLine
 10
73.0367
 20
59.95416999999999
 30
0.0
 11
74.73659999999999
 21
59.95416999999999
 31
0.0
  0
LINE
  5
17D
330
1E
100
AcDbEntity
  8
0
100
AcDbLine
 10
78.9318
 20
88.5458
 30
0.0
 11
82.0
 21
88.5458
 31
0.0
  0
LINE
  5
17E
330
1E
100
AcDbEntity
  8
0
100
AcDbLine
 10
84.03669999999999
 20
-0.0195999999999911
 30
0.0
 11
85.8366
 21
0.0554000000000116
 31
0.0
  0
LINE
  5
17F
330
1E
100
AcDbEntity
  8
0
100
AcDbLine
 10
82.1367
 20
-0.0457999999999868
 30
0.0
 11
84.03669999999999
 21
-0.0195999999999911
 31
0.0
  0
LINE
  5
180
330
1E
100
AcDbEntity
  8
0
100
AcDbLine
 10
84.03669999999999
 20
9.725900000000018
 30
0.0
 11
85.8366
 21
9.013700000000008
 31
0.0
  0
LINE
  5
181
330
1E
100
AcDbEntity
  8
0
100
AcDbLine
 10
84.03669999999999
 20
59.95416999999999
 30
0.0
 11
85.8366
 21
59.95416999999999
 31
0.0
  0
LINE
  5
182
330
1E
100
AcDbEntity
  8
0
100
AcDbLine
 10
82.1367
 20
9.954200000000009
 30
0.0
 11
84.03669999999999
 21
9.725900000000018
 31
0.0
  0
LINE
  5
183
330
1E
100
AcDbEntity
  8
0
100
AcDbLine
 10
85.8366
 20
0.0554000000000116
 30
0.0
 11
87.4366
 21
0.4302000000000121
 31
0.0
  0
LINE
  5
184
330
1E
100
AcDbEntity
  8
0
100
AcDbLine
 10
85.8366
 20
9.013700000000008
 30
0.0
 11
87.4366
 21
7.964200000000019
 31
0.0
  0
LINE
  5
185
330
1E
100
AcDbEntity
  8
0
100
AcDbLine
 10
87.4366
 20
0.4302000000000121
 30
0.0
 11
88.6367
 21
1.104900000000009
 31
0.0
  0
LINE
  5
186
330
1E
100
AcDbEntity
  8
0
100
AcDbLine
 10
87.4366
 20
7.964200000000019
 30
0.0
 11
88.6367
 21
6.764700000000009
 31
0.0
  0
LINE
  5
187
330
1E
100
AcDbEntity
  8
0
100
AcDbLine
 10
87.4366
 20
59.95416999999999
 30
0.0
 11
88.6367
 21
59.95416999999999
 31
0.0
  0
LINE
  5
188
330
1E
100
AcDbEntity
  8
0
100
AcDbLine
 10
85.8366
 20
59.95416999999999
 30
0.0
 11
87.4366
 21
59.95416999999999
 31
0.0
  0
LINE
  5
189
330
1E
100
AcDbEntity
  8
0
100
AcDbLine
 10
87.3366
 20
59.95416999999999
 30
0.0
 11
89.5367
 21
59.95416999999999
 31
0.0
  0
LINE
  5
18A
330
1E
100
AcDbEntity
  8
0
100
AcDbLine
 10
84.8366
 20
59.95416999999999
 30
0.0
 11
87.3366
 21
59.95416999999999
 31
0.0
  0
LINE
  5
18B
330
1E
100
AcDbEntity
  8
0
100
AcDbLine
 10
82.1367
 20
59.95416999999999
 30
0.0
 11
84.8366
 21
59.95416999999999
 31
0.0
  0
LINE
  5
18C
330
1E
100
AcDbEntity
  8
0
100
AcDbLine
 10
82.1367
 20
59.95416999999999
 30
0.0
 11
84.03669999999999
 21
59.95416999999999
 31
0.0
  0
LINE
  5
18D
330
1E
100
AcDbEntity
  8
0
100
AcDbLine
 10
88.6367
 20
1.104900000000009
 30
0.0
 11
89.33660000000001
 21
2.22940000000002
 31
0.0
  0
LINE
  5
18E
330
1E
100
AcDbEntity
  8
0
100
AcDbLine
 10
88.6367
 20
59.95416999999999
 30
0.0
 11
89.33660000000001
 21
59.95416999999999
 31
0.0
  0
LINE
  5
18F
330
1E
100
AcDbEntity
  8
0
100
AcDbLine
 10
89.6367
 20
4.215900000000009
 30
0.0
 11
89.6367
 21
59.95416999999999
 31
0.0
  0
LINE
  5
190
330
1E
100
AcDbEntity
  8
0
100
AcDbLine
 10
89.33660000000001
 20
2.22940000000002
 30
0.0
 11
89.6367
 21
4.215900000000009
 31
0.0
  0
LINE
  5
191
330
1E
100
AcDbEntity
  8
0
100
AcDbLine
 10
89.33660000000001
 20
59.95416999999999
 30
0.0
 11
89.6367
 21
59.95416999999999
 31
0.0
  0
LINE
  5
192
330
1E
100
AcDbEntity
  8
0
100
AcDbLine
 10
89.33660000000001
 20
5.565300000000009
 30
0.0
 11
89.6367
 21
4.215900000000009
 31
0.0
  0
LINE
  5
193
330
1E
100
AcDbEntity
  8
0
100
AcDbLine
 10
88.6367
 20
6.764700000000009
 30
0.0
 11
89.33660000000001
 21
5.565300000000009
 31
0.0
  0
LINE
  5
194
330
1E
100
AcDbEntity
  8
0
100
AcDbLine
 10
89.5367
 20
59.95416999999999
 30
0.0
 11
91.23659999999999
 21
59.95416999999999
 31
0.0
  0
LINE
  5
195
330
1E
100
AcDbEntity
  8
0
100
AcDbLine
 10
92.2366
 20
59.95416999999999
 30
0.0
 11
92.63670000000001
 21
59.95416999999999
 31
0.0
  0
LINE
  5
196
330
1E
100
AcDbEntity
  8
0
100
AcDbLine
 10
91.23659999999999
 20
59.95416999999999
 30
0.0
 11
92.2366
 21
59.95416999999999
 31
0.0
  0
LINE
  5
197
330
1E
100
AcDbEntity
  8
0
100
AcDbLine
 10
89.6367
 20
59.95416999999999
 30
0.0
 11
91.23659999999999
 21
59.95416999999999
 31
0.0
  0
LINE
  5
198
330
1E
100
AcDbEntity
  8
0
100
AcDbLine
 10
89.6367
 20
59.95416999999999
 30
0.0
 11
89.6367
 21
4.215900000000009
 31
0.0
  0
LINE
  5
199
330
1E
100
AcDbEntity
  8
0
100
AcDbLine
 10
87.9091
 20
88.5458
 30
0.0
 11
90.4091
 21
88.5458
 31
0.0
  0
LINE
  5
19A
330
1E
100
AcDbEntity
  8
0
100
AcDbLine
 10
85.06820000000001
 20
88.5458
 30
0.0
 11
87.9091
 21
88.5458
 31
0.0
  0
LINE
  5
19B
330
1E
100
AcDbEntity
  8
0
100
AcDbLine
 10
82.0
 20
88.5458
 30
0.0
 11
85.06820000000001
 21
88.5458
 31
0.0
  0
LINE
  5
19C
330
1E
100
AcDbEntity
  8
0
100
AcDbLine
 10
90.4091
 20
88.5458
 30
0.0
 11
92.3409
 21
88.5458
 31
0.0
  0
LINE
  5
19D
330
1E
100
AcDbEntity
  8
0
100
AcDbLine
 10
92.63670000000001
 20
59.95416999999999
 30
0.0
 11
93.58694336520599
 21
88.46149946348049
 31
0.0
  0
LINE
  5
19E
330
1E
100
AcDbEntity
  8
0
100
AcDbLine
 10
92.3409
 20
88.5458
 30
0.0
 11
93.4773
 21
88.5458
 31
0.0
  0
LINE
  5
19F
330
1E
100
AcDbEntity
  8
0
100
AcDbLine
 10
93.4773
 20
88.5458
 30
0.0
 11
93.93179999999999
 21
88.5458
 31
0.0
  0
LINE
  5
1A0
330
1E
100
AcDbEntity
  8
0
100
AcDbLine
 10
156.4999999999999
 20
62.5458
 30
0.0
 11
159.0
 21
62.04579999999999
 31
0.0
  0
LINE
  5
1A1
330
1E
100
AcDbEntity
  8
0
100
AcDbLine
 10
159.0
 20
63.6458
 30
0.0
 11
159.0
 21
68.0458
 31
0.0
  0
LINE
  5
1A2
330
1E
100
AcDbEntity
  8
0
100
AcDbLine
 10
159.0
 20
63.6458
 30
0.0
 11
159.0
 21
62.04579999999999
 31
0.0
  0
LINE
  5
1A3
330
1E
100
AcDbEntity
  8
0
100
AcDbLine
 10
159.0
 20
62.04579999999999
 30
0.0
 11
159.0
 21
63.6458
 31
0.0
  0
LINE
  5
1A4
330
1E
100
AcDbEntity
  8
0
100
AcDbLine
 10
151.5
 20
69.54579999999999
 30
0.0
 11
151.5
 21
70.9458
 31
0.0
  0
LINE
  5
1A5
330
1E
100
AcDbEntity
  8
0
100
AcDbLine
 10
151.5
 20
69.54579999999999
 30
0.0
 11
153.0
 21
69.0458
 31
0.0
  0
LINE
  5
1A6
330
1E
100
AcDbEntity
  8
0
100
AcDbLine
 10
151.5
 20
70.9458
 30
0.0
 11
151.5
 21
74.54579999999999
 31
0.0
  0
LINE
  5
1A7
330
1E
100
AcDbEntity
  8
0
100
AcDbLine
 10
151.5
 20
70.9458
 30
0.0
 11
151.5
 21
69.54579999999999
 31
0.0
  0
LINE
  5
1A8
330
1E
100
AcDbEntity
  8
0
100
AcDbLine
 10
153.0
 20
70.4458
 30
0.0
 11
153.0
 21
74.14579999999999
 31
0.0
  0
LINE
  5
1A9
330
1E
100
AcDbEntity
  8
0
100
AcDbLine
 10
153.0
 20
70.4458
 30
0.0
 11
153.0
 21
69.0458
 31
0.0
  0
LINE
  5
1AA
330
1E
100
AcDbEntity
  8
0
100
AcDbLine
 10
153.0
 20
69.0458
 30
0.0
 11
154.0
 21
67.04579999999999
 31
0.0
  0
LINE
  5
1AB
330
1E
100
AcDbEntity
  8
0
100
AcDbLine
 10
153.0
 20
69.0458
 30
0.0
 11
153.0
 21
70.4458
 31
0.0
  0
LINE
  5
1AC
330
1E
100
AcDbEntity
  8
0
100
AcDbLine
 10
129.0
 20
88.04579999999999
 30
0.0
 11
138.5
 21
82.5458
 31
0.0
  0
LINE
  5
1AD
330
1E
100
AcDbEntity
  8
0
100
AcDbLine
 10
138.5
 20
82.5458
 30
0.0
 11
146.0
 21
76.5458
 31
0.0
  0
LINE
  5
1AE
330
1E
100
AcDbEntity
  8
0
100
AcDbLine
 10
151.5
 20
74.54579999999999
 30
0.0
 11
151.5
 21
80.64579999999999
 31
0.0
  0
LINE
  5
1AF
330
1E
100
AcDbEntity
  8
0
100
AcDbLine
 10
151.5
 20
74.54579999999999
 30
0.0
 11
151.5
 21
70.9458
 31
0.0
  0
LINE
  5
1B0
330
1E
100
AcDbEntity
  8
0
100
AcDbLine
 10
153.0
 20
74.14579999999999
 30
0.0
 11
153.0
 21
80.2458
 31
0.0
  0
LINE
  5
1B1
330
1E
100
AcDbEntity
  8
0
100
AcDbLine
 10
153.0
 20
74.14579999999999
 30
0.0
 11
153.0
 21
70.4458
 31
0.0
  0
LINE
  5
1B2
330
1E
100
AcDbEntity
  8
0
100
AcDbLine
 10
151.5
 20
80.64579999999999
 30
0.0
 11
151.5
 21
88.4458
 31
0.0
  0
LINE
  5
1B3
330
1E
100
AcDbEntity
  8
0
100
AcDbLine
 10
151.5
 20
80.64579999999999
 30
0.0
 11
151.5
 21
74.54579999999999
 31
0.0
  0
LINE
  5
1B4
330
1E
100
AcDbEntity
  8
0
100
AcDbLine
 10
153.0
 20
80.2458
 30
0.0
 11
153.0
 21
88.14579999999999
 31
0.0
  0
LINE
  5
1B5
330
1E
100
AcDbEntity
  8
0
100
AcDbLine
 10
153.0
 20
80.2458
 30
0.0
 11
153.0
 21
74.14579999999999
 31
0.0
  0
LINE
  5
1B6
330
1E
100
AcDbEntity
  8
0
100
AcDbLine
 10
151.5
 20
88.4458
 30
0.0
 11
151.5
 21
97.4458
 31
0.0
  0
LINE
  5
1B7
330
1E
100
AcDbEntity
  8
0
100
AcDbLine
 10
151.5
 20
88.4458
 30
0.0
 11
151.5
 21
80.64579999999999
 31
0.0
  0
LINE
  5
1B8
330
1E
100
AcDbEntity
  8
0
100
AcDbLine
 10
153.0
 20
88.14579999999999
 30
0.0
 11
153.0
 21
97.24580000000001
 31
0.0
  0
LINE
  5
1B9
330
1E
100
AcDbEntity
  8
0
100
AcDbLine
 10
153.0
 20
88.14579999999999
 30
0.0
 11
153.0
 21
80.2458
 31
0.0
  0
LINE
  5
1BA
330
1E
100
AcDbEntity
  8
0
100
AcDbLine
 10
146.0
 20
76.5458
 30
0.0
 11
150.5
 21
71.0458
 31
0.0
  0
LINE
  5
1BB
330
1E
100
AcDbEntity
  8
0
100
AcDbLine
 10
150.5
 20
71.0458
 30
0.0
 11
151.5
 21
69.54579999999999
 31
0.0
  0
LINE
  5
1BC
330
1E
100
AcDbEntity
  8
0
100
AcDbLine
 10
159.0
 20
68.0458
 30
0.0
 11
159.0
 21
75.3458
 31
0.0
  0
LINE
  5
1BD
330
1E
100
AcDbEntity
  8
0
100
AcDbLine
 10
159.0
 20
68.0458
 30
0.0
 11
159.0
 21
63.6458
 31
0.0
  0
LINE
  5
1BE
330
1E
100
AcDbEntity
  8
0
100
AcDbLine
 10
159.0
 20
75.3458
 30
0.0
 11
159.0
 21
84.64579999999999
 31
0.0
  0
LINE
  5
1BF
330
1E
100
AcDbEntity
  8
0
100
AcDbLine
 10
159.0
 20
75.3458
 30
0.0
 11
159.0
 21
68.0458
 31
0.0
  0
LINE
  5
1C0
330
1E
100
AcDbEntity
  8
0
100
AcDbLine
 10
159.0
 20
84.64579999999999
 30
0.0
 11
159.0
 21
95.44580000000001
 31
0.0
  0
LINE
  5
1C1
330
1E
100
AcDbEntity
  8
0
100
AcDbLine
 10
159.0
 20
84.64579999999999
 30
0.0
 11
159.0
 21
75.3458
 31
0.0
  0
LINE
  5
1C2
330
1E
100
AcDbEntity
  8
0
100
AcDbLine
 10
154.0
 20
67.04579999999999
 30
0.0
 11
154.4999999999999
 21
64.54579999999999
 31
0.0
  0
LINE
  5
1C3
330
1E
100
AcDbEntity
  8
0
100
AcDbLine
 10
154.4999999999999
 20
64.54579999999999
 30
0.0
 11
156.4999999999999
 21
62.5458
 31
0.0
  0
LINE
  5
1C4
330
1E
100
AcDbEntity
  8
0
100
AcDbLine
 10
93.56596163068322
 20
88.43848454992169
 30
0.0
 11
93.93179999999999
 21
88.5458
 31
0.0
  0
LINE
  5
1C5
330
1E
100
AcDbEntity
  8
0
100
AcDbLine
 10
55.0
 20
90.0458
 30
0.0
 11
56.5
 21
90.54579999999999
 31
0.0
  0
LINE
  5
1C7
330
1E
100
AcDbEntity
  8
0
100
AcDbLine
 10
67.36
 20
90.0458
 30
0.0
 11
67.9
 21
90.0458
 31
0.0
  0
LINE
  5
1C8
330
1E
100
AcDbEntity
  8
0
100
AcDbLine
 10
67.9
 20
90.0458
 30
0.0
 11
69.34000000000001
 21
90.0458
 31
0.0
  0
LINE
  5
1C9
330
1E
100
AcDbEntity
  8
0
100
AcDbLine
 10
69.34000000000001
 20
90.0458
 30
0.0
 11
71.68000000000001
 21
90.0458
 31
0.0
  0
LINE
  5
1CA
330
1E
100
AcDbEntity
  8
0
100
AcDbLine
 10
69.34000000000001
 20
90.0458
 30
0.0
 11
69.5
 21
90.0458
 31
0.0
  0
LINE
  5
1CB
330
1E
100
AcDbEntity
  8
0
100
AcDbLine
 10
69.95449999999999
 20
90.0458
 30
0.0
 11
71.20449999999999
 21
90.0458
 31
0.0
  0
LINE
  5
1CC
330
1E
100
AcDbEntity
  8
0
100
AcDbLine
 10
71.6591
 20
88.5458
 30
0.0
 11
73.59090000000001
 21
88.5458
 31
0.0
  0
LINE
  5
1CD
330
1E
100
AcDbEntity
  8
0
100
AcDbLine
 10
71.68000000000001
 20
90.0458
 30
0.0
 11
74.74
 21
90.0458
 31
0.0
  0
LINE
  5
1CE
330
1E
100
AcDbEntity
  8
0
100
AcDbLine
 10
71.20449999999999
 20
90.0458
 30
0.0
 11
73.13639999999999
 21
90.0458
 31
0.0
  0
LINE
  5
1CF
330
1E
100
AcDbEntity
  8
0
100
AcDbLine
 10
70.5227
 20
88.5458
 30
0.0
 11
71.6591
 21
88.5458
 31
0.0
  0
LINE
  5
1D0
330
1E
100
AcDbEntity
  8
0
100
AcDbLine
 10
70.06820000000001
 20
88.5458
 30
0.0
 11
70.5227
 21
88.5458
 31
0.0
  0
LINE
  5
1D1
330
1E
100
AcDbEntity
  8
0
100
AcDbLine
 10
70.06820000000001
 20
88.5458
 30
0.0
 11
70.6897238982645
 21
88.3634814613481
 31
0.0
  0
LINE
  5
1D2
330
1E
100
AcDbEntity
  8
0
100
AcDbLine
 10
69.5
 20
90.0458
 30
0.0
 11
70.06820000000001
 21
88.5458
 31
0.0
  0
LINE
  5
1D3
330
1E
100
AcDbEntity
  8
0
100
AcDbLine
 10
69.5
 20
90.0458
 30
0.0
 11
69.95449999999999
 21
90.0458
 31
0.0
  0
LINE
  5
1D4
330
1E
100
AcDbEntity
  8
0
100
AcDbLine
 10
74.74
 20
90.0458
 30
0.0
 11
79.24999999999997
 21
90.0458
 31
0.0
  0
LINE
  5
1D5
330
1E
100
AcDbEntity
  8
0
100
AcDbLine
 10
73.59090000000001
 20
88.5458
 30
0.0
 11
76.09090000000001
 21
88.5458
 31
0.0
  0
LINE
  5
1D6
330
1E
100
AcDbEntity
  8
0
100
AcDbLine
 10
73.13639999999999
 20
90.0458
 30
0.0
 11
75.75
 21
90.0458
 31
0.0
  0
LINE
  5
1D8
330
1E
100
AcDbEntity
  8
0
100
AcDbLine
 10
89.26
 20
90.0458
 30
0.0
 11
92.31999999999999
 21
90.0458
 31
0.0
  0
LINE
  5
1D9
330
1E
100
AcDbEntity
  8
0
100
AcDbLine
 10
83.0
 20
89.54579999999999
 30
0.0
 11
87.5
 21
90.1458
 31
0.0
  0
LINE
  5
1DA
330
1E
100
AcDbEntity
  8
0
100
AcDbLine
 10
76.09090000000001
 20
88.5458
 30
0.0
 11
78.9318
 21
88.5458
 31
0.0
  0
LINE
  5
1DB
330
1E
100
AcDbEntity
  8
0
100
AcDbLine
 10
75.75
 20
90.0458
 30
0.0
 11
79.24999999999997
 21
90.0458
 31
0.0
  0
LINE
  5
1DC
330
1E
100
AcDbEntity
  8
0
100
AcDbLine
 10
88.3588235294118
 20
90.0458
 30
0.0
 11
90.8636
 21
90.0458
 31
0.0
  0
LINE
  5
1DD
330
1E
100
AcDbEntity
  8
0
100
AcDbLine
 10
86.75000000000002
 20
90.0458
 30
0.0
 11
89.26
 21
90.0458
 31
0.0
  0
LINE
  5
1DE
330
1E
100
AcDbEntity
  8
0
100
AcDbLine
 10
92.31999999999999
 20
90.0458
 30
0.0
 11
94.65999999999999
 21
90.0458
 31
0.0
  0
LINE
  5
1DF
330
1E
100
AcDbEntity
  8
0
100
AcDbLine
 10
90.8636
 20
90.0458
 30
0.0
 11
92.7954
 21
90.0458
 31
0.0
  0
LINE
  5
1E0
330
1E
100
AcDbEntity
  8
0
100
AcDbLine
 10
53.5
 20
90.54579999999999
 30
0.0
 11
55.0
 21
90.0458
 31
0.0
  0
LINE
  5
1E1
330
1E
100
AcDbEntity
  8
0
100
AcDbLine
 10
53.5
 20
90.54579999999999
 30
0.0
 11
53.5
 21
91.1458
 31
0.0
  0
LINE
  5
1E2
330
1E
100
AcDbEntity
  8
0
100
AcDbLine
 10
56.5
 20
90.54579999999999
 30
0.0
 11
57.0
 21
91.54580000000001
 31
0.0
  0
LINE
  5
1E3
330
1E
100
AcDbEntity
  8
0
100
AcDbLine
 10
56.5
 20
90.54579999999999
 30
0.0
 11
56.5
 21
91.1458
 31
0.0
  0
LINE
  5
1E4
330
1E
100
AcDbEntity
  8
0
100
AcDbLine
 10
53.5
 20
91.1458
 30
0.0
 11
53.5
 21
90.54579999999999
 31
0.0
  0
LINE
  5
1E5
330
1E
100
AcDbEntity
  8
0
100
AcDbLine
 10
53.5
 20
91.1458
 30
0.0
 11
53.5
 21
92.7458
 31
0.0
  0
LINE
  5
1E8
330
1E
100
AcDbEntity
  8
0
100
AcDbLine
 10
56.5
 20
91.1458
 30
0.0
 11
56.5
 21
90.54579999999999
 31
0.0
  0
LINE
  5
1E9
330
1E
100
AcDbEntity
  8
0
100
AcDbLine
 10
56.5
 20
91.1458
 30
0.0
 11
56.5
 21
92.7458
 31
0.0
  0
LINE
  5
1EA
330
1E
100
AcDbEntity
  8
0
100
AcDbLine
 10
53.0
 20
91.54580000000001
 30
0.0
 11
53.0
 21
95.70429999999999
 31
0.0
  0
LINE
  5
1EB
330
1E
100
AcDbEntity
  8
0
100
AcDbLine
 10
57.0
 20
91.54580000000001
 30
0.0
 11
58.5
 21
92.04579999999999
 31
0.0
  0
LINE
  5
1EC
330
1E
100
AcDbEntity
  8
0
100
AcDbLine
 10
57.0
 20
91.54580000000001
 30
0.0
 11
57.0
 21
92.14579999999999
 31
0.0
  0
LINE
  5
1ED
330
1E
100
AcDbEntity
  8
0
100
AcDbLine
 10
58.5
 20
92.04579999999999
 30
0.0
 11
67.0
 21
92.04579999999999
 31
0.0
  0
LINE
  5
1EE
330
1E
100
AcDbEntity
  8
0
100
AcDbLine
 10
58.5
 20
92.04579999999999
 30
0.0
 11
109.0
 21
92.04579999999999
 31
0.0
  0
LINE
  5
1EF
330
1E
100
AcDbEntity
  8
0
100
AcDbLine
 10
67.0
 20
92.04579999999999
 30
0.0
 11
67.0
 21
90.64579999999999
 31
0.0
  0
LINE
  5
1F0
330
1E
100
AcDbEntity
  8
0
100
AcDbLine
 10
67.0
 20
90.64579999999999
 30
0.0
 11
67.0
 21
92.04579999999999
 31
0.0
  0
LINE
  5
1F1
330
1E
100
AcDbEntity
  8
0
100
AcDbLine
 10
67.0
 20
90.64579999999999
 30
0.0
 11
67.36
 21
90.0458
 31
0.0
  0
LINE
  5
1F3
330
1E
100
AcDbEntity
  8
0
100
AcDbLine
 10
74.03571428571429
 20
92.04579999999999
 30
0.0
 11
74.29999999999999
 21
91.8458
 31
0.0
  0
LINE
  5
1F4
330
1E
100
AcDbEntity
  8
0
100
AcDbLine
 10
74.29999999999999
 20
91.8458
 30
0.0
 11
78.5
 21
90.1458
 31
0.0
  0
LINE
  5
1F5
330
1E
100
AcDbEntity
  8
0
100
AcDbLine
 10
78.5
 20
90.1458
 30
0.0
 11
83.0
 21
89.54579999999999
 31
0.0
  0
LINE
  5
1F6
330
1E
100
AcDbEntity
  8
0
100
AcDbLine
 10
91.69999999999999
 20
91.8458
 30
0.0
 11
91.96428571428569
 21
92.04579999999999
 31
0.0
  0
LINE
  5
1F7
330
1E
100
AcDbEntity
  8
0
100
AcDbLine
 10
87.5
 20
90.1458
 30
0.0
 11
91.69999999999999
 21
91.8458
 31
0.0
  0
LINE
  5
1F8
330
1E
100
AcDbEntity
  8
0
100
AcDbLine
 10
92.7954
 20
90.0458
 30
0.0
 11
94.0455
 21
90.0458
 31
0.0
  0
LINE
  5
1F9
330
1E
100
AcDbEntity
  8
0
100
AcDbLine
 10
96.09999999999999
 20
90.0458
 30
0.0
 11
96.64000000000001
 21
90.0458
 31
0.0
  0
LINE
  5
1FA
330
1E
100
AcDbEntity
  8
0
100
AcDbLine
 10
111.0
 20
90.0458
 30
0.0
 11
112.5
 21
90.54579999999999
 31
0.0
  0
LINE
  5
1FC
330
1E
100
AcDbEntity
  8
0
100
AcDbLine
 10
126.065
 20
90.0458
 30
0.0
 11
127.032
 21
91.1505
 31
0.0
  0
LINE
  5
1FD
330
1E
100
AcDbEntity
  8
0
100
AcDbLine
 10
128.0
 20
90.0458
 30
0.0
 11
128.0
 21
90.64579999999999
 31
0.0
  0
LINE
  5
1FE
330
1E
100
AcDbEntity
  8
0
100
AcDbLine
 10
128.0
 20
90.0458
 30
0.0
 11
129.0
 21
88.04579999999999
 31
0.0
  0
LINE
  5
1FF
330
1E
100
AcDbEntity
  8
0
100
AcDbLine
 10
114.936
 20
90.0458
 30
0.0
 11
126.065
 21
90.0458
 31
0.0
  0
LINE
  5
200
330
1E
100
AcDbEntity
  8
0
100
AcDbLine
 10
96.64000000000001
 20
90.0458
 30
0.0
 11
97.0
 21
90.64579999999999
 31
0.0
  0
LINE
  5
203
330
1E
100
AcDbEntity
  8
0
100
AcDbLine
 10
109.4999999999999
 20
90.54579999999999
 30
0.0
 11
111.0
 21
90.0458
 31
0.0
  0
LINE
  5
204
330
1E
100
AcDbEntity
  8
0
100
AcDbLine
 10
109.4999999999999
 20
90.54579999999999
 30
0.0
 11
109.4999999999999
 21
91.1458
 31
0.0
  0
LINE
  5
205
330
1E
100
AcDbEntity
  8
0
100
AcDbLine
 10
128.0
 20
90.64579999999999
 30
0.0
 11
128.0
 21
90.0458
 31
0.0
  0
LINE
  5
206
330
1E
100
AcDbEntity
  8
0
100
AcDbLine
 10
128.0
 20
90.64579999999999
 30
0.0
 11
128.0
 21
92.34579999999999
 31
0.0
  0
LINE
  5
207
330
1E
100
AcDbEntity
  8
0
100
AcDbLine
 10
112.5
 20
90.54579999999999
 30
0.0
 11
113.0
 21
92.04579999999999
 31
0.0
  0
LINE
  5
208
330
1E
100
AcDbEntity
  8
0
100
AcDbLine
 10
112.5
 20
90.54579999999999
 30
0.0
 11
112.5
 21
91.1458
 31
0.0
  0
LINE
  5
209
330
1E
100
AcDbEntity
  8
0
100
AcDbLine
 10
94.65999999999999
 20
90.0458
 30
0.0
 11
96.09999999999999
 21
90.0458
 31
0.0
  0
LINE
  5
20A
330
1E
100
AcDbEntity
  8
0
100
AcDbLine
 10
94.50000000000001
 20
90.0458
 30
0.0
 11
94.65999999999999
 21
90.0458
 31
0.0
  0
LINE
  5
20B
330
1E
100
AcDbEntity
  8
0
100
AcDbLine
 10
112.5
 20
91.1458
 30
0.0
 11
112.5
 21
92.7458
 31
0.0
  0
LINE
  5
20C
330
1E
100
AcDbEntity
  8
0
100
AcDbLine
 10
112.5
 20
91.1458
 30
0.0
 11
112.5
 21
90.54579999999999
 31
0.0
  0
LINE
  5
20D
330
1E
100
AcDbEntity
  8
0
100
AcDbLine
 10
109.4999999999999
 20
91.1458
 30
0.0
 11
109.4999999999999
 21
92.7458
 31
0.0
  0
LINE
  5
20E
330
1E
100
AcDbEntity
  8
0
100
AcDbLine
 10
109.4999999999999
 20
91.1458
 30
0.0
 11
109.4999999999999
 21
90.54579999999999
 31
0.0
  0
LINE
  5
20F
330
1E
100
AcDbEntity
  8
0
100
AcDbLine
 10
113.0
 20
92.04579999999999
 30
0.0
 11
113.0
 21
92.5458
 31
0.0
  0
LINE
  5
214
330
1E
100
AcDbEntity
  8
0
100
AcDbLine
 10
127.032
 20
91.1505
 30
0.0
 11
128.0
 21
93.5932
 31
0.0
  0
LINE
  5
217
330
1E
100
AcDbEntity
  8
0
100
AcDbLine
 10
113.968
 20
91.1505
 30
0.0
 11
114.936
 21
90.0458
 31
0.0
  0
LINE
  5
218
330
1E
100
AcDbEntity
  8
0
100
AcDbLine
 10
109.0
 20
92.04579999999999
 30
0.0
 11
109.4999999999999
 21
90.54579999999999
 31
0.0
  0
LINE
  5
219
330
1E
100
AcDbEntity
  8
0
100
AcDbLine
 10
109.0
 20
92.04579999999999
 30
0.0
 11
109.0
 21
92.5458
 31
0.0
  0
LINE
  5
21A
330
1E
100
AcDbEntity
  8
0
100
AcDbLine
 10
97.0
 20
92.04579999999999
 30
0.0
 11
97.0
 21
90.64579999999999
 31
0.0
  0
LINE
  5
21B
330
1E
100
AcDbEntity
  8
0
100
AcDbLine
 10
97.0
 20
92.04579999999999
 30
0.0
 11
109.0
 21
92.04579999999999
 31
0.0
  0
LINE
  5
21C
330
1E
100
AcDbEntity
  8
0
100
AcDbLine
 10
97.0
 20
90.64579999999999
 30
0.0
 11
97.0
 21
92.04579999999999
 31
0.0
  0
LINE
  5
21D
330
1E
100
AcDbEntity
  8
0
100
AcDbLine
 10
94.0455
 20
90.0458
 30
0.0
 11
94.50000000000001
 21
90.0458
 31
0.0
  0
LINE
  5
21E
330
1E
100
AcDbEntity
  8
0
100
AcDbLine
 10
93.93179999999999
 20
88.5458
 30
0.0
 11
94.50000000000001
 21
90.0458
 31
0.0
  0
LINE
  5
21F
330
1E
100
AcDbEntity
  8
0
100
AcDbLine
 10
47.0
 20
91.54580000000001
 30
0.0
 11
47.0
 21
95.0458
 31
0.0
  0
LINE
  5
220
330
1E
100
AcDbEntity
  8
0
100
AcDbLine
 10
47.0
 20
91.54580000000001
 30
0.0
 11
53.0
 21
91.54580000000001
 31
0.0
  0
LINE
  5
221
330
1E
100
AcDbEntity
  8
0
100
AcDbLine
 10
47.0
 20
91.54580000000001
 30
0.0
 11
47.0
 21
95.70429999999999
 31
0.0
  0
LINE
  5
222
330
1E
100
AcDbEntity
  8
0
100
AcDbLine
 10
34.0
 20
95.0458
 30
0.0
 11
34.5
 21
95.54579999999999
 31
0.0
  0
LINE
  5
223
330
1E
100
AcDbEntity
  8
0
100
AcDbLine
 10
34.0
 20
95.0458
 30
0.0
 11
34.0
 21
95.44580000000001
 31
0.0
  0
LINE
  5
224
330
1E
100
AcDbEntity
  8
0
100
AcDbLine
 10
32.5
 20
96.6458
 30
0.0
 11
32.5
 21
95.44580000000001
 31
0.0
  0
LINE
  5
225
330
1E
100
AcDbEntity
  8
0
100
AcDbLine
 10
32.5
 20
96.6458
 30
0.0
 11
32.5
 21
98.5458
 31
0.0
  0
LINE
  5
226
330
1E
100
AcDbEntity
  8
0
100
AcDbLine
 10
32.5
 20
95.44580000000001
 30
0.0
 11
32.5
 21
95.0458
 31
0.0
  0
LINE
  5
227
330
1E
100
AcDbEntity
  8
0
100
AcDbLine
 10
32.5
 20
95.44580000000001
 30
0.0
 11
32.5
 21
96.6458
 31
0.0
  0
LINE
  5
228
330
1E
100
AcDbEntity
  8
0
100
AcDbLine
 10
32.5
 20
98.5458
 30
0.0
 11
32.5
 21
101.0458
 31
0.0
  0
LINE
  5
229
330
1E
100
AcDbEntity
  8
0
100
AcDbLine
 10
32.5
 20
98.5458
 30
0.0
 11
32.5
 21
96.6458
 31
0.0
  0
LINE
  5
22A
330
1E
100
AcDbEntity
  8
0
100
AcDbLine
 10
32.5
 20
101.0458
 30
0.0
 11
32.5
 21
98.5458
 31
0.0
  0
LINE
  5
22B
330
1E
100
AcDbEntity
  8
0
100
AcDbLine
 10
32.5
 20
101.0458
 30
0.0
 11
32.5
 21
103.9457999999999
 31
0.0
  0
LINE
  5
22C
330
1E
100
AcDbEntity
  8
0
100
AcDbLine
 10
32.5
 20
103.9457999999999
 30
0.0
 11
32.5
 21
101.0458
 31
0.0
  0
LINE
  5
22D
330
1E
100
AcDbEntity
  8
0
100
AcDbLine
 10
32.5
 20
103.9457999999999
 30
0.0
 11
32.5
 21
107.0458
 31
0.0
  0
LINE
  5
22E
330
1E
100
AcDbEntity
  8
0
100
AcDbLine
 10
32.5
 20
113.0457999999999
 30
0.0
 11
32.5
 21
110.1458
 31
0.0
  0
LINE
  5
22F
330
1E
100
AcDbEntity
  8
0
100
AcDbLine
 10
32.5
 20
113.0457999999999
 30
0.0
 11
32.5
 21
115.5458
 31
0.0
  0
LINE
  5
230
330
1E
100
AcDbEntity
  8
0
100
AcDbLine
 10
32.5
 20
110.1458
 30
0.0
 11
32.5
 21
107.0458
 31
0.0
  0
LINE
  5
231
330
1E
100
AcDbEntity
  8
0
100
AcDbLine
 10
32.5
 20
110.1458
 30
0.0
 11
32.5
 21
113.0457999999999
 31
0.0
  0
LINE
  5
232
330
1E
100
AcDbEntity
  8
0
100
AcDbLine
 10
32.5
 20
115.5458
 30
0.0
 11
32.5
 21
117.4458
 31
0.0
  0
LINE
  5
233
330
1E
100
AcDbEntity
  8
0
100
AcDbLine
 10
32.5
 20
115.5458
 30
0.0
 11
32.5
 21
113.0457999999999
 31
0.0
  0
LINE
  5
234
330
1E
100
AcDbEntity
  8
0
100
AcDbLine
 10
32.5
 20
117.4458
 30
0.0
 11
32.5
 21
115.5458
 31
0.0
  0
LINE
  5
235
330
1E
100
AcDbEntity
  8
0
100
AcDbLine
 10
32.5
 20
117.4458
 30
0.0
 11
32.5
 21
118.6458
 31
0.0
  0
LINE
  5
236
330
1E
100
AcDbEntity
  8
0
100
AcDbLine
 10
32.5
 20
118.6458
 30
0.0
 11
32.5
 21
117.4458
 31
0.0
  0
LINE
  5
237
330
1E
100
AcDbEntity
  8
0
100
AcDbLine
 10
32.5
 20
118.6458
 30
0.0
 11
32.5
 21
119.0458
 31
0.0
  0
LINE
  5
238
330
1E
100
AcDbEntity
  8
0
100
AcDbLine
 10
32.5
 20
107.0458
 30
0.0
 11
32.5
 21
103.9457999999999
 31
0.0
  0
LINE
  5
239
330
1E
100
AcDbEntity
  8
0
100
AcDbLine
 10
32.5
 20
107.0458
 30
0.0
 11
32.5
 21
110.1458
 31
0.0
  0
LINE
  5
23A
330
1E
100
AcDbEntity
  8
0
100
AcDbLine
 10
34.0
 20
95.44580000000001
 30
0.0
 11
34.0
 21
95.0458
 31
0.0
  0
LINE
  5
23B
330
1E
100
AcDbEntity
  8
0
100
AcDbLine
 10
34.0
 20
95.44580000000001
 30
0.0
 11
34.0
 21
96.6458
 31
0.0
  0
LINE
  5
23C
330
1E
100
AcDbEntity
  8
0
100
AcDbLine
 10
34.0
 20
96.6458
 30
0.0
 11
34.0
 21
95.44580000000001
 31
0.0
  0
LINE
  5
23D
330
1E
100
AcDbEntity
  8
0
100
AcDbLine
 10
34.0
 20
96.6458
 30
0.0
 11
34.0
 21
98.5458
 31
0.0
  0
LINE
  5
23E
330
1E
100
AcDbEntity
  8
0
100
AcDbLine
 10
34.0
 20
98.5458
 30
0.0
 11
34.0
 21
101.0458
 31
0.0
  0
LINE
  5
23F
330
1E
100
AcDbEntity
  8
0
100
AcDbLine
 10
34.0
 20
98.5458
 30
0.0
 11
34.0
 21
96.6458
 31
0.0
  0
LINE
  5
240
330
1E
100
AcDbEntity
  8
0
100
AcDbLine
 10
34.5
 20
97.04579999999999
 30
0.0
 11
34.5
 21
95.9458
 31
0.0
  0
LINE
  5
241
330
1E
100
AcDbEntity
  8
0
100
AcDbLine
 10
34.5
 20
97.04579999999999
 30
0.0
 11
34.5
 21
98.94580000000001
 31
0.0
  0
LINE
  5
242
330
1E
100
AcDbEntity
  8
0
100
AcDbLine
 10
34.5
 20
95.9458
 30
0.0
 11
34.5
 21
95.54579999999999
 31
0.0
  0
LINE
  5
243
330
1E
100
AcDbEntity
  8
0
100
AcDbLine
 10
34.5
 20
95.9458
 30
0.0
 11
34.5
 21
97.04579999999999
 31
0.0
  0
LINE
  5
244
330
1E
100
AcDbEntity
  8
0
100
AcDbLine
 10
34.5
 20
98.94580000000001
 30
0.0
 11
34.5
 21
101.3457999999999
 31
0.0
  0
LINE
  5
245
330
1E
100
AcDbEntity
  8
0
100
AcDbLine
 10
34.5
 20
98.94580000000001
 30
0.0
 11
34.5
 21
97.04579999999999
 31
0.0
  0
LINE
  5
246
330
1E
100
AcDbEntity
  8
0
100
AcDbLine
 10
34.0
 20
101.0458
 30
0.0
 11
34.0
 21
98.5458
 31
0.0
  0
LINE
  5
247
330
1E
100
AcDbEntity
  8
0
100
AcDbLine
 10
34.0
 20
101.0458
 30
0.0
 11
34.0
 21
103.9457999999999
 31
0.0
  0
LINE
  5
248
330
1E
100
AcDbEntity
  8
0
100
AcDbLine
 10
34.0
 20
103.9457999999999
 30
0.0
 11
34.0
 21
101.0458
 31
0.0
  0
LINE
  5
249
330
1E
100
AcDbEntity
  8
0
100
AcDbLine
 10
34.0
 20
103.9457999999999
 30
0.0
 11
34.0
 21
107.0458
 31
0.0
  0
LINE
  5
24A
330
1E
100
AcDbEntity
  8
0
100
AcDbLine
 10
34.5
 20
101.3457999999999
 30
0.0
 11
34.5
 21
98.94580000000001
 31
0.0
  0
LINE
  5
24B
330
1E
100
AcDbEntity
  8
0
100
AcDbLine
 10
34.5
 20
101.3457999999999
 30
0.0
 11
34.5
 21
104.0458
 31
0.0
  0
LINE
  5
24C
330
1E
100
AcDbEntity
  8
0
100
AcDbLine
 10
34.0
 20
113.0457999999999
 30
0.0
 11
34.0
 21
110.1458
 31
0.0
  0
LINE
  5
24D
330
1E
100
AcDbEntity
  8
0
100
AcDbLine
 10
34.0
 20
113.0457999999999
 30
0.0
 11
34.0
 21
115.5458
 31
0.0
  0
LINE
  5
24E
330
1E
100
AcDbEntity
  8
0
100
AcDbLine
 10
34.0
 20
110.1458
 30
0.0
 11
34.0
 21
107.0458
 31
0.0
  0
LINE
  5
24F
330
1E
100
AcDbEntity
  8
0
100
AcDbLine
 10
34.0
 20
110.1458
 30
0.0
 11
34.0
 21
113.0457999999999
 31
0.0
  0
LINE
  5
250
330
1E
100
AcDbEntity
  8
0
100
AcDbLine
 10
34.0
 20
115.5458
 30
0.0
 11
34.0
 21
117.4458
 31
0.0
  0
LINE
  5
251
330
1E
100
AcDbEntity
  8
0
100
AcDbLine
 10
34.0
 20
115.5458
 30
0.0
 11
34.0
 21
113.0457999999999
 31
0.0
  0
LINE
  5
252
330
1E
100
AcDbEntity
  8
0
100
AcDbLine
 10
34.0
 20
117.4458
 30
0.0
 11
34.0
 21
115.5458
 31
0.0
  0
LINE
  5
253
330
1E
100
AcDbEntity
  8
0
100
AcDbLine
 10
34.0
 20
117.4458
 30
0.0
 11
34.0
 21
118.6458
 31
0.0
  0
LINE
  5
254
330
1E
100
AcDbEntity
  8
0
100
AcDbLine
 10
34.0
 20
118.6458
 30
0.0
 11
34.0
 21
117.4458
 31
0.0
  0
LINE
  5
255
330
1E
100
AcDbEntity
  8
0
100
AcDbLine
 10
34.0
 20
118.6458
 30
0.0
 11
34.0
 21
119.0458
 31
0.0
  0
LINE
  5
256
330
1E
100
AcDbEntity
  8
0
100
AcDbLine
 10
34.5
 20
112.7458
 30
0.0
 11
34.5
 21
110.0457999999999
 31
0.0
  0
LINE
  5
257
330
1E
100
AcDbEntity
  8
0
100
AcDbLine
 10
34.5
 20
112.7458
 30
0.0
 11
34.5
 21
115.1457999999999
 31
0.0
  0
LINE
  5
258
330
1E
100
AcDbEntity
  8
0
100
AcDbLine
 10
34.5
 20
110.0457999999999
 30
0.0
 11
34.5
 21
107.0458
 31
0.0
  0
LINE
  5
259
330
1E
100
AcDbEntity
  8
0
100
AcDbLine
 10
34.5
 20
110.0457999999999
 30
0.0
 11
34.5
 21
112.7458
 31
0.0
  0
LINE
  5
25A
330
1E
100
AcDbEntity
  8
0
100
AcDbLine
 10
34.5
 20
115.1457999999999
 30
0.0
 11
34.5
 21
117.0457999999999
 31
0.0
  0
LINE
  5
25B
330
1E
100
AcDbEntity
  8
0
100
AcDbLine
 10
34.5
 20
115.1457999999999
 30
0.0
 11
34.5
 21
112.7458
 31
0.0
  0
LINE
  5
25C
330
1E
100
AcDbEntity
  8
0
100
AcDbLine
 10
34.5
 20
117.0457999999999
 30
0.0
 11
34.5
 21
115.1457999999999
 31
0.0
  0
LINE
  5
25D
330
1E
100
AcDbEntity
  8
0
100
AcDbLine
 10
34.5
 20
117.0457999999999
 30
0.0
 11
34.5
 21
118.1457999999999
 31
0.0
  0
LINE
  5
25E
330
1E
100
AcDbEntity
  8
0
100
AcDbLine
 10
34.5
 20
118.1457999999999
 30
0.0
 11
34.5
 21
117.0457999999999
 31
0.0
  0
LINE
  5
25F
330
1E
100
AcDbEntity
  8
0
100
AcDbLine
 10
34.5
 20
118.1457999999999
 30
0.0
 11
34.5
 21
118.5458
 31
0.0
  0
LINE
  5
260
330
1E
100
AcDbEntity
  8
0
100
AcDbLine
 10
34.0
 20
107.0458
 30
0.0
 11
34.0
 21
103.9457999999999
 31
0.0
  0
LINE
  5
261
330
1E
100
AcDbEntity
  8
0
100
AcDbLine
 10
34.0
 20
107.0458
 30
0.0
 11
34.0
 21
110.1458
 31
0.0
  0
LINE
  5
262
330
1E
100
AcDbEntity
  8
0
100
AcDbLine
 10
34.5
 20
104.0458
 30
0.0
 11
34.5
 21
101.3457999999999
 31
0.0
  0
LINE
  5
263
330
1E
100
AcDbEntity
  8
0
100
AcDbLine
 10
34.5
 20
104.0458
 30
0.0
 11
34.5
 21
107.0458
 31
0.0
  0
LINE
  5
264
330
1E
100
AcDbEntity
  8
0
100
AcDbLine
 10
34.5
 20
107.0458
 30
0.0
 11
34.5
 21
104.0458
 31
0.0
  0
LINE
  5
265
330
1E
100
AcDbEntity
  8
0
100
AcDbLine
 10
34.5
 20
107.0458
 30
0.0
 11
34.5
 21
110.0457999999999
 31
0.0
  0
LINE
  5
266
330
1E
100
AcDbEntity
  8
0
100
AcDbLine
 10
34.5
 20
95.54579999999999
 30
0.0
 11
35.0
 21
95.0458
 31
0.0
  0
LINE
  5
267
330
1E
100
AcDbEntity
  8
0
100
AcDbLine
 10
34.5
 20
95.54579999999999
 30
0.0
 11
34.5
 21
95.9458
 31
0.0
  0
LINE
  5
268
330
1E
100
AcDbEntity
  8
0
100
AcDbLine
 10
32.5
 20
119.0458
 30
0.0
 11
34.0
 21
119.0458
 31
0.0
  0
LINE
  5
269
330
1E
100
AcDbEntity
  8
0
100
AcDbLine
 10
32.5
 20
119.0458
 30
0.0
 11
32.5
 21
118.6458
 31
0.0
  0
LINE
  5
26A
330
1E
100
AcDbEntity
  8
0
100
AcDbLine
 10
34.0
 20
119.0458
 30
0.0
 11
34.5
 21
118.5458
 31
0.0
  0
LINE
  5
26B
330
1E
100
AcDbEntity
  8
0
100
AcDbLine
 10
34.0
 20
119.0458
 30
0.0
 11
34.0
 21
118.6458
 31
0.0
  0
LINE
  5
26C
330
1E
100
AcDbEntity
  8
0
100
AcDbLine
 10
35.0
 20
96.6458
 30
0.0
 11
35.0
 21
95.44580000000001
 31
0.0
  0
LINE
  5
26D
330
1E
100
AcDbEntity
  8
0
100
AcDbLine
 10
35.0
 20
96.6458
 30
0.0
 11
35.0
 21
98.5458
 31
0.0
  0
LINE
  5
26E
330
1E
100
AcDbEntity
  8
0
100
AcDbLine
 10
35.0
 20
95.44580000000001
 30
0.0
 11
35.0
 21
95.0458
 31
0.0
  0
LINE
  5
26F
330
1E
100
AcDbEntity
  8
0
100
AcDbLine
 10
35.0
 20
95.44580000000001
 30
0.0
 11
35.0
 21
96.6458
 31
0.0
  0
LINE
  5
270
330
1E
100
AcDbEntity
  8
0
100
AcDbLine
 10
35.0
 20
98.5458
 30
0.0
 11
35.0
 21
101.0458
 31
0.0
  0
LINE
  5
271
330
1E
100
AcDbEntity
  8
0
100
AcDbLine
 10
35.0
 20
98.5458
 30
0.0
 11
35.0
 21
96.6458
 31
0.0
  0
LINE
  5
272
330
1E
100
AcDbEntity
  8
0
100
AcDbLine
 10
35.0
 20
101.0458
 30
0.0
 11
35.0
 21
98.5458
 31
0.0
  0
LINE
  5
273
330
1E
100
AcDbEntity
  8
0
100
AcDbLine
 10
35.0
 20
101.0458
 30
0.0
 11
35.0
 21
103.9457999999999
 31
0.0
  0
LINE
  5
274
330
1E
100
AcDbEntity
  8
0
100
AcDbLine
 10
35.0
 20
113.0457999999999
 30
0.0
 11
35.0
 21
110.1458
 31
0.0
  0
LINE
  5
275
330
1E
100
AcDbEntity
  8
0
100
AcDbLine
 10
35.0
 20
113.0457999999999
 30
0.0
 11
35.0
 21
115.5458
 31
0.0
  0
LINE
  5
276
330
1E
100
AcDbEntity
  8
0
100
AcDbLine
 10
35.0
 20
110.1458
 30
0.0
 11
35.0
 21
107.0458
 31
0.0
  0
LINE
  5
277
330
1E
100
AcDbEntity
  8
0
100
AcDbLine
 10
35.0
 20
110.1458
 30
0.0
 11
35.0
 21
113.0457999999999
 31
0.0
  0
LINE
  5
278
330
1E
100
AcDbEntity
  8
0
100
AcDbLine
 10
35.0
 20
115.5458
 30
0.0
 11
35.0
 21
117.4458
 31
0.0
  0
LINE
  5
279
330
1E
100
AcDbEntity
  8
0
100
AcDbLine
 10
35.0
 20
115.5458
 30
0.0
 11
35.0
 21
113.0457999999999
 31
0.0
  0
LINE
  5
27A
330
1E
100
AcDbEntity
  8
0
100
AcDbLine
 10
35.0
 20
117.4458
 30
0.0
 11
35.0
 21
115.5458
 31
0.0
  0
LINE
  5
27B
330
1E
100
AcDbEntity
  8
0
100
AcDbLine
 10
35.0
 20
117.4458
 30
0.0
 11
35.0
 21
118.6458
 31
0.0
  0
LINE
  5
27C
330
1E
100
AcDbEntity
  8
0
100
AcDbLine
 10
35.0
 20
118.6458
 30
0.0
 11
35.0
 21
117.4458
 31
0.0
  0
LINE
  5
27D
330
1E
100
AcDbEntity
  8
0
100
AcDbLine
 10
35.0
 20
118.6458
 30
0.0
 11
35.0
 21
119.0458
 31
0.0
  0
LINE
  5
27E
330
1E
100
AcDbEntity
  8
0
100
AcDbLine
 10
35.0
 20
103.9457999999999
 30
0.0
 11
35.0
 21
101.0458
 31
0.0
  0
LINE
  5
27F
330
1E
100
AcDbEntity
  8
0
100
AcDbLine
 10
35.0
 20
103.9457999999999
 30
0.0
 11
35.0
 21
107.0458
 31
0.0
  0
LINE
  5
280
330
1E
100
AcDbEntity
  8
0
100
AcDbLine
 10
35.0
 20
107.0458
 30
0.0
 11
35.0
 21
103.9457999999999
 31
0.0
  0
LINE
  5
281
330
1E
100
AcDbEntity
  8
0
100
AcDbLine
 10
35.0
 20
107.0458
 30
0.0
 11
35.0
 21
110.1458
 31
0.0
  0
LINE
  5
282
330
1E
100
AcDbEntity
  8
0
100
AcDbLine
 10
35.0
 20
119.0458
 30
0.0
 11
47.0
 21
119.0458
 31
0.0
  0
LINE
  5
283
330
1E
100
AcDbEntity
  8
0
100
AcDbLine
 10
35.0
 20
119.0458
 30
0.0
 11
35.0
 21
118.6458
 31
0.0
  0
LINE
  5
284
330
1E
100
AcDbEntity
  8
0
100
AcDbLine
 10
34.5
 20
118.5458
 30
0.0
 11
35.0
 21
119.0458
 31
0.0
  0
LINE
  5
285
330
1E
100
AcDbEntity
  8
0
100
AcDbLine
 10
34.5
 20
118.5458
 30
0.0
 11
34.5
 21
118.1457999999999
 31
0.0
  0
LINE
  5
286
330
1E
100
AcDbEntity
  8
0
100
AcDbLine
 10
32.5
 20
95.0458
 30
0.0
 11
34.0
 21
95.0458
 31
0.0
  0
LINE
  5
287
330
1E
100
AcDbEntity
  8
0
100
AcDbLine
 10
32.5
 20
95.0458
 30
0.0
 11
32.5
 21
95.44580000000001
 31
0.0
  0
LINE
  5
288
330
1E
100
AcDbEntity
  8
0
100
AcDbLine
 10
53.0
 20
94.04580000000001
 30
0.0
 11
53.0
 21
92.5458
 31
0.0
  0
LINE
  5
289
330
1E
100
AcDbEntity
  8
0
100
AcDbLine
 10
53.0
 20
92.5458
 30
0.0
 11
53.0
 21
92.04579999999999
 31
0.0
  0
LINE
  5
28A
330
1E
100
AcDbEntity
  8
0
100
AcDbLine
 10
53.0
 20
92.5458
 30
0.0
 11
53.0
 21
94.04580000000001
 31
0.0
  0
LINE
  5
28B
330
1E
100
AcDbEntity
  8
0
100
AcDbLine
 10
47.0
 20
96.6458
 30
0.0
 11
47.0
 21
98.5458
 31
0.0
  0
LINE
  5
28C
330
1E
100
AcDbEntity
  8
0
100
AcDbLine
 10
47.0
 20
95.44580000000001
 30
0.0
 11
47.0
 21
96.6458
 31
0.0
  0
LINE
  5
28D
330
1E
100
AcDbEntity
  8
0
100
AcDbLine
 10
47.0
 20
98.5458
 30
0.0
 11
47.0
 21
101.0458
 31
0.0
  0
LINE
  5
28F
330
1E
100
AcDbEntity
  8
0
100
AcDbLine
 10
47.0
 20
95.70429999999999
 30
0.0
 11
47.0
 21
111.2043
 31
0.0
  0
LINE
  5
290
330
1E
100
AcDbEntity
  8
0
100
AcDbLine
 10
47.0
 20
95.70429999999999
 30
0.0
 11
47.0
 21
91.54580000000001
 31
0.0
  0
LINE
  5
291
330
1E
100
AcDbEntity
  8
0
100
AcDbLine
 10
47.0
 20
107.0458
 30
0.0
 11
47.0
 21
110.1458
 31
0.0
  0
LINE
  5
292
330
1E
100
AcDbEntity
  8
0
100
AcDbLine
 10
47.0
 20
101.0458
 30
0.0
 11
47.0
 21
103.9457999999999
 31
0.0
  0
LINE
  5
293
330
1E
100
AcDbEntity
  8
0
100
AcDbLine
 10
47.0
 20
103.9457999999999
 30
0.0
 11
47.0
 21
107.0458
 31
0.0
  0
LINE
  5
294
330
1E
100
AcDbEntity
  8
0
100
AcDbLine
 10
53.0
 20
99.54579999999999
 30
0.0
 11
53.0
 21
103.1457999999999
 31
0.0
  0
LINE
  5
295
330
1E
100
AcDbEntity
  8
0
100
AcDbLine
 10
53.0
 20
103.1457999999999
 30
0.0
 11
53.0
 21
99.54579999999999
 31
0.0
  0
LINE
  5
296
330
1E
100
AcDbEntity
  8
0
100
AcDbLine
 10
53.0
 20
103.1457999999999
 30
0.0
 11
53.0
 21
107.0458
 31
0.0
  0
LINE
  5
297
330
1E
100
AcDbEntity
  8
0
100
AcDbLine
 10
47.0
 20
110.1458
 30
0.0
 11
47.0
 21
113.0457999999999
 31
0.0
  0
LINE
  5
298
330
1E
100
AcDbEntity
  8
0
100
AcDbLine
 10
47.0
 20
111.2043
 30
0.0
 11
47.0
 21
122.5457999999999
 31
0.0
  0
LINE
  5
29A
330
1E
100
AcDbEntity
  8
0
100
AcDbLine
 10
47.0
 20
111.2043
 30
0.0
 11
47.0
 21
95.70429999999999
 31
0.0
  0
LINE
  5
29B
330
1E
100
AcDbEntity
  8
0
100
AcDbLine
 10
53.0
 20
107.0458
 30
0.0
 11
53.0
 21
103.1457999999999
 31
0.0
  0
LINE
  5
29C
330
1E
100
AcDbEntity
  8
0
100
AcDbLine
 10
53.0
 20
107.0458
 30
0.0
 11
53.0
 21
111.2043
 31
0.0
  0
LINE
  5
29D
330
1E
100
AcDbEntity
  8
0
100
AcDbLine
 10
53.0
 20
95.70429999999999
 30
0.0
 11
53.0
 21
103.1457999999999
 31
0.0
  0
LINE
  5
29E
330
1E
100
AcDbEntity
  8
0
100
AcDbLine
 10
53.0
 20
95.70429999999999
 30
0.0
 11
53.0
 21
91.54580000000001
 31
0.0
  0
LINE
  5
29F
330
1E
100
AcDbEntity
  8
0
100
AcDbLine
 10
47.0
 20
95.0458
 30
0.0
 11
47.0
 21
91.54580000000001
 31
0.0
  0
LINE
  5
2A0
330
1E
100
AcDbEntity
  8
0
100
AcDbLine
 10
47.0
 20
95.0458
 30
0.0
 11
47.0
 21
95.44580000000001
 31
0.0
  0
LINE
  5
2A1
330
1E
100
AcDbEntity
  8
0
100
AcDbLine
 10
53.5
 20
92.7458
 30
0.0
 11
53.5
 21
91.1458
 31
0.0
  0
LINE
  5
2A2
330
1E
100
AcDbEntity
  8
0
100
AcDbLine
 10
53.5
 20
92.7458
 30
0.0
 11
53.5
 21
95.3458
 31
0.0
  0
LINE
  5
2A4
330
1E
100
AcDbEntity
  8
0
100
AcDbLine
 10
56.5
 20
92.7458
 30
0.0
 11
56.5
 21
91.1458
 31
0.0
  0
LINE
  5
2A5
330
1E
100
AcDbEntity
  8
0
100
AcDbLine
 10
56.5
 20
92.7458
 30
0.0
 11
56.5
 21
95.3458
 31
0.0
  0
LINE
  5
2A6
330
1E
100
AcDbEntity
  8
0
100
AcDbLine
 10
57.0
 20
92.14579999999999
 30
0.0
 11
57.0
 21
91.54580000000001
 31
0.0
  0
LINE
  5
2A7
330
1E
100
AcDbEntity
  8
0
100
AcDbLine
 10
57.0
 20
92.14579999999999
 30
0.0
 11
57.0
 21
93.6458
 31
0.0
  0
LINE
  5
2A8
330
1E
100
AcDbEntity
  8
0
100
AcDbLine
 10
113.0
 20
92.5458
 30
0.0
 11
113.0
 21
94.04580000000001
 31
0.0
  0
LINE
  5
2A9
330
1E
100
AcDbEntity
  8
0
100
AcDbLine
 10
113.0
 20
92.5458
 30
0.0
 11
113.0
 21
92.04579999999999
 31
0.0
  0
LINE
  5
2AA
330
1E
100
AcDbEntity
  8
0
100
AcDbLine
 10
112.5
 20
92.7458
 30
0.0
 11
112.5
 21
95.3458
 31
0.0
  0
LINE
  5
2AB
330
1E
100
AcDbEntity
  8
0
100
AcDbLine
 10
112.5
 20
92.7458
 30
0.0
 11
112.5
 21
91.1458
 31
0.0
  0
LINE
  5
2AD
330
1E
100
AcDbEntity
  8
0
100
AcDbLine
 10
109.4999999999999
 20
92.7458
 30
0.0
 11
109.4999999999999
 21
95.3458
 31
0.0
  0
LINE
  5
2AE
330
1E
100
AcDbEntity
  8
0
100
AcDbLine
 10
109.4999999999999
 20
92.7458
 30
0.0
 11
109.4999999999999
 21
91.1458
 31
0.0
  0
LINE
  5
2B3
330
1E
100
AcDbEntity
  8
0
100
AcDbLine
 10
109.0
 20
92.5458
 30
0.0
 11
109.0
 21
94.04580000000001
 31
0.0
  0
LINE
  5
2B4
330
1E
100
AcDbEntity
  8
0
100
AcDbLine
 10
109.0
 20
92.5458
 30
0.0
 11
109.0
 21
92.04579999999999
 31
0.0
  0
LINE
  5
2B5
330
1E
100
AcDbEntity
  8
0
100
AcDbLine
 10
57.0
 20
93.6458
 30
0.0
 11
57.0
 21
92.14579999999999
 31
0.0
  0
LINE
  5
2B6
330
1E
100
AcDbEntity
  8
0
100
AcDbLine
 10
57.0
 20
93.6458
 30
0.0
 11
57.0
 21
96.1458
 31
0.0
  0
LINE
  5
2B7
330
1E
100
AcDbEntity
  8
0
100
AcDbLine
 10
113.0
 20
94.04580000000001
 30
0.0
 11
113.0
 21
96.44580000000001
 31
0.0
  0
LINE
  5
2B8
330
1E
100
AcDbEntity
  8
0
100
AcDbLine
 10
113.0
 20
94.04580000000001
 30
0.0
 11
113.0
 21
92.5458
 31
0.0
  0
LINE
  5
2B9
330
1E
100
AcDbEntity
  8
0
100
AcDbLine
 10
128.0
 20
94.0394
 30
0.0
 11
128.0
 21
95.32380000000001
 31
0.0
  0
LINE
  5
2BA
330
1E
100
AcDbEntity
  8
0
100
AcDbLine
 10
109.0
 20
94.04580000000001
 30
0.0
 11
109.0
 21
96.44580000000001
 31
0.0
  0
LINE
  5
2BB
330
1E
100
AcDbEntity
  8
0
100
AcDbLine
 10
109.0
 20
94.04580000000001
 30
0.0
 11
109.0
 21
92.5458
 31
0.0
  0
LINE
  5
2BC
330
1E
100
AcDbEntity
  8
0
100
AcDbLine
 10
128.0
 20
93.5932
 30
0.0
 11
128.0
 21
92.34579999999999
 31
0.0
  0
LINE
  5
2BD
330
1E
100
AcDbEntity
  8
0
100
AcDbLine
 10
128.0
 20
93.5932
 30
0.0
 11
128.0
 21
94.0394
 31
0.0
  0
LINE
  5
2BE
330
1E
100
AcDbEntity
  8
0
100
AcDbLine
 10
128.0
 20
92.34579999999999
 30
0.0
 11
128.0
 21
90.64579999999999
 31
0.0
  0
LINE
  5
2BF
330
1E
100
AcDbEntity
  8
0
100
AcDbLine
 10
128.0
 20
92.34579999999999
 30
0.0
 11
128.0
 21
93.5932
 31
0.0
  0
LINE
  5
2C0
330
1E
100
AcDbEntity
  8
0
100
AcDbLine
 10
53.5
 20
95.3458
 30
0.0
 11
53.5
 21
98.84579999999999
 31
0.0
  0
LINE
  5
2C1
330
1E
100
AcDbEntity
  8
0
100
AcDbLine
 10
53.5
 20
95.3458
 30
0.0
 11
53.5
 21
92.7458
 31
0.0
  0
LINE
  5
2C2
330
1E
100
AcDbEntity
  8
0
100
AcDbLine
 10
56.5
 20
95.3458
 30
0.0
 11
56.5
 21
98.84579999999999
 31
0.0
  0
LINE
  5
2C3
330
1E
100
AcDbEntity
  8
0
100
AcDbLine
 10
53.5
 20
98.84579999999999
 30
0.0
 11
53.5
 21
95.3458
 31
0.0
  0
LINE
  5
2C4
330
1E
100
AcDbEntity
  8
0
100
AcDbLine
 10
53.5
 20
98.84579999999999
 30
0.0
 11
53.5
 21
102.8458
 31
0.0
  0
LINE
  5
2C6
330
1E
100
AcDbEntity
  8
0
100
AcDbLine
 10
57.0
 20
96.1458
 30
0.0
 11
57.0
 21
99.3458
 31
0.0
  0
LINE
  5
2C7
330
1E
100
AcDbEntity
  8
0
100
AcDbLine
 10
57.0
 20
96.1458
 30
0.0
 11
57.0
 21
93.6458
 31
0.0
  0
LINE
  5
2C8
330
1E
100
AcDbEntity
  8
0
100
AcDbLine
 10
56.5
 20
98.84579999999999
 30
0.0
 11
56.5
 21
95.3458
 31
0.0
  0
LINE
  5
2C9
330
1E
100
AcDbEntity
  8
0
100
AcDbLine
 10
56.5
 20
98.84579999999999
 30
0.0
 11
56.5
 21
102.8458
 31
0.0
  0
LINE
  5
2CA
330
1E
100
AcDbEntity
  8
0
100
AcDbLine
 10
57.0
 20
99.3458
 30
0.0
 11
57.0
 21
96.1458
 31
0.0
  0
LINE
  5
2CB
330
1E
100
AcDbEntity
  8
0
100
AcDbLine
 10
57.0
 20
99.3458
 30
0.0
 11
57.0
 21
103.0458
 31
0.0
  0
LINE
  5
2CC
330
1E
100
AcDbEntity
  8
0
100
AcDbLine
 10
109.0
 20
96.44580000000001
 30
0.0
 11
109.0
 21
99.54579999999999
 31
0.0
  0
LINE
  5
2CD
330
1E
100
AcDbEntity
  8
0
100
AcDbLine
 10
109.0
 20
96.44580000000001
 30
0.0
 11
109.0
 21
94.04580000000001
 31
0.0
  0
LINE
  5
2CE
330
1E
100
AcDbEntity
  8
0
100
AcDbLine
 10
53.5
 20
102.8458
 30
0.0
 11
53.5
 21
98.84579999999999
 31
0.0
  0
LINE
  5
2CF
330
1E
100
AcDbEntity
  8
0
100
AcDbLine
 10
53.5
 20
102.8458
 30
0.0
 11
53.5
 21
107.0458
 31
0.0
  0
LINE
  5
2D1
330
1E
100
AcDbEntity
  8
0
100
AcDbLine
 10
56.5
 20
102.8458
 30
0.0
 11
56.5
 21
98.84579999999999
 31
0.0
  0
LINE
  5
2D2
330
1E
100
AcDbEntity
  8
0
100
AcDbLine
 10
56.5
 20
102.8458
 30
0.0
 11
56.5
 21
107.0458
 31
0.0
  0
LINE
  5
2D3
330
1E
100
AcDbEntity
  8
0
100
AcDbLine
 10
53.5
 20
107.0458
 30
0.0
 11
53.5
 21
102.8458
 31
0.0
  0
LINE
  5
2D4
330
1E
100
AcDbEntity
  8
0
100
AcDbLine
 10
53.5
 20
107.0458
 30
0.0
 11
53.5
 21
111.2457999999999
 31
0.0
  0
LINE
  5
2D7
330
1E
100
AcDbEntity
  8
0
100
AcDbLine
 10
56.5
 20
107.0458
 30
0.0
 11
56.5
 21
102.8458
 31
0.0
  0
LINE
  5
2D8
330
1E
100
AcDbEntity
  8
0
100
AcDbLine
 10
56.5
 20
107.0458
 30
0.0
 11
56.5
 21
111.2457999999999
 31
0.0
  0
LINE
  5
2D9
330
1E
100
AcDbEntity
  8
0
100
AcDbLine
 10
57.0
 20
103.0458
 30
0.0
 11
57.0
 21
99.3458
 31
0.0
  0
LINE
  5
2DA
330
1E
100
AcDbEntity
  8
0
100
AcDbLine
 10
57.0
 20
103.0458
 30
0.0
 11
57.0
 21
107.0458
 31
0.0
  0
LINE
  5
2DB
330
1E
100
AcDbEntity
  8
0
100
AcDbLine
 10
57.0
 20
107.0458
 30
0.0
 11
57.0
 21
103.0458
 31
0.0
  0
LINE
  5
2DC
330
1E
100
AcDbEntity
  8
0
100
AcDbLine
 10
57.0
 20
107.0458
 30
0.0
 11
57.0
 21
111.0457999999999
 31
0.0
  0
LINE
  5
2DD
330
1E
100
AcDbEntity
  8
0
100
AcDbLine
 10
109.0
 20
99.54579999999999
 30
0.0
 11
109.0
 21
103.1457999999999
 31
0.0
  0
LINE
  5
2DE
330
1E
100
AcDbEntity
  8
0
100
AcDbLine
 10
109.0
 20
99.54579999999999
 30
0.0
 11
109.0
 21
96.44580000000001
 31
0.0
  0
LINE
  5
2DF
330
1E
100
AcDbEntity
  8
0
100
AcDbLine
 10
109.0
 20
103.1457999999999
 30
0.0
 11
109.0
 21
107.0458
 31
0.0
  0
LINE
  5
2E0
330
1E
100
AcDbEntity
  8
0
100
AcDbLine
 10
109.0
 20
103.1457999999999
 30
0.0
 11
109.0
 21
99.54579999999999
 31
0.0
  0
LINE
  5
2E1
330
1E
100
AcDbEntity
  8
0
100
AcDbLine
 10
57.0
 20
111.0457999999999
 30
0.0
 11
57.0
 21
107.0458
 31
0.0
  0
LINE
  5
2E2
330
1E
100
AcDbEntity
  8
0
100
AcDbLine
 10
57.0
 20
111.0457999999999
 30
0.0
 11
57.0
 21
114.7458
 31
0.0
  0
LINE
  5
2E3
330
1E
100
AcDbEntity
  8
0
100
AcDbLine
 10
109.0
 20
110.9458
 30
0.0
 11
109.0
 21
114.5458
 31
0.0
  0
LINE
  5
2E4
330
1E
100
AcDbEntity
  8
0
100
AcDbLine
 10
109.0
 20
110.9458
 30
0.0
 11
109.0
 21
107.0458
 31
0.0
  0
LINE
  5
2E7
330
1E
100
AcDbEntity
  8
0
100
AcDbLine
 10
128.0
 20
95.32380000000001
 30
0.0
 11
128.0
 21
97.51000000000001
 31
0.0
  0
LINE
  5
2EA
330
1E
100
AcDbEntity
  8
0
100
AcDbLine
 10
112.5
 20
95.3458
 30
0.0
 11
112.5
 21
98.84579999999999
 31
0.0
  0
LINE
  5
2EB
330
1E
100
AcDbEntity
  8
0
100
AcDbLine
 10
112.5
 20
95.3458
 30
0.0
 11
112.5
 21
92.7458
 31
0.0
  0
LINE
  5
2EC
330
1E
100
AcDbEntity
  8
0
100
AcDbLine
 10
109.4999999999999
 20
95.3458
 30
0.0
 11
109.4999999999999
 21
98.84579999999999
 31
0.0
  0
LINE
  5
2ED
330
1E
100
AcDbEntity
  8
0
100
AcDbLine
 10
109.4999999999999
 20
95.3458
 30
0.0
 11
109.4999999999999
 21
92.7458
 31
0.0
  0
LINE
  5
2F0
330
1E
100
AcDbEntity
  8
0
100
AcDbLine
 10
113.0
 20
96.44580000000001
 30
0.0
 11
113.0
 21
99.54579999999999
 31
0.0
  0
LINE
  5
2F1
330
1E
100
AcDbEntity
  8
0
100
AcDbLine
 10
113.0
 20
96.44580000000001
 30
0.0
 11
113.0
 21
94.04580000000001
 31
0.0
  0
LINE
  5
2F2
330
1E
100
AcDbEntity
  8
0
100
AcDbLine
 10
109.4999999999999
 20
98.84579999999999
 30
0.0
 11
109.4999999999999
 21
102.8458
 31
0.0
  0
LINE
  5
2F3
330
1E
100
AcDbEntity
  8
0
100
AcDbLine
 10
109.4999999999999
 20
98.84579999999999
 30
0.0
 11
109.4999999999999
 21
95.3458
 31
0.0
  0
LINE
  5
2F4
330
1E
100
AcDbEntity
  8
0
100
AcDbLine
 10
109.4999999999999
 20
102.8458
 30
0.0
 11
109.4999999999999
 21
107.0458
 31
0.0
  0
LINE
  5
2F5
330
1E
100
AcDbEntity
  8
0
100
AcDbLine
 10
109.4999999999999
 20
102.8458
 30
0.0
 11
109.4999999999999
 21
98.84579999999999
 31
0.0
  0
LINE
  5
2F6
330
1E
100
AcDbEntity
  8
0
100
AcDbLine
 10
112.5
 20
98.84579999999999
 30
0.0
 11
112.5
 21
102.8458
 31
0.0
  0
LINE
  5
2F7
330
1E
100
AcDbEntity
  8
0
100
AcDbLine
 10
112.5
 20
98.84579999999999
 30
0.0
 11
112.5
 21
95.3458
 31
0.0
  0
LINE
  5
2F9
330
1E
100
AcDbEntity
  8
0
100
AcDbLine
 10
112.5
 20
102.8458
 30
0.0
 11
112.5
 21
107.0458
 31
0.0
  0
LINE
  5
2FA
330
1E
100
AcDbEntity
  8
0
100
AcDbLine
 10
112.5
 20
102.8458
 30
0.0
 11
112.5
 21
98.84579999999999
 31
0.0
  0
LINE
  5
2FD
330
1E
100
AcDbEntity
  8
0
100
AcDbLine
 10
113.0
 20
103.1457999999999
 30
0.0
 11
113.0
 21
99.54579999999999
 31
0.0
  0
LINE
  5
2FF
330
1E
100
AcDbEntity
  8
0
100
AcDbLine
 10
128.0
 20
97.51000000000001
 30
0.0
 11
128.0
 21
100.3606999999999
 31
0.0
  0
LINE
  5
300
330
1E
100
AcDbEntity
  8
0
100
AcDbLine
 10
128.0
 20
100.3606999999999
 30
0.0
 11
128.0
 21
103.5522999999999
 31
0.0
  0
LINE
  5
303
330
1E
100
AcDbEntity
  8
0
100
AcDbLine
 10
128.0
 20
103.5522999999999
 30
0.0
 11
128.0
 21
106.9981
 31
0.0
  0
LINE
  5
304
330
1E
100
AcDbEntity
  8
0
100
AcDbLine
 10
128.0
 20
106.9981
 30
0.0
 11
128.0
 21
110.5476
 31
0.0
  0
LINE
  5
308
330
1E
100
AcDbEntity
  8
0
100
AcDbLine
 10
113.0
 20
99.54579999999999
 30
0.0
 11
113.0
 21
103.1457999999999
 31
0.0
  0
LINE
  5
309
330
1E
100
AcDbEntity
  8
0
100
AcDbLine
 10
113.0
 20
99.54579999999999
 30
0.0
 11
113.0
 21
96.44580000000001
 31
0.0
  0
LINE
  5
30A
330
1E
100
AcDbEntity
  8
0
100
AcDbLine
 10
113.0
 20
103.1457999999999
 30
0.0
 11
113.0
 21
110.9458
 31
0.0
  0
LINE
  5
30B
330
1E
100
AcDbEntity
  8
0
100
AcDbLine
 10
112.5
 20
107.0458
 30
0.0
 11
112.5
 21
111.2457999999999
 31
0.0
  0
LINE
  5
30C
330
1E
100
AcDbEntity
  8
0
100
AcDbLine
 10
112.5
 20
107.0458
 30
0.0
 11
112.5
 21
102.8458
 31
0.0
  0
LINE
  5
30F
330
1E
100
AcDbEntity
  8
0
100
AcDbLine
 10
109.4999999999999
 20
107.0458
 30
0.0
 11
109.4999999999999
 21
111.2457999999999
 31
0.0
  0
LINE
  5
310
330
1E
100
AcDbEntity
  8
0
100
AcDbLine
 10
109.4999999999999
 20
107.0458
 30
0.0
 11
109.4999999999999
 21
102.8458
 31
0.0
  0
LINE
  5
314
330
1E
100
AcDbEntity
  8
0
100
AcDbLine
 10
128.0
 20
110.5476
 30
0.0
 11
128.0
 21
113.8135
 31
0.0
  0
LINE
  5
316
330
1E
100
AcDbEntity
  8
0
100
AcDbLine
 10
113.0
 20
110.9458
 30
0.0
 11
113.0
 21
114.5458
 31
0.0
  0
LINE
  5
317
330
1E
100
AcDbEntity
  8
0
100
AcDbLine
 10
113.0
 20
110.9458
 30
0.0
 11
113.0
 21
103.1457999999999
 31
0.0
  0
LINE
  5
318
330
1E
100
AcDbEntity
  8
0
100
AcDbLine
 10
151.5
 20
107.0458
 30
0.0
 11
151.5
 21
97.4458
 31
0.0
  0
LINE
  5
319
330
1E
100
AcDbEntity
  8
0
100
AcDbLine
 10
151.5
 20
107.0458
 30
0.0
 11
151.5
 21
116.6457999999999
 31
0.0
  0
LINE
  5
31A
330
1E
100
AcDbEntity
  8
0
100
AcDbLine
 10
153.0
 20
107.0458
 30
0.0
 11
153.0
 21
97.24580000000001
 31
0.0
  0
LINE
  5
31B
330
1E
100
AcDbEntity
  8
0
100
AcDbLine
 10
153.0
 20
107.0458
 30
0.0
 11
153.0
 21
116.8457999999999
 31
0.0
  0
LINE
  5
31C
330
1E
100
AcDbEntity
  8
0
100
AcDbLine
 10
151.5
 20
97.4458
 30
0.0
 11
151.5
 21
107.0458
 31
0.0
  0
LINE
  5
31D
330
1E
100
AcDbEntity
  8
0
100
AcDbLine
 10
151.5
 20
97.4458
 30
0.0
 11
151.5
 21
88.4458
 31
0.0
  0
LINE
  5
31E
330
1E
100
AcDbEntity
  8
0
100
AcDbLine
 10
153.0
 20
97.24580000000001
 30
0.0
 11
153.0
 21
107.0458
 31
0.0
  0
LINE
  5
31F
330
1E
100
AcDbEntity
  8
0
100
AcDbLine
 10
153.0
 20
97.24580000000001
 30
0.0
 11
153.0
 21
88.14579999999999
 31
0.0
  0
LINE
  5
320
330
1E
100
AcDbEntity
  8
0
100
AcDbLine
 10
159.0
 20
107.0458
 30
0.0
 11
159.0
 21
95.44580000000001
 31
0.0
  0
LINE
  5
321
330
1E
100
AcDbEntity
  8
0
100
AcDbLine
 10
159.0
 20
107.0458
 30
0.0
 11
159.0
 21
118.6458
 31
0.0
  0
LINE
  5
322
330
1E
100
AcDbEntity
  8
0
100
AcDbLine
 10
159.0
 20
95.44580000000001
 30
0.0
 11
159.0
 21
107.0458
 31
0.0
  0
LINE
  5
323
330
1E
100
AcDbEntity
  8
0
100
AcDbLine
 10
159.0
 20
95.44580000000001
 30
0.0
 11
159.0
 21
84.64579999999999
 31
0.0
  0
LINE
  5
324
330
1E
100
AcDbEntity
  8
0
100
AcDbLine
 10
109.0
 20
107.0458
 30
0.0
 11
109.0
 21
110.9458
 31
0.0
  0
LINE
  5
325
330
1E
100
AcDbEntity
  8
0
100
AcDbLine
 10
109.0
 20
107.0458
 30
0.0
 11
109.0
 21
103.1457999999999
 31
0.0
  0
LINE
  5
326
330
1E
100
AcDbEntity
  8
0
100
AcDbLine
 10
113.0
 20
94.78979999999999
 30
0.0
 11
113.968
 21
91.1505
 31
0.0
  0
LINE
  5
327
330
1E
100
AcDbEntity
  8
0
100
AcDbLine
 10
53.0
 20
110.9458
 30
0.0
 11
53.0
 21
111.2043
 31
0.0
  0
LINE
  5
328
330
1E
100
AcDbEntity
  8
0
100
AcDbLine
 10
47.0
 20
113.0457999999999
 30
0.0
 11
47.0
 21
115.5458
 31
0.0
  0
LINE
  5
329
330
1E
100
AcDbEntity
  8
0
100
AcDbLine
 10
47.0
 20
115.5458
 30
0.0
 11
47.0
 21
117.4458
 31
0.0
  0
LINE
  5
32A
330
1E
100
AcDbEntity
  8
0
100
AcDbLine
 10
47.0
 20
117.4458
 30
0.0
 11
47.0
 21
118.6458
 31
0.0
  0
LINE
  5
32B
330
1E
100
AcDbEntity
  8
0
100
AcDbLine
 10
47.0
 20
118.6458
 30
0.0
 11
47.0
 21
119.0458
 31
0.0
  0
LINE
  5
32C
330
1E
100
AcDbEntity
  8
0
100
AcDbLine
 10
53.0
 20
114.5458
 30
0.0
 11
53.0
 21
117.6458
 31
0.0
  0
LINE
  5
32D
330
1E
100
AcDbEntity
  8
0
100
AcDbLine
 10
53.5
 20
111.2457999999999
 30
0.0
 11
53.5
 21
115.2457999999999
 31
0.0
  0
LINE
  5
32E
330
1E
100
AcDbEntity
  8
0
100
AcDbLine
 10
53.0
 20
120.0458
 30
0.0
 11
53.0
 21
117.6458
 31
0.0
  0
LINE
  5
32F
330
1E
100
AcDbEntity
  8
0
100
AcDbLine
 10
53.5
 20
121.3457999999999
 30
0.0
 11
53.5
 21
118.7458
 31
0.0
  0
LINE
  5
330
330
1E
100
AcDbEntity
  8
0
100
AcDbLine
 10
53.5
 20
121.3457999999999
 30
0.0
 11
53.5
 21
122.9458
 31
0.0
  0
LINE
  5
331
330
1E
100
AcDbEntity
  8
0
100
AcDbLine
 10
53.0
 20
117.6458
 30
0.0
 11
53.0
 21
114.5458
 31
0.0
  0
LINE
  5
332
330
1E
100
AcDbEntity
  8
0
100
AcDbLine
 10
53.0
 20
117.6458
 30
0.0
 11
53.0
 21
120.0458
 31
0.0
  0
LINE
  5
333
330
1E
100
AcDbEntity
  8
0
100
AcDbLine
 10
53.5
 20
118.7458
 30
0.0
 11
53.5
 21
115.2457999999999
 31
0.0
  0
LINE
  5
334
330
1E
100
AcDbEntity
  8
0
100
AcDbLine
 10
53.5
 20
118.7458
 30
0.0
 11
53.5
 21
121.3457999999999
 31
0.0
  0
LINE
  5
335
330
1E
100
AcDbEntity
  8
0
100
AcDbLine
 10
53.5
 20
115.2457999999999
 30
0.0
 11
53.5
 21
111.2457999999999
 31
0.0
  0
LINE
  5
336
330
1E
100
AcDbEntity
  8
0
100
AcDbLine
 10
53.5
 20
115.2457999999999
 30
0.0
 11
53.5
 21
118.7458
 31
0.0
  0
LINE
  5
337
330
1E
100
AcDbEntity
  8
0
100
AcDbLine
 10
47.0
 20
119.0458
 30
0.0
 11
47.0
 21
122.5457999999999
 31
0.0
  0
LINE
  5
338
330
1E
100
AcDbEntity
  8
0
100
AcDbLine
 10
53.0
 20
122.5457999999999
 30
0.0
 11
53.0
 21
111.2043
 31
0.0
  0
LINE
  5
339
330
1E
100
AcDbEntity
  8
0
100
AcDbLine
 10
53.5
 20
122.9458
 30
0.0
 11
53.5
 21
121.3457999999999
 31
0.0
  0
LINE
  5
33A
330
1E
100
AcDbEntity
  8
0
100
AcDbLine
 10
53.5
 20
122.9458
 30
0.0
 11
53.5
 21
123.5457999999999
 31
0.0
  0
LINE
  5
33B
330
1E
100
AcDbEntity
  8
0
100
AcDbLine
 10
47.0
 20
122.5457999999999
 30
0.0
 11
47.0
 21
119.0458
 31
0.0
  0
LINE
  5
33C
330
1E
100
AcDbEntity
  8
0
100
AcDbLine
 10
47.0
 20
122.5457999999999
 30
0.0
 11
53.0
 21
122.5457999999999
 31
0.0
  0
LINE
  5
33D
330
1E
100
AcDbEntity
  8
0
100
AcDbLine
 10
47.0
 20
122.5457999999999
 30
0.0
 11
47.0
 21
111.2043
 31
0.0
  0
LINE
  5
33E
330
1E
100
AcDbEntity
  8
0
100
AcDbLine
 10
53.0
 20
122.0458
 30
0.0
 11
53.5
 21
123.5457999999999
 31
0.0
  0
LINE
  5
341
330
1E
100
AcDbEntity
  8
0
100
AcDbLine
 10
56.5
 20
111.2457999999999
 30
0.0
 11
56.5
 21
107.0458
 31
0.0
  0
LINE
  5
342
330
1E
100
AcDbEntity
  8
0
100
AcDbLine
 10
56.5
 20
111.2457999999999
 30
0.0
 11
56.5
 21
115.2457999999999
 31
0.0
  0
LINE
  5
344
330
1E
100
AcDbEntity
  8
0
100
AcDbLine
 10
56.5
 20
121.3457999999999
 30
0.0
 11
56.5
 21
118.7458
 31
0.0
  0
LINE
  5
345
330
1E
100
AcDbEntity
  8
0
100
AcDbLine
 10
56.5
 20
121.3457999999999
 30
0.0
 11
56.5
 21
122.9458
 31
0.0
  0
LINE
  5
348
330
1E
100
AcDbEntity
  8
0
100
AcDbLine
 10
56.5
 20
122.9458
 30
0.0
 11
56.5
 21
121.3457999999999
 31
0.0
  0
LINE
  5
349
330
1E
100
AcDbEntity
  8
0
100
AcDbLine
 10
56.5
 20
122.9458
 30
0.0
 11
56.5
 21
123.5457999999999
 31
0.0
  0
LINE
  5
34A
330
1E
100
AcDbEntity
  8
0
100
AcDbLine
 10
56.5
 20
123.5457999999999
 30
0.0
 11
56.5
 21
122.9458
 31
0.0
  0
LINE
  5
34B
330
1E
100
AcDbEntity
  8
0
100
AcDbLine
 10
56.5
 20
123.5457999999999
 30
0.0
 11
57.0
 21
122.5457999999999
 31
0.0
  0
LINE
  5
34D
330
1E
100
AcDbEntity
  8
0
100
AcDbLine
 10
57.0
 20
120.4458
 30
0.0
 11
57.0
 21
117.9458
 31
0.0
  0
LINE
  5
34E
330
1E
100
AcDbEntity
  8
0
100
AcDbLine
 10
57.0
 20
120.4458
 30
0.0
 11
57.0
 21
121.9458
 31
0.0
  0
LINE
  5
34F
330
1E
100
AcDbEntity
  8
0
100
AcDbLine
 10
57.0
 20
121.9458
 30
0.0
 11
57.0
 21
120.4458
 31
0.0
  0
LINE
  5
350
330
1E
100
AcDbEntity
  8
0
100
AcDbLine
 10
57.0
 20
121.9458
 30
0.0
 11
57.0
 21
122.5457999999999
 31
0.0
  0
LINE
  5
351
330
1E
100
AcDbEntity
  8
0
100
AcDbLine
 10
56.5
 20
118.7458
 30
0.0
 11
56.5
 21
115.2457999999999
 31
0.0
  0
LINE
  5
352
330
1E
100
AcDbEntity
  8
0
100
AcDbLine
 10
56.5
 20
118.7458
 30
0.0
 11
56.5
 21
121.3457999999999
 31
0.0
  0
LINE
  5
353
330
1E
100
AcDbEntity
  8
0
100
AcDbLine
 10
56.5
 20
115.2457999999999
 30
0.0
 11
56.5
 21
111.2457999999999
 31
0.0
  0
LINE
  5
354
330
1E
100
AcDbEntity
  8
0
100
AcDbLine
 10
56.5
 20
115.2457999999999
 30
0.0
 11
56.5
 21
118.7458
 31
0.0
  0
LINE
  5
355
330
1E
100
AcDbEntity
  8
0
100
AcDbLine
 10
57.0
 20
117.9458
 30
0.0
 11
57.0
 21
114.7458
 31
0.0
  0
LINE
  5
356
330
1E
100
AcDbEntity
  8
0
100
AcDbLine
 10
57.0
 20
117.9458
 30
0.0
 11
57.0
 21
120.4458
 31
0.0
  0
LINE
  5
357
330
1E
100
AcDbEntity
  8
0
100
AcDbLine
 10
57.0
 20
114.7458
 30
0.0
 11
57.0
 21
111.0457999999999
 31
0.0
  0
LINE
  5
358
330
1E
100
AcDbEntity
  8
0
100
AcDbLine
 10
57.0
 20
114.7458
 30
0.0
 11
57.0
 21
117.9458
 31
0.0
  0
LINE
  5
359
330
1E
100
AcDbEntity
  8
0
100
AcDbLine
 10
53.5
 20
123.5457999999999
 30
0.0
 11
55.0
 21
124.0458
 31
0.0
  0
LINE
  5
35A
330
1E
100
AcDbEntity
  8
0
100
AcDbLine
 10
53.5
 20
123.5457999999999
 30
0.0
 11
53.5
 21
122.9458
 31
0.0
  0
LINE
  5
35B
330
1E
100
AcDbEntity
  8
0
100
AcDbLine
 10
55.0
 20
124.0458
 30
0.0
 11
56.5
 21
123.5457999999999
 31
0.0
  0
LINE
  5
35D
330
1E
100
AcDbEntity
  8
0
100
AcDbLine
 10
58.5
 20
122.0458
 30
0.0
 11
109.0
 21
122.0458
 31
0.0
  0
LINE
  5
35E
330
1E
100
AcDbEntity
  8
0
100
AcDbLine
 10
112.5
 20
111.2457999999999
 30
0.0
 11
112.5
 21
115.2457999999999
 31
0.0
  0
LINE
  5
35F
330
1E
100
AcDbEntity
  8
0
100
AcDbLine
 10
112.5
 20
111.2457999999999
 30
0.0
 11
112.5
 21
107.0458
 31
0.0
  0
LINE
  5
360
330
1E
100
AcDbEntity
  8
0
100
AcDbLine
 10
113.0
 20
114.5458
 30
0.0
 11
113.0
 21
120.0458
 31
0.0
  0
LINE
  5
361
330
1E
100
AcDbEntity
  8
0
100
AcDbLine
 10
113.0
 20
114.5458
 30
0.0
 11
113.0
 21
110.9458
 31
0.0
  0
LINE
  5
364
330
1E
100
AcDbEntity
  8
0
100
AcDbLine
 10
109.4999999999999
 20
111.2457999999999
 30
0.0
 11
109.4999999999999
 21
115.2457999999999
 31
0.0
  0
LINE
  5
365
330
1E
100
AcDbEntity
  8
0
100
AcDbLine
 10
109.4999999999999
 20
111.2457999999999
 30
0.0
 11
109.4999999999999
 21
107.0458
 31
0.0
  0
LINE
  5
366
330
1E
100
AcDbEntity
  8
0
100
AcDbLine
 10
109.0
 20
117.6458
 30
0.0
 11
109.0
 21
120.0458
 31
0.0
  0
LINE
  5
367
330
1E
100
AcDbEntity
  8
0
100
AcDbLine
 10
109.0
 20
117.6458
 30
0.0
 11
109.0
 21
114.5458
 31
0.0
  0
LINE
  5
368
330
1E
100
AcDbEntity
  8
0
100
AcDbLine
 10
109.0
 20
120.0458
 30
0.0
 11
109.0
 21
121.5457999999999
 31
0.0
  0
LINE
  5
369
330
1E
100
AcDbEntity
  8
0
100
AcDbLine
 10
109.0
 20
120.0458
 30
0.0
 11
109.0
 21
117.6458
 31
0.0
  0
LINE
  5
36A
330
1E
100
AcDbEntity
  8
0
100
AcDbLine
 10
112.5
 20
115.2457999999999
 30
0.0
 11
112.5
 21
118.7458
 31
0.0
  0
LINE
  5
36B
330
1E
100
AcDbEntity
  8
0
100
AcDbLine
 10
112.5
 20
115.2457999999999
 30
0.0
 11
112.5
 21
111.2457999999999
 31
0.0
  0
LINE
  5
36C
330
1E
100
AcDbEntity
  8
0
100
AcDbLine
 10
109.4999999999999
 20
121.3457999999999
 30
0.0
 11
109.4999999999999
 21
122.9458
 31
0.0
  0
LINE
  5
36D
330
1E
100
AcDbEntity
  8
0
100
AcDbLine
 10
109.4999999999999
 20
121.3457999999999
 30
0.0
 11
109.4999999999999
 21
118.7458
 31
0.0
  0
LINE
  5
36E
330
1E
100
AcDbEntity
  8
0
100
AcDbLine
 10
112.5
 20
121.3457999999999
 30
0.0
 11
112.5
 21
122.9458
 31
0.0
  0
LINE
  5
36F
330
1E
100
AcDbEntity
  8
0
100
AcDbLine
 10
112.5
 20
121.3457999999999
 30
0.0
 11
112.5
 21
118.7458
 31
0.0
  0
LINE
  5
371
330
1E
100
AcDbEntity
  8
0
100
AcDbLine
 10
113.0
 20
122.0458
 30
0.0
 11
113.0
 21
121.5457999999999
 31
0.0
  0
LINE
  5
372
330
1E
100
AcDbEntity
  8
0
100
AcDbLine
 10
113.0
 20
120.0458
 30
0.0
 11
113.0
 21
121.5457999999999
 31
0.0
  0
LINE
  5
373
330
1E
100
AcDbEntity
  8
0
100
AcDbLine
 10
113.0
 20
121.5457999999999
 30
0.0
 11
113.0
 21
122.0458
 31
0.0
  0
LINE
  5
374
330
1E
100
AcDbEntity
  8
0
100
AcDbLine
 10
113.0
 20
121.5457999999999
 30
0.0
 11
113.0
 21
120.0458
 31
0.0
  0
LINE
  5
375
330
1E
100
AcDbEntity
  8
0
100
AcDbLine
 10
113.0
 20
120.0458
 30
0.0
 11
113.0
 21
114.5458
 31
0.0
  0
LINE
  5
376
330
1E
100
AcDbEntity
  8
0
100
AcDbLine
 10
112.5
 20
118.7458
 30
0.0
 11
112.5
 21
115.2457999999999
 31
0.0
  0
LINE
  5
377
330
1E
100
AcDbEntity
  8
0
100
AcDbLine
 10
112.5
 20
118.7458
 30
0.0
 11
112.5
 21
121.3457999999999
 31
0.0
  0
LINE
  5
379
330
1E
100
AcDbEntity
  8
0
100
AcDbLine
 10
109.4999999999999
 20
118.7458
 30
0.0
 11
109.4999999999999
 21
115.2457999999999
 31
0.0
  0
LINE
  5
37A
330
1E
100
AcDbEntity
  8
0
100
AcDbLine
 10
109.4999999999999
 20
118.7458
 30
0.0
 11
109.4999999999999
 21
121.3457999999999
 31
0.0
  0
LINE
  5
37B
330
1E
100
AcDbEntity
  8
0
100
AcDbLine
 10
109.4999999999999
 20
115.2457999999999
 30
0.0
 11
109.4999999999999
 21
118.7458
 31
0.0
  0
LINE
  5
37C
330
1E
100
AcDbEntity
  8
0
100
AcDbLine
 10
109.4999999999999
 20
115.2457999999999
 30
0.0
 11
109.4999999999999
 21
111.2457999999999
 31
0.0
  0
LINE
  5
37D
330
1E
100
AcDbEntity
  8
0
100
AcDbLine
 10
109.0
 20
121.5457999999999
 30
0.0
 11
109.0
 21
122.0458
 31
0.0
  0
LINE
  5
37E
330
1E
100
AcDbEntity
  8
0
100
AcDbLine
 10
109.0
 20
121.5457999999999
 30
0.0
 11
109.0
 21
120.0458
 31
0.0
  0
LINE
  5
37F
330
1E
100
AcDbEntity
  8
0
100
AcDbLine
 10
109.0
 20
114.5458
 30
0.0
 11
109.0
 21
117.6458
 31
0.0
  0
LINE
  5
380
330
1E
100
AcDbEntity
  8
0
100
AcDbLine
 10
109.0
 20
114.5458
 30
0.0
 11
109.0
 21
110.9458
 31
0.0
  0
LINE
  5
388
330
1E
100
AcDbEntity
  8
0
100
AcDbLine
 10
128.0
 20
113.8135
 30
0.0
 11
128.0
 21
116.5588999999999
 31
0.0
  0
LINE
  5
389
330
1E
100
AcDbEntity
  8
0
100
AcDbLine
 10
128.0
 20
116.5588999999999
 30
0.0
 11
128.0
 21
118.7202
 31
0.0
  0
LINE
  5
38D
330
1E
100
AcDbEntity
  8
0
100
AcDbLine
 10
128.0
 20
120.0835
 30
0.0
 11
128.0
 21
120.4987
 31
0.0
  0
LINE
  5
38F
330
1E
100
AcDbEntity
  8
0
100
AcDbLine
 10
128.0
 20
118.7202
 30
0.0
 11
128.0
 21
120.0835
 31
0.0
  0
LINE
  5
393
330
1E
100
AcDbEntity
  8
0
100
AcDbLine
 10
151.5
 20
116.6457999999999
 30
0.0
 11
151.5
 21
125.6458
 31
0.0
  0
LINE
  5
394
330
1E
100
AcDbEntity
  8
0
100
AcDbLine
 10
151.5
 20
116.6457999999999
 30
0.0
 11
151.5
 21
107.0458
 31
0.0
  0
LINE
  5
395
330
1E
100
AcDbEntity
  8
0
100
AcDbLine
 10
153.0
 20
116.8457999999999
 30
0.0
 11
153.0
 21
125.9458
 31
0.0
  0
LINE
  5
396
330
1E
100
AcDbEntity
  8
0
100
AcDbLine
 10
153.0
 20
116.8457999999999
 30
0.0
 11
153.0
 21
107.0458
 31
0.0
  0
LINE
  5
397
330
1E
100
AcDbEntity
  8
0
100
AcDbLine
 10
159.0
 20
118.6458
 30
0.0
 11
159.0
 21
129.4457999999999
 31
0.0
  0
LINE
  5
398
330
1E
100
AcDbEntity
  8
0
100
AcDbLine
 10
159.0
 20
118.6458
 30
0.0
 11
159.0
 21
107.0458
 31
0.0
  0
LINE
  5
399
330
1E
100
AcDbEntity
  8
0
100
AcDbLine
 10
128.0
 20
120.4987
 30
0.0
 11
128.0
 21
121.7458
 31
0.0
  0
LINE
  5
39A
330
1E
100
AcDbEntity
  8
0
100
AcDbLine
 10
128.0
 20
121.7458
 30
0.0
 11
128.0
 21
120.4987
 31
0.0
  0
LINE
  5
39B
330
1E
100
AcDbEntity
  8
0
100
AcDbLine
 10
128.0
 20
121.7458
 30
0.0
 11
128.0
 21
123.4458
 31
0.0
  0
LINE
  5
39C
330
1E
100
AcDbEntity
  8
0
100
AcDbLine
 10
113.0
 20
119.3018
 30
0.0
 11
113.968
 21
122.9411
 31
0.0
  0
LINE
  5
39D
330
1E
100
AcDbEntity
  8
0
100
AcDbLine
 10
74.03571428571429
 20
122.0458
 30
0.0
 11
74.29999999999999
 21
122.2458
 31
0.0
  0
LINE
  5
39F
330
1E
100
AcDbEntity
  8
0
100
AcDbLine
 10
74.29999999999999
 20
122.2458
 30
0.0
 11
78.5
 21
123.9458
 31
0.0
  0
LINE
  5
3A0
330
1E
100
AcDbEntity
  8
0
100
AcDbLine
 10
78.5
 20
123.9458
 30
0.0
 11
83.0
 21
124.5457999999999
 31
0.0
  0
LINE
  5
3A1
330
1E
100
AcDbEntity
  8
0
100
AcDbLine
 10
112.5
 20
122.9458
 30
0.0
 11
112.5
 21
123.5457999999999
 31
0.0
  0
LINE
  5
3A2
330
1E
100
AcDbEntity
  8
0
100
AcDbLine
 10
112.5
 20
122.9458
 30
0.0
 11
112.5
 21
121.3457999999999
 31
0.0
  0
LINE
  5
3A4
330
1E
100
AcDbEntity
  8
0
100
AcDbLine
 10
111.0
 20
124.0458
 30
0.0
 11
112.5
 21
123.5457999999999
 31
0.0
  0
LINE
  5
3A5
330
1E
100
AcDbEntity
  8
0
100
AcDbLine
 10
109.4999999999999
 20
123.5457999999999
 30
0.0
 11
109.4999999999999
 21
122.9458
 31
0.0
  0
LINE
  5
3A6
330
1E
100
AcDbEntity
  8
0
100
AcDbLine
 10
109.4999999999999
 20
123.5457999999999
 30
0.0
 11
111.0
 21
124.0458
 31
0.0
  0
LINE
  5
3A9
330
1E
100
AcDbEntity
  8
0
100
AcDbLine
 10
109.4999999999999
 20
122.9458
 30
0.0
 11
109.4999999999999
 21
123.5457999999999
 31
0.0
  0
LINE
  5
3AA
330
1E
100
AcDbEntity
  8
0
100
AcDbLine
 10
109.4999999999999
 20
122.9458
 30
0.0
 11
109.4999999999999
 21
121.3457999999999
 31
0.0
  0
LINE
  5
3AC
330
1E
100
AcDbEntity
  8
0
100
AcDbLine
 10
91.69999999999999
 20
122.2458
 30
0.0
 11
91.96428571428569
 21
122.0458
 31
0.0
  0
LINE
  5
3AD
330
1E
100
AcDbEntity
  8
0
100
AcDbLine
 10
87.5
 20
123.9458
 30
0.0
 11
91.69999999999999
 21
122.2458
 31
0.0
  0
LINE
  5
3AE
330
1E
100
AcDbEntity
  8
0
100
AcDbLine
 10
83.0
 20
124.5457999999999
 30
0.0
 11
87.5
 21
123.9458
 31
0.0
  0
LINE
  5
3B0
330
1E
100
AcDbEntity
  8
0
100
AcDbLine
 10
113.968
 20
122.9411
 30
0.0
 11
114.936
 21
124.0458
 31
0.0
  0
LINE
  5
3B1
330
1E
100
AcDbEntity
  8
0
100
AcDbLine
 10
127.032
 20
122.9411
 30
0.0
 11
128.0
 21
120.4987
 31
0.0
  0
LINE
  5
3B5
330
1E
100
AcDbEntity
  8
0
100
AcDbLine
 10
114.936
 20
124.0458
 30
0.0
 11
126.065
 21
124.0458
 31
0.0
  0
LINE
  5
3B7
330
1E
100
AcDbEntity
  8
0
100
AcDbLine
 10
126.065
 20
124.0458
 30
0.0
 11
127.032
 21
122.9411
 31
0.0
  0
LINE
  5
3BC
330
1E
100
AcDbEntity
  8
0
100
AcDbLine
 10
128.0
 20
123.4458
 30
0.0
 11
128.0
 21
121.7458
 31
0.0
  0
LINE
  5
3BD
330
1E
100
AcDbEntity
  8
0
100
AcDbLine
 10
128.0
 20
123.4458
 30
0.0
 11
128.0
 21
124.0458
 31
0.0
  0
LINE
  5
3BE
330
1E
100
AcDbEntity
  8
0
100
AcDbLine
 10
129.0
 20
126.0458
 30
0.0
 11
138.5
 21
131.5458
 31
0.0
  0
LINE
  5
3BF
330
1E
100
AcDbEntity
  8
0
100
AcDbLine
 10
128.0
 20
124.0458
 30
0.0
 11
128.0
 21
123.4458
 31
0.0
  0
LINE
  5
3C0
330
1E
100
AcDbEntity
  8
0
100
AcDbLine
 10
128.0
 20
124.0458
 30
0.0
 11
129.0
 21
126.0458
 31
0.0
  0
LINE
  5
3C1
330
1E
100
AcDbEntity
  8
0
100
AcDbLine
 10
138.5
 20
131.5458
 30
0.0
 11
146.0
 21
137.5458
 31
0.0
  0
LINE
  5
3C2
330
1E
100
AcDbEntity
  8
0
100
AcDbLine
 10
151.5
 20
125.6458
 30
0.0
 11
151.5
 21
133.4457999999999
 31
0.0
  0
LINE
  5
3C3
330
1E
100
AcDbEntity
  8
0
100
AcDbLine
 10
151.5
 20
125.6458
 30
0.0
 11
151.5
 21
116.6457999999999
 31
0.0
  0
LINE
  5
3C4
330
1E
100
AcDbEntity
  8
0
100
AcDbLine
 10
151.5
 20
133.4457999999999
 30
0.0
 11
151.5
 21
139.5458
 31
0.0
  0
LINE
  5
3C5
330
1E
100
AcDbEntity
  8
0
100
AcDbLine
 10
151.5
 20
133.4457999999999
 30
0.0
 11
151.5
 21
125.6458
 31
0.0
  0
LINE
  5
3C6
330
1E
100
AcDbEntity
  8
0
100
AcDbLine
 10
151.5
 20
139.5458
 30
0.0
 11
151.5
 21
143.1458
 31
0.0
  0
LINE
  5
3C7
330
1E
100
AcDbEntity
  8
0
100
AcDbLine
 10
151.5
 20
139.5458
 30
0.0
 11
151.5
 21
133.4457999999999
 31
0.0
  0
LINE
  5
3C8
330
1E
100
AcDbEntity
  8
0
100
AcDbLine
 10
146.0
 20
137.5458
 30
0.0
 11
150.5
 21
143.0458
 31
0.0
  0
LINE
  5
3C9
330
1E
100
AcDbEntity
  8
0
100
AcDbLine
 10
151.5
 20
143.1458
 30
0.0
 11
151.5
 21
144.5458
 31
0.0
  0
LINE
  5
3CA
330
1E
100
AcDbEntity
  8
0
100
AcDbLine
 10
151.5
 20
143.1458
 30
0.0
 11
151.5
 21
139.5458
 31
0.0
  0
LINE
  5
3CB
330
1E
100
AcDbEntity
  8
0
100
AcDbLine
 10
150.5
 20
143.0458
 30
0.0
 11
151.5
 21
144.5458
 31
0.0
  0
LINE
  5
3CC
330
1E
100
AcDbEntity
  8
0
100
AcDbLine
 10
153.0
 20
125.9458
 30
0.0
 11
153.0
 21
133.8457999999999
 31
0.0
  0
LINE
  5
3CD
330
1E
100
AcDbEntity
  8
0
100
AcDbLine
 10
153.0
 20
125.9458
 30
0.0
 11
153.0
 21
116.8457999999999
 31
0.0
  0
LINE
  5
3CE
330
1E
100
AcDbEntity
  8
0
100
AcDbLine
 10
153.0
 20
133.8457999999999
 30
0.0
 11
153.0
 21
139.9457999999999
 31
0.0
  0
LINE
  5
3CF
330
1E
100
AcDbEntity
  8
0
100
AcDbLine
 10
153.0
 20
133.8457999999999
 30
0.0
 11
153.0
 21
125.9458
 31
0.0
  0
LINE
  5
3D0
330
1E
100
AcDbEntity
  8
0
100
AcDbLine
 10
153.0
 20
139.9457999999999
 30
0.0
 11
153.0
 21
143.6458
 31
0.0
  0
LINE
  5
3D1
330
1E
100
AcDbEntity
  8
0
100
AcDbLine
 10
153.0
 20
139.9457999999999
 30
0.0
 11
153.0
 21
133.8457999999999
 31
0.0
  0
LINE
  5
3D2
330
1E
100
AcDbEntity
  8
0
100
AcDbLine
 10
153.0
 20
143.6458
 30
0.0
 11
153.0
 21
145.0458
 31
0.0
  0
LINE
  5
3D3
330
1E
100
AcDbEntity
  8
0
100
AcDbLine
 10
153.0
 20
143.6458
 30
0.0
 11
153.0
 21
139.9457999999999
 31
0.0
  0
LINE
  5
3D4
330
1E
100
AcDbEntity
  8
0
100
AcDbLine
 10
151.5
 20
144.5458
 30
0.0
 11
153.0
 21
145.0458
 31
0.0
  0
LINE
  5
3D5
330
1E
100
AcDbEntity
  8
0
100
AcDbLine
 10
151.5
 20
144.5458
 30
0.0
 11
151.5
 21
143.1458
 31
0.0
  0
LINE
  5
3D6
330
1E
100
AcDbEntity
  8
0
100
AcDbLine
 10
153.0
 20
145.0458
 30
0.0
 11
154.0
 21
147.0458
 31
0.0
  0
LINE
  5
3D7
330
1E
100
AcDbEntity
  8
0
100
AcDbLine
 10
153.0
 20
145.0458
 30
0.0
 11
153.0
 21
143.6458
 31
0.0
  0
LINE
  5
3D8
330
1E
100
AcDbEntity
  8
0
100
AcDbLine
 10
159.0
 20
129.4457999999999
 30
0.0
 11
159.0
 21
138.7458
 31
0.0
  0
LINE
  5
3D9
330
1E
100
AcDbEntity
  8
0
100
AcDbLine
 10
159.0
 20
129.4457999999999
 30
0.0
 11
159.0
 21
118.6458
 31
0.0
  0
LINE
  5
3DA
330
1E
100
AcDbEntity
  8
0
100
AcDbLine
 10
154.4999999999999
 20
149.5458
 30
0.0
 11
156.4999999999999
 21
151.5458
 31
0.0
  0
LINE
  5
3DB
330
1E
100
AcDbEntity
  8
0
100
AcDbLine
 10
159.0
 20
138.7458
 30
0.0
 11
159.0
 21
146.0458
 31
0.0
  0
LINE
  5
3DC
330
1E
100
AcDbEntity
  8
0
100
AcDbLine
 10
159.0
 20
138.7458
 30
0.0
 11
159.0
 21
129.4457999999999
 31
0.0
  0
LINE
  5
3DD
330
1E
100
AcDbEntity
  8
0
100
AcDbLine
 10
159.0
 20
146.0458
 30
0.0
 11
159.0
 21
150.4457999999999
 31
0.0
  0
LINE
  5
3DE
330
1E
100
AcDbEntity
  8
0
100
AcDbLine
 10
159.0
 20
146.0458
 30
0.0
 11
159.0
 21
138.7458
 31
0.0
  0
LINE
  5
3DF
330
1E
100
AcDbEntity
  8
0
100
AcDbLine
 10
159.0
 20
150.4457999999999
 30
0.0
 11
159.0
 21
152.0458
 31
0.0
  0
LINE
  5
3E0
330
1E
100
AcDbEntity
  8
0
100
AcDbLine
 10
159.0
 20
150.4457999999999
 30
0.0
 11
159.0
 21
146.0458
 31
0.0
  0
LINE
  5
3E1
330
1E
100
AcDbEntity
  8
0
100
AcDbLine
 10
154.0
 20
147.0458
 30
0.0
 11
154.4999999999999
 21
149.5458
 31
0.0
  0
LINE
  5
3E2
330
1E
100
AcDbEntity
  8
0
100
AcDbLine
 10
159.0
 20
152.0458
 30
0.0
 11
159.0
 21
150.4457999999999
 31
0.0
  0
LINE
  5
3E3
330
1E
100
AcDbEntity
  8
0
100
AcDbLine
 10
156.4999999999999
 20
151.5458
 30
0.0
 11
159.0
 21
152.0458
 31
0.0
  0
LINE
  5
3E4
330
1E
100
AcDbEntity
  8
0
100
AcDbLine
 10
112.5
 20
123.5457999999999
 30
0.0
 11
113.0
 21
122.0458
 31
0.0
  0
LINE
  5
3E5
330
1E
100
AcDbEntity
  8
0
100
AcDbLine
 10
112.5
 20
123.5457999999999
 30
0.0
 11
112.5
 21
122.9458
 31
0.0
  0
LINE
  5
3E6
330
1E
100
AcDbEntity
  8
0
100
AcDbLine
 10
109.0
 20
122.0458
 30
0.0
 11
109.4999999999999
 21
123.5457999999999
 31
0.0
  0
LINE
  5
3E7
330
1E
100
AcDbEntity
  8
0
100
AcDbLine
 10
109.0
 20
122.0458
 30
0.0
 11
109.0
 21
121.5457999999999
 31
0.0
  0
LINE
  5
3E8
330
1E
100
AcDbEntity
  8
0
100
AcDbLine
 10
57.0
 20
122.5457999999999
 30
0.0
 11
58.5
 21
122.0458
 31
0.0
  0
LINE
  5
3E9
330
1E
100
AcDbEntity
  8
0
100
AcDbLine
 10
57.0
 20
122.5457999999999
 30
0.0
 11
57.0
 21
121.9458
 31
0.0
  0
LINE
  5
3EA
330
1E
100
AcDbEntity
  8
0
100
AcDbLine
 10
53.0
 20
111.2043
 30
0.0
 11
53.0
 21
110.9458
 31
0.0
  0
LINE
  5
3EB
330
1E
100
AcDbEntity
  8
0
100
AcDbLine
 10
53.0
 20
111.2043
 30
0.0
 11
53.0
 21
122.5457999999999
 31
0.0
  0
LINE
  5
3EC
330
1E
100
AcDbEntity
  8
0
100
AcDbLine
 10
35.0
 20
95.0458
 30
0.0
 11
47.0
 21
95.0458
 31
0.0
  0
LINE
  5
3ED
330
1E
100
AcDbEntity
  8
0
100
AcDbLine
 10
35.0
 20
95.0458
 30
0.0
 11
35.0
 21
95.44580000000001
 31
0.0
  0
LINE
  5
3EE
330
1E
100
AcDbEntity
  8
0
100
AcDbLine
 10
53.0
 20
92.04579999999999
 30
0.0
 11
53.5
 21
90.54579999999999
 31
0.0
  0
LINE
  5
3EF
330
1E
100
AcDbEntity
  8
0
100
AcDbLine
 10
53.0
 20
92.04579999999999
 30
0.0
 11
53.0
 21
92.5458
 31
0.0
  0
LINE
  5
3F0
330
1E
100
AcDbEntity
  8
0
100
AcDbLine
 10
32.0
 20
98.94580000000001
 30
0.0
 11
32.0
 21
101.0458
 31
0.0
  0
LINE
  5
3F1
330
1E
100
AcDbEntity
  8
0
100
AcDbLine
 10
32.0
 20
98.94580000000001
 30
0.0
 11
32.0
 21
97.04579999999999
 31
0.0
  0
LINE
  5
3F2
330
1E
100
AcDbEntity
  8
0
100
AcDbLine
 10
32.0
 20
98.94580000000001
 30
0.0
 11
32.0
 21
101.3457999999999
 31
0.0
  0
ENDSEC
  0
SECTION
  2
OBJECTS
  0
DICTIONARY
  5
C
330
0
100
AcDbDictionary
281
     1
  3
ACAD_GROUP
350
D
  3
ACAD_LAYOUT
350
19
  3
ACAD_MLINESTYLE
350
16
  3
ACAD_PLOTSETTINGS
350
18
  3
ACAD_PLOTSTYLENAME
350
E
  3
AcDbVariableDictionary
350
3F7
  0
DICTIONARY
  5
D
102
{ACAD_REACTORS
330
C
102
}
330
C
100
AcDbDictionary
281
     1
  0
DICTIONARY
  5
19
102
{ACAD_REACTORS
330
C
102
}
330
C
100
AcDbDictionary
281
     1
  3
Layout1
350
1D
  3
Model
350
21
  0
DICTIONARY
  5
16
102
{ACAD_REACTORS
330
C
102
}
330
C
100
AcDbDictionary
281
     1
  3
Standard
350
17
  0
DICTIONARY
  5
18
102
{ACAD_REACTORS
330
C
102
}
330
C
100
AcDbDictionary
281
     1
  0
ACDBDICTIONARYWDFLT
  5
E
102
{ACAD_REACTORS
330
C
102
}
330
C
100
AcDbDictionary
281
     1
  3
Normal
350
F
100
AcDbDictionaryWithDefault
340
F
  0
DICTIONARY
  5
3F7
102
{ACAD_REACTORS
330
C
102
}
330
C
100
AcDbDictionary
281
     1
  3
DIMASSOC
350
3F8
  0
LAYOUT
  5
1D
102
{ACAD_REACTORS
330
19
102
}
330
19
100
AcDbPlotSettings
  1

  2
hp deskjet 980c series
  4

  6

 40
0.0
 41
0.0
 42
0.0
 43
0.0
 44
0.0
 45
0.0
 46
0.0
 47
0.0
 48
0.0
 49
0.0
140
0.0
141
0.0
142
1.0
143
1.0
 70
   688
 72
     0
 73
     0
 74
     5
  7

 75
    16
147
1.0
148
0.0
149
0.0
100
AcDbLayout
  1
Layout1
 70
     1
 71
     1
 10
0.0
 20
0.0
 11
12.0
 21
9.0
 12
0.0
 22
0.0
 32
0.0
 14
1.000000000000000E+20
 24
1.000000000000000E+20
 34
1.000000000000000E+20
 15
-1.000000000000000E+20
 25
-1.000000000000000E+20
 35
-1.000000000000000E+20
146
0.0
 13
0.0
 23
0.0
 33
0.0
 16
1.0
 26
0.0
 36
0.0
 17
0.0
 27
1.0
 37
0.0
 76
     0
330
1A
  0
LAYOUT
  5
21
102
{ACAD_REACTORS
330
19
102
}
330
19
100
AcDbPlotSettings
  1

  2
hp deskjet 980c series
  4

  6

 40
0.0
 41
0.0
 42
0.0
 43
0.0
 44
0.0
 45
0.0
 46
0.0
 47
0.0
 48
0.0
 49
0.0
140
0.0
141
0.0
142
1.0
143
1.0
 70
  1712
 72
     0
 73
     0
 74
     0
  7

 75
     0
147
1.0
148
0.0
149
0.0
100
AcDbLayout
  1
Model
 70
     1
 71
     0
 10
0.0
 20
0.0
 11
12.0
 21
9.0
 12
0.0
 22
0.0
 32
0.0
 14
0.0
 24
0.0
 34
0.0
 15
0.0
 25
0.0
 35
0.0
146
0.0
 13
0.0
 23
0.0
 33
0.0
 16
1.0
 26
0.0
 36
0.0
 17
0.0
 27
1.0
 37
0.0
 76
     0
330
1E
  0
MLINESTYLE
  5
17
102
{ACAD_REACTORS
330
16
102
}
330
16
100
AcDbMlineStyle
  2
STANDARD
 70
     0
  3

 62
   256
 51
90.0
 52
90.0
 71
     2
 49
0.5
 62
   256
  6
BYLAYER
 49
-0.5
 62
   256
  6
BYLAYER
  0
ACDBPLACEHOLDER
  5
F
102
{ACAD_REACTORS
330
E
102
}
330
E
  0
DICTIONARYVAR
  5
3F8
102
{ACAD_REACTORS
330
3F7
102
}
330
3F7
100
DictionaryVariables
280
     0
  1
1
  0
ENDSEC
  0
EOF
