  0
SECTION
  2
HEADER
  9
$ACADVER
  1
AC1015
  9
$ACADMAINTVER
 70
    13
  9
$DWGCODEPAGE
  3
ANSI_1252
  9
$INSBASE
 10
0.0
 20
0.0
 30
0.0
  9
$EXTMIN
 10
-0.0000000000000072
 20
-0.0457999999999905
 30
0.0
  9
$EXTMAX
 10
260.0
 20
152.0458
 30
0.0
  9
$LIMMIN
 10
0.0
 20
0.0
  9
$LIMMAX
 10
12.0
 20
9.0
  9
$ORTHOMODE
 70
     0
  9
$REGENMODE
 70
     1
  9
$FILLMODE
 70
     1
  9
$QTEXTMODE
 70
     0
  9
$MIRRTEXT
 70
     1
  9
$LTSCALE
 40
1.0
  9
$ATTMODE
 70
     1
  9
$TEXTSIZE
 40
0.2
  9
$TRACEWID
 40
0.05
  9
$TEXTSTYLE
  7
Standard
  9
$CLAYER
  8
0
  9
$CELTYPE
  6
Continuous
  9
$CECOLOR
 62
   256
  9
$CELTSCALE
 40
1.0
  9
$DISPSILH
 70
     0
  9
$DIMSCALE
 40
1.0
  9
$DIMASZ
 40
0.18
  9
$DIMEXO
 40
0.0625
  9
$DIMDLI
 40
0.38
  9
$DIMRND
 40
0.0
  9
$DIMDLE
 40
0.0
  9
$DIMEXE
 40
0.18
  9
$DIMTP
 40
0.0
  9
$DIMTM
 40
0.0
  9
$DIMTXT
 40
0.18
  9
$DIMCEN
 40
0.09
  9
$DIMTSZ
 40
0.0
  9
$DIMTOL
 70
     0
  9
$DIMLIM
 70
     0
  9
$DIMTIH
 70
     1
  9
$DIMTOH
 70
     1
  9
$DIMSE1
 70
     0
  9
$DIMSE2
 70
     0
  9
$DIMTAD
 70
     0
  9
$DIMZIN
 70
     0
  9
$DIMBLK
  1

  9
$DIMASO
 70
     1
  9
$DIMSHO
 70
     1
  9
$DIMPOST
  1

  9
$DIMAPOST
  1

  9
$DIMALT
 70
     0
  9
$DIMALTD
 70
     2
  9
$DIMALTF
 40
25.4
  9
$DIMLFAC
 40
1.0
  9
$DIMTOFL
 70
     0
  9
$DIMTVP
 40
0.0
  9
$DIMTIX
 70
     0
  9
$DIMSOXD
 70
     0
  9
$DIMSAH
 70
     0
  9
$DIMBLK1
  1

  9
$DIMBLK2
  1

  9
$DIMSTYLE
  2
Standard
  9
$DIMCLRD
 70
     0
  9
$DIMCLRE
 70
     0
  9
$DIMCLRT
 70
     0
  9
$DIMTFAC
 40
1.0
  9
$DIMGAP
 40
0.09
  9
$DIMJUST
 70
     0
  9
$DIMSD1
 70
     0
  9
$DIMSD2
 70
     0
  9
$DIMTOLJ
 70
     1
  9
$DIMTZIN
 70
     0
  9
$DIMALTZ
 70
     0
  9
$DIMALTTZ
 70
     0
  9
$DIMUPT
 70
     0
  9
$DIMDEC
 70
     4
  9
$DIMTDEC
 70
     4
  9
$DIMALTU
 70
     2
  9
$DIMALTTD
 70
     2
  9
$DIMTXSTY
  7
Standard
  9
$DIMAUNIT
 70
     0
  9
$DIMADEC
 70
     0
  9
$DIMALTRND
 40
0.0
  9
$DIMAZIN
 70
     0
  9
$DIMDSEP
 70
    46
  9
$DIMATFIT
 70
     3
  9
$DIMFRAC
 70
     0
  9
$DIMLDRBLK
  1

  9
$DIMLUNIT
 70
     2
  9
$DIMLWD
 70
    -2
  9
$DIMLWE
 70
    -2
  9
$DIMTMOVE
 70
     0
  9
$LUNITS
 70
     2
  9
$LUPREC
 70
     4
  9
$SKETCHINC
 40
0.1
  9
$FILLETRAD
 40
0.0
  9
$AUNITS
 70
     0
  9
$AUPREC
 70
     0
  9
$MENU
  1
.
  9
$ELEVATION
 40
0.0
  9
$PELEVATION
 40
0.0
  9
$THICKNESS
 40
0.0
  9
$LIMCHECK
 70
     0
  9
$CHAMFERA
 40
0.0
  9
$CHAMFERB
 40
0.0
  9
$CHAMFERC
 40
0.0
  9
$CHAMFERD
 40
0.0
  9
$SKPOLY
 70
     0
  9
$TDCREATE
 40
2454751.894230856
  9
$TDUCREATE
 40
2454751.810897523
  9
$TDUPDATE
 40
2454751.909519131
  9
$TDUUPDATE
 40
2454751.826185798
  9
$TDINDWG
 40
0.0152884491
  9
$TDUSRTIMER
 40
0.0152884491
  9
$USRTIMER
 70
     1
  9
$ANGBASE
 50
0.0
  9
$ANGDIR
 70
     0
  9
$PDMODE
 70
     0
  9
$PDSIZE
 40
0.0
  9
$PLINEWID
 40
0.0
  9
$SPLFRAME
 70
     0
  9
$SPLINETYPE
 70
     6
  9
$SPLINESEGS
 70
     8
  9
$HANDSEED
  5
768
  9
$SURFTAB1
 70
     6
  9
$SURFTAB2
 70
     6
  9
$SURFTYPE
 70
     6
  9
$SURFU
 70
     6
  9
$SURFV
 70
     6
  9
$UCSBASE
  2

  9
$UCSNAME
  2

  9
$UCSORG
 10
0.0
 20
0.0
 30
0.0
  9
$UCSXDIR
 10
1.0
 20
0.0
 30
0.0
  9
$UCSYDIR
 10
0.0
 20
1.0
 30
0.0
  9
$UCSORTHOREF
  2

  9
$UCSORTHOVIEW
 70
     1
  9
$UCSORGTOP
 10
0.0
 20
0.0
 30
0.0
  9
$UCSORGBOTTOM
 10
0.0
 20
0.0
 30
0.0
  9
$UCSORGLEFT
 10
0.0
 20
0.0
 30
0.0
  9
$UCSORGRIGHT
 10
0.0
 20
0.0
 30
0.0
  9
$UCSORGFRONT
 10
0.0
 20
0.0
 30
0.0
  9
$UCSORGBACK
 10
0.0
 20
0.0
 30
0.0
  9
$PUCSBASE
  2

  9
$PUCSNAME
  2

  9
$PUCSORG
 10
0.0
 20
0.0
 30
0.0
  9
$PUCSXDIR
 10
1.0
 20
0.0
 30
0.0
  9
$PUCSYDIR
 10
0.0
 20
1.0
 30
0.0
  9
$PUCSORTHOREF
  2

  9
$PUCSORTHOVIEW
 70
     0
  9
$PUCSORGTOP
 10
0.0
 20
0.0
 30
0.0
  9
$PUCSORGBOTTOM
 10
0.0
 20
0.0
 30
0.0
  9
$PUCSORGLEFT
 10
0.0
 20
0.0
 30
0.0
  9
$PUCSORGRIGHT
 10
0.0
 20
0.0
 30
0.0
  9
$PUCSORGFRONT
 10
0.0
 20
0.0
 30
0.0
  9
$PUCSORGBACK
 10
0.0
 20
0.0
 30
0.0
  9
$USERI1
 70
     0
  9
$USERI2
 70
     0
  9
$USERI3
 70
     0
  9
$USERI4
 70
     0
  9
$USERI5
 70
     0
  9
$USERR1
 40
0.0
  9
$USERR2
 40
0.0
  9
$USERR3
 40
0.0
  9
$USERR4
 40
0.0
  9
$USERR5
 40
0.0
  9
$WORLDVIEW
 70
     1
  9
$SHADEDGE
 70
     3
  9
$SHADEDIF
 70
    70
  9
$TILEMODE
 70
     1
  9
$MAXACTVP
 70
    64
  9
$PINSBASE
 10
0.0
 20
0.0
 30
0.0
  9
$PLIMCHECK
 70
     0
  9
$PEXTMIN
 10
1.000000000000000E+20
 20
1.000000000000000E+20
 30
1.000000000000000E+20
  9
$PEXTMAX
 10
-1.000000000000000E+20
 20
-1.000000000000000E+20
 30
-1.000000000000000E+20
  9
$PLIMMIN
 10
0.0
 20
0.0
  9
$PLIMMAX
 10
12.0
 20
9.0
  9
$UNITMODE
 70
     0
  9
$VISRETAIN
 70
     1
  9
$PLINEGEN
 70
     0
  9
$PSLTSCALE
 70
     1
  9
$TREEDEPTH
 70
  3020
  9
$CMLSTYLE
  2
Standard
  9
$CMLJUST
 70
     0
  9
$CMLSCALE
 40
1.0
  9
$PROXYGRAPHICS
 70
     1
  9
$MEASUREMENT
 70
     0
  9
$CELWEIGHT
370
    -1
  9
$ENDCAPS
280
     0
  9
$JOINSTYLE
280
     0
  9
$LWDISPLAY
290
     0
  9
$INSUNITS
 70
     0
  9
$HYPERLINKBASE
  1

  9
$STYLESHEET
  1

  9
$XEDIT
290
     1
  9
$CEPSNTYPE
380
     0
  9
$PSTYLEMODE
290
     1
  9
$FINGERPRINTGUID
  2
{0079B04B-1B46-4D41-A938-B6467D608A8E}
  9
$VERSIONGUID
  2
{3B979DEE-9E4E-4CBC-BBB4-5B35E79A4C11}
  9
$EXTNAMES
290
     1
  9
$PSVPSCALE
 40
0.0
  9
$OLESTARTUP
290
     0
  0
ENDSEC
  0
SECTION
  2
CLASSES
  0
CLASS
  1
ACDBDICTIONARYWDFLT
  2
AcDbDictionaryWithDefault
  3
AutoCAD 2000
 90
        0
280
     0
281
     0
  0
CLASS
  1
ACDBPLACEHOLDER
  2
AcDbPlaceHolder
  3
AutoCAD 2000
 90
        0
280
     0
281
     0
  0
CLASS
  1
LAYOUT
  2
AcDbLayout
  3
AutoCAD 2000
 90
        0
280
     0
281
     0
  0
CLASS
  1
DICTIONARYVAR
  2
AcDbDictionaryVar
  3
AutoCAD 2000
 90
        0
280
     0
281
     0
  0
ENDSEC
  0
SECTION
  2
TABLES
  0
TABLE
  2
VPORT
  5
8
330
0
100
AcDbSymbolTable
 70
     4
  0
VPORT
  5
767
330
8
100
AcDbSymbolTableRecord
100
AcDbViewportTableRecord
  2
*Active
 70
     0
 10
0.0
 20
0.0
 11
1.0
 21
1.0
 12
130.0
 22
76.00000000000001
 13
0.0
 23
0.0
 14
1.0
 24
1.0
 15
0.0
 25
0.0
 16
0.0
 26
0.0
 36
1.0
 17
0.0
 27
0.0
 37
0.0
 40
153.2585432225064
 41
2.078104993597951
 42
50.0
 43
0.0
 44
0.0
 50
0.0
 51
0.0
 71
     0
 72
   100
 73
     1
 74
     3
 75
     0
 76
     0
 77
     0
 78
     0
281
     0
 65
     1
110
0.0
120
0.0
130
0.0
111
1.0
121
0.0
131
0.0
112
0.0
122
1.0
132
0.0
 79
     1
146
0.0
  0
ENDTAB
  0
TABLE
  2
LTYPE
  5
5
330
0
100
AcDbSymbolTable
 70
     1
  0
LTYPE
  5
13
330
5
100
AcDbSymbolTableRecord
100
AcDbLinetypeTableRecord
  2
ByBlock
 70
     0
  3

 72
    65
 73
     0
 40
0.0
  0
LTYPE
  5
14
330
5
100
AcDbSymbolTableRecord
100
AcDbLinetypeTableRecord
  2
ByLayer
 70
     0
  3

 72
    65
 73
     0
 40
0.0
  0
LTYPE
  5
15
330
5
100
AcDbSymbolTableRecord
100
AcDbLinetypeTableRecord
  2
Continuous
 70
     0
  3
Solid line
 72
    65
 73
     0
 40
0.0
  0
ENDTAB
  0
TABLE
  2
LAYER
  5
2
330
0
100
AcDbSymbolTable
 70
     1
  0
LAYER
  5
10
330
2
100
AcDbSymbolTableRecord
100
AcDbLayerTableRecord
  2
0
 70
     0
 62
     7
  6
Continuous
370
    -3
390
F
  0
ENDTAB
  0
TABLE
  2
STYLE
  5
3
330
0
100
AcDbSymbolTable
 70
     1
  0
STYLE
  5
11
330
3
100
AcDbSymbolTableRecord
100
AcDbTextStyleTableRecord
  2
Standard
 70
     0
 40
0.0
 41
1.0
 50
0.0
 71
     0
 42
0.2
  3
txt
  4

  0
ENDTAB
  0
TABLE
  2
VIEW
  5
6
330
0
100
AcDbSymbolTable
 70
     0
  0
ENDTAB
  0
TABLE
  2
UCS
  5
7
330
0
100
AcDbSymbolTable
 70
     0
  0
ENDTAB
  0
TABLE
  2
APPID
  5
9
330
0
100
AcDbSymbolTable
 70
     1
  0
APPID
  5
12
330
9
100
AcDbSymbolTableRecord
100
AcDbRegAppTableRecord
  2
ACAD
 70
     0
  0
ENDTAB
  0
TABLE
  2
DIMSTYLE
  5
A
330
0
100
AcDbSymbolTable
 70
     1
100
AcDbDimStyleTable
 71
     0
  0
DIMSTYLE
105
59E
330
A
100
AcDbSymbolTableRecord
100
AcDbDimStyleTableRecord
  2
Standard
 70
     0
340
11
  0
ENDTAB
  0
TABLE
  2
BLOCK_RECORD
  5
1
330
0
100
AcDbSymbolTable
 70
     0
  0
BLOCK_RECORD
  5
1E
330
1
100
AcDbSymbolTableRecord
100
AcDbBlockTableRecord
  2
*Model_Space
340
21
  0
BLOCK_RECORD
  5
1A
330
1
100
AcDbSymbolTableRecord
100
AcDbBlockTableRecord
  2
*Paper_Space
340
1D
  0
ENDTAB
  0
ENDSEC
  0
SECTION
  2
BLOCKS
  0
BLOCK
  5
1F
330
1E
100
AcDbEntity
  8
0
100
AcDbBlockBegin
  2
*Model_Space
 70
     0
 10
0.0
 20
0.0
 30
0.0
  3
*Model_Space
  1

  0
ENDBLK
  5
20
330
1E
100
AcDbEntity
  8
0
100
AcDbBlockEnd
  0
BLOCK
  5
1B
330
1A
100
AcDbEntity
 67
     1
  8
0
100
AcDbBlockBegin
  2
*Paper_Space
 70
     0
 10
0.0
 20
0.0
 30
0.0
  3
*Paper_Space
  1

  0
ENDBLK
  5
1C
330
1A
100
AcDbEntity
 67
     1
  8
0
100
AcDbBlockEnd
  0
ENDSEC
  0
SECTION
  2
ENTITIES
  0
LINE
  5
22
330
1E
100
AcDbEntity
  8
0
100
AcDbLine
 10
1.599999999999989
 20
95.44580000000001
 30
0.0
 11
5.99999999999999
 21
84.64579999999999
 31
0.0
  0
LINE
  5
23
330
1E
100
AcDbEntity
  8
0
100
AcDbLine
 10
13.3
 20
75.3458
 30
0.0
 11
22.6
 21
68.0458
 31
0.0
  0
LINE
  5
24
330
1E
100
AcDbEntity
  8
0
100
AcDbLine
 10
12.5
 20
88.4458
 30
0.0
 11
18.6
 21
80.64579999999999
 31
0.0
  0
LINE
  5
25
330
1E
100
AcDbEntity
  8
0
100
AcDbLine
 10
12.09999999999999
 20
88.14579999999999
 30
0.0
 11
18.2
 21
80.2458
 31
0.0
  0
LINE
  5
26
330
1E
100
AcDbEntity
  8
0
100
AcDbLine
 10
5.99999999999999
 20
84.64579999999999
 30
0.0
 11
13.3
 21
75.3458
 31
0.0
  0
LINE
  5
27
330
1E
100
AcDbEntity
  8
0
100
AcDbLine
 10
8.899999999999989
 20
97.4458
 30
0.0
 11
12.5
 21
88.4458
 31
0.0
  0
LINE
  5
28
330
1E
100
AcDbEntity
  8
0
100
AcDbLine
 10
8.399999999999989
 20
97.24580000000001
 30
0.0
 11
12.09999999999999
 21
88.14579999999999
 31
0.0
  0
LINE
  5
29
330
1E
100
AcDbEntity
  8
0
100
AcDbLine
 10
1.599999999999989
 20
95.44580000000001
 30
0.0
 11
5.99999999999999
 21
84.64579999999999
 31
0.0
  0
LINE
  5
2A
330
1E
100
AcDbEntity
  8
0
100
AcDbLine
 10
16.5
 20
105.7458
 30
0.0
 11
19.0
 21
105.2458
 31
0.0
  0
LINE
  5
2C
330
1E
100
AcDbEntity
  8
0
100
AcDbLine
 10
18.6
 20
80.64579999999999
 30
0.0
 11
26.4
 21
74.54579999999999
 31
0.0
  0
LINE
  5
2D
330
1E
100
AcDbEntity
  8
0
100
AcDbLine
 10
18.2
 20
80.2458
 30
0.0
 11
26.1
 21
74.14579999999999
 31
0.0
  0
LINE
  5
2E
330
1E
100
AcDbEntity
  8
0
100
AcDbLine
 10
19.0
 20
105.2458
 30
0.0
 11
22.0
 21
105.0458
 31
0.0
  0
LINE
  5
31
330
1E
100
AcDbEntity
  8
0
100
AcDbLine
 10
22.6
 20
68.0458
 30
0.0
 11
33.39999999999999
 21
63.6458
 31
0.0
  0
LINE
  5
32
330
1E
100
AcDbEntity
  8
0
100
AcDbLine
 10
26.4
 20
74.54579999999999
 30
0.0
 11
35.4
 21
70.9458
 31
0.0
  0
LINE
  5
33
330
1E
100
AcDbEntity
  8
0
100
AcDbLine
 10
26.1
 20
74.14579999999999
 30
0.0
 11
35.2
 21
70.4458
 31
0.0
  0
LINE
  5
34
330
1E
100
AcDbEntity
  8
0
100
AcDbLine
 10
26.0
 20
104.7458
 30
0.0
 11
28.88609999999999
 21
103.8162
 31
0.0
  0
LINE
  5
35
330
1E
100
AcDbEntity
  8
0
100
AcDbLine
 10
25.998
 20
105.9458
 30
0.0
 11
29.5421
 21
104.8993999999999
 31
0.0
  0
LINE
  5
36
330
1E
100
AcDbEntity
  8
0
100
AcDbLine
 10
22.0229
 20
106.2458
 30
0.0
 11
25.998
 21
105.9458
 31
0.0
  0
LINE
  5
37
330
1E
100
AcDbEntity
  8
0
100
AcDbLine
 10
22.0
 20
105.0458
 30
0.0
 11
26.0
 21
104.7458
 31
0.0
  0
LINE
  5
38
330
1E
100
AcDbEntity
  8
0
100
AcDbLine
 10
20.12519999999999
 20
106.2458
 30
0.0
 11
22.0229
 21
106.2458
 31
0.0
  0
LINE
  5
39
330
1E
100
AcDbEntity
  8
0
100
AcDbLine
 10
18.62529999999999
 20
106.2458
 30
0.0
 11
20.12519999999999
 21
106.2458
 31
0.0
  0
LINE
  5
3A
330
1E
100
AcDbEntity
  8
0
100
AcDbLine
 10
17.5292
 20
106.2458
 30
0.0
 11
18.62529999999999
 21
106.2458
 31
0.0
  0
LINE
  5
3B
330
1E
100
AcDbEntity
  8
0
100
AcDbLine
 10
16.8754
 20
106.2458
 30
0.0
 11
17.5292
 21
106.2458
 31
0.0
  0
LINE
  5
3C
330
1E
100
AcDbEntity
  8
0
100
AcDbLine
 10
16.3562
 20
106.2458
 30
0.0
 11
16.8754
 21
106.2458
 31
0.0
  0
LINE
  5
3D
330
1E
100
AcDbEntity
  8
0
100
AcDbLine
 10
7.49999999999999
 20
107.0458
 30
0.0
 11
8.899999999999989
 21
97.4458
 31
0.0
  0
LINE
  5
3E
330
1E
100
AcDbEntity
  8
0
100
AcDbLine
 10
7.49999999999999
 20
107.0458
 30
0.0
 11
8.899999999999989
 21
116.6457999999999
 31
0.0
  0
LINE
  5
3F
330
1E
100
AcDbEntity
  8
0
100
AcDbLine
 10
6.99999999999999
 20
107.0458
 30
0.0
 11
8.399999999999989
 21
97.24580000000001
 31
0.0
  0
LINE
  5
40
330
1E
100
AcDbEntity
  8
0
100
AcDbLine
 10
6.99999999999999
 20
107.0458
 30
0.0
 11
8.399999999999989
 21
116.8457999999999
 31
0.0
  0
LINE
  5
41
330
1E
100
AcDbEntity
  8
0
100
AcDbLine
 10
-0.0000000000000072
 20
107.0458
 30
0.0
 11
1.599999999999989
 21
95.44580000000001
 31
0.0
  0
LINE
  5
42
330
1E
100
AcDbEntity
  8
0
100
AcDbLine
 10
-0.0000000000000072
 20
107.0458
 30
0.0
 11
1.599999999999989
 21
118.6458
 31
0.0
  0
LINE
  5
43
330
1E
100
AcDbEntity
  8
0
100
AcDbLine
 10
8.899999999999989
 20
116.6457999999999
 30
0.0
 11
12.5
 21
125.6458
 31
0.0
  0
LINE
  5
44
330
1E
100
AcDbEntity
  8
0
100
AcDbLine
 10
8.399999999999989
 20
116.8457999999999
 30
0.0
 11
12.09999999999999
 21
125.9458
 31
0.0
  0
LINE
  5
45
330
1E
100
AcDbEntity
  8
0
100
AcDbLine
 10
1.599999999999989
 20
118.6458
 30
0.0
 11
5.99999999999999
 21
129.4457999999999
 31
0.0
  0
LINE
  5
46
330
1E
100
AcDbEntity
  8
0
100
AcDbLine
 10
12.5
 20
125.6458
 30
0.0
 11
18.6
 21
133.4457999999999
 31
0.0
  0
LINE
  5
47
330
1E
100
AcDbEntity
  8
0
100
AcDbLine
 10
12.09999999999999
 20
125.9458
 30
0.0
 11
18.2
 21
133.8457999999999
 31
0.0
  0
LINE
  5
48
330
1E
100
AcDbEntity
  8
0
100
AcDbLine
 10
5.99999999999999
 20
129.4457999999999
 30
0.0
 11
13.3
 21
138.7458
 31
0.0
  0
LINE
  5
49
330
1E
100
AcDbEntity
  8
0
100
AcDbLine
 10
1.599999999999989
 20
118.6458
 30
0.0
 11
5.99999999999999
 21
129.4457999999999
 31
0.0
  0
LINE
  5
4A
330
1E
100
AcDbEntity
  8
0
100
AcDbLine
 10
13.3
 20
138.7458
 30
0.0
 11
22.6
 21
146.0458
 31
0.0
  0
LINE
  5
4B
330
1E
100
AcDbEntity
  8
0
100
AcDbLine
 10
16.0
 20
107.8457999999999
 30
0.0
 11
16.0
 21
107.0458
 31
0.0
  0
LINE
  5
4C
330
1E
100
AcDbEntity
  8
0
100
AcDbLine
 10
16.0
 20
107.8457999999999
 30
0.0
 11
16.5
 21
108.3458
 31
0.0
  0
LINE
  5
4D
330
1E
100
AcDbEntity
  8
0
100
AcDbLine
 10
16.0
 20
107.8457999999999
 30
0.0
 11
16.3562
 21
107.8457999999999
 31
0.0
  0
LINE
  5
4E
330
1E
100
AcDbEntity
  8
0
100
AcDbLine
 10
20.12519999999999
 20
107.8457999999999
 30
0.0
 11
22.0229
 21
107.8457999999999
 31
0.0
  0
LINE
  5
4F
330
1E
100
AcDbEntity
  8
0
100
AcDbLine
 10
18.62529999999999
 20
107.8457999999999
 30
0.0
 11
20.12519999999999
 21
107.8457999999999
 31
0.0
  0
LINE
  5
50
330
1E
100
AcDbEntity
  8
0
100
AcDbLine
 10
17.5292
 20
107.8457999999999
 30
0.0
 11
18.62529999999999
 21
107.8457999999999
 31
0.0
  0
LINE
  5
54
330
1E
100
AcDbEntity
  8
0
100
AcDbLine
 10
16.8754
 20
107.8457999999999
 30
0.0
 11
17.5292
 21
107.8457999999999
 31
0.0
  0
LINE
  5
55
330
1E
100
AcDbEntity
  8
0
100
AcDbLine
 10
16.3562
 20
107.8457999999999
 30
0.0
 11
16.8754
 21
107.8457999999999
 31
0.0
  0
LINE
  5
56
330
1E
100
AcDbEntity
  8
0
100
AcDbLine
 10
19.0
 20
108.8457999999999
 30
0.0
 11
22.0
 21
109.0457999999999
 31
0.0
  0
LINE
  5
57
330
1E
100
AcDbEntity
  8
0
100
AcDbLine
 10
16.5
 20
108.3458
 30
0.0
 11
19.0
 21
108.8457999999999
 31
0.0
  0
LINE
  5
58
330
1E
100
AcDbEntity
  8
0
100
AcDbLine
 10
25.998
 20
108.1458
 30
0.0
 11
29.5421
 21
109.1922
 31
0.0
  0
LINE
  5
59
330
1E
100
AcDbEntity
  8
0
100
AcDbLine
 10
22.0229
 20
107.8457999999999
 30
0.0
 11
25.998
 21
108.1458
 31
0.0
  0
LINE
  5
5A
330
1E
100
AcDbEntity
  8
0
100
AcDbLine
 10
18.6
 20
133.4457999999999
 30
0.0
 11
26.4
 21
139.5458
 31
0.0
  0
LINE
  5
5B
330
1E
100
AcDbEntity
  8
0
100
AcDbLine
 10
18.2
 20
133.8457999999999
 30
0.0
 11
26.1
 21
139.9457999999999
 31
0.0
  0
LINE
  5
5C
330
1E
100
AcDbEntity
  8
0
100
AcDbLine
 10
22.6
 20
146.0458
 30
0.0
 11
33.39999999999999
 21
150.4457999999999
 31
0.0
  0
LINE
  5
5E
330
1E
100
AcDbEntity
  8
0
100
AcDbLine
 10
26.4
 20
139.5458
 30
0.0
 11
35.4
 21
143.1458
 31
0.0
  0
LINE
  5
5F
330
1E
100
AcDbEntity
  8
0
100
AcDbLine
 10
26.1
 20
139.9457999999999
 30
0.0
 11
35.2
 21
143.6458
 31
0.0
  0
LINE
  5
61
330
1E
100
AcDbEntity
  8
0
100
AcDbLine
 10
26.0
 20
109.3458
 30
0.0
 11
28.88609999999999
 21
110.2754
 31
0.0
  0
LINE
  5
62
330
1E
100
AcDbEntity
  8
0
100
AcDbLine
 10
22.0
 20
109.0457999999999
 30
0.0
 11
26.0
 21
109.3458
 31
0.0
  0
LINE
  5
63
330
1E
100
AcDbEntity
  8
0
100
AcDbLine
 10
16.0
 20
107.0458
 30
0.0
 11
16.0
 21
106.2458
 31
0.0
  0
LINE
  5
64
330
1E
100
AcDbEntity
  8
0
100
AcDbLine
 10
16.0
 20
107.0458
 30
0.0
 11
16.0
 21
107.8457999999999
 31
0.0
  0
LINE
  5
65
330
1E
100
AcDbEntity
  8
0
100
AcDbLine
 10
16.0
 20
106.2458
 30
0.0
 11
16.0
 21
107.0458
 31
0.0
  0
LINE
  5
66
330
1E
100
AcDbEntity
  8
0
100
AcDbLine
 10
16.0
 20
106.2458
 30
0.0
 11
16.3562
 21
106.2458
 31
0.0
  0
LINE
  5
67
330
1E
100
AcDbEntity
  8
0
100
AcDbLine
 10
16.0
 20
106.2458
 30
0.0
 11
16.5
 21
105.7458
 31
0.0
  0
LINE
  5
68
330
1E
100
AcDbEntity
  8
0
100
AcDbLine
 10
35.4
 20
70.9458
 30
0.0
 11
45.0
 21
69.54579999999999
 31
0.0
  0
LINE
  5
69
330
1E
100
AcDbEntity
  8
0
100
AcDbLine
 10
35.2
 20
70.4458
 30
0.0
 11
45.0
 21
69.0458
 31
0.0
  0
LINE
  5
6A
330
1E
100
AcDbEntity
  8
0
100
AcDbLine
 10
33.39999999999999
 20
63.6458
 30
0.0
 11
45.0
 21
62.04579999999999
 31
0.0
  0
LINE
  5
6B
330
1E
100
AcDbEntity
  8
0
100
AcDbLine
 10
40.6
 20
90.64579999999999
 30
0.0
 11
41.92055303152599
 21
90.46572458661009
 31
0.0
  0
LINE
  5
6C
330
1E
100
AcDbEntity
  8
0
100
AcDbLine
 10
40.6
 20
90.64579999999999
 30
0.0
 11
41.92055303152599
 21
90.46572458661009
 31
0.0
  0
LINE
  5
71
330
1E
100
AcDbEntity
  8
0
100
AcDbLine
 10
33.0
 20
95.0458
 30
0.0
 11
36.5
 21
92.34579999999999
 31
0.0
  0
LINE
  5
73
330
1E
100
AcDbEntity
  8
0
100
AcDbLine
 10
38.39999999999999
 20
95.64579999999999
 30
0.0
 11
40.2492
 21
93.65299999999999
 31
0.0
  0
LINE
  5
74
330
1E
100
AcDbEntity
  8
0
100
AcDbLine
 10
40.2492
 20
93.65299999999999
 30
0.0
 11
41.7704
 21
90.93189999999999
 31
0.0
  0
LINE
  5
75
330
1E
100
AcDbEntity
  8
0
100
AcDbLine
 10
36.5
 20
98.5458
 30
0.0
 11
39.0
 21
96.62350000000001
 31
0.0
  0
LINE
  5
76
330
1E
100
AcDbEntity
  8
0
100
AcDbLine
 10
35.7
 20
97.7458
 30
0.0
 11
38.39999999999999
 21
95.64579999999999
 31
0.0
  0
LINE
  5
77
330
1E
100
AcDbEntity
  8
0
100
AcDbLine
 10
39.0
 20
96.62350000000001
 30
0.0
 11
41.00979999999999
 21
94.34180000000001
 31
0.0
  0
LINE
  5
78
330
1E
100
AcDbEntity
  8
0
100
AcDbLine
 10
39.8
 20
97.94580000000001
 30
0.0
 11
42.29999999999999
 21
96.94580000000001
 31
0.0
  0
LINE
  5
7A
330
1E
100
AcDbEntity
  8
0
100
AcDbLine
 10
33.3
 20
95.3458
 30
0.0
 11
36.79999999999999
 21
92.7458
 31
0.0
  0
LINE
  5
7B
330
1E
100
AcDbEntity
  8
0
100
AcDbLine
 10
36.79999999999999
 20
92.7458
 30
0.0
 11
40.8
 21
91.1458
 31
0.0
  0
LINE
  5
7C
330
1E
100
AcDbEntity
  8
0
100
AcDbLine
 10
33.0
 20
95.0458
 30
0.0
 11
36.5
 21
92.34579999999999
 31
0.0
  0
LINE
  5
7D
330
1E
100
AcDbEntity
  8
0
100
AcDbLine
 10
36.5
 20
92.34579999999999
 30
0.0
 11
40.6
 21
90.64579999999999
 31
0.0
  0
LINE
  5
7E
330
1E
100
AcDbEntity
  8
0
100
AcDbLine
 10
36.5
 20
92.34579999999999
 30
0.0
 11
40.6
 21
90.64579999999999
 31
0.0
  0
LINE
  5
7F
330
1E
100
AcDbEntity
  8
0
100
AcDbLine
 10
43.0
 20
84.04580000000001
 30
0.0
 11
43.2
 21
81.0458
 31
0.0
  0
LINE
  5
86
330
1E
100
AcDbEntity
  8
0
100
AcDbLine
 10
43.2
 20
81.0458
 30
0.0
 11
43.7
 21
78.5458
 31
0.0
  0
LINE
  5
87
330
1E
100
AcDbEntity
  8
0
100
AcDbLine
 10
43.7
 20
78.5458
 30
0.0
 11
44.2
 21
78.0458
 31
0.0
  0
LINE
  5
88
330
1E
100
AcDbEntity
  8
0
100
AcDbLine
 10
45.0
 20
69.54579999999999
 30
0.0
 11
54.6
 21
70.9458
 31
0.0
  0
LINE
  5
89
330
1E
100
AcDbEntity
  8
0
100
AcDbLine
 10
45.0
 20
69.0458
 30
0.0
 11
54.8
 21
70.4458
 31
0.0
  0
LINE
  5
8A
330
1E
100
AcDbEntity
  8
0
100
AcDbLine
 10
45.0
 20
62.04579999999999
 30
0.0
 11
56.6
 21
63.6458
 31
0.0
  0
LINE
  5
8B
330
1E
100
AcDbEntity
  8
0
100
AcDbLine
 10
45.8
 20
78.0458
 30
0.0
 11
45.8
 21
78.402
 31
0.0
  0
LINE
  5
8C
330
1E
100
AcDbEntity
  8
0
100
AcDbLine
 10
45.8
 20
78.0458
 30
0.0
 11
46.29999999999999
 21
78.5458
 31
0.0
  0
LINE
  5
8D
330
1E
100
AcDbEntity
  8
0
100
AcDbLine
 10
45.0
 20
78.0458
 30
0.0
 11
45.8
 21
78.0458
 31
0.0
  0
LINE
  5
8E
330
1E
100
AcDbEntity
  8
0
100
AcDbLine
 10
44.2
 20
84.06870000000001
 30
0.0
 11
44.2
 21
82.171
 31
0.0
  0
LINE
  5
8F
330
1E
100
AcDbEntity
  8
0
100
AcDbLine
 10
44.2
 20
82.171
 30
0.0
 11
44.2
 21
84.06870000000001
 31
0.0
  0
LINE
  5
90
330
1E
100
AcDbEntity
  8
0
100
AcDbLine
 10
44.2
 20
82.171
 30
0.0
 11
44.2
 21
80.67109999999999
 31
0.0
  0
LINE
  5
91
330
1E
100
AcDbEntity
  8
0
100
AcDbLine
 10
44.2
 20
80.67109999999999
 30
0.0
 11
44.2
 21
82.171
 31
0.0
  0
LINE
  5
92
330
1E
100
AcDbEntity
  8
0
100
AcDbLine
 10
44.2
 20
80.67109999999999
 30
0.0
 11
44.2
 21
79.575
 31
0.0
  0
LINE
  5
93
330
1E
100
AcDbEntity
  8
0
100
AcDbLine
 10
44.2
 20
79.575
 30
0.0
 11
44.2
 21
80.67109999999999
 31
0.0
  0
LINE
  5
94
330
1E
100
AcDbEntity
  8
0
100
AcDbLine
 10
44.2
 20
79.575
 30
0.0
 11
44.2
 21
78.9212
 31
0.0
  0
LINE
  5
95
330
1E
100
AcDbEntity
  8
0
100
AcDbLine
 10
44.2
 20
78.9212
 30
0.0
 11
44.2
 21
79.575
 31
0.0
  0
LINE
  5
96
330
1E
100
AcDbEntity
  8
0
100
AcDbLine
 10
44.2
 20
78.9212
 30
0.0
 11
44.2
 21
78.402
 31
0.0
  0
LINE
  5
97
330
1E
100
AcDbEntity
  8
0
100
AcDbLine
 10
45.8
 20
82.171
 30
0.0
 11
45.8
 21
80.67109999999999
 31
0.0
  0
LINE
  5
98
330
1E
100
AcDbEntity
  8
0
100
AcDbLine
 10
45.8
 20
82.171
 30
0.0
 11
45.8
 21
84.06870000000001
 31
0.0
  0
LINE
  5
99
330
1E
100
AcDbEntity
  8
0
100
AcDbLine
 10
45.8
 20
80.67109999999999
 30
0.0
 11
45.8
 21
79.575
 31
0.0
  0
LINE
  5
9A
330
1E
100
AcDbEntity
  8
0
100
AcDbLine
 10
45.8
 20
80.67109999999999
 30
0.0
 11
45.8
 21
82.171
 31
0.0
  0
LINE
  5
9B
330
1E
100
AcDbEntity
  8
0
100
AcDbLine
 10
45.8
 20
79.575
 30
0.0
 11
45.8
 21
78.9212
 31
0.0
  0
LINE
  5
9C
330
1E
100
AcDbEntity
  8
0
100
AcDbLine
 10
45.8
 20
79.575
 30
0.0
 11
45.8
 21
80.67109999999999
 31
0.0
  0
LINE
  5
9D
330
1E
100
AcDbEntity
  8
0
100
AcDbLine
 10
45.8
 20
78.9212
 30
0.0
 11
45.8
 21
78.402
 31
0.0
  0
LINE
  5
9E
330
1E
100
AcDbEntity
  8
0
100
AcDbLine
 10
45.8
 20
78.9212
 30
0.0
 11
45.8
 21
79.575
 31
0.0
  0
LINE
  5
A0
330
1E
100
AcDbEntity
  8
0
100
AcDbLine
 10
46.29999999999999
 20
78.5458
 30
0.0
 11
46.79999999999999
 21
81.0458
 31
0.0
  0
LINE
  5
A2
330
1E
100
AcDbEntity
  8
0
100
AcDbLine
 10
46.79999999999999
 20
81.0458
 30
0.0
 11
47.0
 21
84.04580000000001
 31
0.0
  0
LINE
  5
A7
330
1E
100
AcDbEntity
  8
0
100
AcDbLine
 10
45.8
 20
78.402
 30
0.0
 11
45.8
 21
78.0458
 31
0.0
  0
LINE
  5
A8
330
1E
100
AcDbEntity
  8
0
100
AcDbLine
 10
45.8
 20
78.402
 30
0.0
 11
45.8
 21
78.9212
 31
0.0
  0
LINE
  5
A9
330
1E
100
AcDbEntity
  8
0
100
AcDbLine
 10
46.1
 20
88.0438
 30
0.0
 11
47.1464
 21
91.58790000000001
 31
0.0
  0
LINE
  5
AA
330
1E
100
AcDbEntity
  8
0
100
AcDbLine
 10
45.8
 20
84.06870000000001
 30
0.0
 11
46.1
 21
88.0438
 31
0.0
  0
LINE
  5
AB
330
1E
100
AcDbEntity
  8
0
100
AcDbLine
 10
45.8
 20
84.06870000000001
 30
0.0
 11
45.8
 21
82.171
 31
0.0
  0
LINE
  5
AC
330
1E
100
AcDbEntity
  8
0
100
AcDbLine
 10
47.29999999999999
 20
88.04579999999999
 30
0.0
 11
48.2296
 21
90.93189999999999
 31
0.0
  0
LINE
  5
AD
330
1E
100
AcDbEntity
  8
0
100
AcDbLine
 10
47.0
 20
84.04580000000001
 30
0.0
 11
47.29999999999999
 21
88.04579999999999
 31
0.0
  0
LINE
  5
AE
330
1E
100
AcDbEntity
  8
0
100
AcDbLine
 10
44.2
 20
78.402
 30
0.0
 11
44.2
 21
78.9212
 31
0.0
  0
LINE
  5
AF
330
1E
100
AcDbEntity
  8
0
100
AcDbLine
 10
44.2
 20
78.402
 30
0.0
 11
44.2
 21
78.0458
 31
0.0
  0
LINE
  5
B0
330
1E
100
AcDbEntity
  8
0
100
AcDbLine
 10
44.2
 20
78.0458
 30
0.0
 11
45.0
 21
78.0458
 31
0.0
  0
LINE
  5
B1
330
1E
100
AcDbEntity
  8
0
100
AcDbLine
 10
44.2
 20
78.0458
 30
0.0
 11
44.2
 21
78.402
 31
0.0
  0
LINE
  5
B2
330
1E
100
AcDbEntity
  8
0
100
AcDbLine
 10
43.89999999999999
 20
88.0438
 30
0.0
 11
44.2
 21
84.06870000000001
 31
0.0
  0
LINE
  5
B4
330
1E
100
AcDbEntity
  8
0
100
AcDbLine
 10
48.079446968474
 20
90.46572458661009
 30
0.0
 11
49.4
 21
90.64579999999999
 31
0.0
  0
LINE
  5
B5
330
1E
100
AcDbEntity
  8
0
100
AcDbLine
 10
41.7704
 20
90.93189999999999
 30
0.0
 11
42.7
 21
88.04579999999999
 31
0.0
  0
LINE
  5
B6
330
1E
100
AcDbEntity
  8
0
100
AcDbLine
 10
42.7
 20
88.04579999999999
 30
0.0
 11
43.0
 21
84.04580000000001
 31
0.0
  0
LINE
  5
B7
330
1E
100
AcDbEntity
  8
0
100
AcDbLine
 10
63.6
 20
74.54579999999999
 30
0.0
 11
71.4
 21
80.64579999999999
 31
0.0
  0
LINE
  5
B8
330
1E
100
AcDbEntity
  8
0
100
AcDbLine
 10
54.6
 20
70.9458
 30
0.0
 11
63.6
 21
74.54579999999999
 31
0.0
  0
LINE
  5
B9
330
1E
100
AcDbEntity
  8
0
100
AcDbLine
 10
63.9
 20
74.14579999999999
 30
0.0
 11
71.79999999999999
 21
80.2458
 31
0.0
  0
LINE
  5
BA
330
1E
100
AcDbEntity
  8
0
100
AcDbLine
 10
54.8
 20
70.4458
 30
0.0
 11
63.9
 21
74.14579999999999
 31
0.0
  0
LINE
  5
BB
330
1E
100
AcDbEntity
  8
0
100
AcDbLine
 10
71.4
 20
80.64579999999999
 30
0.0
 11
77.5
 21
88.4458
 31
0.0
  0
LINE
  5
BC
330
1E
100
AcDbEntity
  8
0
100
AcDbLine
 10
71.79999999999999
 20
80.2458
 30
0.0
 11
77.9
 21
88.14579999999999
 31
0.0
  0
LINE
  5
BD
330
1E
100
AcDbEntity
  8
0
100
AcDbLine
 10
76.7
 20
75.3458
 30
0.0
 11
84.0
 21
84.64579999999999
 31
0.0
  0
LINE
  5
BE
330
1E
100
AcDbEntity
  8
0
100
AcDbLine
 10
77.5
 20
88.4458
 30
0.0
 11
79.74
 21
94.04580000000001
 31
0.0
  0
LINE
  5
BF
330
1E
100
AcDbEntity
  8
0
100
AcDbLine
 10
77.9
 20
88.14579999999999
 30
0.0
 11
80.29890109890109
 21
94.04580000000001
 31
0.0
  0
LINE
  5
C0
330
1E
100
AcDbEntity
  8
0
100
AcDbLine
 10
84.0
 20
84.64579999999999
 30
0.0
 11
87.8296296296296
 21
94.04580000000001
 31
0.0
  0
LINE
  5
C1
330
1E
100
AcDbEntity
  8
0
100
AcDbLine
 10
67.40000000000001
 20
68.0458
 30
0.0
 11
76.7
 21
75.3458
 31
0.0
  0
LINE
  5
C2
330
1E
100
AcDbEntity
  8
0
100
AcDbLine
 10
56.6
 20
63.6458
 30
0.0
 11
67.40000000000001
 21
68.0458
 31
0.0
  0
LINE
  5
C3
330
1E
100
AcDbEntity
  8
0
100
AcDbLine
 10
108.0349999999999
 20
89.04580000000001
 30
0.0
 11
109.5499999999999
 21
89.54579999999999
 31
0.0
  0
LINE
  5
C4
330
1E
100
AcDbEntity
  8
0
100
AcDbLine
 10
109.5499999999999
 20
89.54579999999999
 30
0.0
 11
109.5499999999999
 21
90.1458
 31
0.0
  0
LINE
  5
C5
330
1E
100
AcDbEntity
  8
0
100
AcDbLine
 10
109.5499999999999
 20
89.54579999999999
 30
0.0
 11
110.054
 21
90.54579999999999
 31
0.0
  0
LINE
  5
C6
330
1E
100
AcDbEntity
  8
0
100
AcDbLine
 10
107.53
 20
89.04580000000001
 30
0.0
 11
108.0349999999999
 21
89.04580000000001
 31
0.0
  0
LINE
  5
C8
330
1E
100
AcDbEntity
  8
0
100
AcDbLine
 10
49.4
 20
90.64579999999999
 30
0.0
 11
53.5
 21
92.34579999999999
 31
0.0
  0
LINE
  5
C9
330
1E
100
AcDbEntity
  8
0
100
AcDbLine
 10
117.3399999999999
 20
90.0458
 30
0.0
 11
117.5
 21
90.0458
 31
0.0
  0
LINE
  5
CA
330
1E
100
AcDbEntity
  8
0
100
AcDbLine
 10
117.3399999999999
 20
90.0458
 30
0.0
 11
119.68
 21
90.0458
 31
0.0
  0
LINE
  5
CB
330
1E
100
AcDbEntity
  8
0
100
AcDbLine
 10
115.9
 20
90.0458
 30
0.0
 11
117.3399999999999
 21
90.0458
 31
0.0
  0
LINE
  5
CC
330
1E
100
AcDbEntity
  8
0
100
AcDbLine
 10
115.3599999999999
 20
90.0458
 30
0.0
 11
115.9
 21
90.0458
 31
0.0
  0
LINE
  5
CD
330
1E
100
AcDbEntity
  8
0
100
AcDbLine
 10
115.0
 20
90.64579999999999
 30
0.0
 11
115.3599999999999
 21
90.0458
 31
0.0
  0
LINE
  5
CE
330
1E
100
AcDbEntity
  8
0
100
AcDbLine
 10
115.0
 20
90.64579999999999
 30
0.0
 11
115.0
 21
91.1081574144487
 31
0.0
  0
LINE
  5
CF
330
1E
100
AcDbEntity
  8
0
100
AcDbLine
 10
110.054
 20
90.54579999999999
 30
0.0
 11
110.054
 21
91.1458
 31
0.0
  0
LINE
  5
D0
330
1E
100
AcDbEntity
  8
0
100
AcDbLine
 10
110.054
 20
90.54579999999999
 30
0.0
 11
111.0639999999999
 21
91.0458
 31
0.0
  0
LINE
  5
D1
330
1E
100
AcDbEntity
  8
0
100
AcDbLine
 10
109.5499999999999
 20
90.1458
 30
0.0
 11
109.5499999999999
 21
91.8458
 31
0.0
  0
LINE
  5
D2
330
1E
100
AcDbEntity
  8
0
100
AcDbLine
 10
109.5499999999999
 20
90.1458
 30
0.0
 11
109.5499999999999
 21
89.54579999999999
 31
0.0
  0
LINE
  5
D3
330
1E
100
AcDbEntity
  8
0
100
AcDbLine
 10
106.0149999999999
 20
90.1458
 30
0.0
 11
106.0149999999999
 21
91.8458
 31
0.0
  0
LINE
  5
D4
330
1E
100
AcDbEntity
  8
0
100
AcDbLine
 10
106.0149999999999
 20
90.1458
 30
0.0
 11
106.0149999999999
 21
89.54579999999999
 31
0.0
  0
LINE
  5
D5
330
1E
100
AcDbEntity
  8
0
100
AcDbLine
 10
106.0149999999999
 20
89.54579999999999
 30
0.0
 11
106.0149999999999
 21
90.1458
 31
0.0
  0
LINE
  5
D6
330
1E
100
AcDbEntity
  8
0
100
AcDbLine
 10
106.0149999999999
 20
89.54579999999999
 30
0.0
 11
107.53
 21
89.04580000000001
 31
0.0
  0
LINE
  5
D7
330
1E
100
AcDbEntity
  8
0
100
AcDbLine
 10
122.8639999999999
 20
-0.0195999999999911
 30
0.0
 11
123.5389999999999
 21
0.0554000000000116
 31
0.0
  0
LINE
  5
D8
330
1E
100
AcDbEntity
  8
0
100
AcDbLine
 10
124.701
 20
59.95416999999999
 30
0.0
 11
126.3009999999999
 21
59.95416999999999
 31
0.0
  0
LINE
  5
D9
330
1E
100
AcDbEntity
  8
0
100
AcDbLine
 10
124.777
 20
0.430200000000013
 30
0.0
 11
126.278
 21
1.104900000000009
 31
0.0
  0
LINE
  5
DA
330
1E
100
AcDbEntity
  8
0
100
AcDbLine
 10
123.501
 20
59.95416999999999
 30
0.0
 11
124.701
 21
59.95416999999999
 31
0.0
  0
LINE
  5
DB
330
1E
100
AcDbEntity
  8
0
100
AcDbLine
 10
123.5389999999999
 20
0.0554000000000121
 30
0.0
 11
124.777
 21
0.430200000000013
 31
0.0
  0
LINE
  5
DC
330
1E
100
AcDbEntity
  8
0
100
AcDbLine
 10
122.801
 20
59.95416999999999
 30
0.0
 11
123.501
 21
59.95416999999999
 31
0.0
  0
LINE
  5
DD
330
1E
100
AcDbEntity
  8
0
100
AcDbLine
 10
122.8639999999999
 20
-0.0195999999999909
 30
0.0
 11
123.5389999999999
 21
0.0554000000000121
 31
0.0
  0
LINE
  5
DE
330
1E
100
AcDbEntity
  8
0
100
AcDbLine
 10
122.501
 20
59.95416999999999
 30
0.0
 11
122.801
 21
59.95416999999999
 31
0.0
  0
LINE
  5
DF
330
1E
100
AcDbEntity
  8
0
100
AcDbLine
 10
122.501
 20
59.95416999999999
 30
0.0
 11
122.501
 21
-0.0457999999999905
 31
0.0
  0
LINE
  5
E0
330
1E
100
AcDbEntity
  8
0
100
AcDbLine
 10
122.501
 20
-0.0457999999999868
 30
0.0
 11
122.501
 21
59.95416999999999
 31
0.0
  0
LINE
  5
E1
330
1E
100
AcDbEntity
  8
0
100
AcDbLine
 10
122.501
 20
-0.0457999999999868
 30
0.0
 11
122.8639999999999
 21
-0.0195999999999909
 31
0.0
  0
LINE
  5
E2
330
1E
100
AcDbEntity
  8
0
100
AcDbLine
 10
128.078
 20
2.22940000000002
 30
0.0
 11
130.0289999999999
 21
4.215900000000009
 31
0.0
  0
LINE
  5
E3
330
1E
100
AcDbEntity
  8
0
100
AcDbLine
 10
130.0289999999999
 20
4.215900000000009
 30
0.0
 11
131.7919999999999
 21
5.565300000000009
 31
0.0
  0
LINE
  5
E4
330
1E
100
AcDbEntity
  8
0
100
AcDbLine
 10
130.0289999999999
 20
4.215900000000009
 30
0.0
 11
131.7919999999999
 21
5.565300000000009
 31
0.0
  0
LINE
  5
E5
330
1E
100
AcDbEntity
  8
0
100
AcDbLine
 10
130.001
 20
59.95416999999999
 30
0.0
 11
131.901
 21
59.95416999999999
 31
0.0
  0
LINE
  5
E6
330
1E
100
AcDbEntity
  8
0
100
AcDbLine
 10
130.001
 20
59.95416999999999
 30
0.0
 11
132.701
 21
59.95416999999999
 31
0.0
  0
LINE
  5
E7
330
1E
100
AcDbEntity
  8
0
100
AcDbLine
 10
132.701
 20
59.95416999999999
 30
0.0
 11
135.2009999999999
 21
59.95416999999999
 31
0.0
  0
LINE
  5
E8
330
1E
100
AcDbEntity
  8
0
100
AcDbLine
 10
131.901
 20
59.95416999999999
 30
0.0
 11
133.701
 21
59.95416999999999
 31
0.0
  0
LINE
  5
E9
330
1E
100
AcDbEntity
  8
0
100
AcDbLine
 10
131.7919999999999
 20
5.565300000000009
 30
0.0
 11
133.63
 21
6.764700000000009
 31
0.0
  0
LINE
  5
EA
330
1E
100
AcDbEntity
  8
0
100
AcDbLine
 10
135.2009999999999
 20
59.95416999999999
 30
0.0
 11
137.401
 21
59.95416999999999
 31
0.0
  0
LINE
  5
EB
330
1E
100
AcDbEntity
  8
0
100
AcDbLine
 10
133.701
 20
59.95416999999999
 30
0.0
 11
135.301
 21
59.95416999999999
 31
0.0
  0
LINE
  5
EC
330
1E
100
AcDbEntity
  8
0
100
AcDbLine
 10
133.63
 20
6.764700000000009
 30
0.0
 11
135.431
 21
7.964200000000019
 31
0.0
  0
LINE
  5
ED
330
1E
100
AcDbEntity
  8
0
100
AcDbLine
 10
135.301
 20
59.95416999999999
 30
0.0
 11
136.501
 21
59.95416999999999
 31
0.0
  0
LINE
  5
EE
330
1E
100
AcDbEntity
  8
0
100
AcDbLine
 10
136.519
 20
9.013700000000008
 30
0.0
 11
137.2319999999999
 21
9.725900000000018
 31
0.0
  0
LINE
  5
EF
330
1E
100
AcDbEntity
  8
0
100
AcDbLine
 10
135.431
 20
7.964200000000019
 30
0.0
 11
136.519
 21
9.013700000000008
 31
0.0
  0
LINE
  5
F0
330
1E
100
AcDbEntity
  8
0
100
AcDbLine
 10
135.431
 20
7.964200000000019
 30
0.0
 11
136.519
 21
9.013700000000008
 31
0.0
  0
LINE
  5
F1
330
1E
100
AcDbEntity
  8
0
100
AcDbLine
 10
136.501
 20
59.95416999999999
 30
0.0
 11
137.2009999999999
 21
59.95416999999999
 31
0.0
  0
LINE
  5
F2
330
1E
100
AcDbEntity
  8
0
100
AcDbLine
 10
136.519
 20
9.013700000000008
 30
0.0
 11
137.2319999999999
 21
9.725900000000018
 31
0.0
  0
LINE
  5
F3
330
1E
100
AcDbEntity
  8
0
100
AcDbLine
 10
137.2009999999999
 20
59.95416999999999
 30
0.0
 11
137.501
 21
59.95416999999999
 31
0.0
  0
LINE
  5
F4
330
1E
100
AcDbEntity
  8
0
100
AcDbLine
 10
137.501
 20
9.954200000000009
 30
0.0
 11
137.501
 21
59.95416999999999
 31
0.0
  0
LINE
  5
F5
330
1E
100
AcDbEntity
  8
0
100
AcDbLine
 10
137.401
 20
59.95416999999999
 30
0.0
 11
139.101
 21
59.95416999999999
 31
0.0
  0
LINE
  5
F6
330
1E
100
AcDbEntity
  8
0
100
AcDbLine
 10
139.101
 20
59.95416999999999
 30
0.0
 11
140.101
 21
59.95416999999999
 31
0.0
  0
LINE
  5
F7
330
1E
100
AcDbEntity
  8
0
100
AcDbLine
 10
140.101
 20
59.95416999999999
 30
0.0
 11
140.501
 21
59.95416999999999
 31
0.0
  0
LINE
  5
F8
330
1E
100
AcDbEntity
  8
0
100
AcDbLine
 10
140.501
 20
59.95416999999999
 30
0.0
 11
141.4501280670579
 21
88.42804048559591
 31
0.0
  0
LINE
  5
F9
330
1E
100
AcDbEntity
  8
0
100
AcDbLine
 10
137.501
 20
59.95416999999999
 30
0.0
 11
137.501
 21
9.954200000000009
 31
0.0
  0
LINE
  5
FA
330
1E
100
AcDbEntity
  8
0
100
AcDbLine
 10
137.501
 20
59.95416999999999
 30
0.0
 11
139.101
 21
59.95416999999999
 31
0.0
  0
LINE
  5
FB
330
1E
100
AcDbEntity
  8
0
100
AcDbLine
 10
137.2319999999999
 20
9.725900000000018
 30
0.0
 11
137.501
 21
9.954200000000009
 31
0.0
  0
LINE
  5
FC
330
1E
100
AcDbEntity
  8
0
100
AcDbLine
 10
128.1009999999999
 20
59.95416999999999
 30
0.0
 11
130.001
 21
59.95416999999999
 31
0.0
  0
LINE
  5
FD
330
1E
100
AcDbEntity
  8
0
100
AcDbLine
 10
128.078
 20
2.22940000000002
 30
0.0
 11
130.0289999999999
 21
4.215900000000009
 31
0.0
  0
LINE
  5
FE
330
1E
100
AcDbEntity
  8
0
100
AcDbLine
 10
126.3009999999999
 20
59.95416999999999
 30
0.0
 11
128.1009999999999
 21
59.95416999999999
 31
0.0
  0
LINE
  5
FF
330
1E
100
AcDbEntity
  8
0
100
AcDbLine
 10
126.278
 20
1.104900000000009
 30
0.0
 11
128.078
 21
2.22940000000002
 31
0.0
  0
LINE
  5
100
330
1E
100
AcDbEntity
  8
0
100
AcDbLine
 10
127.3009999999999
 20
59.95416999999999
 30
0.0
 11
130.001
 21
59.95416999999999
 31
0.0
  0
LINE
  5
101
330
1E
100
AcDbEntity
  8
0
100
AcDbLine
 10
124.801
 20
59.95416999999999
 30
0.0
 11
127.3009999999999
 21
59.95416999999999
 31
0.0
  0
LINE
  5
102
330
1E
100
AcDbEntity
  8
0
100
AcDbLine
 10
122.601
 20
59.95416999999999
 30
0.0
 11
124.801
 21
59.95416999999999
 31
0.0
  0
LINE
  5
103
330
1E
100
AcDbEntity
  8
0
100
AcDbLine
 10
120.901
 20
59.95416999999999
 30
0.0
 11
122.601
 21
59.95416999999999
 31
0.0
  0
LINE
  5
104
330
1E
100
AcDbEntity
  8
0
100
AcDbLine
 10
120.901
 20
59.95416999999999
 30
0.0
 11
122.501
 21
59.95416999999999
 31
0.0
  0
LINE
  5
105
330
1E
100
AcDbEntity
  8
0
100
AcDbLine
 10
119.901
 20
59.95416999999999
 30
0.0
 11
120.901
 21
59.95416999999999
 31
0.0
  0
LINE
  5
106
330
1E
100
AcDbEntity
  8
0
100
AcDbLine
 10
119.501
 20
59.95416999999999
 30
0.0
 11
119.901
 21
59.95416999999999
 31
0.0
  0
LINE
  5
107
330
1E
100
AcDbEntity
  8
0
100
AcDbLine
 10
118.552684488773
 20
88.4036637862837
 30
0.0
 11
119.501
 21
59.95416999999999
 31
0.0
  0
LINE
  5
108
330
1E
100
AcDbEntity
  8
0
100
AcDbLine
 10
118.5229999999999
 20
88.5458
 30
0.0
 11
119.659
 21
88.5458
 31
0.0
  0
LINE
  5
109
330
1E
100
AcDbEntity
  8
0
100
AcDbLine
 10
141.477
 20
88.5458
 30
0.0
 11
141.932
 21
88.5458
 31
0.0
  0
LINE
  5
10A
330
1E
100
AcDbEntity
  8
0
100
AcDbLine
 10
141.428382614755
 20
88.39811161723009
 30
0.0
 11
141.932
 21
88.5458
 31
0.0
  0
LINE
  5
158
330
1E
100
AcDbEntity
  8
0
100
AcDbLine
 10
141.932
 20
88.5458
 30
0.0
 11
142.5
 21
90.0458
 31
0.0
  0
LINE
  5
159
330
1E
100
AcDbEntity
  8
0
100
AcDbLine
 10
119.659
 20
88.5458
 30
0.0
 11
121.591
 21
88.5458
 31
0.0
  0
LINE
  5
15A
330
1E
100
AcDbEntity
  8
0
100
AcDbLine
 10
121.591
 20
88.5458
 30
0.0
 11
124.091
 21
88.5458
 31
0.0
  0
LINE
  5
15B
330
1E
100
AcDbEntity
  8
0
100
AcDbLine
 10
124.091
 20
88.5458
 30
0.0
 11
126.932
 21
88.5458
 31
0.0
  0
LINE
  5
15C
330
1E
100
AcDbEntity
  8
0
100
AcDbLine
 10
126.932
 20
88.5458
 30
0.0
 11
130.0
 21
88.5458
 31
0.0
  0
LINE
  5
15D
330
1E
100
AcDbEntity
  8
0
100
AcDbLine
 10
135.9089999999999
 20
88.5458
 30
0.0
 11
138.409
 21
88.5458
 31
0.0
  0
LINE
  5
15E
330
1E
100
AcDbEntity
  8
0
100
AcDbLine
 10
133.0679999999999
 20
88.5458
 30
0.0
 11
135.9089999999999
 21
88.5458
 31
0.0
  0
LINE
  5
15F
330
1E
100
AcDbEntity
  8
0
100
AcDbLine
 10
130.0
 20
88.5458
 30
0.0
 11
133.0679999999999
 21
88.5458
 31
0.0
  0
LINE
  5
160
330
1E
100
AcDbEntity
  8
0
100
AcDbLine
 10
138.409
 20
88.5458
 30
0.0
 11
140.341
 21
88.5458
 31
0.0
  0
LINE
  5
161
330
1E
100
AcDbEntity
  8
0
100
AcDbLine
 10
122.74
 20
90.0458
 30
0.0
 11
126.2199999999999
 21
90.0458
 31
0.0
  0
LINE
  5
162
330
1E
100
AcDbEntity
  8
0
100
AcDbLine
 10
119.68
 20
90.0458
 30
0.0
 11
122.74
 21
90.0458
 31
0.0
  0
LINE
  5
163
330
1E
100
AcDbEntity
  8
0
100
AcDbLine
 10
119.205
 20
90.0458
 30
0.0
 11
121.136
 21
90.0458
 31
0.0
  0
LINE
  5
164
330
1E
100
AcDbEntity
  8
0
100
AcDbLine
 10
117.955
 20
90.0458
 30
0.0
 11
119.205
 21
90.0458
 31
0.0
  0
LINE
  5
165
330
1E
100
AcDbEntity
  8
0
100
AcDbLine
 10
121.136
 20
90.0458
 30
0.0
 11
123.75
 21
90.0458
 31
0.0
  0
LINE
  5
166
330
1E
100
AcDbEntity
  8
0
100
AcDbLine
 10
126.2199999999999
 20
90.0458
 30
0.0
 11
130.0
 21
90.0458
 31
0.0
  0
LINE
  5
167
330
1E
100
AcDbEntity
  8
0
100
AcDbLine
 10
123.75
 20
90.0458
 30
0.0
 11
126.818
 21
90.0458
 31
0.0
  0
LINE
  5
168
330
1E
100
AcDbEntity
  8
0
100
AcDbLine
 10
126.818
 20
90.0458
 30
0.0
 11
130.0
 21
90.0458
 31
0.0
  0
LINE
  5
169
330
1E
100
AcDbEntity
  8
0
100
AcDbLine
 10
133.78
 20
90.0458
 30
0.0
 11
137.26
 21
90.0458
 31
0.0
  0
LINE
  5
16A
330
1E
100
AcDbEntity
  8
0
100
AcDbLine
 10
137.26
 20
90.0458
 30
0.0
 11
140.32
 21
90.0458
 31
0.0
  0
LINE
  5
16B
330
1E
100
AcDbEntity
  8
0
100
AcDbLine
 10
140.32
 20
90.0458
 30
0.0
 11
142.66
 21
90.0458
 31
0.0
  0
LINE
  5
16C
330
1E
100
AcDbEntity
  8
0
100
AcDbLine
 10
136.25
 20
90.0458
 30
0.0
 11
138.864
 21
90.0458
 31
0.0
  0
LINE
  5
16D
330
1E
100
AcDbEntity
  8
0
100
AcDbLine
 10
133.182
 20
90.0458
 30
0.0
 11
136.25
 21
90.0458
 31
0.0
  0
LINE
  5
16E
330
1E
100
AcDbEntity
  8
0
100
AcDbLine
 10
130.0
 20
90.0458
 30
0.0
 11
133.182
 21
90.0458
 31
0.0
  0
LINE
  5
16F
330
1E
100
AcDbEntity
  8
0
100
AcDbLine
 10
130.0
 20
90.0458
 30
0.0
 11
133.78
 21
90.0458
 31
0.0
  0
LINE
  5
170
330
1E
100
AcDbEntity
  8
0
100
AcDbLine
 10
138.864
 20
90.0458
 30
0.0
 11
140.7959999999999
 21
90.0458
 31
0.0
  0
LINE
  5
171
330
1E
100
AcDbEntity
  8
0
100
AcDbLine
 10
140.7959999999999
 20
90.0458
 30
0.0
 11
142.046
 21
90.0458
 31
0.0
  0
LINE
  5
172
330
1E
100
AcDbEntity
  8
0
100
AcDbLine
 10
140.341
 20
88.5458
 30
0.0
 11
141.477
 21
88.5458
 31
0.0
  0
LINE
  5
173
330
1E
100
AcDbEntity
  8
0
100
AcDbLine
 10
150.4509999999999
 20
89.54579999999999
 30
0.0
 11
151.965
 21
89.04580000000001
 31
0.0
  0
LINE
  5
174
330
1E
100
AcDbEntity
  8
0
100
AcDbLine
 10
150.4509999999999
 20
89.54579999999999
 30
0.0
 11
150.4509999999999
 21
90.1458
 31
0.0
  0
LINE
  5
175
330
1E
100
AcDbEntity
  8
0
100
AcDbLine
 10
151.965
 20
89.04580000000001
 30
0.0
 11
152.4699999999999
 21
89.04580000000001
 31
0.0
  0
LINE
  5
176
330
1E
100
AcDbEntity
  8
0
100
AcDbLine
 10
152.4699999999999
 20
89.04580000000001
 30
0.0
 11
153.985
 21
89.54579999999999
 31
0.0
  0
LINE
  5
177
330
1E
100
AcDbEntity
  8
0
100
AcDbLine
 10
142.5
 20
90.0458
 30
0.0
 11
142.66
 21
90.0458
 31
0.0
  0
LINE
  5
178
330
1E
100
AcDbEntity
  8
0
100
AcDbLine
 10
142.66
 20
90.0458
 30
0.0
 11
144.1
 21
90.0458
 31
0.0
  0
LINE
  5
179
330
1E
100
AcDbEntity
  8
0
100
AcDbLine
 10
144.1
 20
90.0458
 30
0.0
 11
144.6399999999999
 21
90.0458
 31
0.0
  0
LINE
  5
17A
330
1E
100
AcDbEntity
  8
0
100
AcDbLine
 10
144.6399999999999
 20
90.0458
 30
0.0
 11
145.0
 21
90.64579999999999
 31
0.0
  0
LINE
  5
17B
330
1E
100
AcDbEntity
  8
0
100
AcDbLine
 10
145.0
 20
90.64579999999999
 30
0.0
 11
145.0
 21
91.0458
 31
0.0
  0
LINE
  5
17C
330
1E
100
AcDbEntity
  8
0
100
AcDbLine
 10
150.4509999999999
 20
90.1458
 30
0.0
 11
150.4509999999999
 21
89.54579999999999
 31
0.0
  0
LINE
  5
17D
330
1E
100
AcDbEntity
  8
0
100
AcDbLine
 10
150.4509999999999
 20
90.1458
 30
0.0
 11
150.4509999999999
 21
91.8458
 31
0.0
  0
LINE
  5
185
330
1E
100
AcDbEntity
  8
0
100
AcDbLine
 10
153.985
 20
90.1458
 30
0.0
 11
153.985
 21
89.54579999999999
 31
0.0
  0
LINE
  5
186
330
1E
100
AcDbEntity
  8
0
100
AcDbLine
 10
153.985
 20
90.1458
 30
0.0
 11
153.985
 21
91.8458
 31
0.0
  0
LINE
  5
187
330
1E
100
AcDbEntity
  8
0
100
AcDbLine
 10
149.9449999999999
 20
90.54579999999999
 30
0.0
 11
150.4509999999999
 21
89.54579999999999
 31
0.0
  0
LINE
  5
188
330
1E
100
AcDbEntity
  8
0
100
AcDbLine
 10
149.9449999999999
 20
90.54579999999999
 30
0.0
 11
149.9449999999999
 21
91.1458
 31
0.0
  0
LINE
  5
189
330
1E
100
AcDbEntity
  8
0
100
AcDbLine
 10
153.985
 20
89.54579999999999
 30
0.0
 11
154.49
 21
91.0458
 31
0.0
  0
LINE
  5
18A
330
1E
100
AcDbEntity
  8
0
100
AcDbLine
 10
153.985
 20
89.54579999999999
 30
0.0
 11
153.985
 21
90.1458
 31
0.0
  0
LINE
  5
18B
330
1E
100
AcDbEntity
  8
0
100
AcDbLine
 10
142.046
 20
90.0458
 30
0.0
 11
142.5
 21
90.0458
 31
0.0
  0
LINE
  5
18C
330
1E
100
AcDbEntity
  8
0
100
AcDbLine
 10
118.0679999999999
 20
88.5458
 30
0.0
 11
118.552684488773
 21
88.4036637862837
 31
0.0
  0
LINE
  5
18D
330
1E
100
AcDbEntity
  8
0
100
AcDbLine
 10
118.0679999999999
 20
88.5458
 30
0.0
 11
118.5229999999999
 21
88.5458
 31
0.0
  0
LINE
  5
18E
330
1E
100
AcDbEntity
  8
0
100
AcDbLine
 10
117.5
 20
90.0458
 30
0.0
 11
118.0679999999999
 21
88.5458
 31
0.0
  0
LINE
  5
18F
330
1E
100
AcDbEntity
  8
0
100
AcDbLine
 10
117.5
 20
90.0458
 30
0.0
 11
117.955
 21
90.0458
 31
0.0
  0
LINE
  5
190
330
1E
100
AcDbEntity
  8
0
100
AcDbLine
 10
48.2296
 20
90.93189999999999
 30
0.0
 11
49.7508
 21
93.65299999999999
 31
0.0
  0
LINE
  5
194
330
1E
100
AcDbEntity
  8
0
100
AcDbLine
 10
154.49
 20
91.0458
 30
0.0
 11
154.49
 21
91.64579999999999
 31
0.0
  0
LINE
  5
195
330
1E
100
AcDbEntity
  8
0
100
AcDbLine
 10
148.936
 20
91.0458
 30
0.0
 11
149.9449999999999
 21
90.54579999999999
 31
0.0
  0
LINE
  5
196
330
1E
100
AcDbEntity
  8
0
100
AcDbLine
 10
115.0
 20
91.1081574144487
 30
0.0
 11
115.0
 21
90.64579999999999
 31
0.0
  0
LINE
  5
199
330
1E
100
AcDbEntity
  8
0
100
AcDbLine
 10
149.9449999999999
 20
91.1458
 30
0.0
 11
149.9449999999999
 21
90.54579999999999
 31
0.0
  0
LINE
  5
19A
330
1E
100
AcDbEntity
  8
0
100
AcDbLine
 10
149.9449999999999
 20
91.1458
 30
0.0
 11
149.9449999999999
 21
92.7458
 31
0.0
  0
LINE
  5
19B
330
1E
100
AcDbEntity
  8
0
100
AcDbLine
 10
145.0
 20
91.0458
 30
0.0
 11
148.936
 21
91.0458
 31
0.0
  0
LINE
  5
19C
330
1E
100
AcDbEntity
  8
0
100
AcDbLine
 10
145.0
 20
91.0458
 30
0.0
 11
145.0
 21
90.64579999999999
 31
0.0
  0
LINE
  5
19D
330
1E
100
AcDbEntity
  8
0
100
AcDbLine
 10
111.0639999999999
 20
91.0458
 30
0.0
 11
145.0
 21
91.0458
 31
0.0
  0
LINE
  5
19E
330
1E
100
AcDbEntity
  8
0
100
AcDbLine
 10
110.054
 20
91.1458
 30
0.0
 11
110.054
 21
92.7458
 31
0.0
  0
LINE
  5
19F
330
1E
100
AcDbEntity
  8
0
100
AcDbLine
 10
110.054
 20
91.1458
 30
0.0
 11
110.054
 21
90.54579999999999
 31
0.0
  0
LINE
  5
1A0
330
1E
100
AcDbEntity
  8
0
100
AcDbLine
 10
105.51
 20
91.0458
 30
0.0
 11
105.51
 21
91.64579999999999
 31
0.0
  0
LINE
  5
1A1
330
1E
100
AcDbEntity
  8
0
100
AcDbLine
 10
105.51
 20
91.0458
 30
0.0
 11
106.0149999999999
 21
89.54579999999999
 31
0.0
  0
LINE
  5
1A2
330
1E
100
AcDbEntity
  8
0
100
AcDbLine
 10
49.2
 20
91.1458
 30
0.0
 11
53.2
 21
92.7458
 31
0.0
  0
LINE
  5
1A3
330
1E
100
AcDbEntity
  8
0
100
AcDbLine
 10
48.27533190768271
 20
91.01370455824042
 30
0.0
 11
49.2
 21
91.1458
 31
0.0
  0
LINE
  5
1A4
330
1E
100
AcDbEntity
  8
0
100
AcDbLine
 10
49.4
 20
90.64579999999999
 30
0.0
 11
53.5
 21
92.34579999999999
 31
0.0
  0
LINE
  5
1A5
330
1E
100
AcDbEntity
  8
0
100
AcDbLine
 10
48.079446968474
 20
90.46572458661009
 30
0.0
 11
49.4
 21
90.64579999999999
 31
0.0
  0
LINE
  5
1A6
330
1E
100
AcDbEntity
  8
0
100
AcDbLine
 10
47.1464
 20
91.58790000000001
 30
0.0
 11
48.9902
 21
94.34180000000001
 31
0.0
  0
LINE
  5
1A7
330
1E
100
AcDbEntity
  8
0
100
AcDbLine
 10
42.85359999999999
 20
91.58790000000001
 30
0.0
 11
43.89999999999999
 21
88.0438
 31
0.0
  0
LINE
  5
1AB
330
1E
100
AcDbEntity
  8
0
100
AcDbLine
 10
48.9902
 20
94.34180000000001
 30
0.0
 11
51.0
 21
96.62350000000001
 31
0.0
  0
LINE
  5
1AC
330
1E
100
AcDbEntity
  8
0
100
AcDbLine
 10
49.7508
 20
93.65299999999999
 30
0.0
 11
51.6
 21
95.64579999999999
 31
0.0
  0
LINE
  5
1AD
330
1E
100
AcDbEntity
  8
0
100
AcDbLine
 10
41.00979999999999
 20
94.34180000000001
 30
0.0
 11
42.85359999999999
 21
91.58790000000001
 31
0.0
  0
LINE
  5
1AE
330
1E
100
AcDbEntity
  8
0
100
AcDbLine
 10
53.2
 20
92.7458
 30
0.0
 11
56.7
 21
95.3458
 31
0.0
  0
LINE
  5
1AF
330
1E
100
AcDbEntity
  8
0
100
AcDbLine
 10
56.35185185185179
 20
94.54579999999999
 30
0.0
 11
58.0
 21
94.54579999999999
 31
0.0
  0
LINE
  5
1B0
330
1E
100
AcDbEntity
  8
0
100
AcDbLine
 10
58.0
 20
94.54579999999999
 30
0.0
 11
64.5
 21
94.54579999999999
 31
0.0
  0
LINE
  5
1B1
330
1E
100
AcDbEntity
  8
0
100
AcDbLine
 10
53.5
 20
92.34579999999999
 30
0.0
 11
57.0
 21
95.0458
 31
0.0
  0
LINE
  5
1B2
330
1E
100
AcDbEntity
  8
0
100
AcDbLine
 10
53.5
 20
92.34579999999999
 30
0.0
 11
56.3518518518519
 21
94.54579999999999
 31
0.0
  0
LINE
  5
1B3
330
1E
100
AcDbEntity
  8
0
100
AcDbLine
 10
51.6
 20
95.64579999999999
 30
0.0
 11
54.29999999999999
 21
97.7458
 31
0.0
  0
LINE
  5
1B4
330
1E
100
AcDbEntity
  8
0
100
AcDbLine
 10
51.0
 20
96.62350000000001
 30
0.0
 11
53.5
 21
98.5458
 31
0.0
  0
LINE
  5
1B5
330
1E
100
AcDbEntity
  8
0
100
AcDbLine
 10
54.29999999999999
 20
97.7458
 30
0.0
 11
56.4
 21
100.4458
 31
0.0
  0
LINE
  5
1B6
330
1E
100
AcDbEntity
  8
0
100
AcDbLine
 10
53.5
 20
98.5458
 30
0.0
 11
55.42229999999999
 21
101.0458
 31
0.0
  0
LINE
  5
1B7
330
1E
100
AcDbEntity
  8
0
100
AcDbLine
 10
50.2
 20
97.94580000000001
 30
0.0
 11
52.4
 21
99.64579999999999
 31
0.0
  0
LINE
  5
1B8
330
1E
100
AcDbEntity
  8
0
100
AcDbLine
 10
47.7
 20
96.94580000000001
 30
0.0
 11
50.2
 21
97.94580000000001
 31
0.0
  0
LINE
  5
1B9
330
1E
100
AcDbEntity
  8
0
100
AcDbLine
 10
45.0
 20
96.54580000000001
 30
0.0
 11
47.7
 21
96.94580000000001
 31
0.0
  0
LINE
  5
1BA
330
1E
100
AcDbEntity
  8
0
100
AcDbLine
 10
42.29999999999999
 20
96.94580000000001
 30
0.0
 11
45.0
 21
96.54580000000001
 31
0.0
  0
LINE
  5
1BB
330
1E
100
AcDbEntity
  8
0
100
AcDbLine
 10
56.7
 20
95.3458
 30
0.0
 11
59.29999999999999
 21
98.84579999999999
 31
0.0
  0
LINE
  5
1BC
330
1E
100
AcDbEntity
  8
0
100
AcDbLine
 10
59.29999999999999
 20
98.84579999999999
 30
0.0
 11
60.89999999999999
 21
102.8458
 31
0.0
  0
LINE
  5
1BD
330
1E
100
AcDbEntity
  8
0
100
AcDbLine
 10
57.0
 20
95.0458
 30
0.0
 11
59.7
 21
98.5458
 31
0.0
  0
LINE
  5
1C1
330
1E
100
AcDbEntity
  8
0
100
AcDbLine
 10
66.5
 20
92.04579999999999
 30
0.0
 11
68.0
 21
92.5458
 31
0.0
  0
LINE
  5
1C2
330
1E
100
AcDbEntity
  8
0
100
AcDbLine
 10
64.5
 20
95.0458
 30
0.0
 11
64.5
 21
94.54579999999999
 31
0.0
  0
LINE
  5
1C3
330
1E
100
AcDbEntity
  8
0
100
AcDbLine
 10
64.5
 20
96.24580000000001
 30
0.0
 11
64.5
 21
95.0458
 31
0.0
  0
LINE
  5
1C4
330
1E
100
AcDbEntity
  8
0
100
AcDbLine
 10
64.5
 20
95.7458
 30
0.0
 11
64.5
 21
94.54579999999999
 31
0.0
  0
LINE
  5
1C5
330
1E
100
AcDbEntity
  8
0
100
AcDbLine
 10
64.5
 20
94.54579999999999
 30
0.0
 11
64.5
 21
94.04580000000001
 31
0.0
  0
LINE
  5
1C8
330
1E
100
AcDbEntity
  8
0
100
AcDbLine
 10
65.0
 20
94.4458
 30
0.0
 11
65.0
 21
96.8458
 31
0.0
  0
LINE
  5
1C9
330
1E
100
AcDbEntity
  8
0
100
AcDbLine
 10
65.0
 20
94.4458
 30
0.0
 11
65.0
 21
93.04579999999999
 31
0.0
  0
LINE
  5
1CA
330
1E
100
AcDbEntity
  8
0
100
AcDbLine
 10
65.0
 20
93.04579999999999
 30
0.0
 11
65.0
 21
94.4458
 31
0.0
  0
LINE
  5
1CB
330
1E
100
AcDbEntity
  8
0
100
AcDbLine
 10
65.0
 20
93.04579999999999
 30
0.0
 11
65.0
 21
92.5458
 31
0.0
  0
LINE
  5
1CC
330
1E
100
AcDbEntity
  8
0
100
AcDbLine
 10
64.5
 20
94.04580000000001
 30
0.0
 11
65.0
 21
92.5458
 31
0.0
  0
LINE
  5
1CD
330
1E
100
AcDbEntity
  8
0
100
AcDbLine
 10
64.5
 20
94.04580000000001
 30
0.0
 11
64.5
 21
94.54579999999999
 31
0.0
  0
LINE
  5
1CE
330
1E
100
AcDbEntity
  8
0
100
AcDbLine
 10
65.0
 20
92.5458
 30
0.0
 11
65.0
 21
93.04579999999999
 31
0.0
  0
LINE
  5
1CF
330
1E
100
AcDbEntity
  8
0
100
AcDbLine
 10
65.0
 20
92.5458
 30
0.0
 11
66.5
 21
92.04579999999999
 31
0.0
  0
LINE
  5
1D0
330
1E
100
AcDbEntity
  8
0
100
AcDbLine
 10
68.0
 20
94.4458
 30
0.0
 11
68.0
 21
96.8458
 31
0.0
  0
LINE
  5
1D1
330
1E
100
AcDbEntity
  8
0
100
AcDbLine
 10
68.0
 20
94.4458
 30
0.0
 11
68.0
 21
93.04579999999999
 31
0.0
  0
LINE
  5
1D2
330
1E
100
AcDbEntity
  8
0
100
AcDbLine
 10
68.0
 20
93.04579999999999
 30
0.0
 11
68.0
 21
94.4458
 31
0.0
  0
LINE
  5
1D3
330
1E
100
AcDbEntity
  8
0
100
AcDbLine
 10
68.0
 20
93.04579999999999
 30
0.0
 11
68.0
 21
92.5458
 31
0.0
  0
LINE
  5
1D4
330
1E
100
AcDbEntity
  8
0
100
AcDbLine
 10
105.51
 20
93.14579999999999
 30
0.0
 11
105.51
 21
95.7458
 31
0.0
  0
LINE
  5
1D5
330
1E
100
AcDbEntity
  8
0
100
AcDbLine
 10
105.51
 20
93.14579999999999
 30
0.0
 11
105.51
 21
91.64579999999999
 31
0.0
  0
LINE
  5
1D6
330
1E
100
AcDbEntity
  8
0
100
AcDbLine
 10
105.51
 20
91.64579999999999
 30
0.0
 11
105.51
 21
93.14579999999999
 31
0.0
  0
LINE
  5
1D7
330
1E
100
AcDbEntity
  8
0
100
AcDbLine
 10
105.51
 20
91.64579999999999
 30
0.0
 11
105.51
 21
91.0458
 31
0.0
  0
LINE
  5
1DC
330
1E
100
AcDbEntity
  8
0
100
AcDbLine
 10
150.4509999999999
 20
91.8458
 30
0.0
 11
150.4509999999999
 21
90.1458
 31
0.0
  0
LINE
  5
1DD
330
1E
100
AcDbEntity
  8
0
100
AcDbLine
 10
150.4509999999999
 20
91.8458
 30
0.0
 11
150.4509999999999
 21
94.64579999999999
 31
0.0
  0
LINE
  5
1DE
330
1E
100
AcDbEntity
  8
0
100
AcDbLine
 10
153.985
 20
91.8458
 30
0.0
 11
153.985
 21
90.1458
 31
0.0
  0
LINE
  5
1DF
330
1E
100
AcDbEntity
  8
0
100
AcDbLine
 10
153.985
 20
91.8458
 30
0.0
 11
153.985
 21
94.64579999999999
 31
0.0
  0
LINE
  5
1E0
330
1E
100
AcDbEntity
  8
0
100
AcDbLine
 10
154.49
 20
91.64579999999999
 30
0.0
 11
154.49
 21
91.0458
 31
0.0
  0
LINE
  5
1E1
330
1E
100
AcDbEntity
  8
0
100
AcDbLine
 10
154.49
 20
91.64579999999999
 30
0.0
 11
154.49
 21
93.14579999999999
 31
0.0
  0
LINE
  5
1E2
330
1E
100
AcDbEntity
  8
0
100
AcDbLine
 10
109.5499999999999
 20
91.8458
 30
0.0
 11
109.5499999999999
 21
94.64579999999999
 31
0.0
  0
LINE
  5
1E3
330
1E
100
AcDbEntity
  8
0
100
AcDbLine
 10
109.5499999999999
 20
91.8458
 30
0.0
 11
109.5499999999999
 21
90.1458
 31
0.0
  0
LINE
  5
1E4
330
1E
100
AcDbEntity
  8
0
100
AcDbLine
 10
149.9449999999999
 20
92.7458
 30
0.0
 11
149.9449999999999
 21
91.1458
 31
0.0
  0
LINE
  5
1E5
330
1E
100
AcDbEntity
  8
0
100
AcDbLine
 10
149.9449999999999
 20
92.7458
 30
0.0
 11
149.9449999999999
 21
95.44580000000001
 31
0.0
  0
LINE
  5
1FE
330
1E
100
AcDbEntity
  8
0
100
AcDbLine
 10
154.49
 20
93.14579999999999
 30
0.0
 11
154.49
 21
91.64579999999999
 31
0.0
  0
LINE
  5
1FF
330
1E
100
AcDbEntity
  8
0
100
AcDbLine
 10
154.49
 20
93.14579999999999
 30
0.0
 11
154.49
 21
95.7458
 31
0.0
  0
LINE
  5
200
330
1E
100
AcDbEntity
  8
0
100
AcDbLine
 10
154.49
 20
93.5458
 30
0.0
 11
155.4999999999999
 21
94.04580000000001
 31
0.0
  0
LINE
  5
201
330
1E
100
AcDbEntity
  8
0
100
AcDbLine
 10
110.054
 20
92.7458
 30
0.0
 11
110.054
 21
95.44580000000001
 31
0.0
  0
LINE
  5
202
330
1E
100
AcDbEntity
  8
0
100
AcDbLine
 10
110.054
 20
92.7458
 30
0.0
 11
110.054
 21
91.1458
 31
0.0
  0
LINE
  5
203
330
1E
100
AcDbEntity
  8
0
100
AcDbLine
 10
106.0149999999999
 20
91.8458
 30
0.0
 11
106.0149999999999
 21
94.64579999999999
 31
0.0
  0
LINE
  5
204
330
1E
100
AcDbEntity
  8
0
100
AcDbLine
 10
106.0149999999999
 20
91.8458
 30
0.0
 11
106.0149999999999
 21
90.1458
 31
0.0
  0
LINE
  5
205
330
1E
100
AcDbEntity
  8
0
100
AcDbLine
 10
105.51
 20
93.5458
 30
0.0
 11
105.51
 21
94.04580000000001
 31
0.0
  0
LINE
  5
206
330
1E
100
AcDbEntity
  8
0
100
AcDbLine
 10
68.5
 20
95.3458
 30
0.0
 11
68.5
 21
97.5458
 31
0.0
  0
LINE
  5
207
330
1E
100
AcDbEntity
  8
0
100
AcDbLine
 10
68.5
 20
95.3458
 30
0.0
 11
68.5
 21
94.04580000000001
 31
0.0
  0
LINE
  5
208
330
1E
100
AcDbEntity
  8
0
100
AcDbLine
 10
69.5
 20
94.04580000000001
 30
0.0
 11
104.4999999999999
 21
94.04580000000001
 31
0.0
  0
LINE
  5
209
330
1E
100
AcDbEntity
  8
0
100
AcDbLine
 10
105.51
 20
94.04580000000001
 30
0.0
 11
105.51
 21
95.3458
 31
0.0
  0
LINE
  5
20A
330
1E
100
AcDbEntity
  8
0
100
AcDbLine
 10
105.51
 20
94.04580000000001
 30
0.0
 11
105.51
 21
93.5458
 31
0.0
  0
LINE
  5
20B
330
1E
100
AcDbEntity
  8
0
100
AcDbLine
 10
105.51
 20
95.3458
 30
0.0
 11
105.51
 21
97.5458
 31
0.0
  0
LINE
  5
20C
330
1E
100
AcDbEntity
  8
0
100
AcDbLine
 10
105.51
 20
95.3458
 30
0.0
 11
105.51
 21
94.04580000000001
 31
0.0
  0
LINE
  5
20D
330
1E
100
AcDbEntity
  8
0
100
AcDbLine
 10
104.4999999999999
 20
94.04580000000001
 30
0.0
 11
105.51
 21
93.5458
 31
0.0
  0
LINE
  5
20E
330
1E
100
AcDbEntity
  8
0
100
AcDbLine
 10
150.4509999999999
 20
94.64579999999999
 30
0.0
 11
150.4509999999999
 21
98.3458
 31
0.0
  0
LINE
  5
20F
330
1E
100
AcDbEntity
  8
0
100
AcDbLine
 10
150.4509999999999
 20
94.64579999999999
 30
0.0
 11
150.4509999999999
 21
91.8458
 31
0.0
  0
LINE
  5
226
330
1E
100
AcDbEntity
  8
0
100
AcDbLine
 10
153.985
 20
94.64579999999999
 30
0.0
 11
153.985
 21
98.3458
 31
0.0
  0
LINE
  5
227
330
1E
100
AcDbEntity
  8
0
100
AcDbLine
 10
153.985
 20
94.64579999999999
 30
0.0
 11
153.985
 21
91.8458
 31
0.0
  0
LINE
  5
235
330
1E
100
AcDbEntity
  8
0
100
AcDbLine
 10
149.9449999999999
 20
95.44580000000001
 30
0.0
 11
149.9449999999999
 21
98.84579999999999
 31
0.0
  0
LINE
  5
236
330
1E
100
AcDbEntity
  8
0
100
AcDbLine
 10
149.9449999999999
 20
95.44580000000001
 30
0.0
 11
149.9449999999999
 21
92.7458
 31
0.0
  0
LINE
  5
237
330
1E
100
AcDbEntity
  8
0
100
AcDbLine
 10
154.49
 20
95.7458
 30
0.0
 11
154.49
 21
99.04580000000001
 31
0.0
  0
LINE
  5
238
330
1E
100
AcDbEntity
  8
0
100
AcDbLine
 10
154.49
 20
95.7458
 30
0.0
 11
154.49
 21
93.14579999999999
 31
0.0
  0
LINE
  5
239
330
1E
100
AcDbEntity
  8
0
100
AcDbLine
 10
110.054
 20
95.44580000000001
 30
0.0
 11
110.054
 21
98.84579999999999
 31
0.0
  0
LINE
  5
23A
330
1E
100
AcDbEntity
  8
0
100
AcDbLine
 10
110.054
 20
95.44580000000001
 30
0.0
 11
110.054
 21
92.7458
 31
0.0
  0
LINE
  5
23B
330
1E
100
AcDbEntity
  8
0
100
AcDbLine
 10
109.5499999999999
 20
94.64579999999999
 30
0.0
 11
109.5499999999999
 21
98.3458
 31
0.0
  0
LINE
  5
23C
330
1E
100
AcDbEntity
  8
0
100
AcDbLine
 10
109.5499999999999
 20
94.64579999999999
 30
0.0
 11
109.5499999999999
 21
91.8458
 31
0.0
  0
LINE
  5
23D
330
1E
100
AcDbEntity
  8
0
100
AcDbLine
 10
106.0149999999999
 20
94.64579999999999
 30
0.0
 11
106.0149999999999
 21
98.3458
 31
0.0
  0
LINE
  5
23E
330
1E
100
AcDbEntity
  8
0
100
AcDbLine
 10
106.0149999999999
 20
94.64579999999999
 30
0.0
 11
106.0149999999999
 21
91.8458
 31
0.0
  0
LINE
  5
248
330
1E
100
AcDbEntity
  8
0
100
AcDbLine
 10
105.51
 20
95.7458
 30
0.0
 11
105.51
 21
99.04580000000001
 31
0.0
  0
LINE
  5
249
330
1E
100
AcDbEntity
  8
0
100
AcDbLine
 10
105.51
 20
95.7458
 30
0.0
 11
105.51
 21
93.14579999999999
 31
0.0
  0
LINE
  5
24A
330
1E
100
AcDbEntity
  8
0
100
AcDbLine
 10
68.5
 20
94.04580000000001
 30
0.0
 11
68.5
 21
95.3458
 31
0.0
  0
LINE
  5
24B
330
1E
100
AcDbEntity
  8
0
100
AcDbLine
 10
68.5
 20
94.04580000000001
 30
0.0
 11
68.5
 21
93.5458
 31
0.0
  0
LINE
  5
24C
330
1E
100
AcDbEntity
  8
0
100
AcDbLine
 10
68.5
 20
93.5458
 30
0.0
 11
68.5
 21
94.04580000000001
 31
0.0
  0
LINE
  5
24D
330
1E
100
AcDbEntity
  8
0
100
AcDbLine
 10
68.5
 20
93.5458
 30
0.0
 11
69.5
 21
94.04580000000001
 31
0.0
  0
LINE
  5
24E
330
1E
100
AcDbEntity
  8
0
100
AcDbLine
 10
68.0
 20
92.5458
 30
0.0
 11
68.0
 21
93.04579999999999
 31
0.0
  0
LINE
  5
24F
330
1E
100
AcDbEntity
  8
0
100
AcDbLine
 10
68.0
 20
92.5458
 30
0.0
 11
68.5
 21
93.5458
 31
0.0
  0
LINE
  5
250
330
1E
100
AcDbEntity
  8
0
100
AcDbLine
 10
68.0
 20
96.8458
 30
0.0
 11
68.0
 21
99.84580000000001
 31
0.0
  0
LINE
  5
251
330
1E
100
AcDbEntity
  8
0
100
AcDbLine
 10
68.0
 20
96.8458
 30
0.0
 11
68.0
 21
94.4458
 31
0.0
  0
LINE
  5
254
330
1E
100
AcDbEntity
  8
0
100
AcDbLine
 10
64.5
 20
98.2458
 30
0.0
 11
64.5
 21
96.24580000000001
 31
0.0
  0
LINE
  5
255
330
1E
100
AcDbEntity
  8
0
100
AcDbLine
 10
64.5
 20
97.8458
 30
0.0
 11
64.5
 21
95.7458
 31
0.0
  0
LINE
  5
25D
330
1E
100
AcDbEntity
  8
0
100
AcDbLine
 10
150.4509999999999
 20
98.3458
 30
0.0
 11
150.4509999999999
 21
94.64579999999999
 31
0.0
  0
LINE
  5
25E
330
1E
100
AcDbEntity
  8
0
100
AcDbLine
 10
150.4509999999999
 20
98.3458
 30
0.0
 11
150.4509999999999
 21
102.5457999999999
 31
0.0
  0
LINE
  5
264
330
1E
100
AcDbEntity
  8
0
100
AcDbLine
 10
153.985
 20
98.3458
 30
0.0
 11
153.985
 21
94.64579999999999
 31
0.0
  0
LINE
  5
265
330
1E
100
AcDbEntity
  8
0
100
AcDbLine
 10
153.985
 20
98.3458
 30
0.0
 11
153.985
 21
102.5457999999999
 31
0.0
  0
LINE
  5
26C
330
1E
100
AcDbEntity
  8
0
100
AcDbLine
 10
149.9449999999999
 20
98.84579999999999
 30
0.0
 11
149.9449999999999
 21
95.44580000000001
 31
0.0
  0
LINE
  5
26D
330
1E
100
AcDbEntity
  8
0
100
AcDbLine
 10
149.9449999999999
 20
98.84579999999999
 30
0.0
 11
149.9449999999999
 21
102.8458
 31
0.0
  0
LINE
  5
26E
330
1E
100
AcDbEntity
  8
0
100
AcDbLine
 10
110.054
 20
98.84579999999999
 30
0.0
 11
110.054
 21
102.8458
 31
0.0
  0
LINE
  5
26F
330
1E
100
AcDbEntity
  8
0
100
AcDbLine
 10
110.054
 20
98.84579999999999
 30
0.0
 11
110.054
 21
95.44580000000001
 31
0.0
  0
LINE
  5
270
330
1E
100
AcDbEntity
  8
0
100
AcDbLine
 10
109.5499999999999
 20
98.3458
 30
0.0
 11
109.5499999999999
 21
102.5457999999999
 31
0.0
  0
LINE
  5
271
330
1E
100
AcDbEntity
  8
0
100
AcDbLine
 10
109.5499999999999
 20
98.3458
 30
0.0
 11
109.5499999999999
 21
94.64579999999999
 31
0.0
  0
LINE
  5
272
330
1E
100
AcDbEntity
  8
0
100
AcDbLine
 10
106.0149999999999
 20
98.3458
 30
0.0
 11
106.0149999999999
 21
102.5457999999999
 31
0.0
  0
LINE
  5
273
330
1E
100
AcDbEntity
  8
0
100
AcDbLine
 10
106.0149999999999
 20
98.3458
 30
0.0
 11
106.0149999999999
 21
94.64579999999999
 31
0.0
  0
LINE
  5
274
330
1E
100
AcDbEntity
  8
0
100
AcDbLine
 10
105.51
 20
97.5458
 30
0.0
 11
105.51
 21
100.3457999999999
 31
0.0
  0
LINE
  5
275
330
1E
100
AcDbEntity
  8
0
100
AcDbLine
 10
105.51
 20
97.5458
 30
0.0
 11
105.51
 21
95.3458
 31
0.0
  0
LINE
  5
276
330
1E
100
AcDbEntity
  8
0
100
AcDbLine
 10
68.5
 20
97.5458
 30
0.0
 11
68.5
 21
100.3457999999999
 31
0.0
  0
LINE
  5
277
330
1E
100
AcDbEntity
  8
0
100
AcDbLine
 10
68.5
 20
97.5458
 30
0.0
 11
68.5
 21
95.3458
 31
0.0
  0
LINE
  5
278
330
1E
100
AcDbEntity
  8
0
100
AcDbLine
 10
65.0
 20
96.8458
 30
0.0
 11
65.0
 21
99.84580000000001
 31
0.0
  0
LINE
  5
279
330
1E
100
AcDbEntity
  8
0
100
AcDbLine
 10
65.0
 20
96.8458
 30
0.0
 11
65.0
 21
94.4458
 31
0.0
  0
LINE
  5
27A
330
1E
100
AcDbEntity
  8
0
100
AcDbLine
 10
59.7
 20
98.5458
 30
0.0
 11
61.4
 21
102.6457999999999
 31
0.0
  0
LINE
  5
27B
330
1E
100
AcDbEntity
  8
0
100
AcDbLine
 10
40.8
 20
91.1458
 30
0.0
 11
41.72466809231729
 21
91.01370455824042
 31
0.0
  0
LINE
  5
27C
330
1E
100
AcDbEntity
  8
0
100
AcDbLine
 10
40.6
 20
90.64579999999999
 30
0.0
 11
41.92055303152599
 21
90.46572458661009
 31
0.0
  0
LINE
  5
27D
330
1E
100
AcDbEntity
  8
0
100
AcDbLine
 10
34.5777
 20
101.0458
 30
0.0
 11
36.5
 21
98.5458
 31
0.0
  0
LINE
  5
27E
330
1E
100
AcDbEntity
  8
0
100
AcDbLine
 10
33.6
 20
100.4458
 30
0.0
 11
35.7
 21
97.7458
 31
0.0
  0
LINE
  5
281
330
1E
100
AcDbEntity
  8
0
100
AcDbLine
 10
55.42229999999999
 20
101.0458
 30
0.0
 11
57.70399999999999
 21
103.0556
 31
0.0
  0
LINE
  5
282
330
1E
100
AcDbEntity
  8
0
100
AcDbLine
 10
56.4
 20
100.4458
 30
0.0
 11
58.3928
 21
102.295
 31
0.0
  0
LINE
  5
283
330
1E
100
AcDbEntity
  8
0
100
AcDbLine
 10
52.4
 20
99.64579999999999
 30
0.0
 11
54.1
 21
101.8458
 31
0.0
  0
LINE
  5
284
330
1E
100
AcDbEntity
  8
0
100
AcDbLine
 10
54.1
 20
101.8458
 30
0.0
 11
55.1
 21
104.3457999999999
 31
0.0
  0
LINE
  5
285
330
1E
100
AcDbEntity
  8
0
100
AcDbLine
 10
37.6
 20
99.64579999999999
 30
0.0
 11
39.8
 21
97.94580000000001
 31
0.0
  0
LINE
  5
286
330
1E
100
AcDbEntity
  8
0
100
AcDbLine
 10
35.89999999999999
 20
101.8458
 30
0.0
 11
37.6
 21
99.64579999999999
 31
0.0
  0
LINE
  5
287
330
1E
100
AcDbEntity
  8
0
100
AcDbLine
 10
58.3928
 20
102.295
 30
0.0
 11
61.1139
 21
103.8162
 31
0.0
  0
LINE
  5
288
330
1E
100
AcDbEntity
  8
0
100
AcDbLine
 10
31.60719999999999
 20
102.295
 30
0.0
 11
33.6
 21
100.4458
 31
0.0
  0
LINE
  5
294
330
1E
100
AcDbEntity
  8
0
100
AcDbLine
 10
154.49
 20
99.04580000000001
 30
0.0
 11
154.49
 21
95.7458
 31
0.0
  0
LINE
  5
295
330
1E
100
AcDbEntity
  8
0
100
AcDbLine
 10
154.49
 20
99.04580000000001
 30
0.0
 11
154.49
 21
102.9457999999999
 31
0.0
  0
LINE
  5
296
330
1E
100
AcDbEntity
  8
0
100
AcDbLine
 10
105.51
 20
99.04580000000001
 30
0.0
 11
105.51
 21
102.9457999999999
 31
0.0
  0
LINE
  5
297
330
1E
100
AcDbEntity
  8
0
100
AcDbLine
 10
105.51
 20
99.04580000000001
 30
0.0
 11
105.51
 21
95.7458
 31
0.0
  0
LINE
  5
298
330
1E
100
AcDbEntity
  8
0
100
AcDbLine
 10
68.0
 20
99.84580000000001
 30
0.0
 11
68.0
 21
103.3457999999999
 31
0.0
  0
LINE
  5
299
330
1E
100
AcDbEntity
  8
0
100
AcDbLine
 10
68.0
 20
99.84580000000001
 30
0.0
 11
68.0
 21
96.8458
 31
0.0
  0
LINE
  5
29C
330
1E
100
AcDbEntity
  8
0
100
AcDbLine
 10
64.5
 20
100.8458
 30
0.0
 11
64.5
 21
98.2458
 31
0.0
  0
LINE
  5
29F
330
1E
100
AcDbEntity
  8
0
100
AcDbLine
 10
105.51
 20
100.3457999999999
 30
0.0
 11
105.51
 21
103.5457999999999
 31
0.0
  0
LINE
  5
2A0
330
1E
100
AcDbEntity
  8
0
100
AcDbLine
 10
105.51
 20
100.3457999999999
 30
0.0
 11
105.51
 21
97.5458
 31
0.0
  0
LINE
  5
2A1
330
1E
100
AcDbEntity
  8
0
100
AcDbLine
 10
150.4509999999999
 20
102.5457999999999
 30
0.0
 11
150.4509999999999
 21
98.3458
 31
0.0
  0
LINE
  5
2A2
330
1E
100
AcDbEntity
  8
0
100
AcDbLine
 10
150.4509999999999
 20
102.5457999999999
 30
0.0
 11
150.4509999999999
 21
107.0458
 31
0.0
  0
LINE
  5
2AC
330
1E
100
AcDbEntity
  8
0
100
AcDbLine
 10
153.985
 20
102.5457999999999
 30
0.0
 11
153.985
 21
98.3458
 31
0.0
  0
LINE
  5
2AD
330
1E
100
AcDbEntity
  8
0
100
AcDbLine
 10
153.985
 20
102.5457999999999
 30
0.0
 11
153.985
 21
107.0458
 31
0.0
  0
LINE
  5
2B0
330
1E
100
AcDbEntity
  8
0
100
AcDbLine
 10
109.5499999999999
 20
102.5457999999999
 30
0.0
 11
109.5499999999999
 21
107.0458
 31
0.0
  0
LINE
  5
2B1
330
1E
100
AcDbEntity
  8
0
100
AcDbLine
 10
109.5499999999999
 20
102.5457999999999
 30
0.0
 11
109.5499999999999
 21
98.3458
 31
0.0
  0
LINE
  5
2B2
330
1E
100
AcDbEntity
  8
0
100
AcDbLine
 10
106.0149999999999
 20
102.5457999999999
 30
0.0
 11
106.0149999999999
 21
107.0458
 31
0.0
  0
LINE
  5
2B3
330
1E
100
AcDbEntity
  8
0
100
AcDbLine
 10
106.0149999999999
 20
102.5457999999999
 30
0.0
 11
106.0149999999999
 21
98.3458
 31
0.0
  0
LINE
  5
2B4
330
1E
100
AcDbEntity
  8
0
100
AcDbLine
 10
68.5
 20
100.3457999999999
 30
0.0
 11
68.5
 21
103.5457999999999
 31
0.0
  0
LINE
  5
2B5
330
1E
100
AcDbEntity
  8
0
100
AcDbLine
 10
68.5
 20
100.3457999999999
 30
0.0
 11
68.5
 21
97.5458
 31
0.0
  0
LINE
  5
2B6
330
1E
100
AcDbEntity
  8
0
100
AcDbLine
 10
64.5
 20
100.5457999999999
 30
0.0
 11
64.5
 21
97.8458
 31
0.0
  0
LINE
  5
2B7
330
1E
100
AcDbEntity
  8
0
100
AcDbLine
 10
65.0
 20
99.84580000000001
 30
0.0
 11
65.0
 21
103.3457999999999
 31
0.0
  0
LINE
  5
2B8
330
1E
100
AcDbEntity
  8
0
100
AcDbLine
 10
65.0
 20
99.84580000000001
 30
0.0
 11
65.0
 21
96.8458
 31
0.0
  0
LINE
  5
2B9
330
1E
100
AcDbEntity
  8
0
100
AcDbLine
 10
61.4
 20
102.6457999999999
 30
0.0
 11
61.5800754133899
 21
103.9663530315259
 31
0.0
  0
LINE
  5
2BA
330
1E
100
AcDbEntity
  8
0
100
AcDbLine
 10
30.7
 20
98.84579999999999
 30
0.0
 11
33.3
 21
95.3458
 31
0.0
  0
LINE
  5
2BB
330
1E
100
AcDbEntity
  8
0
100
AcDbLine
 10
30.3
 20
98.5458
 30
0.0
 11
33.0
 21
95.0458
 31
0.0
  0
LINE
  5
2BC
330
1E
100
AcDbEntity
  8
0
100
AcDbLine
 10
30.3
 20
98.5458
 30
0.0
 11
33.0
 21
95.0458
 31
0.0
  0
LINE
  5
2BD
330
1E
100
AcDbEntity
  8
0
100
AcDbLine
 10
28.88609999999999
 20
103.8162
 30
0.0
 11
31.60719999999999
 21
102.295
 31
0.0
  0
LINE
  5
2BE
330
1E
100
AcDbEntity
  8
0
100
AcDbLine
 10
28.88609999999999
 20
110.2754
 30
0.0
 11
31.60719999999999
 21
111.7966
 31
0.0
  0
LINE
  5
2BF
330
1E
100
AcDbEntity
  8
0
100
AcDbLine
 10
28.6
 20
111.4458
 30
0.0
 11
30.3
 21
115.5458
 31
0.0
  0
LINE
  5
2C0
330
1E
100
AcDbEntity
  8
0
100
AcDbLine
 10
28.4199245866101
 20
110.125246968474
 30
0.0
 11
28.6
 21
111.4458
 31
0.0
  0
LINE
  5
2C3
330
1E
100
AcDbEntity
  8
0
100
AcDbLine
 10
149.9449999999999
 20
102.8458
 30
0.0
 11
149.9449999999999
 21
98.84579999999999
 31
0.0
  0
LINE
  5
2C4
330
1E
100
AcDbEntity
  8
0
100
AcDbLine
 10
149.9449999999999
 20
102.8458
 30
0.0
 11
149.9449999999999
 21
107.0458
 31
0.0
  0
LINE
  5
2C5
330
1E
100
AcDbEntity
  8
0
100
AcDbLine
 10
110.054
 20
102.8458
 30
0.0
 11
110.054
 21
107.0458
 31
0.0
  0
LINE
  5
2C6
330
1E
100
AcDbEntity
  8
0
100
AcDbLine
 10
110.054
 20
102.8458
 30
0.0
 11
110.054
 21
98.84579999999999
 31
0.0
  0
LINE
  5
2C7
330
1E
100
AcDbEntity
  8
0
100
AcDbLine
 10
60.89999999999999
 20
102.8458
 30
0.0
 11
61.0320954417596
 21
103.770468092317
 31
0.0
  0
LINE
  5
2C8
330
1E
100
AcDbEntity
  8
0
100
AcDbLine
 10
29.5421
 20
109.1922
 30
0.0
 11
32.296
 21
111.036
 31
0.0
  0
LINE
  5
2C9
330
1E
100
AcDbEntity
  8
0
100
AcDbLine
 10
57.70399999999999
 20
103.0556
 30
0.0
 11
60.4579
 21
104.8993999999999
 31
0.0
  0
LINE
  5
2CA
330
1E
100
AcDbEntity
  8
0
100
AcDbLine
 10
32.296
 20
111.036
 30
0.0
 11
34.5777
 21
113.0457999999999
 31
0.0
  0
LINE
  5
2CB
330
1E
100
AcDbEntity
  8
0
100
AcDbLine
 10
55.1
 20
104.3457999999999
 30
0.0
 11
55.5
 21
107.0458
 31
0.0
  0
LINE
  5
2CC
330
1E
100
AcDbEntity
  8
0
100
AcDbLine
 10
34.9
 20
109.7458
 30
0.0
 11
35.89999999999999
 21
112.2457999999999
 31
0.0
  0
LINE
  5
2CD
330
1E
100
AcDbEntity
  8
0
100
AcDbLine
 10
55.1
 20
109.7458
 30
0.0
 11
55.5
 21
107.0458
 31
0.0
  0
LINE
  5
2CE
330
1E
100
AcDbEntity
  8
0
100
AcDbLine
 10
57.70399999999999
 20
111.036
 30
0.0
 11
60.4579
 21
109.1922
 31
0.0
  0
LINE
  5
2CF
330
1E
100
AcDbEntity
  8
0
100
AcDbLine
 10
34.9
 20
104.3457999999999
 30
0.0
 11
35.89999999999999
 21
101.8458
 31
0.0
  0
LINE
  5
2D0
330
1E
100
AcDbEntity
  8
0
100
AcDbLine
 10
34.5
 20
107.0458
 30
0.0
 11
34.9
 21
104.3457999999999
 31
0.0
  0
LINE
  5
2D1
330
1E
100
AcDbEntity
  8
0
100
AcDbLine
 10
34.5
 20
107.0458
 30
0.0
 11
34.9
 21
109.7458
 31
0.0
  0
LINE
  5
2D2
330
1E
100
AcDbEntity
  8
0
100
AcDbLine
 10
32.296
 20
103.0556
 30
0.0
 11
34.5777
 21
101.0458
 31
0.0
  0
LINE
  5
2D3
330
1E
100
AcDbEntity
  8
0
100
AcDbLine
 10
29.5421
 20
104.8993999999999
 30
0.0
 11
32.296
 21
103.0556
 31
0.0
  0
LINE
  5
2D6
330
1E
100
AcDbEntity
  8
0
100
AcDbLine
 10
60.4579
 20
109.1922
 30
0.0
 11
64.00199999999999
 21
108.1458
 31
0.0
  0
LINE
  5
2D7
330
1E
100
AcDbEntity
  8
0
100
AcDbLine
 10
60.4579
 20
104.8993999999999
 30
0.0
 11
64.00199999999999
 21
105.9458
 31
0.0
  0
LINE
  5
2D9
330
1E
100
AcDbEntity
  8
0
100
AcDbLine
 10
31.60719999999999
 20
111.7966
 30
0.0
 11
33.6
 21
113.6457999999999
 31
0.0
  0
LINE
  5
2DA
330
1E
100
AcDbEntity
  8
0
100
AcDbLine
 10
34.5777
 20
113.0457999999999
 30
0.0
 11
36.5
 21
115.5458
 31
0.0
  0
LINE
  5
2DB
330
1E
100
AcDbEntity
  8
0
100
AcDbLine
 10
33.6
 20
113.6457999999999
 30
0.0
 11
35.7
 21
116.3458
 31
0.0
  0
LINE
  5
2DC
330
1E
100
AcDbEntity
  8
0
100
AcDbLine
 10
35.89999999999999
 20
112.2457999999999
 30
0.0
 11
37.6
 21
114.4457999999999
 31
0.0
  0
LINE
  5
2DD
330
1E
100
AcDbEntity
  8
0
100
AcDbLine
 10
37.6
 20
114.4457999999999
 30
0.0
 11
39.8
 21
116.1457999999999
 31
0.0
  0
LINE
  5
2E0
330
1E
100
AcDbEntity
  8
0
100
AcDbLine
 10
52.4
 20
114.4457999999999
 30
0.0
 11
54.1
 21
112.2457999999999
 31
0.0
  0
LINE
  5
2E1
330
1E
100
AcDbEntity
  8
0
100
AcDbLine
 10
55.42229999999999
 20
113.0457999999999
 30
0.0
 11
57.70399999999999
 21
111.036
 31
0.0
  0
LINE
  5
2E2
330
1E
100
AcDbEntity
  8
0
100
AcDbLine
 10
56.4
 20
113.6457999999999
 30
0.0
 11
58.3928
 21
111.7966
 31
0.0
  0
LINE
  5
2E3
330
1E
100
AcDbEntity
  8
0
100
AcDbLine
 10
54.1
 20
112.2457999999999
 30
0.0
 11
55.1
 21
109.7458
 31
0.0
  0
LINE
  5
2E4
330
1E
100
AcDbEntity
  8
0
100
AcDbLine
 10
58.3928
 20
111.7966
 30
0.0
 11
61.1139
 21
110.2754
 31
0.0
  0
LINE
  5
2E5
330
1E
100
AcDbEntity
  8
0
100
AcDbLine
 10
30.7
 20
115.2457999999999
 30
0.0
 11
33.3
 21
118.7458
 31
0.0
  0
LINE
  5
2E6
330
1E
100
AcDbEntity
  8
0
100
AcDbLine
 10
29.1
 20
111.2457999999999
 30
0.0
 11
30.7
 21
115.2457999999999
 31
0.0
  0
LINE
  5
2E7
330
1E
100
AcDbEntity
  8
0
100
AcDbLine
 10
28.9679045582404
 20
110.321131907683
 30
0.0
 11
29.1
 21
111.2457999999999
 31
0.0
  0
LINE
  5
2E8
330
1E
100
AcDbEntity
  8
0
100
AcDbLine
 10
53.5
 20
115.5458
 30
0.0
 11
55.42229999999999
 21
113.0457999999999
 31
0.0
  0
LINE
  5
2E9
330
1E
100
AcDbEntity
  8
0
100
AcDbLine
 10
36.5
 20
115.5458
 30
0.0
 11
39.0
 21
117.4681
 31
0.0
  0
LINE
  5
2EA
330
1E
100
AcDbEntity
  8
0
100
AcDbLine
 10
30.3
 20
115.5458
 30
0.0
 11
33.0
 21
119.0458
 31
0.0
  0
LINE
  5
2EB
330
1E
100
AcDbEntity
  8
0
100
AcDbLine
 10
59.29999999999999
 20
115.2457999999999
 30
0.0
 11
60.89999999999999
 21
111.2457999999999
 31
0.0
  0
LINE
  5
2EC
330
1E
100
AcDbEntity
  8
0
100
AcDbLine
 10
61.1139
 20
110.2754
 30
0.0
 11
64.0
 21
109.3458
 31
0.0
  0
LINE
  5
2ED
330
1E
100
AcDbEntity
  8
0
100
AcDbLine
 10
61.1139
 20
103.8162
 30
0.0
 11
64.0
 21
104.7458
 31
0.0
  0
LINE
  5
2EE
330
1E
100
AcDbEntity
  8
0
100
AcDbLine
 10
60.89999999999999
 20
111.2457999999999
 30
0.0
 11
61.0320954417596
 21
110.321131907683
 31
0.0
  0
LINE
  5
2EF
330
1E
100
AcDbEntity
  8
0
100
AcDbLine
 10
35.7
 20
116.3458
 30
0.0
 11
38.39999999999999
 21
118.4458
 31
0.0
  0
LINE
  5
2F0
330
1E
100
AcDbEntity
  8
0
100
AcDbLine
 10
39.8
 20
116.1457999999999
 30
0.0
 11
42.29999999999999
 21
117.1457999999999
 31
0.0
  0
LINE
  5
2F1
330
1E
100
AcDbEntity
  8
0
100
AcDbLine
 10
42.29999999999999
 20
117.1457999999999
 30
0.0
 11
45.0
 21
117.5458
 31
0.0
  0
LINE
  5
2F2
330
1E
100
AcDbEntity
  8
0
100
AcDbLine
 10
39.0
 20
117.4681
 30
0.0
 11
41.00979999999999
 21
119.7497999999999
 31
0.0
  0
LINE
  5
2F3
330
1E
100
AcDbEntity
  8
0
100
AcDbLine
 10
54.29999999999999
 20
116.3458
 30
0.0
 11
56.4
 21
113.6457999999999
 31
0.0
  0
LINE
  5
2F4
330
1E
100
AcDbEntity
  8
0
100
AcDbLine
 10
50.2
 20
116.1457999999999
 30
0.0
 11
52.4
 21
114.4457999999999
 31
0.0
  0
LINE
  5
2F5
330
1E
100
AcDbEntity
  8
0
100
AcDbLine
 10
51.0
 20
117.4681
 30
0.0
 11
53.5
 21
115.5458
 31
0.0
  0
LINE
  5
2F6
330
1E
100
AcDbEntity
  8
0
100
AcDbLine
 10
47.7
 20
117.1457999999999
 30
0.0
 11
50.2
 21
116.1457999999999
 31
0.0
  0
LINE
  5
2F7
330
1E
100
AcDbEntity
  8
0
100
AcDbLine
 10
45.0
 20
117.5458
 30
0.0
 11
47.7
 21
117.1457999999999
 31
0.0
  0
LINE
  5
2F8
330
1E
100
AcDbEntity
  8
0
100
AcDbLine
 10
51.6
 20
118.4458
 30
0.0
 11
54.29999999999999
 21
116.3458
 31
0.0
  0
LINE
  5
2F9
330
1E
100
AcDbEntity
  8
0
100
AcDbLine
 10
38.39999999999999
 20
118.4458
 30
0.0
 11
40.2492
 21
120.4385999999999
 31
0.0
  0
LINE
  5
2FB
330
1E
100
AcDbEntity
  8
0
100
AcDbLine
 10
33.3
 20
118.7458
 30
0.0
 11
36.79999999999999
 21
121.3457999999999
 31
0.0
  0
LINE
  5
2FC
330
1E
100
AcDbEntity
  8
0
100
AcDbLine
 10
33.0
 20
119.0458
 30
0.0
 11
36.5
 21
121.7458
 31
0.0
  0
LINE
  5
2FD
330
1E
100
AcDbEntity
  8
0
100
AcDbLine
 10
41.00979999999999
 20
119.7497999999999
 30
0.0
 11
42.85359999999999
 21
122.5036999999999
 31
0.0
  0
LINE
  5
300
330
1E
100
AcDbEntity
  8
0
100
AcDbLine
 10
42.85359999999999
 20
122.5036999999999
 30
0.0
 11
43.89999999999999
 21
126.0477999999999
 31
0.0
  0
LINE
  5
301
330
1E
100
AcDbEntity
  8
0
100
AcDbLine
 10
40.2492
 20
120.4385999999999
 30
0.0
 11
41.7704
 21
123.1597
 31
0.0
  0
LINE
  5
302
330
1E
100
AcDbEntity
  8
0
100
AcDbLine
 10
47.1464
 20
122.5036999999999
 30
0.0
 11
48.9902
 21
119.7497999999999
 31
0.0
  0
LINE
  5
305
330
1E
100
AcDbEntity
  8
0
100
AcDbLine
 10
36.79999999999999
 20
121.3457999999999
 30
0.0
 11
40.8
 21
122.9458
 31
0.0
  0
LINE
  5
306
330
1E
100
AcDbEntity
  8
0
100
AcDbLine
 10
41.7704
 20
123.1597
 30
0.0
 11
42.7
 21
126.0458
 31
0.0
  0
LINE
  5
307
330
1E
100
AcDbEntity
  8
0
100
AcDbLine
 10
40.8
 20
122.9458
 30
0.0
 11
41.72466809231729
 21
123.0778954417599
 31
0.0
  0
LINE
  5
308
330
1E
100
AcDbEntity
  8
0
100
AcDbLine
 10
36.5
 20
121.7458
 30
0.0
 11
40.6
 21
123.4458
 31
0.0
  0
LINE
  5
30A
330
1E
100
AcDbEntity
  8
0
100
AcDbLine
 10
44.2
 20
130.0228999999999
 30
0.0
 11
44.2
 21
131.9206
 31
0.0
  0
LINE
  5
30B
330
1E
100
AcDbEntity
  8
0
100
AcDbLine
 10
43.89999999999999
 20
126.0477999999999
 30
0.0
 11
44.2
 21
130.0228999999999
 31
0.0
  0
LINE
  5
30C
330
1E
100
AcDbEntity
  8
0
100
AcDbLine
 10
42.7
 20
126.0458
 30
0.0
 11
43.0
 21
130.0458
 31
0.0
  0
LINE
  5
30D
330
1E
100
AcDbEntity
  8
0
100
AcDbLine
 10
46.1
 20
126.0477999999999
 30
0.0
 11
47.1464
 21
122.5036999999999
 31
0.0
  0
LINE
  5
30E
330
1E
100
AcDbEntity
  8
0
100
AcDbLine
 10
43.0
 20
130.0458
 30
0.0
 11
43.2
 21
133.0458
 31
0.0
  0
LINE
  5
30F
330
1E
100
AcDbEntity
  8
0
100
AcDbLine
 10
43.2
 20
133.0458
 30
0.0
 11
43.7
 21
135.5458
 31
0.0
  0
LINE
  5
313
330
1E
100
AcDbEntity
  8
0
100
AcDbLine
 10
44.2
 20
131.9206
 30
0.0
 11
44.2
 21
133.4205
 31
0.0
  0
LINE
  5
314
330
1E
100
AcDbEntity
  8
0
100
AcDbLine
 10
44.2
 20
131.9206
 30
0.0
 11
44.2
 21
130.0228999999999
 31
0.0
  0
LINE
  5
318
330
1E
100
AcDbEntity
  8
0
100
AcDbLine
 10
44.2
 20
133.4205
 30
0.0
 11
44.2
 21
134.5166
 31
0.0
  0
LINE
  5
319
330
1E
100
AcDbEntity
  8
0
100
AcDbLine
 10
44.2
 20
133.4205
 30
0.0
 11
44.2
 21
131.9206
 31
0.0
  0
LINE
  5
31A
330
1E
100
AcDbEntity
  8
0
100
AcDbLine
 10
44.2
 20
134.5166
 30
0.0
 11
44.2
 21
135.1704
 31
0.0
  0
LINE
  5
31B
330
1E
100
AcDbEntity
  8
0
100
AcDbLine
 10
44.2
 20
134.5166
 30
0.0
 11
44.2
 21
133.4205
 31
0.0
  0
LINE
  5
31C
330
1E
100
AcDbEntity
  8
0
100
AcDbLine
 10
43.7
 20
135.5458
 30
0.0
 11
44.2
 21
136.0458
 31
0.0
  0
LINE
  5
31D
330
1E
100
AcDbEntity
  8
0
100
AcDbLine
 10
44.2
 20
135.1704
 30
0.0
 11
44.2
 21
135.6896
 31
0.0
  0
LINE
  5
31E
330
1E
100
AcDbEntity
  8
0
100
AcDbLine
 10
44.2
 20
135.1704
 30
0.0
 11
44.2
 21
134.5166
 31
0.0
  0
LINE
  5
31F
330
1E
100
AcDbEntity
  8
0
100
AcDbLine
 10
44.2
 20
135.6896
 30
0.0
 11
44.2
 21
136.0458
 31
0.0
  0
LINE
  5
320
330
1E
100
AcDbEntity
  8
0
100
AcDbLine
 10
44.2
 20
135.6896
 30
0.0
 11
44.2
 21
135.1704
 31
0.0
  0
LINE
  5
321
330
1E
100
AcDbEntity
  8
0
100
AcDbLine
 10
35.4
 20
143.1458
 30
0.0
 11
45.0
 21
144.5458
 31
0.0
  0
LINE
  5
322
330
1E
100
AcDbEntity
  8
0
100
AcDbLine
 10
35.2
 20
143.6458
 30
0.0
 11
45.0
 21
145.0458
 31
0.0
  0
LINE
  5
323
330
1E
100
AcDbEntity
  8
0
100
AcDbLine
 10
45.0
 20
144.5458
 30
0.0
 11
54.6
 21
143.1458
 31
0.0
  0
LINE
  5
324
330
1E
100
AcDbEntity
  8
0
100
AcDbLine
 10
33.39999999999999
 20
150.4457999999999
 30
0.0
 11
45.0
 21
152.0458
 31
0.0
  0
LINE
  5
325
330
1E
100
AcDbEntity
  8
0
100
AcDbLine
 10
45.0
 20
145.0458
 30
0.0
 11
54.8
 21
143.6458
 31
0.0
  0
LINE
  5
326
330
1E
100
AcDbEntity
  8
0
100
AcDbLine
 10
45.0
 20
152.0458
 30
0.0
 11
56.6
 21
150.4457999999999
 31
0.0
  0
LINE
  5
327
330
1E
100
AcDbEntity
  8
0
100
AcDbLine
 10
44.2
 20
136.0458
 30
0.0
 11
45.0
 21
136.0458
 31
0.0
  0
LINE
  5
328
330
1E
100
AcDbEntity
  8
0
100
AcDbLine
 10
44.2
 20
136.0458
 30
0.0
 11
44.2
 21
135.6896
 31
0.0
  0
LINE
  5
329
330
1E
100
AcDbEntity
  8
0
100
AcDbLine
 10
45.8
 20
131.9206
 30
0.0
 11
45.8
 21
130.0228999999999
 31
0.0
  0
LINE
  5
32A
330
1E
100
AcDbEntity
  8
0
100
AcDbLine
 10
45.8
 20
131.9206
 30
0.0
 11
45.8
 21
133.4205
 31
0.0
  0
LINE
  5
32B
330
1E
100
AcDbEntity
  8
0
100
AcDbLine
 10
45.8
 20
133.4205
 30
0.0
 11
45.8
 21
131.9206
 31
0.0
  0
LINE
  5
32C
330
1E
100
AcDbEntity
  8
0
100
AcDbLine
 10
45.8
 20
133.4205
 30
0.0
 11
45.8
 21
134.5166
 31
0.0
  0
LINE
  5
32D
330
1E
100
AcDbEntity
  8
0
100
AcDbLine
 10
45.8
 20
134.5166
 30
0.0
 11
45.8
 21
133.4205
 31
0.0
  0
LINE
  5
32E
330
1E
100
AcDbEntity
  8
0
100
AcDbLine
 10
45.8
 20
134.5166
 30
0.0
 11
45.8
 21
135.1704
 31
0.0
  0
LINE
  5
335
330
1E
100
AcDbEntity
  8
0
100
AcDbLine
 10
45.8
 20
135.1704
 30
0.0
 11
45.8
 21
134.5166
 31
0.0
  0
LINE
  5
336
330
1E
100
AcDbEntity
  8
0
100
AcDbLine
 10
45.8
 20
135.1704
 30
0.0
 11
45.8
 21
135.6896
 31
0.0
  0
LINE
  5
337
330
1E
100
AcDbEntity
  8
0
100
AcDbLine
 10
45.8
 20
135.6896
 30
0.0
 11
45.8
 21
135.1704
 31
0.0
  0
LINE
  5
338
330
1E
100
AcDbEntity
  8
0
100
AcDbLine
 10
45.8
 20
135.6896
 30
0.0
 11
45.8
 21
136.0458
 31
0.0
  0
LINE
  5
339
330
1E
100
AcDbEntity
  8
0
100
AcDbLine
 10
46.79999999999999
 20
133.0458
 30
0.0
 11
47.0
 21
130.0458
 31
0.0
  0
LINE
  5
33A
330
1E
100
AcDbEntity
  8
0
100
AcDbLine
 10
46.29999999999999
 20
135.5458
 30
0.0
 11
46.79999999999999
 21
133.0458
 31
0.0
  0
LINE
  5
33B
330
1E
100
AcDbEntity
  8
0
100
AcDbLine
 10
45.8
 20
136.0458
 30
0.0
 11
46.29999999999999
 21
135.5458
 31
0.0
  0
LINE
  5
33C
330
1E
100
AcDbEntity
  8
0
100
AcDbLine
 10
45.8
 20
136.0458
 30
0.0
 11
45.8
 21
135.6896
 31
0.0
  0
LINE
  5
33D
330
1E
100
AcDbEntity
  8
0
100
AcDbLine
 10
45.0
 20
136.0458
 30
0.0
 11
45.8
 21
136.0458
 31
0.0
  0
LINE
  5
33E
330
1E
100
AcDbEntity
  8
0
100
AcDbLine
 10
45.8
 20
130.0228999999999
 30
0.0
 11
46.1
 21
126.0477999999999
 31
0.0
  0
LINE
  5
33F
330
1E
100
AcDbEntity
  8
0
100
AcDbLine
 10
45.8
 20
130.0228999999999
 30
0.0
 11
45.8
 21
131.9206
 31
0.0
  0
LINE
  5
340
330
1E
100
AcDbEntity
  8
0
100
AcDbLine
 10
47.29999999999999
 20
126.0458
 30
0.0
 11
48.2296
 21
123.1597
 31
0.0
  0
LINE
  5
341
330
1E
100
AcDbEntity
  8
0
100
AcDbLine
 10
47.0
 20
130.0458
 30
0.0
 11
47.29999999999999
 21
126.0458
 31
0.0
  0
LINE
  5
342
330
1E
100
AcDbEntity
  8
0
100
AcDbLine
 10
40.6
 20
123.4458
 30
0.0
 11
41.92055303152599
 21
123.6258754133899
 31
0.0
  0
LINE
  5
343
330
1E
100
AcDbEntity
  8
0
100
AcDbLine
 10
48.9902
 20
119.7497999999999
 30
0.0
 11
51.0
 21
117.4681
 31
0.0
  0
LINE
  5
344
330
1E
100
AcDbEntity
  8
0
100
AcDbLine
 10
49.7508
 20
120.4385999999999
 30
0.0
 11
51.6
 21
118.4458
 31
0.0
  0
LINE
  5
346
330
1E
100
AcDbEntity
  8
0
100
AcDbLine
 10
53.2
 20
121.3457999999999
 30
0.0
 11
56.7
 21
118.7458
 31
0.0
  0
LINE
  5
347
330
1E
100
AcDbEntity
  8
0
100
AcDbLine
 10
49.2
 20
122.9458
 30
0.0
 11
53.2
 21
121.3457999999999
 31
0.0
  0
LINE
  5
348
330
1E
100
AcDbEntity
  8
0
100
AcDbLine
 10
48.2296
 20
123.1597
 30
0.0
 11
49.7508
 21
120.4385999999999
 31
0.0
  0
LINE
  5
349
330
1E
100
AcDbEntity
  8
0
100
AcDbLine
 10
48.27533190768271
 20
123.0778954417599
 30
0.0
 11
49.2
 21
122.9458
 31
0.0
  0
LINE
  5
34C
330
1E
100
AcDbEntity
  8
0
100
AcDbLine
 10
53.5
 20
121.7458
 30
0.0
 11
57.0
 21
119.0458
 31
0.0
  0
LINE
  5
34D
330
1E
100
AcDbEntity
  8
0
100
AcDbLine
 10
54.6
 20
143.1458
 30
0.0
 11
63.6
 21
139.5458
 31
0.0
  0
LINE
  5
34E
330
1E
100
AcDbEntity
  8
0
100
AcDbLine
 10
54.8
 20
143.6458
 30
0.0
 11
63.9
 21
139.9457999999999
 31
0.0
  0
LINE
  5
34F
330
1E
100
AcDbEntity
  8
0
100
AcDbLine
 10
56.6
 20
150.4457999999999
 30
0.0
 11
67.40000000000001
 21
146.0458
 31
0.0
  0
LINE
  5
350
330
1E
100
AcDbEntity
  8
0
100
AcDbLine
 10
49.4
 20
123.4458
 30
0.0
 11
53.5
 21
121.7458
 31
0.0
  0
LINE
  5
351
330
1E
100
AcDbEntity
  8
0
100
AcDbLine
 10
48.079446968474
 20
123.6258754133899
 30
0.0
 11
49.4
 21
123.4458
 31
0.0
  0
LINE
  5
352
330
1E
100
AcDbEntity
  8
0
100
AcDbLine
 10
56.7
 20
118.7458
 30
0.0
 11
59.29999999999999
 21
115.2457999999999
 31
0.0
  0
LINE
  5
353
330
1E
100
AcDbEntity
  8
0
100
AcDbLine
 10
56.35185185185186
 20
119.5458
 30
0.0
 11
64.5
 21
119.5458
 31
0.0
  0
LINE
  5
354
330
1E
100
AcDbEntity
  8
0
100
AcDbLine
 10
57.0
 20
119.0458
 30
0.0
 11
59.7
 21
115.5458
 31
0.0
  0
LINE
  5
355
330
1E
100
AcDbEntity
  8
0
100
AcDbLine
 10
59.7
 20
115.5458
 30
0.0
 11
61.4
 21
111.4458
 31
0.0
  0
LINE
  5
356
330
1E
100
AcDbEntity
  8
0
100
AcDbLine
 10
64.5
 20
103.8457999999999
 30
0.0
 11
64.5
 21
100.8458
 31
0.0
  0
LINE
  5
357
330
1E
100
AcDbEntity
  8
0
100
AcDbLine
 10
64.5
 20
103.7457999999999
 30
0.0
 11
64.5
 21
100.5457999999999
 31
0.0
  0
LINE
  5
35E
330
1E
100
AcDbEntity
  8
0
100
AcDbLine
 10
154.49
 20
102.9457999999999
 30
0.0
 11
154.49
 21
99.04580000000001
 31
0.0
  0
LINE
  5
35F
330
1E
100
AcDbEntity
  8
0
100
AcDbLine
 10
154.49
 20
102.9457999999999
 30
0.0
 11
154.49
 21
107.0458
 31
0.0
  0
LINE
  5
360
330
1E
100
AcDbEntity
  8
0
100
AcDbLine
 10
105.51
 20
102.9457999999999
 30
0.0
 11
105.51
 21
107.0458
 31
0.0
  0
LINE
  5
361
330
1E
100
AcDbEntity
  8
0
100
AcDbLine
 10
105.51
 20
102.9457999999999
 30
0.0
 11
105.51
 21
99.04580000000001
 31
0.0
  0
LINE
  5
368
330
1E
100
AcDbEntity
  8
0
100
AcDbLine
 10
105.51
 20
103.5457999999999
 30
0.0
 11
105.51
 21
107.0458
 31
0.0
  0
LINE
  5
369
330
1E
100
AcDbEntity
  8
0
100
AcDbLine
 10
105.51
 20
103.5457999999999
 30
0.0
 11
105.51
 21
100.3457999999999
 31
0.0
  0
LINE
  5
373
330
1E
100
AcDbEntity
  8
0
100
AcDbLine
 10
68.5
 20
103.5457999999999
 30
0.0
 11
68.5
 21
105.0791333333329
 31
0.0
  0
LINE
  5
374
330
1E
100
AcDbEntity
  8
0
100
AcDbLine
 10
68.5
 20
103.5457999999999
 30
0.0
 11
68.5
 21
100.3457999999999
 31
0.0
  0
LINE
  5
375
330
1E
100
AcDbEntity
  8
0
100
AcDbLine
 10
68.0
 20
103.3457999999999
 30
0.0
 11
68.0
 21
105.0458
 31
0.0
  0
LINE
  5
376
330
1E
100
AcDbEntity
  8
0
100
AcDbLine
 10
68.0
 20
103.3457999999999
 30
0.0
 11
68.0
 21
99.84580000000001
 31
0.0
  0
LINE
  5
379
330
1E
100
AcDbEntity
  8
0
100
AcDbLine
 10
65.0
 20
103.3457999999999
 30
0.0
 11
65.0
 21
104.8208
 31
0.0
  0
LINE
  5
37A
330
1E
100
AcDbEntity
  8
0
100
AcDbLine
 10
65.0
 20
103.3457999999999
 30
0.0
 11
65.0
 21
99.84580000000001
 31
0.0
  0
LINE
  5
37B
330
1E
100
AcDbEntity
  8
0
100
AcDbLine
 10
64.00199999999999
 20
108.1458
 30
0.0
 11
67.97709999999999
 21
107.8457999999999
 31
0.0
  0
LINE
  5
37C
330
1E
100
AcDbEntity
  8
0
100
AcDbLine
 10
63.6
 20
139.5458
 30
0.0
 11
71.4
 21
133.4457999999999
 31
0.0
  0
LINE
  5
37D
330
1E
100
AcDbEntity
  8
0
100
AcDbLine
 10
63.9
 20
139.9457999999999
 30
0.0
 11
71.79999999999999
 21
133.8457999999999
 31
0.0
  0
LINE
  5
37E
330
1E
100
AcDbEntity
  8
0
100
AcDbLine
 10
64.0
 20
109.3458
 30
0.0
 11
68.0
 21
109.0457999999999
 31
0.0
  0
LINE
  5
380
330
1E
100
AcDbEntity
  8
0
100
AcDbLine
 10
65.0
 20
104.8208
 30
0.0
 11
65.0
 21
103.3457999999999
 31
0.0
  0
LINE
  5
381
330
1E
100
AcDbEntity
  8
0
100
AcDbLine
 10
64.5
 20
104.7833
 30
0.0
 11
64.5
 21
103.7457999999999
 31
0.0
  0
LINE
  5
382
330
1E
100
AcDbEntity
  8
0
100
AcDbLine
 10
64.5
 20
104.7833
 30
0.0
 11
64.5
 21
103.8457999999999
 31
0.0
  0
LINE
  5
383
330
1E
100
AcDbEntity
  8
0
100
AcDbLine
 10
68.5
 20
105.0791333333329
 30
0.0
 11
68.5
 21
103.5457999999999
 31
0.0
  0
LINE
  5
384
330
1E
100
AcDbEntity
  8
0
100
AcDbLine
 10
68.0
 20
105.0458
 30
0.0
 11
71.0
 21
105.2458
 31
0.0
  0
LINE
  5
385
330
1E
100
AcDbEntity
  8
0
100
AcDbLine
 10
68.0
 20
105.0458
 30
0.0
 11
68.0
 21
103.3457999999999
 31
0.0
  0
LINE
  5
388
330
1E
100
AcDbEntity
  8
0
100
AcDbLine
 10
67.97709999999999
 20
106.2458
 30
0.0
 11
69.87479999999999
 21
106.2458
 31
0.0
  0
LINE
  5
389
330
1E
100
AcDbEntity
  8
0
100
AcDbLine
 10
69.87479999999999
 20
106.2458
 30
0.0
 11
71.3747
 21
106.2458
 31
0.0
  0
LINE
  5
38B
330
1E
100
AcDbEntity
  8
0
100
AcDbLine
 10
71.3747
 20
106.2458
 30
0.0
 11
72.4708
 21
106.2458
 31
0.0
  0
LINE
  5
38C
330
1E
100
AcDbEntity
  8
0
100
AcDbLine
 10
72.4708
 20
106.2458
 30
0.0
 11
73.1246
 21
106.2458
 31
0.0
  0
LINE
  5
38D
330
1E
100
AcDbEntity
  8
0
100
AcDbLine
 10
73.1246
 20
106.2458
 30
0.0
 11
73.6438
 21
106.2458
 31
0.0
  0
LINE
  5
38E
330
1E
100
AcDbEntity
  8
0
100
AcDbLine
 10
71.0
 20
105.2458
 30
0.0
 11
73.5
 21
105.7458
 31
0.0
  0
LINE
  5
3B3
330
1E
100
AcDbEntity
  8
0
100
AcDbLine
 10
73.6438
 20
106.2458
 30
0.0
 11
74.0
 21
106.2458
 31
0.0
  0
LINE
  5
3B4
330
1E
100
AcDbEntity
  8
0
100
AcDbLine
 10
73.5
 20
105.7458
 30
0.0
 11
74.0
 21
106.2458
 31
0.0
  0
LINE
  5
3B5
330
1E
100
AcDbEntity
  8
0
100
AcDbLine
 10
67.97709999999999
 20
107.8457999999999
 30
0.0
 11
69.87479999999999
 21
107.8457999999999
 31
0.0
  0
LINE
  5
3B6
330
1E
100
AcDbEntity
  8
0
100
AcDbLine
 10
69.87479999999999
 20
107.8457999999999
 30
0.0
 11
71.3747
 21
107.8457999999999
 31
0.0
  0
LINE
  5
3B7
330
1E
100
AcDbEntity
  8
0
100
AcDbLine
 10
71.3747
 20
107.8457999999999
 30
0.0
 11
72.4708
 21
107.8457999999999
 31
0.0
  0
LINE
  5
3B8
330
1E
100
AcDbEntity
  8
0
100
AcDbLine
 10
72.4708
 20
107.8457999999999
 30
0.0
 11
73.1246
 21
107.8457999999999
 31
0.0
  0
LINE
  5
3B9
330
1E
100
AcDbEntity
  8
0
100
AcDbLine
 10
73.1246
 20
107.8457999999999
 30
0.0
 11
73.6438
 21
107.8457999999999
 31
0.0
  0
LINE
  5
3BD
330
1E
100
AcDbEntity
  8
0
100
AcDbLine
 10
73.6438
 20
107.8457999999999
 30
0.0
 11
74.0
 21
107.8457999999999
 31
0.0
  0
LINE
  5
3BE
330
1E
100
AcDbEntity
  8
0
100
AcDbLine
 10
74.0
 20
107.8457999999999
 30
0.0
 11
74.0
 21
107.0458
 31
0.0
  0
LINE
  5
3BF
330
1E
100
AcDbEntity
  8
0
100
AcDbLine
 10
68.5
 20
109.012466666667
 30
0.0
 11
68.5
 21
110.5458
 31
0.0
  0
LINE
  5
3C0
330
1E
100
AcDbEntity
  8
0
100
AcDbLine
 10
64.5
 20
110.2458
 30
0.0
 11
64.5
 21
109.3083
 31
0.0
  0
LINE
  5
3C1
330
1E
100
AcDbEntity
  8
0
100
AcDbLine
 10
64.5
 20
115.8457999999999
 30
0.0
 11
64.5
 21
113.2457999999999
 31
0.0
  0
LINE
  5
3C2
330
1E
100
AcDbEntity
  8
0
100
AcDbLine
 10
64.5
 20
113.2457999999999
 30
0.0
 11
64.5
 21
110.2458
 31
0.0
  0
LINE
  5
3C3
330
1E
100
AcDbEntity
  8
0
100
AcDbLine
 10
64.5
 20
119.0458
 30
0.0
 11
64.5
 21
117.8458
 31
0.0
  0
LINE
  5
3C4
330
1E
100
AcDbEntity
  8
0
100
AcDbLine
 10
64.5
 20
117.8458
 30
0.0
 11
64.5
 21
115.8457999999999
 31
0.0
  0
LINE
  5
3C5
330
1E
100
AcDbEntity
  8
0
100
AcDbLine
 10
64.5
 20
116.2457999999999
 30
0.0
 11
64.5
 21
113.5458
 31
0.0
  0
LINE
  5
3C6
330
1E
100
AcDbEntity
  8
0
100
AcDbLine
 10
64.5
 20
113.5458
 30
0.0
 11
64.5
 21
110.3458
 31
0.0
  0
LINE
  5
3C7
330
1E
100
AcDbEntity
  8
0
100
AcDbLine
 10
64.5
 20
110.3458
 30
0.0
 11
64.5
 21
109.3083
 31
0.0
  0
LINE
  5
3C8
330
1E
100
AcDbEntity
  8
0
100
AcDbLine
 10
64.5
 20
118.3457999999999
 30
0.0
 11
64.5
 21
116.2457999999999
 31
0.0
  0
LINE
  5
3C9
330
1E
100
AcDbEntity
  8
0
100
AcDbLine
 10
64.5
 20
119.5458
 30
0.0
 11
64.5
 21
118.3457999999999
 31
0.0
  0
LINE
  5
3CA
330
1E
100
AcDbEntity
  8
0
100
AcDbLine
 10
64.5
 20
119.5458
 30
0.0
 11
64.5
 21
120.0458
 31
0.0
  0
LINE
  5
3CB
330
1E
100
AcDbEntity
  8
0
100
AcDbLine
 10
64.5
 20
119.5458
 30
0.0
 11
64.5
 21
119.0458
 31
0.0
  0
LINE
  5
3CC
330
1E
100
AcDbEntity
  8
0
100
AcDbLine
 10
65.0
 20
114.2457999999999
 30
0.0
 11
65.0
 21
117.2458
 31
0.0
  0
LINE
  5
3CD
330
1E
100
AcDbEntity
  8
0
100
AcDbLine
 10
65.0
 20
114.2457999999999
 30
0.0
 11
65.0
 21
110.7458
 31
0.0
  0
LINE
  5
3CE
330
1E
100
AcDbEntity
  8
0
100
AcDbLine
 10
65.0
 20
110.7458
 30
0.0
 11
65.0
 21
114.2457999999999
 31
0.0
  0
LINE
  5
3CF
330
1E
100
AcDbEntity
  8
0
100
AcDbLine
 10
65.0
 20
110.7458
 30
0.0
 11
65.0
 21
109.2708
 31
0.0
  0
LINE
  5
3D0
330
1E
100
AcDbEntity
  8
0
100
AcDbLine
 10
65.0
 20
109.2708
 30
0.0
 11
65.0
 21
110.7458
 31
0.0
  0
LINE
  5
3D1
330
1E
100
AcDbEntity
  8
0
100
AcDbLine
 10
65.0
 20
117.2458
 30
0.0
 11
65.0
 21
119.6458
 31
0.0
  0
LINE
  5
3D2
330
1E
100
AcDbEntity
  8
0
100
AcDbLine
 10
65.0
 20
117.2458
 30
0.0
 11
65.0
 21
114.2457999999999
 31
0.0
  0
LINE
  5
3D8
330
1E
100
AcDbEntity
  8
0
100
AcDbLine
 10
68.0
 20
114.2457999999999
 30
0.0
 11
68.0
 21
117.2458
 31
0.0
  0
LINE
  5
3D9
330
1E
100
AcDbEntity
  8
0
100
AcDbLine
 10
68.0
 20
114.2457999999999
 30
0.0
 11
68.0
 21
110.7458
 31
0.0
  0
LINE
  5
3DA
330
1E
100
AcDbEntity
  8
0
100
AcDbLine
 10
68.0
 20
110.7458
 30
0.0
 11
68.0
 21
114.2457999999999
 31
0.0
  0
LINE
  5
3DB
330
1E
100
AcDbEntity
  8
0
100
AcDbLine
 10
68.0
 20
110.7458
 30
0.0
 11
68.0
 21
109.0457999999999
 31
0.0
  0
LINE
  5
3DC
330
1E
100
AcDbEntity
  8
0
100
AcDbLine
 10
68.5
 20
113.7458
 30
0.0
 11
68.5
 21
116.5458
 31
0.0
  0
LINE
  5
3DD
330
1E
100
AcDbEntity
  8
0
100
AcDbLine
 10
68.5
 20
113.7458
 30
0.0
 11
68.5
 21
110.5458
 31
0.0
  0
LINE
  5
3DE
330
1E
100
AcDbEntity
  8
0
100
AcDbLine
 10
68.5
 20
110.5458
 30
0.0
 11
68.5
 21
113.7458
 31
0.0
  0
LINE
  5
3DF
330
1E
100
AcDbEntity
  8
0
100
AcDbLine
 10
68.5
 20
110.5458
 30
0.0
 11
68.5
 21
109.012466666667
 31
0.0
  0
LINE
  5
3E0
330
1E
100
AcDbEntity
  8
0
100
AcDbLine
 10
68.5
 20
116.5458
 30
0.0
 11
68.5
 21
118.7458
 31
0.0
  0
LINE
  5
3E1
330
1E
100
AcDbEntity
  8
0
100
AcDbLine
 10
68.5
 20
116.5458
 30
0.0
 11
68.5
 21
113.7458
 31
0.0
  0
LINE
  5
3E2
330
1E
100
AcDbEntity
  8
0
100
AcDbLine
 10
68.5
 20
118.7458
 30
0.0
 11
68.5
 21
120.0458
 31
0.0
  0
LINE
  5
3E3
330
1E
100
AcDbEntity
  8
0
100
AcDbLine
 10
68.5
 20
118.7458
 30
0.0
 11
68.5
 21
116.5458
 31
0.0
  0
LINE
  5
3E4
330
1E
100
AcDbEntity
  8
0
100
AcDbLine
 10
68.0
 20
117.2458
 30
0.0
 11
68.0
 21
119.6458
 31
0.0
  0
LINE
  5
3E5
330
1E
100
AcDbEntity
  8
0
100
AcDbLine
 10
68.0
 20
117.2458
 30
0.0
 11
68.0
 21
114.2457999999999
 31
0.0
  0
LINE
  5
3E6
330
1E
100
AcDbEntity
  8
0
100
AcDbLine
 10
69.5
 20
120.0458
 30
0.0
 11
104.4999999999999
 21
120.0458
 31
0.0
  0
LINE
  5
3E7
330
1E
100
AcDbEntity
  8
0
100
AcDbLine
 10
68.5
 20
120.0458
 30
0.0
 11
68.5
 21
120.5457999999999
 31
0.0
  0
LINE
  5
3E8
330
1E
100
AcDbEntity
  8
0
100
AcDbLine
 10
68.5
 20
120.0458
 30
0.0
 11
68.5
 21
118.7458
 31
0.0
  0
LINE
  5
3E9
330
1E
100
AcDbEntity
  8
0
100
AcDbLine
 10
68.0
 20
119.6458
 30
0.0
 11
68.0
 21
121.0458
 31
0.0
  0
LINE
  5
3EA
330
1E
100
AcDbEntity
  8
0
100
AcDbLine
 10
68.0
 20
119.6458
 30
0.0
 11
68.0
 21
117.2458
 31
0.0
  0
LINE
  5
3ED
330
1E
100
AcDbEntity
  8
0
100
AcDbLine
 10
68.5
 20
120.5457999999999
 30
0.0
 11
68.5
 21
120.0458
 31
0.0
  0
LINE
  5
3EE
330
1E
100
AcDbEntity
  8
0
100
AcDbLine
 10
68.5
 20
120.5457999999999
 30
0.0
 11
69.5
 21
120.0458
 31
0.0
  0
LINE
  5
3EF
330
1E
100
AcDbEntity
  8
0
100
AcDbLine
 10
68.0
 20
121.0458
 30
0.0
 11
68.0
 21
121.5457999999999
 31
0.0
  0
LINE
  5
3F0
330
1E
100
AcDbEntity
  8
0
100
AcDbLine
 10
68.0
 20
121.0458
 30
0.0
 11
68.0
 21
119.6458
 31
0.0
  0
LINE
  5
3F3
330
1E
100
AcDbEntity
  8
0
100
AcDbLine
 10
65.0
 20
119.6458
 30
0.0
 11
65.0
 21
121.0458
 31
0.0
  0
LINE
  5
3F4
330
1E
100
AcDbEntity
  8
0
100
AcDbLine
 10
65.0
 20
119.6458
 30
0.0
 11
65.0
 21
117.2458
 31
0.0
  0
LINE
  5
3F6
330
1E
100
AcDbEntity
  8
0
100
AcDbLine
 10
66.5
 20
122.0458
 30
0.0
 11
68.0
 21
121.5457999999999
 31
0.0
  0
LINE
  5
3F7
330
1E
100
AcDbEntity
  8
0
100
AcDbLine
 10
65.0
 20
121.5457999999999
 30
0.0
 11
65.0
 21
121.0458
 31
0.0
  0
LINE
  5
3F8
330
1E
100
AcDbEntity
  8
0
100
AcDbLine
 10
65.0
 20
121.5457999999999
 30
0.0
 11
66.5
 21
122.0458
 31
0.0
  0
LINE
  5
3F9
330
1E
100
AcDbEntity
  8
0
100
AcDbLine
 10
67.40000000000001
 20
146.0458
 30
0.0
 11
76.7
 21
138.7458
 31
0.0
  0
LINE
  5
3FA
330
1E
100
AcDbEntity
  8
0
100
AcDbLine
 10
68.0
 20
121.5457999999999
 30
0.0
 11
68.0
 21
121.0458
 31
0.0
  0
LINE
  5
3FB
330
1E
100
AcDbEntity
  8
0
100
AcDbLine
 10
68.0
 20
121.5457999999999
 30
0.0
 11
68.5
 21
120.5457999999999
 31
0.0
  0
LINE
  5
3FE
330
1E
100
AcDbEntity
  8
0
100
AcDbLine
 10
65.0
 20
121.0458
 30
0.0
 11
65.0
 21
121.5457999999999
 31
0.0
  0
LINE
  5
3FF
330
1E
100
AcDbEntity
  8
0
100
AcDbLine
 10
65.0
 20
121.0458
 30
0.0
 11
65.0
 21
119.6458
 31
0.0
  0
LINE
  5
400
330
1E
100
AcDbEntity
  8
0
100
AcDbLine
 10
64.5
 20
120.0458
 30
0.0
 11
64.5
 21
119.5458
 31
0.0
  0
LINE
  5
401
330
1E
100
AcDbEntity
  8
0
100
AcDbLine
 10
64.5
 20
120.0458
 30
0.0
 11
65.0
 21
121.5457999999999
 31
0.0
  0
LINE
  5
402
330
1E
100
AcDbEntity
  8
0
100
AcDbLine
 10
68.0
 20
109.0457999999999
 30
0.0
 11
71.0
 21
108.8457999999999
 31
0.0
  0
LINE
  5
403
330
1E
100
AcDbEntity
  8
0
100
AcDbLine
 10
68.0
 20
109.0457999999999
 30
0.0
 11
68.0
 21
110.7458
 31
0.0
  0
LINE
  5
404
330
1E
100
AcDbEntity
  8
0
100
AcDbLine
 10
71.4
 20
133.4457999999999
 30
0.0
 11
77.5
 21
125.6458
 31
0.0
  0
LINE
  5
405
330
1E
100
AcDbEntity
  8
0
100
AcDbLine
 10
71.79999999999999
 20
133.8457999999999
 30
0.0
 11
77.9
 21
125.9458
 31
0.0
  0
LINE
  5
406
330
1E
100
AcDbEntity
  8
0
100
AcDbLine
 10
71.0
 20
108.8457999999999
 30
0.0
 11
73.5
 21
108.3458
 31
0.0
  0
LINE
  5
407
330
1E
100
AcDbEntity
  8
0
100
AcDbLine
 10
73.5
 20
108.3458
 30
0.0
 11
74.0
 21
107.8457999999999
 31
0.0
  0
LINE
  5
408
330
1E
100
AcDbEntity
  8
0
100
AcDbLine
 10
149.9449999999999
 20
107.0458
 30
0.0
 11
149.9449999999999
 21
111.2457999999999
 31
0.0
  0
LINE
  5
409
330
1E
100
AcDbEntity
  8
0
100
AcDbLine
 10
149.9449999999999
 20
107.0458
 30
0.0
 11
149.9449999999999
 21
102.8458
 31
0.0
  0
LINE
  5
40A
330
1E
100
AcDbEntity
  8
0
100
AcDbLine
 10
150.4509999999999
 20
107.0458
 30
0.0
 11
150.4509999999999
 21
111.5458
 31
0.0
  0
LINE
  5
40B
330
1E
100
AcDbEntity
  8
0
100
AcDbLine
 10
150.4509999999999
 20
107.0458
 30
0.0
 11
150.4509999999999
 21
102.5457999999999
 31
0.0
  0
LINE
  5
40C
330
1E
100
AcDbEntity
  8
0
100
AcDbLine
 10
153.985
 20
107.0458
 30
0.0
 11
153.985
 21
111.5458
 31
0.0
  0
LINE
  5
40D
330
1E
100
AcDbEntity
  8
0
100
AcDbLine
 10
153.985
 20
107.0458
 30
0.0
 11
153.985
 21
102.5457999999999
 31
0.0
  0
LINE
  5
40E
330
1E
100
AcDbEntity
  8
0
100
AcDbLine
 10
154.49
 20
107.0458
 30
0.0
 11
154.49
 21
111.1458
 31
0.0
  0
LINE
  5
40F
330
1E
100
AcDbEntity
  8
0
100
AcDbLine
 10
154.49
 20
107.0458
 30
0.0
 11
154.49
 21
102.9457999999999
 31
0.0
  0
LINE
  5
410
330
1E
100
AcDbEntity
  8
0
100
AcDbLine
 10
110.054
 20
107.0458
 30
0.0
 11
110.054
 21
102.8458
 31
0.0
  0
LINE
  5
411
330
1E
100
AcDbEntity
  8
0
100
AcDbLine
 10
110.054
 20
107.0458
 30
0.0
 11
110.054
 21
111.2457999999999
 31
0.0
  0
LINE
  5
412
330
1E
100
AcDbEntity
  8
0
100
AcDbLine
 10
109.5499999999999
 20
107.0458
 30
0.0
 11
109.5499999999999
 21
102.5457999999999
 31
0.0
  0
LINE
  5
413
330
1E
100
AcDbEntity
  8
0
100
AcDbLine
 10
109.5499999999999
 20
107.0458
 30
0.0
 11
109.5499999999999
 21
111.5458
 31
0.0
  0
LINE
  5
414
330
1E
100
AcDbEntity
  8
0
100
AcDbLine
 10
106.0149999999999
 20
107.0458
 30
0.0
 11
106.0149999999999
 21
102.5457999999999
 31
0.0
  0
LINE
  5
415
330
1E
100
AcDbEntity
  8
0
100
AcDbLine
 10
106.0149999999999
 20
107.0458
 30
0.0
 11
106.0149999999999
 21
111.5458
 31
0.0
  0
LINE
  5
416
330
1E
100
AcDbEntity
  8
0
100
AcDbLine
 10
105.51
 20
111.1458
 30
0.0
 11
105.51
 21
115.0457999999999
 31
0.0
  0
LINE
  5
417
330
1E
100
AcDbEntity
  8
0
100
AcDbLine
 10
105.51
 20
111.1458
 30
0.0
 11
105.51
 21
107.0458
 31
0.0
  0
LINE
  5
418
330
1E
100
AcDbEntity
  8
0
100
AcDbLine
 10
105.51
 20
115.0457999999999
 30
0.0
 11
105.51
 21
118.3457999999999
 31
0.0
  0
LINE
  5
419
330
1E
100
AcDbEntity
  8
0
100
AcDbLine
 10
105.51
 20
115.0457999999999
 30
0.0
 11
105.51
 21
111.1458
 31
0.0
  0
LINE
  5
41A
330
1E
100
AcDbEntity
  8
0
100
AcDbLine
 10
105.51
 20
113.7458
 30
0.0
 11
105.51
 21
116.5458
 31
0.0
  0
LINE
  5
41B
330
1E
100
AcDbEntity
  8
0
100
AcDbLine
 10
105.51
 20
113.7458
 30
0.0
 11
105.51
 21
110.5458
 31
0.0
  0
LINE
  5
41C
330
1E
100
AcDbEntity
  8
0
100
AcDbLine
 10
105.51
 20
110.5458
 30
0.0
 11
105.51
 21
113.7458
 31
0.0
  0
LINE
  5
41D
330
1E
100
AcDbEntity
  8
0
100
AcDbLine
 10
105.51
 20
110.5458
 30
0.0
 11
105.51
 21
107.0458
 31
0.0
  0
LINE
  5
41E
330
1E
100
AcDbEntity
  8
0
100
AcDbLine
 10
105.51
 20
118.3457999999999
 30
0.0
 11
105.51
 21
120.9458
 31
0.0
  0
LINE
  5
41F
330
1E
100
AcDbEntity
  8
0
100
AcDbLine
 10
105.51
 20
118.3457999999999
 30
0.0
 11
105.51
 21
115.0457999999999
 31
0.0
  0
LINE
  5
420
330
1E
100
AcDbEntity
  8
0
100
AcDbLine
 10
105.51
 20
116.5458
 30
0.0
 11
105.51
 21
118.7458
 31
0.0
  0
LINE
  5
421
330
1E
100
AcDbEntity
  8
0
100
AcDbLine
 10
105.51
 20
116.5458
 30
0.0
 11
105.51
 21
113.7458
 31
0.0
  0
LINE
  5
422
330
1E
100
AcDbEntity
  8
0
100
AcDbLine
 10
105.51
 20
118.7458
 30
0.0
 11
105.51
 21
120.0458
 31
0.0
  0
LINE
  5
423
330
1E
100
AcDbEntity
  8
0
100
AcDbLine
 10
105.51
 20
118.7458
 30
0.0
 11
105.51
 21
116.5458
 31
0.0
  0
LINE
  5
424
330
1E
100
AcDbEntity
  8
0
100
AcDbLine
 10
105.51
 20
120.9458
 30
0.0
 11
105.51
 21
122.4458
 31
0.0
  0
LINE
  5
425
330
1E
100
AcDbEntity
  8
0
100
AcDbLine
 10
105.51
 20
120.9458
 30
0.0
 11
105.51
 21
118.3457999999999
 31
0.0
  0
LINE
  5
426
330
1E
100
AcDbEntity
  8
0
100
AcDbLine
 10
77.5
 20
125.6458
 30
0.0
 11
79.74
 21
120.0458
 31
0.0
  0
LINE
  5
427
330
1E
100
AcDbEntity
  8
0
100
AcDbLine
 10
77.9
 20
125.9458
 30
0.0
 11
80.29890109890109
 21
120.0458
 31
0.0
  0
LINE
  5
428
330
1E
100
AcDbEntity
  8
0
100
AcDbLine
 10
76.7
 20
138.7458
 30
0.0
 11
84.0
 21
129.4457999999999
 31
0.0
  0
LINE
  5
429
330
1E
100
AcDbEntity
  8
0
100
AcDbLine
 10
84.0
 20
129.4457999999999
 30
0.0
 11
87.8296296296296
 21
120.0458
 31
0.0
  0
LINE
  5
42A
330
1E
100
AcDbEntity
  8
0
100
AcDbLine
 10
105.51
 20
123.0458
 30
0.0
 11
105.51
 21
122.4458
 31
0.0
  0
LINE
  5
42B
330
1E
100
AcDbEntity
  8
0
100
AcDbLine
 10
105.51
 20
123.0458
 30
0.0
 11
106.0149999999999
 21
124.5457999999999
 31
0.0
  0
LINE
  5
42C
330
1E
100
AcDbEntity
  8
0
100
AcDbLine
 10
105.51
 20
122.4458
 30
0.0
 11
105.51
 21
123.0458
 31
0.0
  0
LINE
  5
42D
330
1E
100
AcDbEntity
  8
0
100
AcDbLine
 10
105.51
 20
122.4458
 30
0.0
 11
105.51
 21
120.9458
 31
0.0
  0
LINE
  5
42E
330
1E
100
AcDbEntity
  8
0
100
AcDbLine
 10
105.51
 20
120.5457999999999
 30
0.0
 11
105.51
 21
120.0458
 31
0.0
  0
LINE
  5
42F
330
1E
100
AcDbEntity
  8
0
100
AcDbLine
 10
104.4999999999999
 20
120.0458
 30
0.0
 11
105.51
 21
120.5457999999999
 31
0.0
  0
LINE
  5
430
330
1E
100
AcDbEntity
  8
0
100
AcDbLine
 10
106.0149999999999
 20
115.7458
 30
0.0
 11
106.0149999999999
 21
119.4458
 31
0.0
  0
LINE
  5
431
330
1E
100
AcDbEntity
  8
0
100
AcDbLine
 10
106.0149999999999
 20
115.7458
 30
0.0
 11
106.0149999999999
 21
111.5458
 31
0.0
  0
LINE
  5
432
330
1E
100
AcDbEntity
  8
0
100
AcDbLine
 10
106.0149999999999
 20
111.5458
 30
0.0
 11
106.0149999999999
 21
115.7458
 31
0.0
  0
LINE
  5
433
330
1E
100
AcDbEntity
  8
0
100
AcDbLine
 10
106.0149999999999
 20
111.5458
 30
0.0
 11
106.0149999999999
 21
107.0458
 31
0.0
  0
LINE
  5
434
330
1E
100
AcDbEntity
  8
0
100
AcDbLine
 10
106.0149999999999
 20
119.4458
 30
0.0
 11
106.0149999999999
 21
122.2458
 31
0.0
  0
LINE
  5
435
330
1E
100
AcDbEntity
  8
0
100
AcDbLine
 10
106.0149999999999
 20
119.4458
 30
0.0
 11
106.0149999999999
 21
115.7458
 31
0.0
  0
LINE
  5
436
330
1E
100
AcDbEntity
  8
0
100
AcDbLine
 10
109.5499999999999
 20
115.7458
 30
0.0
 11
109.5499999999999
 21
119.4458
 31
0.0
  0
LINE
  5
437
330
1E
100
AcDbEntity
  8
0
100
AcDbLine
 10
109.5499999999999
 20
115.7458
 30
0.0
 11
109.5499999999999
 21
111.5458
 31
0.0
  0
LINE
  5
438
330
1E
100
AcDbEntity
  8
0
100
AcDbLine
 10
109.5499999999999
 20
111.5458
 30
0.0
 11
109.5499999999999
 21
115.7458
 31
0.0
  0
LINE
  5
439
330
1E
100
AcDbEntity
  8
0
100
AcDbLine
 10
109.5499999999999
 20
111.5458
 30
0.0
 11
109.5499999999999
 21
107.0458
 31
0.0
  0
LINE
  5
43A
330
1E
100
AcDbEntity
  8
0
100
AcDbLine
 10
109.5499999999999
 20
119.4458
 30
0.0
 11
109.5499999999999
 21
122.2458
 31
0.0
  0
LINE
  5
43B
330
1E
100
AcDbEntity
  8
0
100
AcDbLine
 10
109.5499999999999
 20
119.4458
 30
0.0
 11
109.5499999999999
 21
115.7458
 31
0.0
  0
LINE
  5
43C
330
1E
100
AcDbEntity
  8
0
100
AcDbLine
 10
110.054
 20
115.2457999999999
 30
0.0
 11
110.054
 21
118.6458
 31
0.0
  0
LINE
  5
43D
330
1E
100
AcDbEntity
  8
0
100
AcDbLine
 10
110.054
 20
115.2457999999999
 30
0.0
 11
110.054
 21
111.2457999999999
 31
0.0
  0
LINE
  5
43E
330
1E
100
AcDbEntity
  8
0
100
AcDbLine
 10
110.054
 20
111.2457999999999
 30
0.0
 11
110.054
 21
115.2457999999999
 31
0.0
  0
LINE
  5
43F
330
1E
100
AcDbEntity
  8
0
100
AcDbLine
 10
110.054
 20
111.2457999999999
 30
0.0
 11
110.054
 21
107.0458
 31
0.0
  0
LINE
  5
440
330
1E
100
AcDbEntity
  8
0
100
AcDbLine
 10
110.054
 20
118.6458
 30
0.0
 11
110.054
 21
121.3457999999999
 31
0.0
  0
LINE
  5
441
330
1E
100
AcDbEntity
  8
0
100
AcDbLine
 10
110.054
 20
118.6458
 30
0.0
 11
110.054
 21
115.2457999999999
 31
0.0
  0
LINE
  5
481
330
1E
100
AcDbEntity
  8
0
100
AcDbLine
 10
149.9449999999999
 20
115.2457999999999
 30
0.0
 11
149.9449999999999
 21
111.2457999999999
 31
0.0
  0
LINE
  5
482
330
1E
100
AcDbEntity
  8
0
100
AcDbLine
 10
149.9449999999999
 20
115.2457999999999
 30
0.0
 11
149.9449999999999
 21
118.6458
 31
0.0
  0
LINE
  5
483
330
1E
100
AcDbEntity
  8
0
100
AcDbLine
 10
149.9449999999999
 20
111.2457999999999
 30
0.0
 11
149.9449999999999
 21
107.0458
 31
0.0
  0
LINE
  5
484
330
1E
100
AcDbEntity
  8
0
100
AcDbLine
 10
149.9449999999999
 20
111.2457999999999
 30
0.0
 11
149.9449999999999
 21
115.2457999999999
 31
0.0
  0
LINE
  5
485
330
1E
100
AcDbEntity
  8
0
100
AcDbLine
 10
150.4509999999999
 20
115.7458
 30
0.0
 11
150.4509999999999
 21
111.5458
 31
0.0
  0
LINE
  5
486
330
1E
100
AcDbEntity
  8
0
100
AcDbLine
 10
150.4509999999999
 20
115.7458
 30
0.0
 11
150.4509999999999
 21
119.4458
 31
0.0
  0
LINE
  5
487
330
1E
100
AcDbEntity
  8
0
100
AcDbLine
 10
150.4509999999999
 20
111.5458
 30
0.0
 11
150.4509999999999
 21
107.0458
 31
0.0
  0
LINE
  5
488
330
1E
100
AcDbEntity
  8
0
100
AcDbLine
 10
150.4509999999999
 20
111.5458
 30
0.0
 11
150.4509999999999
 21
115.7458
 31
0.0
  0
LINE
  5
489
330
1E
100
AcDbEntity
  8
0
100
AcDbLine
 10
153.985
 20
115.7458
 30
0.0
 11
153.985
 21
111.5458
 31
0.0
  0
LINE
  5
48A
330
1E
100
AcDbEntity
  8
0
100
AcDbLine
 10
153.985
 20
115.7458
 30
0.0
 11
153.985
 21
119.4458
 31
0.0
  0
LINE
  5
48B
330
1E
100
AcDbEntity
  8
0
100
AcDbLine
 10
153.985
 20
111.5458
 30
0.0
 11
153.985
 21
107.0458
 31
0.0
  0
LINE
  5
48C
330
1E
100
AcDbEntity
  8
0
100
AcDbLine
 10
153.985
 20
111.5458
 30
0.0
 11
153.985
 21
115.7458
 31
0.0
  0
LINE
  5
48D
330
1E
100
AcDbEntity
  8
0
100
AcDbLine
 10
149.9449999999999
 20
118.6458
 30
0.0
 11
149.9449999999999
 21
115.2457999999999
 31
0.0
  0
LINE
  5
48E
330
1E
100
AcDbEntity
  8
0
100
AcDbLine
 10
149.9449999999999
 20
118.6458
 30
0.0
 11
149.9449999999999
 21
121.3457999999999
 31
0.0
  0
LINE
  5
48F
330
1E
100
AcDbEntity
  8
0
100
AcDbLine
 10
149.9449999999999
 20
121.3457999999999
 30
0.0
 11
149.9449999999999
 21
118.6458
 31
0.0
  0
LINE
  5
490
330
1E
100
AcDbEntity
  8
0
100
AcDbLine
 10
149.9449999999999
 20
121.3457999999999
 30
0.0
 11
149.9449999999999
 21
122.9458
 31
0.0
  0
LINE
  5
491
330
1E
100
AcDbEntity
  8
0
100
AcDbLine
 10
149.9449999999999
 20
122.9458
 30
0.0
 11
149.9449999999999
 21
121.3457999999999
 31
0.0
  0
LINE
  5
492
330
1E
100
AcDbEntity
  8
0
100
AcDbLine
 10
149.9449999999999
 20
122.9458
 30
0.0
 11
149.9449999999999
 21
123.5457999999999
 31
0.0
  0
LINE
  5
493
330
1E
100
AcDbEntity
  8
0
100
AcDbLine
 10
150.4509999999999
 20
122.2458
 30
0.0
 11
150.4509999999999
 21
119.4458
 31
0.0
  0
LINE
  5
494
330
1E
100
AcDbEntity
  8
0
100
AcDbLine
 10
150.4509999999999
 20
122.2458
 30
0.0
 11
150.4509999999999
 21
123.9458
 31
0.0
  0
LINE
  5
495
330
1E
100
AcDbEntity
  8
0
100
AcDbLine
 10
153.985
 20
122.2458
 30
0.0
 11
153.985
 21
119.4458
 31
0.0
  0
LINE
  5
496
330
1E
100
AcDbEntity
  8
0
100
AcDbLine
 10
153.985
 20
122.2458
 30
0.0
 11
153.985
 21
123.9458
 31
0.0
  0
LINE
  5
497
330
1E
100
AcDbEntity
  8
0
100
AcDbLine
 10
150.4509999999999
 20
119.4458
 30
0.0
 11
150.4509999999999
 21
115.7458
 31
0.0
  0
LINE
  5
498
330
1E
100
AcDbEntity
  8
0
100
AcDbLine
 10
150.4509999999999
 20
119.4458
 30
0.0
 11
150.4509999999999
 21
122.2458
 31
0.0
  0
LINE
  5
499
330
1E
100
AcDbEntity
  8
0
100
AcDbLine
 10
154.49
 20
120.9458
 30
0.0
 11
154.49
 21
118.3457999999999
 31
0.0
  0
LINE
  5
49A
330
1E
100
AcDbEntity
  8
0
100
AcDbLine
 10
154.49
 20
120.9458
 30
0.0
 11
154.49
 21
122.4458
 31
0.0
  0
LINE
  5
49B
330
1E
100
AcDbEntity
  8
0
100
AcDbLine
 10
154.49
 20
122.4458
 30
0.0
 11
154.49
 21
120.9458
 31
0.0
  0
LINE
  5
49C
330
1E
100
AcDbEntity
  8
0
100
AcDbLine
 10
154.49
 20
122.4458
 30
0.0
 11
154.49
 21
123.0458
 31
0.0
  0
LINE
  5
49D
330
1E
100
AcDbEntity
  8
0
100
AcDbLine
 10
154.49
 20
120.5457999999999
 30
0.0
 11
155.4999999999999
 21
120.0458
 31
0.0
  0
LINE
  5
49E
330
1E
100
AcDbEntity
  8
0
100
AcDbLine
 10
153.985
 20
119.4458
 30
0.0
 11
153.985
 21
115.7458
 31
0.0
  0
LINE
  5
49F
330
1E
100
AcDbEntity
  8
0
100
AcDbLine
 10
153.985
 20
119.4458
 30
0.0
 11
153.985
 21
122.2458
 31
0.0
  0
LINE
  5
4A0
330
1E
100
AcDbEntity
  8
0
100
AcDbLine
 10
154.49
 20
118.3457999999999
 30
0.0
 11
154.49
 21
115.0457999999999
 31
0.0
  0
LINE
  5
4A1
330
1E
100
AcDbEntity
  8
0
100
AcDbLine
 10
154.49
 20
118.3457999999999
 30
0.0
 11
154.49
 21
120.9458
 31
0.0
  0
LINE
  5
512
330
1E
100
AcDbEntity
  8
0
100
AcDbLine
 10
154.49
 20
115.0457999999999
 30
0.0
 11
154.49
 21
111.1458
 31
0.0
  0
LINE
  5
513
330
1E
100
AcDbEntity
  8
0
100
AcDbLine
 10
154.49
 20
115.0457999999999
 30
0.0
 11
154.49
 21
118.3457999999999
 31
0.0
  0
LINE
  5
514
330
1E
100
AcDbEntity
  8
0
100
AcDbLine
 10
154.49
 20
111.1458
 30
0.0
 11
154.49
 21
107.0458
 31
0.0
  0
LINE
  5
515
330
1E
100
AcDbEntity
  8
0
100
AcDbLine
 10
154.49
 20
111.1458
 30
0.0
 11
154.49
 21
115.0457999999999
 31
0.0
  0
LINE
  5
516
330
1E
100
AcDbEntity
  8
0
100
AcDbLine
 10
110.054
 20
121.3457999999999
 30
0.0
 11
110.054
 21
122.9458
 31
0.0
  0
LINE
  5
517
330
1E
100
AcDbEntity
  8
0
100
AcDbLine
 10
110.054
 20
121.3457999999999
 30
0.0
 11
110.054
 21
118.6458
 31
0.0
  0
LINE
  5
518
330
1E
100
AcDbEntity
  8
0
100
AcDbLine
 10
154.49
 20
123.0458
 30
0.0
 11
154.49
 21
122.4458
 31
0.0
  0
LINE
  5
519
330
1E
100
AcDbEntity
  8
0
100
AcDbLine
 10
148.936
 20
123.0458
 30
0.0
 11
149.9449999999999
 21
123.5457999999999
 31
0.0
  0
LINE
  5
522
330
1E
100
AcDbEntity
  8
0
100
AcDbLine
 10
150.4509999999999
 20
123.9458
 30
0.0
 11
150.4509999999999
 21
122.2458
 31
0.0
  0
LINE
  5
523
330
1E
100
AcDbEntity
  8
0
100
AcDbLine
 10
150.4509999999999
 20
123.9458
 30
0.0
 11
150.4509999999999
 21
124.5457999999999
 31
0.0
  0
LINE
  5
524
330
1E
100
AcDbEntity
  8
0
100
AcDbLine
 10
153.985
 20
123.9458
 30
0.0
 11
153.985
 21
122.2458
 31
0.0
  0
LINE
  5
525
330
1E
100
AcDbEntity
  8
0
100
AcDbLine
 10
153.985
 20
123.9458
 30
0.0
 11
153.985
 21
124.5457999999999
 31
0.0
  0
LINE
  5
526
330
1E
100
AcDbEntity
  8
0
100
AcDbLine
 10
149.9449999999999
 20
123.5457999999999
 30
0.0
 11
150.4509999999999
 21
124.5457999999999
 31
0.0
  0
LINE
  5
527
330
1E
100
AcDbEntity
  8
0
100
AcDbLine
 10
149.9449999999999
 20
123.5457999999999
 30
0.0
 11
149.9449999999999
 21
122.9458
 31
0.0
  0
LINE
  5
528
330
1E
100
AcDbEntity
  8
0
100
AcDbLine
 10
111.0639999999999
 20
123.0458
 30
0.0
 11
148.936
 21
123.0458
 31
0.0
  0
LINE
  5
529
330
1E
100
AcDbEntity
  8
0
100
AcDbLine
 10
110.054
 20
123.5457999999999
 30
0.0
 11
110.054
 21
122.9458
 31
0.0
  0
LINE
  5
52A
330
1E
100
AcDbEntity
  8
0
100
AcDbLine
 10
110.054
 20
123.5457999999999
 30
0.0
 11
111.0639999999999
 21
123.0458
 31
0.0
  0
LINE
  5
52B
330
1E
100
AcDbEntity
  8
0
100
AcDbLine
 10
110.054
 20
122.9458
 30
0.0
 11
110.054
 21
123.5457999999999
 31
0.0
  0
LINE
  5
52C
330
1E
100
AcDbEntity
  8
0
100
AcDbLine
 10
110.054
 20
122.9458
 30
0.0
 11
110.054
 21
121.3457999999999
 31
0.0
  0
LINE
  5
52D
330
1E
100
AcDbEntity
  8
0
100
AcDbLine
 10
109.5499999999999
 20
122.2458
 30
0.0
 11
109.5499999999999
 21
123.9458
 31
0.0
  0
LINE
  5
52E
330
1E
100
AcDbEntity
  8
0
100
AcDbLine
 10
109.5499999999999
 20
122.2458
 30
0.0
 11
109.5499999999999
 21
119.4458
 31
0.0
  0
LINE
  5
52F
330
1E
100
AcDbEntity
  8
0
100
AcDbLine
 10
109.5499999999999
 20
123.9458
 30
0.0
 11
109.5499999999999
 21
124.5457999999999
 31
0.0
  0
LINE
  5
530
330
1E
100
AcDbEntity
  8
0
100
AcDbLine
 10
109.5499999999999
 20
123.9458
 30
0.0
 11
109.5499999999999
 21
122.2458
 31
0.0
  0
LINE
  5
531
330
1E
100
AcDbEntity
  8
0
100
AcDbLine
 10
106.0149999999999
 20
122.2458
 30
0.0
 11
106.0149999999999
 21
123.9458
 31
0.0
  0
LINE
  5
532
330
1E
100
AcDbEntity
  8
0
100
AcDbLine
 10
106.0149999999999
 20
122.2458
 30
0.0
 11
106.0149999999999
 21
119.4458
 31
0.0
  0
LINE
  5
533
330
1E
100
AcDbEntity
  8
0
100
AcDbLine
 10
150.4509999999999
 20
124.5457999999999
 30
0.0
 11
151.965
 21
125.0458
 31
0.0
  0
LINE
  5
534
330
1E
100
AcDbEntity
  8
0
100
AcDbLine
 10
150.4509999999999
 20
124.5457999999999
 30
0.0
 11
150.4509999999999
 21
123.9458
 31
0.0
  0
LINE
  5
535
330
1E
100
AcDbEntity
  8
0
100
AcDbLine
 10
153.985
 20
124.5457999999999
 30
0.0
 11
154.49
 21
123.0458
 31
0.0
  0
LINE
  5
536
330
1E
100
AcDbEntity
  8
0
100
AcDbLine
 10
153.985
 20
124.5457999999999
 30
0.0
 11
153.985
 21
123.9458
 31
0.0
  0
LINE
  5
537
330
1E
100
AcDbEntity
  8
0
100
AcDbLine
 10
151.965
 20
125.0458
 30
0.0
 11
152.4699999999999
 21
125.0458
 31
0.0
  0
LINE
  5
538
330
1E
100
AcDbEntity
  8
0
100
AcDbLine
 10
152.4699999999999
 20
125.0458
 30
0.0
 11
153.985
 21
124.5457999999999
 31
0.0
  0
LINE
  5
539
330
1E
100
AcDbEntity
  8
0
100
AcDbLine
 10
109.5499999999999
 20
124.5457999999999
 30
0.0
 11
109.5499999999999
 21
123.9458
 31
0.0
  0
LINE
  5
53A
330
1E
100
AcDbEntity
  8
0
100
AcDbLine
 10
109.5499999999999
 20
124.5457999999999
 30
0.0
 11
110.054
 21
123.5457999999999
 31
0.0
  0
LINE
  5
53B
330
1E
100
AcDbEntity
  8
0
100
AcDbLine
 10
108.0349999999999
 20
125.0458
 30
0.0
 11
109.5499999999999
 21
124.5457999999999
 31
0.0
  0
LINE
  5
589
330
1E
100
AcDbEntity
  8
0
100
AcDbLine
 10
107.53
 20
125.0458
 30
0.0
 11
108.0349999999999
 21
125.0458
 31
0.0
  0
LINE
  5
58A
330
1E
100
AcDbEntity
  8
0
100
AcDbLine
 10
106.0149999999999
 20
124.5457999999999
 30
0.0
 11
106.0149999999999
 21
123.9458
 31
0.0
  0
LINE
  5
58B
330
1E
100
AcDbEntity
  8
0
100
AcDbLine
 10
106.0149999999999
 20
124.5457999999999
 30
0.0
 11
107.53
 21
125.0458
 31
0.0
  0
LINE
  5
58C
330
1E
100
AcDbEntity
  8
0
100
AcDbLine
 10
106.0149999999999
 20
123.9458
 30
0.0
 11
106.0149999999999
 21
124.5457999999999
 31
0.0
  0
LINE
  5
58D
330
1E
100
AcDbEntity
  8
0
100
AcDbLine
 10
106.0149999999999
 20
123.9458
 30
0.0
 11
106.0149999999999
 21
122.2458
 31
0.0
  0
LINE
  5
58E
330
1E
100
AcDbEntity
  8
0
100
AcDbLine
 10
105.51
 20
120.0458
 30
0.0
 11
105.51
 21
120.5457999999999
 31
0.0
  0
LINE
  5
58F
330
1E
100
AcDbEntity
  8
0
100
AcDbLine
 10
105.51
 20
120.0458
 30
0.0
 11
105.51
 21
118.7458
 31
0.0
  0
LINE
  5
590
330
1E
100
AcDbEntity
  8
0
100
AcDbLine
 10
105.51
 20
107.0458
 30
0.0
 11
105.51
 21
103.5457999999999
 31
0.0
  0
LINE
  5
591
330
1E
100
AcDbEntity
  8
0
100
AcDbLine
 10
105.51
 20
107.0458
 30
0.0
 11
105.51
 21
102.9457999999999
 31
0.0
  0
LINE
  5
592
330
1E
100
AcDbEntity
  8
0
100
AcDbLine
 10
105.51
 20
107.0458
 30
0.0
 11
105.51
 21
110.5458
 31
0.0
  0
LINE
  5
593
330
1E
100
AcDbEntity
  8
0
100
AcDbLine
 10
105.51
 20
107.0458
 30
0.0
 11
105.51
 21
111.1458
 31
0.0
  0
LINE
  5
594
330
1E
100
AcDbEntity
  8
0
100
AcDbLine
 10
74.0
 20
107.0458
 30
0.0
 11
74.0
 21
106.2458
 31
0.0
  0
LINE
  5
595
330
1E
100
AcDbEntity
  8
0
100
AcDbLine
 10
74.0
 20
107.0458
 30
0.0
 11
74.0
 21
107.8457999999999
 31
0.0
  0
LINE
  5
596
330
1E
100
AcDbEntity
  8
0
100
AcDbLine
 10
74.0
 20
106.2458
 30
0.0
 11
74.0
 21
107.0458
 31
0.0
  0
LINE
  5
597
330
1E
100
AcDbEntity
  8
0
100
AcDbLine
 10
64.00199999999999
 20
105.9458
 30
0.0
 11
67.97709999999999
 21
106.2458
 31
0.0
  0
LINE
  5
598
330
1E
100
AcDbEntity
  8
0
100
AcDbLine
 10
64.0
 20
104.7458
 30
0.0
 11
68.0
 21
105.0458
 31
0.0
  0
LINE
  5
599
330
1E
100
AcDbEntity
  8
0
100
AcDbLine
 10
61.4
 20
111.4458
 30
0.0
 11
61.5800754133899
 21
110.125246968474
 31
0.0
  0
LINE
  5
59A
330
1E
100
AcDbEntity
  8
0
100
AcDbLine
 10
29.1
 20
102.8458
 30
0.0
 11
30.7
 21
98.84579999999999
 31
0.0
  0
LINE
  5
59B
330
1E
100
AcDbEntity
  8
0
100
AcDbLine
 10
28.9679045582404
 20
103.770468092317
 30
0.0
 11
29.1
 21
102.8458
 31
0.0
  0
LINE
  5
59C
330
1E
100
AcDbEntity
  8
0
100
AcDbLine
 10
28.6
 20
102.6457999999999
 30
0.0
 11
30.3
 21
98.5458
 31
0.0
  0
LINE
  5
59D
330
1E
100
AcDbEntity
  8
0
100
AcDbLine
 10
28.4199245866101
 20
103.9663530315259
 30
0.0
 11
28.6
 21
102.6457999999999
 31
0.0
  0
LINE
  5
5A2
330
1E
100
AcDbEntity
  8
0
100
AcDbLine
 10
183.3
 20
75.3458
 30
0.0
 11
176.0
 21
84.64579999999999
 31
0.0
  0
LINE
  5
5A3
330
1E
100
AcDbEntity
  8
0
100
AcDbLine
 10
196.1
 20
74.14579999999999
 30
0.0
 11
188.1999999999999
 21
80.2458
 31
0.0
  0
LINE
  5
5A4
330
1E
100
AcDbEntity
  8
0
100
AcDbLine
 10
196.4
 20
74.54579999999999
 30
0.0
 11
188.5999999999999
 21
80.64579999999999
 31
0.0
  0
LINE
  5
5A5
330
1E
100
AcDbEntity
  8
0
100
AcDbLine
 10
241.8
 20
80.2458
 30
0.0
 11
233.8999999999999
 21
74.14579999999999
 31
0.0
  0
LINE
  5
5A6
330
1E
100
AcDbEntity
  8
0
100
AcDbLine
 10
241.4
 20
80.64579999999999
 30
0.0
 11
233.5999999999999
 21
74.54579999999999
 31
0.0
  0
LINE
  5
5A7
330
1E
100
AcDbEntity
  8
0
100
AcDbLine
 10
254.0
 20
84.64579999999999
 30
0.0
 11
246.7
 21
75.3458
 31
0.0
  0
LINE
  5
5A8
330
1E
100
AcDbEntity
  8
0
100
AcDbLine
 10
215.0
 20
62.04579999999999
 30
0.0
 11
203.4
 21
63.6458
 31
0.0
  0
LINE
  5
5A9
330
1E
100
AcDbEntity
  8
0
100
AcDbLine
 10
215.0
 20
69.0458
 30
0.0
 11
205.2
 21
70.4458
 31
0.0
  0
LINE
  5
5AA
330
1E
100
AcDbEntity
  8
0
100
AcDbLine
 10
215.0
 20
69.54579999999999
 30
0.0
 11
205.4
 21
70.9458
 31
0.0
  0
LINE
  5
5AB
330
1E
100
AcDbEntity
  8
0
100
AcDbLine
 10
233.8999999999999
 20
74.14579999999999
 30
0.0
 11
224.8
 21
70.4458
 31
0.0
  0
LINE
  5
5AC
330
1E
100
AcDbEntity
  8
0
100
AcDbLine
 10
233.5999999999999
 20
74.54579999999999
 30
0.0
 11
224.5999999999999
 21
70.9458
 31
0.0
  0
LINE
  5
5AD
330
1E
100
AcDbEntity
  8
0
100
AcDbLine
 10
237.4
 20
68.0458
 30
0.0
 11
226.6
 21
63.6458
 31
0.0
  0
LINE
  5
5AE
330
1E
100
AcDbEntity
  8
0
100
AcDbLine
 10
246.7
 20
75.3458
 30
0.0
 11
237.4
 21
68.0458
 31
0.0
  0
LINE
  5
5AF
330
1E
100
AcDbEntity
  8
0
100
AcDbLine
 10
226.6
 20
63.6458
 30
0.0
 11
215.0
 21
62.04579999999999
 31
0.0
  0
LINE
  5
5B0
330
1E
100
AcDbEntity
  8
0
100
AcDbLine
 10
224.8
 20
70.4458
 30
0.0
 11
215.0
 21
69.0458
 31
0.0
  0
LINE
  5
5B1
330
1E
100
AcDbEntity
  8
0
100
AcDbLine
 10
224.5999999999999
 20
70.9458
 30
0.0
 11
215.0
 21
69.54579999999999
 31
0.0
  0
LINE
  5
5B2
330
1E
100
AcDbEntity
  8
0
100
AcDbLine
 10
192.5999999999999
 20
68.0458
 30
0.0
 11
183.3
 21
75.3458
 31
0.0
  0
LINE
  5
5B3
330
1E
100
AcDbEntity
  8
0
100
AcDbLine
 10
203.4
 20
63.6458
 30
0.0
 11
192.5999999999999
 21
68.0458
 31
0.0
  0
LINE
  5
5B4
330
1E
100
AcDbEntity
  8
0
100
AcDbLine
 10
205.2
 20
70.4458
 30
0.0
 11
196.1
 21
74.14579999999999
 31
0.0
  0
LINE
  5
5B5
330
1E
100
AcDbEntity
  8
0
100
AcDbLine
 10
205.4
 20
70.9458
 30
0.0
 11
196.4
 21
74.54579999999999
 31
0.0
  0
LINE
  5
5B6
330
1E
100
AcDbEntity
  8
0
100
AcDbLine
 10
211.920553031526
 20
123.6258754133899
 30
0.0
 11
210.5999999999999
 21
123.4458
 31
0.0
  0
LINE
  5
5B7
330
1E
100
AcDbEntity
  8
0
100
AcDbLine
 10
211.7246680923173
 20
123.0778954417599
 30
0.0
 11
210.8
 21
122.9458
 31
0.0
  0
LINE
  5
5B8
330
1E
100
AcDbEntity
  8
0
100
AcDbLine
 10
211.7703999999999
 20
123.1597
 30
0.0
 11
210.2492
 21
120.4385999999999
 31
0.0
  0
LINE
  5
5B9
330
1E
100
AcDbEntity
  8
0
100
AcDbLine
 10
215.0
 20
152.0458
 30
0.0
 11
203.4
 21
150.4457999999999
 31
0.0
  0
LINE
  5
5BA
330
1E
100
AcDbEntity
  8
0
100
AcDbLine
 10
215.0
 20
145.0458
 30
0.0
 11
205.2
 21
143.6458
 31
0.0
  0
LINE
  5
5BB
330
1E
100
AcDbEntity
  8
0
100
AcDbLine
 10
215.0
 20
144.5458
 30
0.0
 11
205.4
 21
143.1458
 31
0.0
  0
LINE
  5
5BC
330
1E
100
AcDbEntity
  8
0
100
AcDbLine
 10
212.8535999999999
 20
122.5036999999999
 30
0.0
 11
211.0097999999999
 21
119.7497999999999
 31
0.0
  0
LINE
  5
5BD
330
1E
100
AcDbEntity
  8
0
100
AcDbLine
 10
212.3
 20
117.1457999999999
 30
0.0
 11
209.8
 21
116.1457999999999
 31
0.0
  0
LINE
  5
5BE
330
1E
100
AcDbEntity
  8
0
100
AcDbLine
 10
212.3
 20
96.94580000000001
 30
0.0
 11
209.8
 21
97.94580000000001
 31
0.0
  0
LINE
  5
5BF
330
1E
100
AcDbEntity
  8
0
100
AcDbLine
 10
212.8535999999999
 20
91.58790000000001
 30
0.0
 11
211.0097999999999
 21
94.34180000000001
 31
0.0
  0
LINE
  5
5C0
330
1E
100
AcDbEntity
  8
0
100
AcDbLine
 10
211.920553031526
 20
90.46572458661009
 30
0.0
 11
210.5999999999999
 21
90.64579999999999
 31
0.0
  0
LINE
  5
5C1
330
1E
100
AcDbEntity
  8
0
100
AcDbLine
 10
211.7246680923173
 20
91.01370455824042
 30
0.0
 11
210.8
 21
91.1458
 31
0.0
  0
LINE
  5
5C2
330
1E
100
AcDbEntity
  8
0
100
AcDbLine
 10
211.7703999999999
 20
90.93189999999999
 30
0.0
 11
210.2492
 21
93.65299999999999
 31
0.0
  0
LINE
  5
5C3
330
1E
100
AcDbEntity
  8
0
100
AcDbLine
 10
211.920553031526
 20
90.46572458661009
 30
0.0
 11
210.5999999999999
 21
90.64579999999999
 31
0.0
  0
LINE
  5
5C4
330
1E
100
AcDbEntity
  8
0
100
AcDbLine
 10
219.3999999999999
 20
123.4458
 30
0.0
 11
218.079446968474
 21
123.6258754133899
 31
0.0
  0
LINE
  5
5C5
330
1E
100
AcDbEntity
  8
0
100
AcDbLine
 10
212.6999999999999
 20
126.0458
 30
0.0
 11
211.7703999999999
 21
123.1597
 31
0.0
  0
LINE
  5
5C6
330
1E
100
AcDbEntity
  8
0
100
AcDbLine
 10
213.9
 20
126.0477999999999
 30
0.0
 11
212.8535999999999
 21
122.5036999999999
 31
0.0
  0
LINE
  5
5C7
330
1E
100
AcDbEntity
  8
0
100
AcDbLine
 10
218.2296
 20
123.1597
 30
0.0
 11
217.3
 21
126.0458
 31
0.0
  0
LINE
  5
5C8
330
1E
100
AcDbEntity
  8
0
100
AcDbLine
 10
217.1463999999999
 20
122.5036999999999
 30
0.0
 11
216.1
 21
126.0477999999999
 31
0.0
  0
LINE
  5
5C9
330
1E
100
AcDbEntity
  8
0
100
AcDbLine
 10
258.4
 20
118.6458
 30
0.0
 11
254.0
 21
129.4457999999999
 31
0.0
  0
LINE
  5
5CA
330
1E
100
AcDbEntity
  8
0
100
AcDbLine
 10
258.4
 20
118.6458
 30
0.0
 11
254.0
 21
129.4457999999999
 31
0.0
  0
LINE
  5
5CB
330
1E
100
AcDbEntity
  8
0
100
AcDbLine
 10
251.6
 20
116.8457999999999
 30
0.0
 11
247.9
 21
125.9458
 31
0.0
  0
LINE
  5
5CC
330
1E
100
AcDbEntity
  8
0
100
AcDbLine
 10
251.1
 20
116.6457999999999
 30
0.0
 11
247.5
 21
125.6458
 31
0.0
  0
LINE
  5
5CD
330
1E
100
AcDbEntity
  8
0
100
AcDbLine
 10
253.0
 20
107.0458
 30
0.0
 11
251.6
 21
116.8457999999999
 31
0.0
  0
LINE
  5
5CE
330
1E
100
AcDbEntity
  8
0
100
AcDbLine
 10
253.0
 20
107.0458
 30
0.0
 11
251.6
 21
97.24580000000001
 31
0.0
  0
LINE
  5
5CF
330
1E
100
AcDbEntity
  8
0
100
AcDbLine
 10
252.4999999999999
 20
107.0458
 30
0.0
 11
251.1
 21
116.6457999999999
 31
0.0
  0
LINE
  5
5D0
330
1E
100
AcDbEntity
  8
0
100
AcDbLine
 10
252.4999999999999
 20
107.0458
 30
0.0
 11
251.1
 21
97.4458
 31
0.0
  0
LINE
  5
5D1
330
1E
100
AcDbEntity
  8
0
100
AcDbLine
 10
260.0
 20
107.0458
 30
0.0
 11
258.4
 21
95.44580000000001
 31
0.0
  0
LINE
  5
5D2
330
1E
100
AcDbEntity
  8
0
100
AcDbLine
 10
258.4
 20
95.44580000000001
 30
0.0
 11
254.0
 21
84.64579999999999
 31
0.0
  0
LINE
  5
5D3
330
1E
100
AcDbEntity
  8
0
100
AcDbLine
 10
258.4
 20
95.44580000000001
 30
0.0
 11
254.0
 21
84.64579999999999
 31
0.0
  0
LINE
  5
5D4
330
1E
100
AcDbEntity
  8
0
100
AcDbLine
 10
260.0
 20
107.0458
 30
0.0
 11
258.4
 21
118.6458
 31
0.0
  0
LINE
  5
5D5
330
1E
100
AcDbEntity
  8
0
100
AcDbLine
 10
231.4
 20
102.6457999999999
 30
0.0
 11
229.7
 21
98.5458
 31
0.0
  0
LINE
  5
5D6
330
1E
100
AcDbEntity
  8
0
100
AcDbLine
 10
230.9
 20
102.8458
 30
0.0
 11
229.3
 21
98.84579999999999
 31
0.0
  0
LINE
  5
5D7
330
1E
100
AcDbEntity
  8
0
100
AcDbLine
 10
224.1
 20
101.8458
 30
0.0
 11
222.4
 21
99.64579999999999
 31
0.0
  0
LINE
  5
5D8
330
1E
100
AcDbEntity
  8
0
100
AcDbLine
 10
226.4
 20
100.4458
 30
0.0
 11
224.3
 21
97.7458
 31
0.0
  0
LINE
  5
5D9
330
1E
100
AcDbEntity
  8
0
100
AcDbLine
 10
225.4223
 20
101.0458
 30
0.0
 11
223.4999999999999
 21
98.5458
 31
0.0
  0
LINE
  5
5DA
330
1E
100
AcDbEntity
  8
0
100
AcDbLine
 10
247.9
 20
88.14579999999999
 30
0.0
 11
241.8
 21
80.2458
 31
0.0
  0
LINE
  5
5DB
330
1E
100
AcDbEntity
  8
0
100
AcDbLine
 10
247.5
 20
88.4458
 30
0.0
 11
241.4
 21
80.64579999999999
 31
0.0
  0
LINE
  5
5DC
330
1E
100
AcDbEntity
  8
0
100
AcDbLine
 10
251.6
 20
97.24580000000001
 30
0.0
 11
247.9
 21
88.14579999999999
 31
0.0
  0
LINE
  5
5DD
330
1E
100
AcDbEntity
  8
0
100
AcDbLine
 10
251.1
 20
97.4458
 30
0.0
 11
247.5
 21
88.4458
 31
0.0
  0
LINE
  5
5DE
330
1E
100
AcDbEntity
  8
0
100
AcDbLine
 10
217.3
 20
88.04579999999999
 30
0.0
 11
217.0
 21
84.04580000000001
 31
0.0
  0
LINE
  5
5DF
330
1E
100
AcDbEntity
  8
0
100
AcDbLine
 10
216.1
 20
88.0438
 30
0.0
 11
215.8
 21
84.06870000000001
 31
0.0
  0
LINE
  5
5E0
330
1E
100
AcDbEntity
  8
0
100
AcDbLine
 10
213.0
 20
84.04580000000001
 30
0.0
 11
212.6999999999999
 21
88.04579999999999
 31
0.0
  0
LINE
  5
5E1
330
1E
100
AcDbEntity
  8
0
100
AcDbLine
 10
214.1999999999999
 20
84.06870000000001
 30
0.0
 11
213.9
 21
88.0438
 31
0.0
  0
LINE
  5
5E2
330
1E
100
AcDbEntity
  8
0
100
AcDbLine
 10
213.2
 20
81.0458
 30
0.0
 11
213.0
 21
84.04580000000001
 31
0.0
  0
LINE
  5
5E3
330
1E
100
AcDbEntity
  8
0
100
AcDbLine
 10
214.1999999999999
 20
80.67109999999999
 30
0.0
 11
214.1999999999999
 21
82.171
 31
0.0
  0
LINE
  5
5E4
330
1E
100
AcDbEntity
  8
0
100
AcDbLine
 10
214.1999999999999
 20
82.171
 30
0.0
 11
214.1999999999999
 21
80.67109999999999
 31
0.0
  0
LINE
  5
5E5
330
1E
100
AcDbEntity
  8
0
100
AcDbLine
 10
215.8
 20
80.67109999999999
 30
0.0
 11
215.8
 21
82.171
 31
0.0
  0
LINE
  5
5E6
330
1E
100
AcDbEntity
  8
0
100
AcDbLine
 10
215.8
 20
82.171
 30
0.0
 11
215.8
 21
80.67109999999999
 31
0.0
  0
LINE
  5
5E7
330
1E
100
AcDbEntity
  8
0
100
AcDbLine
 10
217.0
 20
84.04580000000001
 30
0.0
 11
216.8
 21
81.0458
 31
0.0
  0
LINE
  5
5E8
330
1E
100
AcDbEntity
  8
0
100
AcDbLine
 10
216.8
 20
81.0458
 30
0.0
 11
216.3
 21
78.5458
 31
0.0
  0
LINE
  5
5E9
330
1E
100
AcDbEntity
  8
0
100
AcDbLine
 10
213.7
 20
78.5458
 30
0.0
 11
213.2
 21
81.0458
 31
0.0
  0
LINE
  5
5EA
330
1E
100
AcDbEntity
  8
0
100
AcDbLine
 10
214.1999999999999
 20
78.9212
 30
0.0
 11
214.1999999999999
 21
79.575
 31
0.0
  0
LINE
  5
5EB
330
1E
100
AcDbEntity
  8
0
100
AcDbLine
 10
214.1999999999999
 20
79.575
 30
0.0
 11
214.1999999999999
 21
78.9212
 31
0.0
  0
LINE
  5
5EC
330
1E
100
AcDbEntity
  8
0
100
AcDbLine
 10
215.8
 20
78.9212
 30
0.0
 11
215.8
 21
79.575
 31
0.0
  0
LINE
  5
5ED
330
1E
100
AcDbEntity
  8
0
100
AcDbLine
 10
215.8
 20
79.575
 30
0.0
 11
215.8
 21
78.9212
 31
0.0
  0
LINE
  5
5EE
330
1E
100
AcDbEntity
  8
0
100
AcDbLine
 10
214.1999999999999
 20
78.0458
 30
0.0
 11
213.7
 21
78.5458
 31
0.0
  0
LINE
  5
5EF
330
1E
100
AcDbEntity
  8
0
100
AcDbLine
 10
215.8
 20
78.0458
 30
0.0
 11
215.8
 21
78.402
 31
0.0
  0
LINE
  5
5F0
330
1E
100
AcDbEntity
  8
0
100
AcDbLine
 10
215.8
 20
78.0458
 30
0.0
 11
215.0
 21
78.0458
 31
0.0
  0
LINE
  5
5F1
330
1E
100
AcDbEntity
  8
0
100
AcDbLine
 10
215.8
 20
78.402
 30
0.0
 11
215.8
 21
78.0458
 31
0.0
  0
LINE
  5
5F2
330
1E
100
AcDbEntity
  8
0
100
AcDbLine
 10
215.8
 20
78.402
 30
0.0
 11
215.8
 21
78.9212
 31
0.0
  0
LINE
  5
5F3
330
1E
100
AcDbEntity
  8
0
100
AcDbLine
 10
214.1999999999999
 20
78.402
 30
0.0
 11
214.1999999999999
 21
78.9212
 31
0.0
  0
LINE
  5
5F4
330
1E
100
AcDbEntity
  8
0
100
AcDbLine
 10
214.1999999999999
 20
78.402
 30
0.0
 11
214.1999999999999
 21
78.0458
 31
0.0
  0
LINE
  5
5F5
330
1E
100
AcDbEntity
  8
0
100
AcDbLine
 10
214.1999999999999
 20
78.9212
 30
0.0
 11
214.1999999999999
 21
78.402
 31
0.0
  0
LINE
  5
5F6
330
1E
100
AcDbEntity
  8
0
100
AcDbLine
 10
215.8
 20
78.9212
 30
0.0
 11
215.8
 21
78.402
 31
0.0
  0
LINE
  5
5F7
330
1E
100
AcDbEntity
  8
0
100
AcDbLine
 10
215.0
 20
78.0458
 30
0.0
 11
214.1999999999999
 21
78.0458
 31
0.0
  0
LINE
  5
5F8
330
1E
100
AcDbEntity
  8
0
100
AcDbLine
 10
214.1999999999999
 20
78.0458
 30
0.0
 11
214.1999999999999
 21
78.402
 31
0.0
  0
LINE
  5
5F9
330
1E
100
AcDbEntity
  8
0
100
AcDbLine
 10
216.3
 20
78.5458
 30
0.0
 11
215.8
 21
78.0458
 31
0.0
  0
LINE
  5
5FA
330
1E
100
AcDbEntity
  8
0
100
AcDbLine
 10
214.1999999999999
 20
79.575
 30
0.0
 11
214.1999999999999
 21
80.67109999999999
 31
0.0
  0
LINE
  5
5FB
330
1E
100
AcDbEntity
  8
0
100
AcDbLine
 10
214.1999999999999
 20
80.67109999999999
 30
0.0
 11
214.1999999999999
 21
79.575
 31
0.0
  0
LINE
  5
5FC
330
1E
100
AcDbEntity
  8
0
100
AcDbLine
 10
215.8
 20
79.575
 30
0.0
 11
215.8
 21
80.67109999999999
 31
0.0
  0
LINE
  5
5FD
330
1E
100
AcDbEntity
  8
0
100
AcDbLine
 10
215.8
 20
80.67109999999999
 30
0.0
 11
215.8
 21
79.575
 31
0.0
  0
LINE
  5
5FE
330
1E
100
AcDbEntity
  8
0
100
AcDbLine
 10
214.1999999999999
 20
84.06870000000001
 30
0.0
 11
214.1999999999999
 21
82.171
 31
0.0
  0
LINE
  5
5FF
330
1E
100
AcDbEntity
  8
0
100
AcDbLine
 10
214.1999999999999
 20
82.171
 30
0.0
 11
214.1999999999999
 21
84.06870000000001
 31
0.0
  0
LINE
  5
600
330
1E
100
AcDbEntity
  8
0
100
AcDbLine
 10
215.8
 20
82.171
 30
0.0
 11
215.8
 21
84.06870000000001
 31
0.0
  0
LINE
  5
601
330
1E
100
AcDbEntity
  8
0
100
AcDbLine
 10
215.8
 20
84.06870000000001
 30
0.0
 11
215.8
 21
82.171
 31
0.0
  0
LINE
  5
602
330
1E
100
AcDbEntity
  8
0
100
AcDbLine
 10
222.4
 20
99.64579999999999
 30
0.0
 11
220.1999999999999
 21
97.94580000000001
 31
0.0
  0
LINE
  5
603
330
1E
100
AcDbEntity
  8
0
100
AcDbLine
 10
223.4999999999999
 20
92.34579999999999
 30
0.0
 11
219.3999999999999
 21
90.64579999999999
 31
0.0
  0
LINE
  5
604
330
1E
100
AcDbEntity
  8
0
100
AcDbLine
 10
223.4999999999999
 20
92.34579999999999
 30
0.0
 11
219.3999999999999
 21
90.64579999999999
 31
0.0
  0
LINE
  5
605
330
1E
100
AcDbEntity
  8
0
100
AcDbLine
 10
223.1999999999999
 20
92.7458
 30
0.0
 11
219.1999999999999
 21
91.1458
 31
0.0
  0
LINE
  5
606
330
1E
100
AcDbEntity
  8
0
100
AcDbLine
 10
223.4999999999999
 20
98.5458
 30
0.0
 11
221.0
 21
96.62350000000001
 31
0.0
  0
LINE
  5
607
330
1E
100
AcDbEntity
  8
0
100
AcDbLine
 10
221.6
 20
95.64579999999999
 30
0.0
 11
219.7508
 21
93.65299999999999
 31
0.0
  0
LINE
  5
608
330
1E
100
AcDbEntity
  8
0
100
AcDbLine
 10
227.0
 20
95.0458
 30
0.0
 11
223.4999999999999
 21
92.34579999999999
 31
0.0
  0
LINE
  5
609
330
1E
100
AcDbEntity
  8
0
100
AcDbLine
 10
226.6999999999999
 20
95.3458
 30
0.0
 11
223.1999999999999
 21
92.7458
 31
0.0
  0
LINE
  5
60A
330
1E
100
AcDbEntity
  8
0
100
AcDbLine
 10
227.0
 20
95.0458
 30
0.0
 11
223.4999999999999
 21
92.34579999999999
 31
0.0
  0
LINE
  5
60B
330
1E
100
AcDbEntity
  8
0
100
AcDbLine
 10
229.7
 20
98.5458
 30
0.0
 11
227.0
 21
95.0458
 31
0.0
  0
LINE
  5
60C
330
1E
100
AcDbEntity
  8
0
100
AcDbLine
 10
229.7
 20
98.5458
 30
0.0
 11
227.0
 21
95.0458
 31
0.0
  0
LINE
  5
60D
330
1E
100
AcDbEntity
  8
0
100
AcDbLine
 10
229.3
 20
98.84579999999999
 30
0.0
 11
226.6999999999999
 21
95.3458
 31
0.0
  0
LINE
  5
60E
330
1E
100
AcDbEntity
  8
0
100
AcDbLine
 10
224.3
 20
97.7458
 30
0.0
 11
221.6
 21
95.64579999999999
 31
0.0
  0
LINE
  5
60F
330
1E
100
AcDbEntity
  8
0
100
AcDbLine
 10
218.9902
 20
94.34180000000001
 30
0.0
 11
217.1463999999999
 21
91.58790000000001
 31
0.0
  0
LINE
  5
610
330
1E
100
AcDbEntity
  8
0
100
AcDbLine
 10
217.1463999999999
 20
91.58790000000001
 30
0.0
 11
216.1
 21
88.0438
 31
0.0
  0
LINE
  5
611
330
1E
100
AcDbEntity
  8
0
100
AcDbLine
 10
218.2296
 20
90.93189999999999
 30
0.0
 11
217.3
 21
88.04579999999999
 31
0.0
  0
LINE
  5
612
330
1E
100
AcDbEntity
  8
0
100
AcDbLine
 10
219.3999999999999
 20
90.64579999999999
 30
0.0
 11
218.079446968474
 21
90.46572458661009
 31
0.0
  0
LINE
  5
613
330
1E
100
AcDbEntity
  8
0
100
AcDbLine
 10
219.3999999999999
 20
90.64579999999999
 30
0.0
 11
218.079446968474
 21
90.46572458661009
 31
0.0
  0
LINE
  5
614
330
1E
100
AcDbEntity
  8
0
100
AcDbLine
 10
219.3999999999999
 20
90.64579999999999
 30
0.0
 11
218.079446968474
 21
90.46572458661009
 31
0.0
  0
LINE
  5
615
330
1E
100
AcDbEntity
  8
0
100
AcDbLine
 10
219.1999999999999
 20
91.1458
 30
0.0
 11
218.2753319076827
 21
91.01370455824042
 31
0.0
  0
LINE
  5
616
330
1E
100
AcDbEntity
  8
0
100
AcDbLine
 10
219.7508
 20
93.65299999999999
 30
0.0
 11
218.2296
 21
90.93189999999999
 31
0.0
  0
LINE
  5
617
330
1E
100
AcDbEntity
  8
0
100
AcDbLine
 10
212.6999999999999
 20
88.04579999999999
 30
0.0
 11
211.7703999999999
 21
90.93189999999999
 31
0.0
  0
LINE
  5
618
330
1E
100
AcDbEntity
  8
0
100
AcDbLine
 10
213.9
 20
88.0438
 30
0.0
 11
212.8535999999999
 21
91.58790000000001
 31
0.0
  0
LINE
  5
619
330
1E
100
AcDbEntity
  8
0
100
AcDbLine
 10
217.7
 20
96.94580000000001
 30
0.0
 11
215.0
 21
96.54580000000001
 31
0.0
  0
LINE
  5
61A
330
1E
100
AcDbEntity
  8
0
100
AcDbLine
 10
221.0
 20
96.62350000000001
 30
0.0
 11
218.9902
 21
94.34180000000001
 31
0.0
  0
LINE
  5
61B
330
1E
100
AcDbEntity
  8
0
100
AcDbLine
 10
220.1999999999999
 20
97.94580000000001
 30
0.0
 11
217.7
 21
96.94580000000001
 31
0.0
  0
LINE
  5
61C
330
1E
100
AcDbEntity
  8
0
100
AcDbLine
 10
215.0
 20
96.54580000000001
 30
0.0
 11
212.3
 21
96.94580000000001
 31
0.0
  0
LINE
  5
61D
330
1E
100
AcDbEntity
  8
0
100
AcDbLine
 10
231.5800754133899
 20
103.9663530315259
 30
0.0
 11
231.4
 21
102.6457999999999
 31
0.0
  0
LINE
  5
61E
330
1E
100
AcDbEntity
  8
0
100
AcDbLine
 10
231.5800754133899
 20
110.125246968474
 30
0.0
 11
231.4
 21
111.4458
 31
0.0
  0
LINE
  5
61F
330
1E
100
AcDbEntity
  8
0
100
AcDbLine
 10
234.0
 20
109.3458
 30
0.0
 11
231.1139
 21
110.2754
 31
0.0
  0
LINE
  5
620
330
1E
100
AcDbEntity
  8
0
100
AcDbLine
 10
234.0019999999999
 20
108.1458
 30
0.0
 11
230.4578999999999
 21
109.1922
 31
0.0
  0
LINE
  5
621
330
1E
100
AcDbEntity
  8
0
100
AcDbLine
 10
234.0019999999999
 20
105.9458
 30
0.0
 11
230.4578999999999
 21
104.8993999999999
 31
0.0
  0
LINE
  5
622
330
1E
100
AcDbEntity
  8
0
100
AcDbLine
 10
234.0
 20
104.7458
 30
0.0
 11
231.1139
 21
103.8162
 31
0.0
  0
LINE
  5
623
330
1E
100
AcDbEntity
  8
0
100
AcDbLine
 10
243.5
 20
108.3458
 30
0.0
 11
241.0
 21
108.8457999999999
 31
0.0
  0
LINE
  5
624
330
1E
100
AcDbEntity
  8
0
100
AcDbLine
 10
242.4707999999999
 20
107.8457999999999
 30
0.0
 11
241.3746999999999
 21
107.8457999999999
 31
0.0
  0
LINE
  5
625
330
1E
100
AcDbEntity
  8
0
100
AcDbLine
 10
242.4707999999999
 20
106.2458
 30
0.0
 11
241.3746999999999
 21
106.2458
 31
0.0
  0
LINE
  5
626
330
1E
100
AcDbEntity
  8
0
100
AcDbLine
 10
243.5
 20
105.7458
 30
0.0
 11
241.0
 21
105.2458
 31
0.0
  0
LINE
  5
627
330
1E
100
AcDbEntity
  8
0
100
AcDbLine
 10
244.0
 20
106.2458
 30
0.0
 11
243.5
 21
105.7458
 31
0.0
  0
LINE
  5
628
330
1E
100
AcDbEntity
  8
0
100
AcDbLine
 10
244.0
 20
106.2458
 30
0.0
 11
243.6437999999999
 21
106.2458
 31
0.0
  0
LINE
  5
629
330
1E
100
AcDbEntity
  8
0
100
AcDbLine
 10
244.0
 20
106.2458
 30
0.0
 11
244.0
 21
107.0458
 31
0.0
  0
LINE
  5
62A
330
1E
100
AcDbEntity
  8
0
100
AcDbLine
 10
244.0
 20
107.0458
 30
0.0
 11
244.0
 21
107.8457999999999
 31
0.0
  0
LINE
  5
62B
330
1E
100
AcDbEntity
  8
0
100
AcDbLine
 10
244.0
 20
107.0458
 30
0.0
 11
244.0
 21
106.2458
 31
0.0
  0
LINE
  5
62C
330
1E
100
AcDbEntity
  8
0
100
AcDbLine
 10
243.6437999999999
 20
107.8457999999999
 30
0.0
 11
243.1245999999999
 21
107.8457999999999
 31
0.0
  0
LINE
  5
62D
330
1E
100
AcDbEntity
  8
0
100
AcDbLine
 10
243.1245999999999
 20
107.8457999999999
 30
0.0
 11
242.4707999999999
 21
107.8457999999999
 31
0.0
  0
LINE
  5
62E
330
1E
100
AcDbEntity
  8
0
100
AcDbLine
 10
244.0
 20
107.8457999999999
 30
0.0
 11
243.6437999999999
 21
107.8457999999999
 31
0.0
  0
LINE
  5
62F
330
1E
100
AcDbEntity
  8
0
100
AcDbLine
 10
244.0
 20
107.8457999999999
 30
0.0
 11
243.5
 21
108.3458
 31
0.0
  0
LINE
  5
630
330
1E
100
AcDbEntity
  8
0
100
AcDbLine
 10
244.0
 20
107.8457999999999
 30
0.0
 11
244.0
 21
107.0458
 31
0.0
  0
LINE
  5
631
330
1E
100
AcDbEntity
  8
0
100
AcDbLine
 10
243.6437999999999
 20
106.2458
 30
0.0
 11
243.1245999999999
 21
106.2458
 31
0.0
  0
LINE
  5
632
330
1E
100
AcDbEntity
  8
0
100
AcDbLine
 10
243.1245999999999
 20
106.2458
 30
0.0
 11
242.4707999999999
 21
106.2458
 31
0.0
  0
LINE
  5
633
330
1E
100
AcDbEntity
  8
0
100
AcDbLine
 10
238.0
 20
105.0458
 30
0.0
 11
234.0
 21
104.7458
 31
0.0
  0
LINE
  5
634
330
1E
100
AcDbEntity
  8
0
100
AcDbLine
 10
241.0
 20
105.2458
 30
0.0
 11
238.0
 21
105.0458
 31
0.0
  0
LINE
  5
635
330
1E
100
AcDbEntity
  8
0
100
AcDbLine
 10
238.0
 20
109.0457999999999
 30
0.0
 11
234.0
 21
109.3458
 31
0.0
  0
LINE
  5
636
330
1E
100
AcDbEntity
  8
0
100
AcDbLine
 10
237.9771
 20
107.8457999999999
 30
0.0
 11
234.0019999999999
 21
108.1458
 31
0.0
  0
LINE
  5
637
330
1E
100
AcDbEntity
  8
0
100
AcDbLine
 10
237.9771
 20
106.2458
 30
0.0
 11
234.0019999999999
 21
105.9458
 31
0.0
  0
LINE
  5
638
330
1E
100
AcDbEntity
  8
0
100
AcDbLine
 10
239.8747999999999
 20
107.8457999999999
 30
0.0
 11
237.9771
 21
107.8457999999999
 31
0.0
  0
LINE
  5
639
330
1E
100
AcDbEntity
  8
0
100
AcDbLine
 10
239.8747999999999
 20
106.2458
 30
0.0
 11
237.9771
 21
106.2458
 31
0.0
  0
LINE
  5
63A
330
1E
100
AcDbEntity
  8
0
100
AcDbLine
 10
241.3746999999999
 20
107.8457999999999
 30
0.0
 11
239.8747999999999
 21
107.8457999999999
 31
0.0
  0
LINE
  5
63B
330
1E
100
AcDbEntity
  8
0
100
AcDbLine
 10
241.3746999999999
 20
106.2458
 30
0.0
 11
239.8747999999999
 21
106.2458
 31
0.0
  0
LINE
  5
63C
330
1E
100
AcDbEntity
  8
0
100
AcDbLine
 10
241.0
 20
108.8457999999999
 30
0.0
 11
238.0
 21
109.0457999999999
 31
0.0
  0
LINE
  5
63D
330
1E
100
AcDbEntity
  8
0
100
AcDbLine
 10
230.9
 20
111.2457999999999
 30
0.0
 11
229.3
 21
115.2457999999999
 31
0.0
  0
LINE
  5
63E
330
1E
100
AcDbEntity
  8
0
100
AcDbLine
 10
225.0999999999999
 20
109.7458
 30
0.0
 11
224.1
 21
112.2457999999999
 31
0.0
  0
LINE
  5
63F
330
1E
100
AcDbEntity
  8
0
100
AcDbLine
 10
227.7039999999999
 20
111.036
 30
0.0
 11
225.4223
 21
113.0457999999999
 31
0.0
  0
LINE
  5
640
330
1E
100
AcDbEntity
  8
0
100
AcDbLine
 10
231.4
 20
111.4458
 30
0.0
 11
229.7
 21
115.5458
 31
0.0
  0
LINE
  5
641
330
1E
100
AcDbEntity
  8
0
100
AcDbLine
 10
231.1139
 20
110.2754
 30
0.0
 11
228.3927999999999
 21
111.7966
 31
0.0
  0
LINE
  5
642
330
1E
100
AcDbEntity
  8
0
100
AcDbLine
 10
225.4999999999999
 20
107.0458
 30
0.0
 11
225.0999999999999
 21
104.3457999999999
 31
0.0
  0
LINE
  5
643
330
1E
100
AcDbEntity
  8
0
100
AcDbLine
 10
227.7039999999999
 20
103.0556
 30
0.0
 11
225.4223
 21
101.0458
 31
0.0
  0
LINE
  5
644
330
1E
100
AcDbEntity
  8
0
100
AcDbLine
 10
228.3927999999999
 20
102.295
 30
0.0
 11
226.4
 21
100.4458
 31
0.0
  0
LINE
  5
645
330
1E
100
AcDbEntity
  8
0
100
AcDbLine
 10
231.1139
 20
103.8162
 30
0.0
 11
228.3927999999999
 21
102.295
 31
0.0
  0
LINE
  5
646
330
1E
100
AcDbEntity
  8
0
100
AcDbLine
 10
230.4578999999999
 20
104.8993999999999
 30
0.0
 11
227.7039999999999
 21
103.0556
 31
0.0
  0
LINE
  5
647
330
1E
100
AcDbEntity
  8
0
100
AcDbLine
 10
231.0320954417595
 20
103.770468092317
 30
0.0
 11
230.9
 21
102.8458
 31
0.0
  0
LINE
  5
648
330
1E
100
AcDbEntity
  8
0
100
AcDbLine
 10
225.0999999999999
 20
104.3457999999999
 30
0.0
 11
224.1
 21
101.8458
 31
0.0
  0
LINE
  5
649
330
1E
100
AcDbEntity
  8
0
100
AcDbLine
 10
230.4578999999999
 20
109.1922
 30
0.0
 11
227.7039999999999
 21
111.036
 31
0.0
  0
LINE
  5
64A
330
1E
100
AcDbEntity
  8
0
100
AcDbLine
 10
231.0320954417595
 20
110.321131907683
 30
0.0
 11
230.9
 21
111.2457999999999
 31
0.0
  0
LINE
  5
64B
330
1E
100
AcDbEntity
  8
0
100
AcDbLine
 10
225.4999999999999
 20
107.0458
 30
0.0
 11
225.0999999999999
 21
109.7458
 31
0.0
  0
LINE
  5
64C
330
1E
100
AcDbEntity
  8
0
100
AcDbLine
 10
223.4999999999999
 20
121.7458
 30
0.0
 11
219.3999999999999
 21
123.4458
 31
0.0
  0
LINE
  5
64D
330
1E
100
AcDbEntity
  8
0
100
AcDbLine
 10
223.1999999999999
 20
121.3457999999999
 30
0.0
 11
219.1999999999999
 21
122.9458
 31
0.0
  0
LINE
  5
64E
330
1E
100
AcDbEntity
  8
0
100
AcDbLine
 10
221.6
 20
118.4458
 30
0.0
 11
219.7508
 21
120.4385999999999
 31
0.0
  0
LINE
  5
64F
330
1E
100
AcDbEntity
  8
0
100
AcDbLine
 10
223.4999999999999
 20
115.5458
 30
0.0
 11
221.0
 21
117.4681
 31
0.0
  0
LINE
  5
650
330
1E
100
AcDbEntity
  8
0
100
AcDbLine
 10
222.4
 20
114.4457999999999
 30
0.0
 11
220.1999999999999
 21
116.1457999999999
 31
0.0
  0
LINE
  5
651
330
1E
100
AcDbEntity
  8
0
100
AcDbLine
 10
224.3
 20
116.3458
 30
0.0
 11
221.6
 21
118.4458
 31
0.0
  0
LINE
  5
652
330
1E
100
AcDbEntity
  8
0
100
AcDbLine
 10
229.7
 20
115.5458
 30
0.0
 11
227.0
 21
119.0458
 31
0.0
  0
LINE
  5
653
330
1E
100
AcDbEntity
  8
0
100
AcDbLine
 10
229.3
 20
115.2457999999999
 30
0.0
 11
226.6999999999999
 21
118.7458
 31
0.0
  0
LINE
  5
654
330
1E
100
AcDbEntity
  8
0
100
AcDbLine
 10
228.3927999999999
 20
111.7966
 30
0.0
 11
226.4
 21
113.6457999999999
 31
0.0
  0
LINE
  5
655
330
1E
100
AcDbEntity
  8
0
100
AcDbLine
 10
226.4
 20
113.6457999999999
 30
0.0
 11
224.3
 21
116.3458
 31
0.0
  0
LINE
  5
656
330
1E
100
AcDbEntity
  8
0
100
AcDbLine
 10
225.4223
 20
113.0457999999999
 30
0.0
 11
223.4999999999999
 21
115.5458
 31
0.0
  0
LINE
  5
657
330
1E
100
AcDbEntity
  8
0
100
AcDbLine
 10
224.1
 20
112.2457999999999
 30
0.0
 11
222.4
 21
114.4457999999999
 31
0.0
  0
LINE
  5
658
330
1E
100
AcDbEntity
  8
0
100
AcDbLine
 10
227.0
 20
119.0458
 30
0.0
 11
223.4999999999999
 21
121.7458
 31
0.0
  0
LINE
  5
659
330
1E
100
AcDbEntity
  8
0
100
AcDbLine
 10
226.6999999999999
 20
118.7458
 30
0.0
 11
223.1999999999999
 21
121.3457999999999
 31
0.0
  0
LINE
  5
65A
330
1E
100
AcDbEntity
  8
0
100
AcDbLine
 10
221.0
 20
117.4681
 30
0.0
 11
218.9902
 21
119.7497999999999
 31
0.0
  0
LINE
  5
65B
330
1E
100
AcDbEntity
  8
0
100
AcDbLine
 10
217.7
 20
117.1457999999999
 30
0.0
 11
215.0
 21
117.5458
 31
0.0
  0
LINE
  5
65C
330
1E
100
AcDbEntity
  8
0
100
AcDbLine
 10
220.1999999999999
 20
116.1457999999999
 30
0.0
 11
217.7
 21
117.1457999999999
 31
0.0
  0
LINE
  5
65D
330
1E
100
AcDbEntity
  8
0
100
AcDbLine
 10
215.0
 20
117.5458
 30
0.0
 11
212.3
 21
117.1457999999999
 31
0.0
  0
LINE
  5
65E
330
1E
100
AcDbEntity
  8
0
100
AcDbLine
 10
219.7508
 20
120.4385999999999
 30
0.0
 11
218.2296
 21
123.1597
 31
0.0
  0
LINE
  5
65F
330
1E
100
AcDbEntity
  8
0
100
AcDbLine
 10
218.9902
 20
119.7497999999999
 30
0.0
 11
217.1463999999999
 21
122.5036999999999
 31
0.0
  0
LINE
  5
660
330
1E
100
AcDbEntity
  8
0
100
AcDbLine
 10
219.1999999999999
 20
122.9458
 30
0.0
 11
218.2753319076827
 21
123.0778954417599
 31
0.0
  0
LINE
  5
661
330
1E
100
AcDbEntity
  8
0
100
AcDbLine
 10
254.0
 20
129.4457999999999
 30
0.0
 11
246.7
 21
138.7458
 31
0.0
  0
LINE
  5
662
330
1E
100
AcDbEntity
  8
0
100
AcDbLine
 10
237.4
 20
146.0458
 30
0.0
 11
226.6
 21
150.4457999999999
 31
0.0
  0
LINE
  5
663
330
1E
100
AcDbEntity
  8
0
100
AcDbLine
 10
233.8999999999999
 20
139.9457999999999
 30
0.0
 11
224.8
 21
143.6458
 31
0.0
  0
LINE
  5
664
330
1E
100
AcDbEntity
  8
0
100
AcDbLine
 10
233.5999999999999
 20
139.5458
 30
0.0
 11
224.5999999999999
 21
143.1458
 31
0.0
  0
LINE
  5
665
330
1E
100
AcDbEntity
  8
0
100
AcDbLine
 10
241.8
 20
133.8457999999999
 30
0.0
 11
233.8999999999999
 21
139.9457999999999
 31
0.0
  0
LINE
  5
666
330
1E
100
AcDbEntity
  8
0
100
AcDbLine
 10
241.4
 20
133.4457999999999
 30
0.0
 11
233.5999999999999
 21
139.5458
 31
0.0
  0
LINE
  5
667
330
1E
100
AcDbEntity
  8
0
100
AcDbLine
 10
247.5
 20
125.6458
 30
0.0
 11
241.4
 21
133.4457999999999
 31
0.0
  0
LINE
  5
668
330
1E
100
AcDbEntity
  8
0
100
AcDbLine
 10
247.9
 20
125.9458
 30
0.0
 11
241.8
 21
133.8457999999999
 31
0.0
  0
LINE
  5
669
330
1E
100
AcDbEntity
  8
0
100
AcDbLine
 10
246.7
 20
138.7458
 30
0.0
 11
237.4
 21
146.0458
 31
0.0
  0
LINE
  5
66A
330
1E
100
AcDbEntity
  8
0
100
AcDbLine
 10
213.7
 20
135.5458
 30
0.0
 11
213.2
 21
133.0458
 31
0.0
  0
LINE
  5
66B
330
1E
100
AcDbEntity
  8
0
100
AcDbLine
 10
214.1999999999999
 20
135.6896
 30
0.0
 11
214.1999999999999
 21
135.1704
 31
0.0
  0
LINE
  5
66C
330
1E
100
AcDbEntity
  8
0
100
AcDbLine
 10
214.1999999999999
 20
135.1704
 30
0.0
 11
214.1999999999999
 21
135.6896
 31
0.0
  0
LINE
  5
66D
330
1E
100
AcDbEntity
  8
0
100
AcDbLine
 10
215.8
 20
135.6896
 30
0.0
 11
215.8
 21
135.1704
 31
0.0
  0
LINE
  5
66E
330
1E
100
AcDbEntity
  8
0
100
AcDbLine
 10
215.8
 20
135.1704
 30
0.0
 11
215.8
 21
135.6896
 31
0.0
  0
LINE
  5
66F
330
1E
100
AcDbEntity
  8
0
100
AcDbLine
 10
216.8
 20
133.0458
 30
0.0
 11
216.3
 21
135.5458
 31
0.0
  0
LINE
  5
670
330
1E
100
AcDbEntity
  8
0
100
AcDbLine
 10
213.0
 20
130.0458
 30
0.0
 11
212.6999999999999
 21
126.0458
 31
0.0
  0
LINE
  5
671
330
1E
100
AcDbEntity
  8
0
100
AcDbLine
 10
214.1999999999999
 20
130.0228999999999
 30
0.0
 11
213.9
 21
126.0477999999999
 31
0.0
  0
LINE
  5
672
330
1E
100
AcDbEntity
  8
0
100
AcDbLine
 10
217.3
 20
126.0458
 30
0.0
 11
217.0
 21
130.0458
 31
0.0
  0
LINE
  5
673
330
1E
100
AcDbEntity
  8
0
100
AcDbLine
 10
216.1
 20
126.0477999999999
 30
0.0
 11
215.8
 21
130.0228999999999
 31
0.0
  0
LINE
  5
674
330
1E
100
AcDbEntity
  8
0
100
AcDbLine
 10
217.0
 20
130.0458
 30
0.0
 11
216.8
 21
133.0458
 31
0.0
  0
LINE
  5
675
330
1E
100
AcDbEntity
  8
0
100
AcDbLine
 10
213.2
 20
133.0458
 30
0.0
 11
213.0
 21
130.0458
 31
0.0
  0
LINE
  5
676
330
1E
100
AcDbEntity
  8
0
100
AcDbLine
 10
214.1999999999999
 20
133.4205
 30
0.0
 11
214.1999999999999
 21
131.9206
 31
0.0
  0
LINE
  5
677
330
1E
100
AcDbEntity
  8
0
100
AcDbLine
 10
214.1999999999999
 20
131.9206
 30
0.0
 11
214.1999999999999
 21
133.4205
 31
0.0
  0
LINE
  5
678
330
1E
100
AcDbEntity
  8
0
100
AcDbLine
 10
215.8
 20
133.4205
 30
0.0
 11
215.8
 21
131.9206
 31
0.0
  0
LINE
  5
679
330
1E
100
AcDbEntity
  8
0
100
AcDbLine
 10
215.8
 20
131.9206
 30
0.0
 11
215.8
 21
133.4205
 31
0.0
  0
LINE
  5
67A
330
1E
100
AcDbEntity
  8
0
100
AcDbLine
 10
214.1999999999999
 20
130.0228999999999
 30
0.0
 11
214.1999999999999
 21
131.9206
 31
0.0
  0
LINE
  5
67B
330
1E
100
AcDbEntity
  8
0
100
AcDbLine
 10
214.1999999999999
 20
131.9206
 30
0.0
 11
214.1999999999999
 21
130.0228999999999
 31
0.0
  0
LINE
  5
67C
330
1E
100
AcDbEntity
  8
0
100
AcDbLine
 10
215.8
 20
131.9206
 30
0.0
 11
215.8
 21
130.0228999999999
 31
0.0
  0
LINE
  5
67D
330
1E
100
AcDbEntity
  8
0
100
AcDbLine
 10
215.8
 20
130.0228999999999
 30
0.0
 11
215.8
 21
131.9206
 31
0.0
  0
LINE
  5
67E
330
1E
100
AcDbEntity
  8
0
100
AcDbLine
 10
214.1999999999999
 20
135.1704
 30
0.0
 11
214.1999999999999
 21
134.5166
 31
0.0
  0
LINE
  5
67F
330
1E
100
AcDbEntity
  8
0
100
AcDbLine
 10
214.1999999999999
 20
134.5166
 30
0.0
 11
214.1999999999999
 21
135.1704
 31
0.0
  0
LINE
  5
680
330
1E
100
AcDbEntity
  8
0
100
AcDbLine
 10
214.1999999999999
 20
134.5166
 30
0.0
 11
214.1999999999999
 21
133.4205
 31
0.0
  0
LINE
  5
681
330
1E
100
AcDbEntity
  8
0
100
AcDbLine
 10
214.1999999999999
 20
133.4205
 30
0.0
 11
214.1999999999999
 21
134.5166
 31
0.0
  0
LINE
  5
682
330
1E
100
AcDbEntity
  8
0
100
AcDbLine
 10
215.8
 20
135.1704
 30
0.0
 11
215.8
 21
134.5166
 31
0.0
  0
LINE
  5
683
330
1E
100
AcDbEntity
  8
0
100
AcDbLine
 10
215.8
 20
134.5166
 30
0.0
 11
215.8
 21
133.4205
 31
0.0
  0
LINE
  5
684
330
1E
100
AcDbEntity
  8
0
100
AcDbLine
 10
215.8
 20
134.5166
 30
0.0
 11
215.8
 21
135.1704
 31
0.0
  0
LINE
  5
685
330
1E
100
AcDbEntity
  8
0
100
AcDbLine
 10
215.8
 20
133.4205
 30
0.0
 11
215.8
 21
134.5166
 31
0.0
  0
LINE
  5
686
330
1E
100
AcDbEntity
  8
0
100
AcDbLine
 10
224.8
 20
143.6458
 30
0.0
 11
215.0
 21
145.0458
 31
0.0
  0
LINE
  5
687
330
1E
100
AcDbEntity
  8
0
100
AcDbLine
 10
224.5999999999999
 20
143.1458
 30
0.0
 11
215.0
 21
144.5458
 31
0.0
  0
LINE
  5
688
330
1E
100
AcDbEntity
  8
0
100
AcDbLine
 10
214.1999999999999
 20
136.0458
 30
0.0
 11
213.7
 21
135.5458
 31
0.0
  0
LINE
  5
689
330
1E
100
AcDbEntity
  8
0
100
AcDbLine
 10
215.0
 20
136.0458
 30
0.0
 11
214.1999999999999
 21
136.0458
 31
0.0
  0
LINE
  5
68A
330
1E
100
AcDbEntity
  8
0
100
AcDbLine
 10
214.1999999999999
 20
136.0458
 30
0.0
 11
214.1999999999999
 21
135.6896
 31
0.0
  0
LINE
  5
68B
330
1E
100
AcDbEntity
  8
0
100
AcDbLine
 10
214.1999999999999
 20
135.6896
 30
0.0
 11
214.1999999999999
 21
136.0458
 31
0.0
  0
LINE
  5
68C
330
1E
100
AcDbEntity
  8
0
100
AcDbLine
 10
215.8
 20
136.0458
 30
0.0
 11
215.8
 21
135.6896
 31
0.0
  0
LINE
  5
68D
330
1E
100
AcDbEntity
  8
0
100
AcDbLine
 10
215.8
 20
136.0458
 30
0.0
 11
215.0
 21
136.0458
 31
0.0
  0
LINE
  5
68E
330
1E
100
AcDbEntity
  8
0
100
AcDbLine
 10
215.8
 20
135.6896
 30
0.0
 11
215.8
 21
136.0458
 31
0.0
  0
LINE
  5
68F
330
1E
100
AcDbEntity
  8
0
100
AcDbLine
 10
216.3
 20
135.5458
 30
0.0
 11
215.8
 21
136.0458
 31
0.0
  0
LINE
  5
690
330
1E
100
AcDbEntity
  8
0
100
AcDbLine
 10
226.6
 20
150.4457999999999
 30
0.0
 11
215.0
 21
152.0458
 31
0.0
  0
LINE
  5
691
330
1E
100
AcDbEntity
  8
0
100
AcDbLine
 10
176.0
 20
129.4457999999999
 30
0.0
 11
172.1703703703703
 21
120.0458
 31
0.0
  0
LINE
  5
692
330
1E
100
AcDbEntity
  8
0
100
AcDbLine
 10
182.0999999999999
 20
125.9458
 30
0.0
 11
179.7010989010989
 21
120.0458
 31
0.0
  0
LINE
  5
693
330
1E
100
AcDbEntity
  8
0
100
AcDbLine
 10
182.5
 20
125.6458
 30
0.0
 11
180.2599999999999
 21
120.0458
 31
0.0
  0
LINE
  5
694
330
1E
100
AcDbEntity
  8
0
100
AcDbLine
 10
190.5
 20
120.0458
 30
0.0
 11
155.4999999999999
 21
120.0458
 31
0.0
  0
LINE
  5
695
330
1E
100
AcDbEntity
  8
0
100
AcDbLine
 10
190.5
 20
94.04580000000001
 30
0.0
 11
155.4999999999999
 21
94.04580000000001
 31
0.0
  0
LINE
  5
696
330
1E
100
AcDbEntity
  8
0
100
AcDbLine
 10
195.0
 20
99.84580000000001
 30
0.0
 11
195.0
 21
96.8458
 31
0.0
  0
LINE
  5
697
330
1E
100
AcDbEntity
  8
0
100
AcDbLine
 10
195.5
 20
100.5457999999999
 30
0.0
 11
195.5
 21
97.8458
 31
0.0
  0
LINE
  5
698
330
1E
100
AcDbEntity
  8
0
100
AcDbLine
 10
191.5
 20
100.3457999999999
 30
0.0
 11
191.5
 21
97.5458
 31
0.0
  0
LINE
  5
699
330
1E
100
AcDbEntity
  8
0
100
AcDbLine
 10
195.5
 20
100.8458
 30
0.0
 11
195.5
 21
98.2458
 31
0.0
  0
LINE
  5
69A
330
1E
100
AcDbEntity
  8
0
100
AcDbLine
 10
192.0
 20
99.84580000000001
 30
0.0
 11
192.0
 21
96.8458
 31
0.0
  0
LINE
  5
69B
330
1E
100
AcDbEntity
  8
0
100
AcDbLine
 10
207.6
 20
99.64579999999999
 30
0.0
 11
205.9
 21
101.8458
 31
0.0
  0
LINE
  5
69C
330
1E
100
AcDbEntity
  8
0
100
AcDbLine
 10
200.3
 20
98.5458
 30
0.0
 11
198.5999999999999
 21
102.6457999999999
 31
0.0
  0
LINE
  5
69D
330
1E
100
AcDbEntity
  8
0
100
AcDbLine
 10
195.0
 20
96.8458
 30
0.0
 11
195.0
 21
99.84580000000001
 31
0.0
  0
LINE
  5
69E
330
1E
100
AcDbEntity
  8
0
100
AcDbLine
 10
191.5
 20
97.5458
 30
0.0
 11
191.5
 21
100.3457999999999
 31
0.0
  0
LINE
  5
69F
330
1E
100
AcDbEntity
  8
0
100
AcDbLine
 10
192.0
 20
96.8458
 30
0.0
 11
192.0
 21
99.84580000000001
 31
0.0
  0
LINE
  5
6A0
330
1E
100
AcDbEntity
  8
0
100
AcDbLine
 10
200.7
 20
98.84579999999999
 30
0.0
 11
199.0999999999999
 21
102.8458
 31
0.0
  0
LINE
  5
6A1
330
1E
100
AcDbEntity
  8
0
100
AcDbLine
 10
206.4999999999999
 20
98.5458
 30
0.0
 11
204.5777
 21
101.0458
 31
0.0
  0
LINE
  5
6A2
330
1E
100
AcDbEntity
  8
0
100
AcDbLine
 10
205.6999999999999
 20
97.7458
 30
0.0
 11
203.6
 21
100.4458
 31
0.0
  0
LINE
  5
6A3
330
1E
100
AcDbEntity
  8
0
100
AcDbLine
 10
191.5
 20
93.5458
 30
0.0
 11
190.5
 21
94.04580000000001
 31
0.0
  0
LINE
  5
6A4
330
1E
100
AcDbEntity
  8
0
100
AcDbLine
 10
203.0
 20
95.0458
 30
0.0
 11
200.3
 21
98.5458
 31
0.0
  0
LINE
  5
6A5
330
1E
100
AcDbEntity
  8
0
100
AcDbLine
 10
203.3
 20
95.3458
 30
0.0
 11
200.7
 21
98.84579999999999
 31
0.0
  0
LINE
  5
6A6
330
1E
100
AcDbEntity
  8
0
100
AcDbLine
 10
202.0
 20
94.54579999999999
 30
0.0
 11
195.5
 21
94.54579999999999
 31
0.0
  0
LINE
  5
6A7
330
1E
100
AcDbEntity
  8
0
100
AcDbLine
 10
206.4999999999999
 20
92.34579999999999
 30
0.0
 11
203.6481481481481
 21
94.54579999999999
 31
0.0
  0
LINE
  5
6A8
330
1E
100
AcDbEntity
  8
0
100
AcDbLine
 10
206.4999999999999
 20
92.34579999999999
 30
0.0
 11
203.0
 21
95.0458
 31
0.0
  0
LINE
  5
6A9
330
1E
100
AcDbEntity
  8
0
100
AcDbLine
 10
206.8
 20
92.7458
 30
0.0
 11
203.3
 21
95.3458
 31
0.0
  0
LINE
  5
6AA
330
1E
100
AcDbEntity
  8
0
100
AcDbLine
 10
210.2492
 20
93.65299999999999
 30
0.0
 11
208.4
 21
95.64579999999999
 31
0.0
  0
LINE
  5
6AB
330
1E
100
AcDbEntity
  8
0
100
AcDbLine
 10
210.5999999999999
 20
90.64579999999999
 30
0.0
 11
206.4999999999999
 21
92.34579999999999
 31
0.0
  0
LINE
  5
6AC
330
1E
100
AcDbEntity
  8
0
100
AcDbLine
 10
210.5999999999999
 20
90.64579999999999
 30
0.0
 11
206.4999999999999
 21
92.34579999999999
 31
0.0
  0
LINE
  5
6AD
330
1E
100
AcDbEntity
  8
0
100
AcDbLine
 10
210.8
 20
91.1458
 30
0.0
 11
206.8
 21
92.7458
 31
0.0
  0
LINE
  5
6AE
330
1E
100
AcDbEntity
  8
0
100
AcDbLine
 10
208.4
 20
95.64579999999999
 30
0.0
 11
205.6999999999999
 21
97.7458
 31
0.0
  0
LINE
  5
6AF
330
1E
100
AcDbEntity
  8
0
100
AcDbLine
 10
209.0
 20
96.62350000000001
 30
0.0
 11
206.4999999999999
 21
98.5458
 31
0.0
  0
LINE
  5
6B0
330
1E
100
AcDbEntity
  8
0
100
AcDbLine
 10
211.0097999999999
 20
94.34180000000001
 30
0.0
 11
209.0
 21
96.62350000000001
 31
0.0
  0
LINE
  5
6B1
330
1E
100
AcDbEntity
  8
0
100
AcDbLine
 10
209.8
 20
97.94580000000001
 30
0.0
 11
207.6
 21
99.64579999999999
 31
0.0
  0
LINE
  5
6B2
330
1E
100
AcDbEntity
  8
0
100
AcDbLine
 10
203.6481481481482
 20
94.54579999999999
 30
0.0
 11
202.0
 21
94.54579999999999
 31
0.0
  0
LINE
  5
6B3
330
1E
100
AcDbEntity
  8
0
100
AcDbLine
 10
191.5
 20
93.5458
 30
0.0
 11
191.5
 21
94.04580000000001
 31
0.0
  0
LINE
  5
6B4
330
1E
100
AcDbEntity
  8
0
100
AcDbLine
 10
191.5
 20
94.04580000000001
 30
0.0
 11
191.5
 21
93.5458
 31
0.0
  0
LINE
  5
6B5
330
1E
100
AcDbEntity
  8
0
100
AcDbLine
 10
192.0
 20
93.04579999999999
 30
0.0
 11
192.0
 21
94.4458
 31
0.0
  0
LINE
  5
6B6
330
1E
100
AcDbEntity
  8
0
100
AcDbLine
 10
192.0
 20
94.4458
 30
0.0
 11
192.0
 21
93.04579999999999
 31
0.0
  0
LINE
  5
6B7
330
1E
100
AcDbEntity
  8
0
100
AcDbLine
 10
195.5
 20
94.04580000000001
 30
0.0
 11
195.0
 21
92.5458
 31
0.0
  0
LINE
  5
6B8
330
1E
100
AcDbEntity
  8
0
100
AcDbLine
 10
195.0
 20
93.04579999999999
 30
0.0
 11
195.0
 21
94.4458
 31
0.0
  0
LINE
  5
6B9
330
1E
100
AcDbEntity
  8
0
100
AcDbLine
 10
195.0
 20
94.4458
 30
0.0
 11
195.0
 21
93.04579999999999
 31
0.0
  0
LINE
  5
6BA
330
1E
100
AcDbEntity
  8
0
100
AcDbLine
 10
193.5
 20
92.04579999999999
 30
0.0
 11
192.0
 21
92.5458
 31
0.0
  0
LINE
  5
6BB
330
1E
100
AcDbEntity
  8
0
100
AcDbLine
 10
195.0
 20
92.5458
 30
0.0
 11
193.5
 21
92.04579999999999
 31
0.0
  0
LINE
  5
6BC
330
1E
100
AcDbEntity
  8
0
100
AcDbLine
 10
195.0
 20
92.5458
 30
0.0
 11
195.0
 21
93.04579999999999
 31
0.0
  0
LINE
  5
6BD
330
1E
100
AcDbEntity
  8
0
100
AcDbLine
 10
195.0
 20
93.04579999999999
 30
0.0
 11
195.0
 21
92.5458
 31
0.0
  0
LINE
  5
6BE
330
1E
100
AcDbEntity
  8
0
100
AcDbLine
 10
192.0
 20
92.5458
 30
0.0
 11
191.5
 21
93.5458
 31
0.0
  0
LINE
  5
6BF
330
1E
100
AcDbEntity
  8
0
100
AcDbLine
 10
192.0
 20
92.5458
 30
0.0
 11
192.0
 21
93.04579999999999
 31
0.0
  0
LINE
  5
6C0
330
1E
100
AcDbEntity
  8
0
100
AcDbLine
 10
192.0
 20
93.04579999999999
 30
0.0
 11
192.0
 21
92.5458
 31
0.0
  0
LINE
  5
6C1
330
1E
100
AcDbEntity
  8
0
100
AcDbLine
 10
195.0
 20
96.8458
 30
0.0
 11
195.0
 21
94.4458
 31
0.0
  0
LINE
  5
6C2
330
1E
100
AcDbEntity
  8
0
100
AcDbLine
 10
191.5
 20
97.5458
 30
0.0
 11
191.5
 21
95.3458
 31
0.0
  0
LINE
  5
6C3
330
1E
100
AcDbEntity
  8
0
100
AcDbLine
 10
195.5
 20
97.8458
 30
0.0
 11
195.5
 21
95.7458
 31
0.0
  0
LINE
  5
6C4
330
1E
100
AcDbEntity
  8
0
100
AcDbLine
 10
195.5
 20
98.2458
 30
0.0
 11
195.5
 21
96.24580000000001
 31
0.0
  0
LINE
  5
6C5
330
1E
100
AcDbEntity
  8
0
100
AcDbLine
 10
192.0
 20
96.8458
 30
0.0
 11
192.0
 21
94.4458
 31
0.0
  0
LINE
  5
6C6
330
1E
100
AcDbEntity
  8
0
100
AcDbLine
 10
191.5
 20
95.3458
 30
0.0
 11
191.5
 21
97.5458
 31
0.0
  0
LINE
  5
6C7
330
1E
100
AcDbEntity
  8
0
100
AcDbLine
 10
192.0
 20
94.4458
 30
0.0
 11
192.0
 21
96.8458
 31
0.0
  0
LINE
  5
6C8
330
1E
100
AcDbEntity
  8
0
100
AcDbLine
 10
195.0
 20
94.4458
 30
0.0
 11
195.0
 21
96.8458
 31
0.0
  0
LINE
  5
6C9
330
1E
100
AcDbEntity
  8
0
100
AcDbLine
 10
195.5
 20
94.04580000000001
 30
0.0
 11
195.5
 21
94.54579999999999
 31
0.0
  0
LINE
  5
6CA
330
1E
100
AcDbEntity
  8
0
100
AcDbLine
 10
195.5
 20
94.54579999999999
 30
0.0
 11
195.5
 21
94.04580000000001
 31
0.0
  0
LINE
  5
6CB
330
1E
100
AcDbEntity
  8
0
100
AcDbLine
 10
195.5
 20
95.7458
 30
0.0
 11
195.5
 21
94.54579999999999
 31
0.0
  0
LINE
  5
6CC
330
1E
100
AcDbEntity
  8
0
100
AcDbLine
 10
195.5
 20
96.24580000000001
 30
0.0
 11
195.5
 21
95.0458
 31
0.0
  0
LINE
  5
6CD
330
1E
100
AcDbEntity
  8
0
100
AcDbLine
 10
195.5
 20
95.0458
 30
0.0
 11
195.5
 21
94.54579999999999
 31
0.0
  0
LINE
  5
6CE
330
1E
100
AcDbEntity
  8
0
100
AcDbLine
 10
191.5
 20
94.04580000000001
 30
0.0
 11
191.5
 21
95.3458
 31
0.0
  0
LINE
  5
6CF
330
1E
100
AcDbEntity
  8
0
100
AcDbLine
 10
191.5
 20
95.3458
 30
0.0
 11
191.5
 21
94.04580000000001
 31
0.0
  0
LINE
  5
6D0
330
1E
100
AcDbEntity
  8
0
100
AcDbLine
 10
176.0
 20
84.64579999999999
 30
0.0
 11
172.1703703703703
 21
94.04580000000001
 31
0.0
  0
LINE
  5
6D1
330
1E
100
AcDbEntity
  8
0
100
AcDbLine
 10
188.1999999999999
 20
80.2458
 30
0.0
 11
182.0999999999999
 21
88.14579999999999
 31
0.0
  0
LINE
  5
6D2
330
1E
100
AcDbEntity
  8
0
100
AcDbLine
 10
188.5999999999999
 20
80.64579999999999
 30
0.0
 11
182.5
 21
88.4458
 31
0.0
  0
LINE
  5
6D3
330
1E
100
AcDbEntity
  8
0
100
AcDbLine
 10
182.0999999999999
 20
88.14579999999999
 30
0.0
 11
179.7010989010989
 21
94.04580000000001
 31
0.0
  0
LINE
  5
6D4
330
1E
100
AcDbEntity
  8
0
100
AcDbLine
 10
182.5
 20
88.4458
 30
0.0
 11
180.2599999999999
 21
94.04580000000001
 31
0.0
  0
LINE
  5
6D5
330
1E
100
AcDbEntity
  8
0
100
AcDbLine
 10
192.0
 20
109.0457999999999
 30
0.0
 11
189.0
 21
108.8457999999999
 31
0.0
  0
LINE
  5
6D6
330
1E
100
AcDbEntity
  8
0
100
AcDbLine
 10
191.5
 20
120.5457999999999
 30
0.0
 11
190.5
 21
120.0458
 31
0.0
  0
LINE
  5
6D7
330
1E
100
AcDbEntity
  8
0
100
AcDbLine
 10
192.0228999999999
 20
107.8457999999999
 30
0.0
 11
190.1252
 21
107.8457999999999
 31
0.0
  0
LINE
  5
6D8
330
1E
100
AcDbEntity
  8
0
100
AcDbLine
 10
192.0228999999999
 20
106.2458
 30
0.0
 11
190.1252
 21
106.2458
 31
0.0
  0
LINE
  5
6D9
330
1E
100
AcDbEntity
  8
0
100
AcDbLine
 10
192.0
 20
105.0458
 30
0.0
 11
189.0
 21
105.2458
 31
0.0
  0
LINE
  5
6DA
330
1E
100
AcDbEntity
  8
0
100
AcDbLine
 10
191.5
 20
110.5458
 30
0.0
 11
191.5
 21
113.7458
 31
0.0
  0
LINE
  5
6DB
330
1E
100
AcDbEntity
  8
0
100
AcDbLine
 10
191.5
 20
113.7458
 30
0.0
 11
191.5
 21
110.5458
 31
0.0
  0
LINE
  5
6DC
330
1E
100
AcDbEntity
  8
0
100
AcDbLine
 10
192.0
 20
110.7458
 30
0.0
 11
192.0
 21
114.2457999999999
 31
0.0
  0
LINE
  5
6DD
330
1E
100
AcDbEntity
  8
0
100
AcDbLine
 10
192.0
 20
114.2457999999999
 30
0.0
 11
192.0
 21
110.7458
 31
0.0
  0
LINE
  5
6DE
330
1E
100
AcDbEntity
  8
0
100
AcDbLine
 10
195.0
 20
110.7458
 30
0.0
 11
195.0
 21
114.2457999999999
 31
0.0
  0
LINE
  5
6DF
330
1E
100
AcDbEntity
  8
0
100
AcDbLine
 10
195.0
 20
114.2457999999999
 30
0.0
 11
195.0
 21
110.7458
 31
0.0
  0
LINE
  5
6E0
330
1E
100
AcDbEntity
  8
0
100
AcDbLine
 10
195.5
 20
113.5458
 30
0.0
 11
195.5
 21
110.3458
 31
0.0
  0
LINE
  5
6E1
330
1E
100
AcDbEntity
  8
0
100
AcDbLine
 10
195.5
 20
113.2457999999999
 30
0.0
 11
195.5
 21
110.2458
 31
0.0
  0
LINE
  5
6E2
330
1E
100
AcDbEntity
  8
0
100
AcDbLine
 10
200.3
 20
115.5458
 30
0.0
 11
198.5999999999999
 21
111.4458
 31
0.0
  0
LINE
  5
6E3
330
1E
100
AcDbEntity
  8
0
100
AcDbLine
 10
200.7
 20
115.2457999999999
 30
0.0
 11
199.0999999999999
 21
111.2457999999999
 31
0.0
  0
LINE
  5
6E4
330
1E
100
AcDbEntity
  8
0
100
AcDbLine
 10
201.6072
 20
111.7966
 30
0.0
 11
198.8860999999999
 21
110.2754
 31
0.0
  0
LINE
  5
6E5
330
1E
100
AcDbEntity
  8
0
100
AcDbLine
 10
205.9
 20
112.2457999999999
 30
0.0
 11
204.8999999999999
 21
109.7458
 31
0.0
  0
LINE
  5
6E6
330
1E
100
AcDbEntity
  8
0
100
AcDbLine
 10
204.5777
 20
113.0457999999999
 30
0.0
 11
202.2959999999999
 21
111.036
 31
0.0
  0
LINE
  5
6E7
330
1E
100
AcDbEntity
  8
0
100
AcDbLine
 10
202.2959999999999
 20
111.036
 30
0.0
 11
199.5421
 21
109.1922
 31
0.0
  0
LINE
  5
6E8
330
1E
100
AcDbEntity
  8
0
100
AcDbLine
 10
202.2959999999999
 20
103.0556
 30
0.0
 11
199.5421
 21
104.8993999999999
 31
0.0
  0
LINE
  5
6E9
330
1E
100
AcDbEntity
  8
0
100
AcDbLine
 10
201.6072
 20
102.295
 30
0.0
 11
198.8860999999999
 21
103.8162
 31
0.0
  0
LINE
  5
6EA
330
1E
100
AcDbEntity
  8
0
100
AcDbLine
 10
204.8999999999999
 20
104.3457999999999
 30
0.0
 11
204.4999999999999
 21
107.0458
 31
0.0
  0
LINE
  5
6EB
330
1E
100
AcDbEntity
  8
0
100
AcDbLine
 10
205.9
 20
101.8458
 30
0.0
 11
204.8999999999999
 21
104.3457999999999
 31
0.0
  0
LINE
  5
6EC
330
1E
100
AcDbEntity
  8
0
100
AcDbLine
 10
204.5777
 20
101.0458
 30
0.0
 11
202.2959999999999
 21
103.0556
 31
0.0
  0
LINE
  5
6ED
330
1E
100
AcDbEntity
  8
0
100
AcDbLine
 10
203.6
 20
100.4458
 30
0.0
 11
201.6072
 21
102.295
 31
0.0
  0
LINE
  5
6EE
330
1E
100
AcDbEntity
  8
0
100
AcDbLine
 10
204.8999999999999
 20
109.7458
 30
0.0
 11
204.4999999999999
 21
107.0458
 31
0.0
  0
LINE
  5
6EF
330
1E
100
AcDbEntity
  8
0
100
AcDbLine
 10
199.5421
 20
104.8993999999999
 30
0.0
 11
195.998
 21
105.9458
 31
0.0
  0
LINE
  5
6F0
330
1E
100
AcDbEntity
  8
0
100
AcDbLine
 10
198.8860999999999
 20
103.8162
 30
0.0
 11
196.0
 21
104.7458
 31
0.0
  0
LINE
  5
6F1
330
1E
100
AcDbEntity
  8
0
100
AcDbLine
 10
198.5999999999999
 20
102.6457999999999
 30
0.0
 11
198.4199245866101
 21
103.9663530315259
 31
0.0
  0
LINE
  5
6F2
330
1E
100
AcDbEntity
  8
0
100
AcDbLine
 10
199.0999999999999
 20
102.8458
 30
0.0
 11
198.9679045582403
 21
103.770468092317
 31
0.0
  0
LINE
  5
6F3
330
1E
100
AcDbEntity
  8
0
100
AcDbLine
 10
195.0
 20
103.3457999999999
 30
0.0
 11
195.0
 21
99.84580000000001
 31
0.0
  0
LINE
  5
6F4
330
1E
100
AcDbEntity
  8
0
100
AcDbLine
 10
192.0
 20
103.3457999999999
 30
0.0
 11
192.0
 21
99.84580000000001
 31
0.0
  0
LINE
  5
6F5
330
1E
100
AcDbEntity
  8
0
100
AcDbLine
 10
191.5
 20
103.5457999999999
 30
0.0
 11
191.5
 21
100.3457999999999
 31
0.0
  0
LINE
  5
6F6
330
1E
100
AcDbEntity
  8
0
100
AcDbLine
 10
195.5
 20
103.7457999999999
 30
0.0
 11
195.5
 21
100.5457999999999
 31
0.0
  0
LINE
  5
6F7
330
1E
100
AcDbEntity
  8
0
100
AcDbLine
 10
195.5
 20
103.8457999999999
 30
0.0
 11
195.5
 21
100.8458
 31
0.0
  0
LINE
  5
6F8
330
1E
100
AcDbEntity
  8
0
100
AcDbLine
 10
195.0
 20
99.84580000000001
 30
0.0
 11
195.0
 21
103.3457999999999
 31
0.0
  0
LINE
  5
6F9
330
1E
100
AcDbEntity
  8
0
100
AcDbLine
 10
191.5
 20
100.3457999999999
 30
0.0
 11
191.5
 21
103.5457999999999
 31
0.0
  0
LINE
  5
6FA
330
1E
100
AcDbEntity
  8
0
100
AcDbLine
 10
192.0
 20
99.84580000000001
 30
0.0
 11
192.0
 21
103.3457999999999
 31
0.0
  0
LINE
  5
6FB
330
1E
100
AcDbEntity
  8
0
100
AcDbLine
 10
196.0
 20
104.7458
 30
0.0
 11
192.0
 21
105.0458
 31
0.0
  0
LINE
  5
6FC
330
1E
100
AcDbEntity
  8
0
100
AcDbLine
 10
195.5
 20
104.7833
 30
0.0
 11
195.5
 21
103.8457999999999
 31
0.0
  0
LINE
  5
6FD
330
1E
100
AcDbEntity
  8
0
100
AcDbLine
 10
195.5
 20
104.7833
 30
0.0
 11
195.5
 21
103.7457999999999
 31
0.0
  0
LINE
  5
6FE
330
1E
100
AcDbEntity
  8
0
100
AcDbLine
 10
195.0
 20
104.8208
 30
0.0
 11
195.0
 21
103.3457999999999
 31
0.0
  0
LINE
  5
6FF
330
1E
100
AcDbEntity
  8
0
100
AcDbLine
 10
195.0
 20
103.3457999999999
 30
0.0
 11
195.0
 21
104.8208
 31
0.0
  0
LINE
  5
700
330
1E
100
AcDbEntity
  8
0
100
AcDbLine
 10
192.0
 20
105.0458
 30
0.0
 11
192.0
 21
103.3457999999999
 31
0.0
  0
LINE
  5
701
330
1E
100
AcDbEntity
  8
0
100
AcDbLine
 10
191.5
 20
105.0791333333329
 30
0.0
 11
191.5
 21
103.5457999999999
 31
0.0
  0
LINE
  5
702
330
1E
100
AcDbEntity
  8
0
100
AcDbLine
 10
192.0
 20
103.3457999999999
 30
0.0
 11
192.0
 21
105.0458
 31
0.0
  0
LINE
  5
703
330
1E
100
AcDbEntity
  8
0
100
AcDbLine
 10
191.5
 20
103.5457999999999
 30
0.0
 11
191.5
 21
105.0791333333329
 31
0.0
  0
LINE
  5
704
330
1E
100
AcDbEntity
  8
0
100
AcDbLine
 10
198.8860999999999
 20
110.2754
 30
0.0
 11
196.0
 21
109.3458
 31
0.0
  0
LINE
  5
705
330
1E
100
AcDbEntity
  8
0
100
AcDbLine
 10
199.5421
 20
109.1922
 30
0.0
 11
195.998
 21
108.1458
 31
0.0
  0
LINE
  5
706
330
1E
100
AcDbEntity
  8
0
100
AcDbLine
 10
198.5999999999999
 20
111.4458
 30
0.0
 11
198.4199245866101
 21
110.125246968474
 31
0.0
  0
LINE
  5
707
330
1E
100
AcDbEntity
  8
0
100
AcDbLine
 10
199.0999999999999
 20
111.2457999999999
 30
0.0
 11
198.9679045582403
 21
110.321131907683
 31
0.0
  0
LINE
  5
708
330
1E
100
AcDbEntity
  8
0
100
AcDbLine
 10
195.998
 20
105.9458
 30
0.0
 11
192.0228999999999
 21
106.2458
 31
0.0
  0
LINE
  5
709
330
1E
100
AcDbEntity
  8
0
100
AcDbLine
 10
195.998
 20
108.1458
 30
0.0
 11
192.0228999999999
 21
107.8457999999999
 31
0.0
  0
LINE
  5
70A
330
1E
100
AcDbEntity
  8
0
100
AcDbLine
 10
196.0
 20
109.3458
 30
0.0
 11
192.0
 21
109.0457999999999
 31
0.0
  0
LINE
  5
70B
330
1E
100
AcDbEntity
  8
0
100
AcDbLine
 10
195.0
 20
109.2708
 30
0.0
 11
195.0
 21
110.7458
 31
0.0
  0
LINE
  5
70C
330
1E
100
AcDbEntity
  8
0
100
AcDbLine
 10
195.0
 20
110.7458
 30
0.0
 11
195.0
 21
109.2708
 31
0.0
  0
LINE
  5
70D
330
1E
100
AcDbEntity
  8
0
100
AcDbLine
 10
195.5
 20
110.3458
 30
0.0
 11
195.5
 21
109.3083
 31
0.0
  0
LINE
  5
70E
330
1E
100
AcDbEntity
  8
0
100
AcDbLine
 10
195.5
 20
110.2458
 30
0.0
 11
195.5
 21
109.3083
 31
0.0
  0
LINE
  5
70F
330
1E
100
AcDbEntity
  8
0
100
AcDbLine
 10
192.0
 20
109.0457999999999
 30
0.0
 11
192.0
 21
110.7458
 31
0.0
  0
LINE
  5
710
330
1E
100
AcDbEntity
  8
0
100
AcDbLine
 10
191.5
 20
110.5458
 30
0.0
 11
191.5
 21
109.012466666667
 31
0.0
  0
LINE
  5
711
330
1E
100
AcDbEntity
  8
0
100
AcDbLine
 10
192.0
 20
110.7458
 30
0.0
 11
192.0
 21
109.0457999999999
 31
0.0
  0
LINE
  5
712
330
1E
100
AcDbEntity
  8
0
100
AcDbLine
 10
191.5
 20
109.012466666667
 30
0.0
 11
191.5
 21
110.5458
 31
0.0
  0
LINE
  5
713
330
1E
100
AcDbEntity
  8
0
100
AcDbLine
 10
203.6481481481481
 20
119.5458
 30
0.0
 11
195.5
 21
119.5458
 31
0.0
  0
LINE
  5
714
330
1E
100
AcDbEntity
  8
0
100
AcDbLine
 10
203.0
 20
119.0458
 30
0.0
 11
200.3
 21
115.5458
 31
0.0
  0
LINE
  5
715
330
1E
100
AcDbEntity
  8
0
100
AcDbLine
 10
203.3
 20
118.7458
 30
0.0
 11
200.7
 21
115.2457999999999
 31
0.0
  0
LINE
  5
716
330
1E
100
AcDbEntity
  8
0
100
AcDbLine
 10
211.0097999999999
 20
119.7497999999999
 30
0.0
 11
209.0
 21
117.4681
 31
0.0
  0
LINE
  5
717
330
1E
100
AcDbEntity
  8
0
100
AcDbLine
 10
208.4
 20
118.4458
 30
0.0
 11
205.6999999999999
 21
116.3458
 31
0.0
  0
LINE
  5
718
330
1E
100
AcDbEntity
  8
0
100
AcDbLine
 10
206.4999999999999
 20
115.5458
 30
0.0
 11
204.5777
 21
113.0457999999999
 31
0.0
  0
LINE
  5
719
330
1E
100
AcDbEntity
  8
0
100
AcDbLine
 10
207.6
 20
114.4457999999999
 30
0.0
 11
205.9
 21
112.2457999999999
 31
0.0
  0
LINE
  5
71A
330
1E
100
AcDbEntity
  8
0
100
AcDbLine
 10
209.8
 20
116.1457999999999
 30
0.0
 11
207.6
 21
114.4457999999999
 31
0.0
  0
LINE
  5
71B
330
1E
100
AcDbEntity
  8
0
100
AcDbLine
 10
209.0
 20
117.4681
 30
0.0
 11
206.4999999999999
 21
115.5458
 31
0.0
  0
LINE
  5
71C
330
1E
100
AcDbEntity
  8
0
100
AcDbLine
 10
205.6999999999999
 20
116.3458
 30
0.0
 11
203.6
 21
113.6457999999999
 31
0.0
  0
LINE
  5
71D
330
1E
100
AcDbEntity
  8
0
100
AcDbLine
 10
203.6
 20
113.6457999999999
 30
0.0
 11
201.6072
 21
111.7966
 31
0.0
  0
LINE
  5
71E
330
1E
100
AcDbEntity
  8
0
100
AcDbLine
 10
206.4999999999999
 20
121.7458
 30
0.0
 11
203.0
 21
119.0458
 31
0.0
  0
LINE
  5
71F
330
1E
100
AcDbEntity
  8
0
100
AcDbLine
 10
206.8
 20
121.3457999999999
 30
0.0
 11
203.3
 21
118.7458
 31
0.0
  0
LINE
  5
720
330
1E
100
AcDbEntity
  8
0
100
AcDbLine
 10
210.2492
 20
120.4385999999999
 30
0.0
 11
208.4
 21
118.4458
 31
0.0
  0
LINE
  5
721
330
1E
100
AcDbEntity
  8
0
100
AcDbLine
 10
210.5999999999999
 20
123.4458
 30
0.0
 11
206.4999999999999
 21
121.7458
 31
0.0
  0
LINE
  5
722
330
1E
100
AcDbEntity
  8
0
100
AcDbLine
 10
210.8
 20
122.9458
 30
0.0
 11
206.8
 21
121.3457999999999
 31
0.0
  0
LINE
  5
723
330
1E
100
AcDbEntity
  8
0
100
AcDbLine
 10
195.0
 20
119.6458
 30
0.0
 11
195.0
 21
117.2458
 31
0.0
  0
LINE
  5
724
330
1E
100
AcDbEntity
  8
0
100
AcDbLine
 10
192.0
 20
119.6458
 30
0.0
 11
192.0
 21
117.2458
 31
0.0
  0
LINE
  5
725
330
1E
100
AcDbEntity
  8
0
100
AcDbLine
 10
192.0
 20
117.2458
 30
0.0
 11
192.0
 21
119.6458
 31
0.0
  0
LINE
  5
726
330
1E
100
AcDbEntity
  8
0
100
AcDbLine
 10
191.5
 20
118.7458
 30
0.0
 11
191.5
 21
116.5458
 31
0.0
  0
LINE
  5
727
330
1E
100
AcDbEntity
  8
0
100
AcDbLine
 10
191.5
 20
116.5458
 30
0.0
 11
191.5
 21
118.7458
 31
0.0
  0
LINE
  5
728
330
1E
100
AcDbEntity
  8
0
100
AcDbLine
 10
195.0
 20
117.2458
 30
0.0
 11
195.0
 21
119.6458
 31
0.0
  0
LINE
  5
729
330
1E
100
AcDbEntity
  8
0
100
AcDbLine
 10
195.5
 20
118.3457999999999
 30
0.0
 11
195.5
 21
116.2457999999999
 31
0.0
  0
LINE
  5
72A
330
1E
100
AcDbEntity
  8
0
100
AcDbLine
 10
195.5
 20
117.8458
 30
0.0
 11
195.5
 21
115.8457999999999
 31
0.0
  0
LINE
  5
72B
330
1E
100
AcDbEntity
  8
0
100
AcDbLine
 10
192.0
 20
117.2458
 30
0.0
 11
192.0
 21
114.2457999999999
 31
0.0
  0
LINE
  5
72C
330
1E
100
AcDbEntity
  8
0
100
AcDbLine
 10
191.5
 20
116.5458
 30
0.0
 11
191.5
 21
113.7458
 31
0.0
  0
LINE
  5
72D
330
1E
100
AcDbEntity
  8
0
100
AcDbLine
 10
191.5
 20
113.7458
 30
0.0
 11
191.5
 21
116.5458
 31
0.0
  0
LINE
  5
72E
330
1E
100
AcDbEntity
  8
0
100
AcDbLine
 10
192.0
 20
114.2457999999999
 30
0.0
 11
192.0
 21
117.2458
 31
0.0
  0
LINE
  5
72F
330
1E
100
AcDbEntity
  8
0
100
AcDbLine
 10
195.0
 20
117.2458
 30
0.0
 11
195.0
 21
114.2457999999999
 31
0.0
  0
LINE
  5
730
330
1E
100
AcDbEntity
  8
0
100
AcDbLine
 10
195.0
 20
114.2457999999999
 30
0.0
 11
195.0
 21
117.2458
 31
0.0
  0
LINE
  5
731
330
1E
100
AcDbEntity
  8
0
100
AcDbLine
 10
195.5
 20
116.2457999999999
 30
0.0
 11
195.5
 21
113.5458
 31
0.0
  0
LINE
  5
732
330
1E
100
AcDbEntity
  8
0
100
AcDbLine
 10
195.5
 20
115.8457999999999
 30
0.0
 11
195.5
 21
113.2457999999999
 31
0.0
  0
LINE
  5
733
330
1E
100
AcDbEntity
  8
0
100
AcDbLine
 10
195.5
 20
120.0458
 30
0.0
 11
195.0
 21
121.5457999999999
 31
0.0
  0
LINE
  5
734
330
1E
100
AcDbEntity
  8
0
100
AcDbLine
 10
195.0
 20
121.0458
 30
0.0
 11
195.0
 21
119.6458
 31
0.0
  0
LINE
  5
735
330
1E
100
AcDbEntity
  8
0
100
AcDbLine
 10
192.0
 20
121.5457999999999
 30
0.0
 11
191.5
 21
120.5457999999999
 31
0.0
  0
LINE
  5
736
330
1E
100
AcDbEntity
  8
0
100
AcDbLine
 10
195.0
 20
119.6458
 30
0.0
 11
195.0
 21
121.0458
 31
0.0
  0
LINE
  5
737
330
1E
100
AcDbEntity
  8
0
100
AcDbLine
 10
192.0
 20
121.0458
 30
0.0
 11
192.0
 21
119.6458
 31
0.0
  0
LINE
  5
738
330
1E
100
AcDbEntity
  8
0
100
AcDbLine
 10
192.0
 20
119.6458
 30
0.0
 11
192.0
 21
121.0458
 31
0.0
  0
LINE
  5
739
330
1E
100
AcDbEntity
  8
0
100
AcDbLine
 10
195.5
 20
120.0458
 30
0.0
 11
195.5
 21
119.5458
 31
0.0
  0
LINE
  5
73A
330
1E
100
AcDbEntity
  8
0
100
AcDbLine
 10
195.5
 20
119.5458
 30
0.0
 11
195.5
 21
119.0458
 31
0.0
  0
LINE
  5
73B
330
1E
100
AcDbEntity
  8
0
100
AcDbLine
 10
195.5
 20
119.5458
 30
0.0
 11
195.5
 21
120.0458
 31
0.0
  0
LINE
  5
73C
330
1E
100
AcDbEntity
  8
0
100
AcDbLine
 10
195.5
 20
119.5458
 30
0.0
 11
195.5
 21
118.3457999999999
 31
0.0
  0
LINE
  5
73D
330
1E
100
AcDbEntity
  8
0
100
AcDbLine
 10
195.5
 20
119.0458
 30
0.0
 11
195.5
 21
117.8458
 31
0.0
  0
LINE
  5
73E
330
1E
100
AcDbEntity
  8
0
100
AcDbLine
 10
191.5
 20
120.5457999999999
 30
0.0
 11
191.5
 21
120.0458
 31
0.0
  0
LINE
  5
73F
330
1E
100
AcDbEntity
  8
0
100
AcDbLine
 10
191.5
 20
120.0458
 30
0.0
 11
191.5
 21
118.7458
 31
0.0
  0
LINE
  5
740
330
1E
100
AcDbEntity
  8
0
100
AcDbLine
 10
191.5
 20
120.0458
 30
0.0
 11
191.5
 21
120.5457999999999
 31
0.0
  0
LINE
  5
741
330
1E
100
AcDbEntity
  8
0
100
AcDbLine
 10
191.5
 20
118.7458
 30
0.0
 11
191.5
 21
120.0458
 31
0.0
  0
LINE
  5
742
330
1E
100
AcDbEntity
  8
0
100
AcDbLine
 10
193.5
 20
122.0458
 30
0.0
 11
192.0
 21
121.5457999999999
 31
0.0
  0
LINE
  5
743
330
1E
100
AcDbEntity
  8
0
100
AcDbLine
 10
195.0
 20
121.0458
 30
0.0
 11
195.0
 21
121.5457999999999
 31
0.0
  0
LINE
  5
744
330
1E
100
AcDbEntity
  8
0
100
AcDbLine
 10
195.0
 20
121.5457999999999
 30
0.0
 11
193.5
 21
122.0458
 31
0.0
  0
LINE
  5
745
330
1E
100
AcDbEntity
  8
0
100
AcDbLine
 10
195.0
 20
121.5457999999999
 30
0.0
 11
195.0
 21
121.0458
 31
0.0
  0
LINE
  5
746
330
1E
100
AcDbEntity
  8
0
100
AcDbLine
 10
192.0
 20
121.5457999999999
 30
0.0
 11
192.0
 21
121.0458
 31
0.0
  0
LINE
  5
747
330
1E
100
AcDbEntity
  8
0
100
AcDbLine
 10
192.0
 20
121.0458
 30
0.0
 11
192.0
 21
121.5457999999999
 31
0.0
  0
LINE
  5
748
330
1E
100
AcDbEntity
  8
0
100
AcDbLine
 10
189.0
 20
105.2458
 30
0.0
 11
186.5
 21
105.7458
 31
0.0
  0
LINE
  5
749
330
1E
100
AcDbEntity
  8
0
100
AcDbLine
 10
189.0
 20
108.8457999999999
 30
0.0
 11
186.5
 21
108.3458
 31
0.0
  0
LINE
  5
74A
330
1E
100
AcDbEntity
  8
0
100
AcDbLine
 10
188.6252999999999
 20
107.8457999999999
 30
0.0
 11
187.5291999999999
 21
107.8457999999999
 31
0.0
  0
LINE
  5
74B
330
1E
100
AcDbEntity
  8
0
100
AcDbLine
 10
188.6252999999999
 20
106.2458
 30
0.0
 11
187.5291999999999
 21
106.2458
 31
0.0
  0
LINE
  5
74C
330
1E
100
AcDbEntity
  8
0
100
AcDbLine
 10
190.1252
 20
107.8457999999999
 30
0.0
 11
188.6252999999999
 21
107.8457999999999
 31
0.0
  0
LINE
  5
74D
330
1E
100
AcDbEntity
  8
0
100
AcDbLine
 10
190.1252
 20
106.2458
 30
0.0
 11
188.6252999999999
 21
106.2458
 31
0.0
  0
LINE
  5
74E
330
1E
100
AcDbEntity
  8
0
100
AcDbLine
 10
186.0
 20
106.2458
 30
0.0
 11
186.0
 21
107.0458
 31
0.0
  0
LINE
  5
74F
330
1E
100
AcDbEntity
  8
0
100
AcDbLine
 10
186.0
 20
107.0458
 30
0.0
 11
186.0
 21
107.8457999999999
 31
0.0
  0
LINE
  5
750
330
1E
100
AcDbEntity
  8
0
100
AcDbLine
 10
186.0
 20
107.0458
 30
0.0
 11
186.0
 21
106.2458
 31
0.0
  0
LINE
  5
751
330
1E
100
AcDbEntity
  8
0
100
AcDbLine
 10
186.5
 20
108.3458
 30
0.0
 11
186.0
 21
107.8457999999999
 31
0.0
  0
LINE
  5
752
330
1E
100
AcDbEntity
  8
0
100
AcDbLine
 10
186.0
 20
107.8457999999999
 30
0.0
 11
186.0
 21
107.0458
 31
0.0
  0
LINE
  5
753
330
1E
100
AcDbEntity
  8
0
100
AcDbLine
 10
186.3561999999999
 20
107.8457999999999
 30
0.0
 11
186.0
 21
107.8457999999999
 31
0.0
  0
LINE
  5
754
330
1E
100
AcDbEntity
  8
0
100
AcDbLine
 10
186.8754
 20
107.8457999999999
 30
0.0
 11
186.3561999999999
 21
107.8457999999999
 31
0.0
  0
LINE
  5
755
330
1E
100
AcDbEntity
  8
0
100
AcDbLine
 10
187.5291999999999
 20
107.8457999999999
 30
0.0
 11
186.8754
 21
107.8457999999999
 31
0.0
  0
LINE
  5
756
330
1E
100
AcDbEntity
  8
0
100
AcDbLine
 10
186.5
 20
105.7458
 30
0.0
 11
186.0
 21
106.2458
 31
0.0
  0
LINE
  5
757
330
1E
100
AcDbEntity
  8
0
100
AcDbLine
 10
186.3561999999999
 20
106.2458
 30
0.0
 11
186.0
 21
106.2458
 31
0.0
  0
LINE
  5
758
330
1E
100
AcDbEntity
  8
0
100
AcDbLine
 10
186.8754
 20
106.2458
 30
0.0
 11
186.3561999999999
 21
106.2458
 31
0.0
  0
LINE
  5
759
330
1E
100
AcDbEntity
  8
0
100
AcDbLine
 10
187.5291999999999
 20
106.2458
 30
0.0
 11
186.8754
 21
106.2458
 31
0.0
  0
LINE
  5
75A
330
1E
100
AcDbEntity
  8
0
100
AcDbLine
 10
203.4
 20
150.4457999999999
 30
0.0
 11
192.5999999999999
 21
146.0458
 31
0.0
  0
LINE
  5
75B
330
1E
100
AcDbEntity
  8
0
100
AcDbLine
 10
192.5999999999999
 20
146.0458
 30
0.0
 11
183.3
 21
138.7458
 31
0.0
  0
LINE
  5
75C
330
1E
100
AcDbEntity
  8
0
100
AcDbLine
 10
196.1
 20
139.9457999999999
 30
0.0
 11
188.1999999999999
 21
133.8457999999999
 31
0.0
  0
LINE
  5
75D
330
1E
100
AcDbEntity
  8
0
100
AcDbLine
 10
196.4
 20
139.5458
 30
0.0
 11
188.5999999999999
 21
133.4457999999999
 31
0.0
  0
LINE
  5
75E
330
1E
100
AcDbEntity
  8
0
100
AcDbLine
 10
205.2
 20
143.6458
 30
0.0
 11
196.1
 21
139.9457999999999
 31
0.0
  0
LINE
  5
75F
330
1E
100
AcDbEntity
  8
0
100
AcDbLine
 10
205.4
 20
143.1458
 30
0.0
 11
196.4
 21
139.5458
 31
0.0
  0
LINE
  5
760
330
1E
100
AcDbEntity
  8
0
100
AcDbLine
 10
183.3
 20
138.7458
 30
0.0
 11
176.0
 21
129.4457999999999
 31
0.0
  0
LINE
  5
761
330
1E
100
AcDbEntity
  8
0
100
AcDbLine
 10
188.1999999999999
 20
133.8457999999999
 30
0.0
 11
182.0999999999999
 21
125.9458
 31
0.0
  0
LINE
  5
762
330
1E
100
AcDbEntity
  8
0
100
AcDbLine
 10
188.5999999999999
 20
133.4457999999999
 30
0.0
 11
182.5
 21
125.6458
 31
0.0
  0
ENDSEC
  0
SECTION
  2
OBJECTS
  0
DICTIONARY
  5
C
330
0
100
AcDbDictionary
281
     1
  3
ACAD_GROUP
350
D
  3
ACAD_LAYOUT
350
19
  3
ACAD_MLINESTYLE
350
16
  3
ACAD_PLOTSETTINGS
350
18
  3
ACAD_PLOTSTYLENAME
350
E
  3
AcDbVariableDictionary
350
763
  0
DICTIONARY
  5
D
102
{ACAD_REACTORS
330
C
102
}
330
C
100
AcDbDictionary
281
     1
  0
DICTIONARY
  5
19
102
{ACAD_REACTORS
330
C
102
}
330
C
100
AcDbDictionary
281
     1
  3
Layout1
350
1D
  3
Model
350
21
  0
DICTIONARY
  5
16
102
{ACAD_REACTORS
330
C
102
}
330
C
100
AcDbDictionary
281
     1
  3
Standard
350
17
  0
DICTIONARY
  5
18
102
{ACAD_REACTORS
330
C
102
}
330
C
100
AcDbDictionary
281
     1
  0
ACDBDICTIONARYWDFLT
  5
E
102
{ACAD_REACTORS
330
C
102
}
330
C
100
AcDbDictionary
281
     1
  3
Normal
350
F
100
AcDbDictionaryWithDefault
340
F
  0
DICTIONARY
  5
763
102
{ACAD_REACTORS
330
C
102
}
330
C
100
AcDbDictionary
281
     1
  3
DIMASSOC
350
764
  0
LAYOUT
  5
1D
102
{ACAD_REACTORS
330
19
102
}
330
19
100
AcDbPlotSettings
  1

  2
hp deskjet 980c series
  4

  6

 40
0.0
 41
0.0
 42
0.0
 43
0.0
 44
0.0
 45
0.0
 46
0.0
 47
0.0
 48
0.0
 49
0.0
140
0.0
141
0.0
142
1.0
143
1.0
 70
   688
 72
     0
 73
     0
 74
     5
  7

 75
    16
147
1.0
148
0.0
149
0.0
100
AcDbLayout
  1
Layout1
 70
     1
 71
     1
 10
0.0
 20
0.0
 11
12.0
 21
9.0
 12
0.0
 22
0.0
 32
0.0
 14
1.000000000000000E+20
 24
1.000000000000000E+20
 34
1.000000000000000E+20
 15
-1.000000000000000E+20
 25
-1.000000000000000E+20
 35
-1.000000000000000E+20
146
0.0
 13
0.0
 23
0.0
 33
0.0
 16
1.0
 26
0.0
 36
0.0
 17
0.0
 27
1.0
 37
0.0
 76
     0
330
1A
  0
LAYOUT
  5
21
102
{ACAD_REACTORS
330
19
102
}
330
19
100
AcDbPlotSettings
  1

  2
hp deskjet 980c series
  4

  6

 40
0.0
 41
0.0
 42
0.0
 43
0.0
 44
0.0
 45
0.0
 46
0.0
 47
0.0
 48
0.0
 49
0.0
140
0.0
141
0.0
142
1.0
143
1.0
 70
  1712
 72
     0
 73
     0
 74
     0
  7

 75
     0
147
1.0
148
0.0
149
0.0
100
AcDbLayout
  1
Model
 70
     1
 71
     0
 10
0.0
 20
0.0
 11
12.0
 21
9.0
 12
0.0
 22
0.0
 32
0.0
 14
0.0
 24
0.0
 34
0.0
 15
0.0
 25
0.0
 35
0.0
146
0.0
 13
0.0
 23
0.0
 33
0.0
 16
1.0
 26
0.0
 36
0.0
 17
0.0
 27
1.0
 37
0.0
 76
     0
330
1E
  0
MLINESTYLE
  5
17
102
{ACAD_REACTORS
330
16
102
}
330
16
100
AcDbMlineStyle
  2
STANDARD
 70
     0
  3

 62
   256
 51
90.0
 52
90.0
 71
     2
 49
0.5
 62
   256
  6
BYLAYER
 49
-0.5
 62
   256
  6
BYLAYER
  0
ACDBPLACEHOLDER
  5
F
102
{ACAD_REACTORS
330
E
102
}
330
E
  0
DICTIONARYVAR
  5
764
102
{ACAD_REACTORS
330
763
102
}
330
763
100
DictionaryVariables
280
     0
  1
1
  0
ENDSEC
  0
EOF
