  0
SECTION
  2
HEADER
  9
$ACADVER
  1
AC1015
  9
$ACADMAINTVER
 70
    13
  9
$DWGCODEPAGE
  3
ANSI_1252
  9
$INSBASE
 10
0.0
 20
0.0
 30
0.0
  9
$EXTMIN
 10
0.187573499999987
 20
-0.0650099999999842
 30
0.0
  9
$EXTMAX
 10
245.8124265
 20
574.0650099999998
 30
0.0
  9
$LIMMIN
 10
0.0
 20
0.0
  9
$LIMMAX
 10
12.0
 20
9.0
  9
$ORTHOMODE
 70
     0
  9
$REGENMODE
 70
     1
  9
$FILLMODE
 70
     1
  9
$QTEXTMODE
 70
     0
  9
$MIRRTEXT
 70
     1
  9
$LTSCALE
 40
1.0
  9
$ATTMODE
 70
     1
  9
$TEXTSIZE
 40
0.2
  9
$TRACEWID
 40
0.05
  9
$TEXTSTYLE
  7
Standard
  9
$CLAYER
  8
0
  9
$CELTYPE
  6
Continuous
  9
$CECOLOR
 62
   256
  9
$CELTSCALE
 40
1.0
  9
$DISPSILH
 70
     0
  9
$DIMSCALE
 40
1.0
  9
$DIMASZ
 40
0.18
  9
$DIMEXO
 40
0.0625
  9
$DIMDLI
 40
0.38
  9
$DIMRND
 40
0.0
  9
$DIMDLE
 40
0.0
  9
$DIMEXE
 40
0.18
  9
$DIMTP
 40
0.0
  9
$DIMTM
 40
0.0
  9
$DIMTXT
 40
0.18
  9
$DIMCEN
 40
0.09
  9
$DIMTSZ
 40
0.0
  9
$DIMTOL
 70
     0
  9
$DIMLIM
 70
     0
  9
$DIMTIH
 70
     1
  9
$DIMTOH
 70
     1
  9
$DIMSE1
 70
     0
  9
$DIMSE2
 70
     0
  9
$DIMTAD
 70
     0
  9
$DIMZIN
 70
     0
  9
$DIMBLK
  1

  9
$DIMASO
 70
     1
  9
$DIMSHO
 70
     1
  9
$DIMPOST
  1

  9
$DIMAPOST
  1

  9
$DIMALT
 70
     0
  9
$DIMALTD
 70
     2
  9
$DIMALTF
 40
25.4
  9
$DIMLFAC
 40
1.0
  9
$DIMTOFL
 70
     0
  9
$DIMTVP
 40
0.0
  9
$DIMTIX
 70
     0
  9
$DIMSOXD
 70
     0
  9
$DIMSAH
 70
     0
  9
$DIMBLK1
  1

  9
$DIMBLK2
  1

  9
$DIMSTYLE
  2
Standard
  9
$DIMCLRD
 70
     0
  9
$DIMCLRE
 70
     0
  9
$DIMCLRT
 70
     0
  9
$DIMTFAC
 40
1.0
  9
$DIMGAP
 40
0.09
  9
$DIMJUST
 70
     0
  9
$DIMSD1
 70
     0
  9
$DIMSD2
 70
     0
  9
$DIMTOLJ
 70
     1
  9
$DIMTZIN
 70
     0
  9
$DIMALTZ
 70
     0
  9
$DIMALTTZ
 70
     0
  9
$DIMUPT
 70
     0
  9
$DIMDEC
 70
     4
  9
$DIMTDEC
 70
     4
  9
$DIMALTU
 70
     2
  9
$DIMALTTD
 70
     2
  9
$DIMTXSTY
  7
Standard
  9
$DIMAUNIT
 70
     0
  9
$DIMADEC
 70
     0
  9
$DIMALTRND
 40
0.0
  9
$DIMAZIN
 70
     0
  9
$DIMDSEP
 70
    46
  9
$DIMATFIT
 70
     3
  9
$DIMFRAC
 70
     0
  9
$DIMLDRBLK
  1

  9
$DIMLUNIT
 70
     2
  9
$DIMLWD
 70
    -2
  9
$DIMLWE
 70
    -2
  9
$DIMTMOVE
 70
     0
  9
$LUNITS
 70
     2
  9
$LUPREC
 70
     4
  9
$SKETCHINC
 40
0.1
  9
$FILLETRAD
 40
0.0
  9
$AUNITS
 70
     0
  9
$AUPREC
 70
     0
  9
$MENU
  1
.
  9
$ELEVATION
 40
0.0
  9
$PELEVATION
 40
0.0
  9
$THICKNESS
 40
0.0
  9
$LIMCHECK
 70
     0
  9
$CHAMFERA
 40
0.0
  9
$CHAMFERB
 40
0.0
  9
$CHAMFERC
 40
0.0
  9
$CHAMFERD
 40
0.0
  9
$SKPOLY
 70
     0
  9
$TDCREATE
 40
2454751.645334559
  9
$TDUCREATE
 40
2454751.562001227
  9
$TDUPDATE
 40
2454751.656474780
  9
$TDUUPDATE
 40
2454751.573141447
  9
$TDINDWG
 40
0.0111404051
  9
$TDUSRTIMER
 40
0.0111404051
  9
$USRTIMER
 70
     1
  9
$ANGBASE
 50
0.0
  9
$ANGDIR
 70
     0
  9
$PDMODE
 70
     0
  9
$PDSIZE
 40
0.0
  9
$PLINEWID
 40
0.0
  9
$SPLFRAME
 70
     0
  9
$SPLINETYPE
 70
     6
  9
$SPLINESEGS
 70
     8
  9
$HANDSEED
  5
6F8
  9
$SURFTAB1
 70
     6
  9
$SURFTAB2
 70
     6
  9
$SURFTYPE
 70
     6
  9
$SURFU
 70
     6
  9
$SURFV
 70
     6
  9
$UCSBASE
  2

  9
$UCSNAME
  2

  9
$UCSORG
 10
0.0
 20
0.0
 30
0.0
  9
$UCSXDIR
 10
1.0
 20
0.0
 30
0.0
  9
$UCSYDIR
 10
0.0
 20
1.0
 30
0.0
  9
$UCSORTHOREF
  2

  9
$UCSORTHOVIEW
 70
     1
  9
$UCSORGTOP
 10
0.0
 20
0.0
 30
0.0
  9
$UCSORGBOTTOM
 10
0.0
 20
0.0
 30
0.0
  9
$UCSORGLEFT
 10
0.0
 20
0.0
 30
0.0
  9
$UCSORGRIGHT
 10
0.0
 20
0.0
 30
0.0
  9
$UCSORGFRONT
 10
0.0
 20
0.0
 30
0.0
  9
$UCSORGBACK
 10
0.0
 20
0.0
 30
0.0
  9
$PUCSBASE
  2

  9
$PUCSNAME
  2

  9
$PUCSORG
 10
0.0
 20
0.0
 30
0.0
  9
$PUCSXDIR
 10
1.0
 20
0.0
 30
0.0
  9
$PUCSYDIR
 10
0.0
 20
1.0
 30
0.0
  9
$PUCSORTHOREF
  2

  9
$PUCSORTHOVIEW
 70
     0
  9
$PUCSORGTOP
 10
0.0
 20
0.0
 30
0.0
  9
$PUCSORGBOTTOM
 10
0.0
 20
0.0
 30
0.0
  9
$PUCSORGLEFT
 10
0.0
 20
0.0
 30
0.0
  9
$PUCSORGRIGHT
 10
0.0
 20
0.0
 30
0.0
  9
$PUCSORGFRONT
 10
0.0
 20
0.0
 30
0.0
  9
$PUCSORGBACK
 10
0.0
 20
0.0
 30
0.0
  9
$USERI1
 70
     0
  9
$USERI2
 70
     0
  9
$USERI3
 70
     0
  9
$USERI4
 70
     0
  9
$USERI5
 70
     0
  9
$USERR1
 40
0.0
  9
$USERR2
 40
0.0
  9
$USERR3
 40
0.0
  9
$USERR4
 40
0.0
  9
$USERR5
 40
0.0
  9
$WORLDVIEW
 70
     1
  9
$SHADEDGE
 70
     3
  9
$SHADEDIF
 70
    70
  9
$TILEMODE
 70
     1
  9
$MAXACTVP
 70
    64
  9
$PINSBASE
 10
0.0
 20
0.0
 30
0.0
  9
$PLIMCHECK
 70
     0
  9
$PEXTMIN
 10
1.000000000000000E+20
 20
1.000000000000000E+20
 30
1.000000000000000E+20
  9
$PEXTMAX
 10
-1.000000000000000E+20
 20
-1.000000000000000E+20
 30
-1.000000000000000E+20
  9
$PLIMMIN
 10
0.0
 20
0.0
  9
$PLIMMAX
 10
12.0
 20
9.0
  9
$UNITMODE
 70
     0
  9
$VISRETAIN
 70
     1
  9
$PLINEGEN
 70
     0
  9
$PSLTSCALE
 70
     1
  9
$TREEDEPTH
 70
  3020
  9
$CMLSTYLE
  2
Standard
  9
$CMLJUST
 70
     0
  9
$CMLSCALE
 40
1.0
  9
$PROXYGRAPHICS
 70
     1
  9
$MEASUREMENT
 70
     0
  9
$CELWEIGHT
370
    -1
  9
$ENDCAPS
280
     0
  9
$JOINSTYLE
280
     0
  9
$LWDISPLAY
290
     0
  9
$INSUNITS
 70
     0
  9
$HYPERLINKBASE
  1

  9
$STYLESHEET
  1

  9
$XEDIT
290
     1
  9
$CEPSNTYPE
380
     0
  9
$PSTYLEMODE
290
     1
  9
$FINGERPRINTGUID
  2
{E90CD527-B67F-4D99-BAA6-A47846C2ECB8}
  9
$VERSIONGUID
  2
{AFE7E1C8-C8E4-4A3E-B513-845A1766F172}
  9
$EXTNAMES
290
     1
  9
$PSVPSCALE
 40
0.0
  9
$OLESTARTUP
290
     0
  0
ENDSEC
  0
SECTION
  2
CLASSES
  0
CLASS
  1
ACDBDICTIONARYWDFLT
  2
AcDbDictionaryWithDefault
  3
AutoCAD 2000
 90
        0
280
     0
281
     0
  0
CLASS
  1
ACDBPLACEHOLDER
  2
AcDbPlaceHolder
  3
AutoCAD 2000
 90
        0
280
     0
281
     0
  0
CLASS
  1
LAYOUT
  2
AcDbLayout
  3
AutoCAD 2000
 90
        0
280
     0
281
     0
  0
CLASS
  1
DICTIONARYVAR
  2
AcDbDictionaryVar
  3
AutoCAD 2000
 90
        0
280
     0
281
     0
  0
ENDSEC
  0
SECTION
  2
TABLES
  0
TABLE
  2
VPORT
  5
8
330
0
100
AcDbSymbolTable
 70
     2
  0
VPORT
  5
6F7
330
8
100
AcDbSymbolTableRecord
100
AcDbViewportTableRecord
  2
*Active
 70
     0
 10
0.0
 20
0.0
 11
1.0
 21
1.0
 12
123.0
 22
287.0
 13
0.0
 23
0.0
 14
1.0
 24
1.0
 15
0.0
 25
0.0
 16
0.0
 26
0.0
 36
1.0
 17
0.0
 27
0.0
 37
0.0
 40
578.5351096675191
 41
2.078104993597951
 42
50.0
 43
0.0
 44
0.0
 50
0.0
 51
0.0
 71
     0
 72
   100
 73
     1
 74
     3
 75
     0
 76
     0
 77
     0
 78
     0
281
     0
 65
     1
110
0.0
120
0.0
130
0.0
111
1.0
121
0.0
131
0.0
112
0.0
122
1.0
132
0.0
 79
     1
146
0.0
  0
ENDTAB
  0
TABLE
  2
LTYPE
  5
5
330
0
100
AcDbSymbolTable
 70
     1
  0
LTYPE
  5
13
330
5
100
AcDbSymbolTableRecord
100
AcDbLinetypeTableRecord
  2
ByBlock
 70
     0
  3

 72
    65
 73
     0
 40
0.0
  0
LTYPE
  5
14
330
5
100
AcDbSymbolTableRecord
100
AcDbLinetypeTableRecord
  2
ByLayer
 70
     0
  3

 72
    65
 73
     0
 40
0.0
  0
LTYPE
  5
15
330
5
100
AcDbSymbolTableRecord
100
AcDbLinetypeTableRecord
  2
Continuous
 70
     0
  3
Solid line
 72
    65
 73
     0
 40
0.0
  0
ENDTAB
  0
TABLE
  2
LAYER
  5
2
330
0
100
AcDbSymbolTable
 70
     1
  0
LAYER
  5
10
330
2
100
AcDbSymbolTableRecord
100
AcDbLayerTableRecord
  2
0
 70
     0
 62
     7
  6
Continuous
370
    -3
390
F
  0
ENDTAB
  0
TABLE
  2
STYLE
  5
3
330
0
100
AcDbSymbolTable
 70
     1
  0
STYLE
  5
11
330
3
100
AcDbSymbolTableRecord
100
AcDbTextStyleTableRecord
  2
Standard
 70
     0
 40
0.0
 41
1.0
 50
0.0
 71
     0
 42
0.2
  3
txt
  4

  0
ENDTAB
  0
TABLE
  2
VIEW
  5
6
330
0
100
AcDbSymbolTable
 70
     0
  0
ENDTAB
  0
TABLE
  2
UCS
  5
7
330
0
100
AcDbSymbolTable
 70
     0
  0
ENDTAB
  0
TABLE
  2
APPID
  5
9
330
0
100
AcDbSymbolTable
 70
     1
  0
APPID
  5
12
330
9
100
AcDbSymbolTableRecord
100
AcDbRegAppTableRecord
  2
ACAD
 70
     0
  0
ENDTAB
  0
TABLE
  2
DIMSTYLE
  5
A
330
0
100
AcDbSymbolTable
 70
     1
100
AcDbDimStyleTable
 71
     0
  0
DIMSTYLE
105
6EE
330
A
100
AcDbSymbolTableRecord
100
AcDbDimStyleTableRecord
  2
Standard
 70
     0
340
11
  0
ENDTAB
  0
TABLE
  2
BLOCK_RECORD
  5
1
330
0
100
AcDbSymbolTable
 70
     0
  0
BLOCK_RECORD
  5
1E
330
1
100
AcDbSymbolTableRecord
100
AcDbBlockTableRecord
  2
*Model_Space
340
21
  0
BLOCK_RECORD
  5
1A
330
1
100
AcDbSymbolTableRecord
100
AcDbBlockTableRecord
  2
*Paper_Space
340
1D
  0
ENDTAB
  0
ENDSEC
  0
SECTION
  2
BLOCKS
  0
BLOCK
  5
1F
330
1E
100
AcDbEntity
  8
0
100
AcDbBlockBegin
  2
*Model_Space
 70
     0
 10
0.0
 20
0.0
 30
0.0
  3
*Model_Space
  1

  0
ENDBLK
  5
20
330
1E
100
AcDbEntity
  8
0
100
AcDbBlockEnd
  0
BLOCK
  5
1B
330
1A
100
AcDbEntity
 67
     1
  8
0
100
AcDbBlockBegin
  2
*Paper_Space
 70
     0
 10
0.0
 20
0.0
 30
0.0
  3
*Paper_Space
  1

  0
ENDBLK
  5
1C
330
1A
100
AcDbEntity
 67
     1
  8
0
100
AcDbBlockEnd
  0
ENDSEC
  0
SECTION
  2
ENTITIES
  0
LINE
  5
22
330
1E
100
AcDbEntity
  8
0
100
AcDbLine
 10
10.6808265
 20
402.88201
 30
0.0
 11
12.0444265
 21
402.6410099999999
 31
0.0
  0
LINE
  5
23
330
1E
100
AcDbEntity
  8
0
100
AcDbLine
 10
10.9924265
 20
414.00601
 30
0.0
 11
11.8204265
 21
415.38001
 31
0.0
  0
LINE
  5
24
330
1E
100
AcDbEntity
  8
0
100
AcDbLine
 10
10.90582649999999
 20
413.51501
 30
0.0
 11
11.3008265
 21
412.4330099999999
 31
0.0
  0
LINE
  5
25
330
1E
100
AcDbEntity
  8
0
100
AcDbLine
 10
10.90582649999999
 20
413.51501
 30
0.0
 11
10.9924265
 21
414.00601
 31
0.0
  0
LINE
  5
26
330
1E
100
AcDbEntity
  8
0
100
AcDbLine
 10
10.2263265
 20
402.96201
 30
0.0
 11
11.18942649999999
 21
401.77901
 31
0.0
  0
LINE
  5
27
330
1E
100
AcDbEntity
  8
0
100
AcDbLine
 10
10.2263265
 20
402.96201
 30
0.0
 11
11.78232649999999
 21
411.84101
 31
0.0
  0
LINE
  5
28
330
1E
100
AcDbEntity
  8
0
100
AcDbLine
 10
10.2263265
 20
402.96201
 30
0.0
 11
10.6808265
 21
402.88201
 31
0.0
  0
LINE
  5
29
330
1E
100
AcDbEntity
  8
0
100
AcDbLine
 10
11.78232649999999
 20
411.84101
 30
0.0
 11
12.23682649999999
 21
411.76101
 31
0.0
  0
LINE
  5
2A
330
1E
100
AcDbEntity
  8
0
100
AcDbLine
 10
12.23682649999999
 20
411.76101
 30
0.0
 11
13.6004265
 21
411.5210099999999
 31
0.0
  0
LINE
  5
2B
330
1E
100
AcDbEntity
  8
0
100
AcDbLine
 10
12.0444265
 20
402.6410099999999
 30
0.0
 11
14.2034265
 21
402.2610099999999
 31
0.0
  0
LINE
  5
2C
330
1E
100
AcDbEntity
  8
0
100
AcDbLine
 10
11.3008265
 20
412.4330099999999
 30
0.0
 11
11.78232649999999
 21
411.84101
 31
0.0
  0
LINE
  5
2D
330
1E
100
AcDbEntity
  8
0
100
AcDbLine
 10
11.18942649999999
 20
401.77901
 30
0.0
 11
11.64392649999999
 21
401.69901
 31
0.0
  0
LINE
  5
2E
330
1E
100
AcDbEntity
  8
0
100
AcDbLine
 10
11.64392649999999
 20
401.69901
 30
0.0
 11
12.89392649999999
 21
401.47801
 31
0.0
  0
LINE
  5
2F
330
1E
100
AcDbEntity
  8
0
100
AcDbLine
 10
13.6004265
 20
411.5210099999999
 30
0.0
 11
15.7594265
 21
411.14001
 31
0.0
  0
LINE
  5
30
330
1E
100
AcDbEntity
  8
0
100
AcDbLine
 10
15.7594265
 20
411.14001
 30
0.0
 11
18.6002265
 21
410.6390099999999
 31
0.0
  0
LINE
  5
31
330
1E
100
AcDbEntity
  8
0
100
AcDbLine
 10
18.6002265
 20
410.6390099999999
 30
0.0
 11
21.8955265
 21
410.05801
 31
0.0
  0
LINE
  5
32
330
1E
100
AcDbEntity
  8
0
100
AcDbLine
 10
14.2034265
 20
402.2610099999999
 30
0.0
 11
17.0442265
 21
401.76001
 31
0.0
  0
LINE
  5
33
330
1E
100
AcDbEntity
  8
0
100
AcDbLine
 10
17.0442265
 20
401.76001
 30
0.0
 11
20.3395265
 21
401.1790099999999
 31
0.0
  0
LINE
  5
34
330
1E
100
AcDbEntity
  8
0
100
AcDbLine
 10
20.3395265
 20
401.1790099999999
 30
0.0
 11
23.8621265
 21
400.5570099999999
 31
0.0
  0
LINE
  5
35
330
1E
100
AcDbEntity
  8
0
100
AcDbLine
 10
14.8256265
 20
401.13801
 30
0.0
 11
17.4392265
 21
400.6770099999999
 31
0.0
  0
LINE
  5
36
330
1E
100
AcDbEntity
  8
0
100
AcDbLine
 10
12.89392649999999
 20
401.47801
 30
0.0
 11
14.8256265
 21
401.13801
 31
0.0
  0
LINE
  5
37
330
1E
100
AcDbEntity
  8
0
100
AcDbLine
 10
17.4392265
 20
400.6770099999999
 30
0.0
 11
20.5640265
 21
400.12601
 31
0.0
  0
LINE
  5
38
330
1E
100
AcDbEntity
  8
0
100
AcDbLine
 10
36.1883265
 20
397.37101
 30
0.0
 11
37.49792649999999
 21
398.15301
 31
0.0
  0
LINE
  5
39
330
1E
100
AcDbEntity
  8
0
100
AcDbLine
 10
35.7339265
 20
397.45101
 30
0.0
 11
36.1883265
 21
397.37101
 31
0.0
  0
LINE
  5
3A
330
1E
100
AcDbEntity
  8
0
100
AcDbLine
 10
34.4839265
 20
397.67201
 30
0.0
 11
35.7339265
 21
397.45101
 31
0.0
  0
LINE
  5
3B
330
1E
100
AcDbEntity
  8
0
100
AcDbLine
 10
37.0434265
 20
398.23301
 30
0.0
 11
37.49792649999999
 21
398.15301
 31
0.0
  0
LINE
  5
3C
330
1E
100
AcDbEntity
  8
0
100
AcDbLine
 10
35.6798265
 20
398.47401
 30
0.0
 11
37.0434265
 21
398.23301
 31
0.0
  0
LINE
  5
3D
330
1E
100
AcDbEntity
  8
0
100
AcDbLine
 10
33.52082649999999
 20
398.85401
 30
0.0
 11
35.6798265
 21
398.47401
 31
0.0
  0
LINE
  5
3E
330
1E
100
AcDbEntity
  8
0
100
AcDbLine
 10
37.49792649999999
 20
398.15301
 30
0.0
 11
39.0540265
 21
407.0320099999999
 31
0.0
  0
LINE
  5
3F
330
1E
100
AcDbEntity
  8
0
100
AcDbLine
 10
32.5521265
 20
398.01201
 30
0.0
 11
34.4839265
 21
397.67201
 31
0.0
  0
LINE
  5
40
330
1E
100
AcDbEntity
  8
0
100
AcDbLine
 10
29.9387265
 20
398.47301
 30
0.0
 11
32.5521265
 21
398.01201
 31
0.0
  0
LINE
  5
41
330
1E
100
AcDbEntity
  8
0
100
AcDbLine
 10
30.6800265
 20
399.35501
 30
0.0
 11
33.52082649999999
 21
398.85401
 31
0.0
  0
LINE
  5
42
330
1E
100
AcDbEntity
  8
0
100
AcDbLine
 10
38.5994265
 20
407.11301
 30
0.0
 11
39.0540265
 21
407.0320099999999
 31
0.0
  0
LINE
  5
43
330
1E
100
AcDbEntity
  8
0
100
AcDbLine
 10
37.2358265
 20
407.35301
 30
0.0
 11
38.5994265
 21
407.11301
 31
0.0
  0
LINE
  5
44
330
1E
100
AcDbEntity
  8
0
100
AcDbLine
 10
35.0768265
 20
407.7340099999999
 30
0.0
 11
37.2358265
 21
407.35301
 31
0.0
  0
LINE
  5
45
330
1E
100
AcDbEntity
  8
0
100
AcDbLine
 10
32.2360265
 20
408.23501
 30
0.0
 11
35.0768265
 21
407.7340099999999
 31
0.0
  0
LINE
  5
46
330
1E
100
AcDbEntity
  8
0
100
AcDbLine
 10
28.9407265
 20
408.81601
 30
0.0
 11
32.2360265
 21
408.23501
 31
0.0
  0
LINE
  5
47
330
1E
100
AcDbEntity
  8
0
100
AcDbLine
 10
25.4181265
 20
409.4370099999999
 30
0.0
 11
28.9407265
 21
408.81601
 31
0.0
  0
LINE
  5
48
330
1E
100
AcDbEntity
  8
0
100
AcDbLine
 10
27.3847265
 20
399.93601
 30
0.0
 11
30.6800265
 21
399.35501
 31
0.0
  0
LINE
  5
49
330
1E
100
AcDbEntity
  8
0
100
AcDbLine
 10
23.8621265
 20
400.5570099999999
 30
0.0
 11
27.3847265
 21
399.93601
 31
0.0
  0
LINE
  5
4A
330
1E
100
AcDbEntity
  8
0
100
AcDbLine
 10
23.6889265
 20
399.57501
 30
0.0
 11
26.8138265
 21
399.02401
 31
0.0
  0
LINE
  5
4B
330
1E
100
AcDbEntity
  8
0
100
AcDbLine
 10
21.8955265
 20
410.05801
 30
0.0
 11
25.4181265
 21
409.4370099999999
 31
0.0
  0
LINE
  5
4C
330
1E
100
AcDbEntity
  8
0
100
AcDbLine
 10
38.5027265
 20
412.0250099999999
 30
0.0
 11
38.9490265
 21
411.95901
 31
0.0
  0
LINE
  5
4D
330
1E
100
AcDbEntity
  8
0
100
AcDbLine
 10
37.32862649999999
 20
412.3230099999999
 30
0.0
 11
38.5027265
 21
412.0250099999999
 31
0.0
  0
LINE
  5
4E
330
1E
100
AcDbEntity
  8
0
100
AcDbLine
 10
35.3609265
 20
412.72001
 30
0.0
 11
37.32862649999999
 21
412.3230099999999
 31
0.0
  0
LINE
  5
4F
330
1E
100
AcDbEntity
  8
0
100
AcDbLine
 10
32.7647265
 20
413.21701
 30
0.0
 11
35.3609265
 21
412.72001
 31
0.0
  0
LINE
  5
50
330
1E
100
AcDbEntity
  8
0
100
AcDbLine
 10
29.7901265
 20
413.71301
 30
0.0
 11
32.7647265
 21
413.21701
 31
0.0
  0
LINE
  5
51
330
1E
100
AcDbEntity
  8
0
100
AcDbLine
 10
26.6153265
 20
414.2750099999999
 30
0.0
 11
29.7901265
 21
413.71301
 31
0.0
  0
LINE
  5
52
330
1E
100
AcDbEntity
  8
0
100
AcDbLine
 10
38.9490265
 20
411.95901
 30
0.0
 11
40.2284265
 21
410.3710099999999
 31
0.0
  0
LINE
  5
53
330
1E
100
AcDbEntity
  8
0
100
AcDbLine
 10
38.9490265
 20
411.95901
 30
0.0
 11
40.19292649999999
 21
414.4810099999999
 31
0.0
  0
LINE
  5
54
330
1E
100
AcDbEntity
  8
0
100
AcDbLine
 10
40.19292649999999
 20
414.4810099999999
 30
0.0
 11
41.7553265
 21
416.81901
 31
0.0
  0
LINE
  5
55
330
1E
100
AcDbEntity
  8
0
100
AcDbLine
 10
40.2284265
 20
410.3710099999999
 30
0.0
 11
40.5367265
 21
408.7970099999999
 31
0.0
  0
LINE
  5
56
330
1E
100
AcDbEntity
  8
0
100
AcDbLine
 10
86.92494217944249
 20
412.7758706271779
 30
0.0
 11
87.00298649999991
 21
412.47101
 31
0.0
  0
LINE
  5
57
330
1E
100
AcDbEntity
  8
0
100
AcDbLine
 10
86.98127104756379
 20
414.0714345939679
 30
0.0
 11
87.0054265
 21
414.6270099999999
 31
0.0
  0
LINE
  5
58
330
1E
100
AcDbEntity
  8
0
100
AcDbLine
 10
86.98127104756379
 20
414.0714345939679
 30
0.0
 11
87.0244265
 21
414.7540099999999
 31
0.0
  0
LINE
  5
59
330
1E
100
AcDbEntity
  8
0
100
AcDbLine
 10
86.90442649999999
 20
412.85601
 30
0.0
 11
87.2884265
 21
411.3560099999999
 31
0.0
  0
LINE
  5
5A
330
1E
100
AcDbEntity
  8
0
100
AcDbLine
 10
86.90442649999999
 20
412.85601
 30
0.0
 11
87.0244265
 21
414.7540099999999
 31
0.0
  0
LINE
  5
5B
330
1E
100
AcDbEntity
  8
0
100
AcDbLine
 10
86.9234265
 20
412.74101
 30
0.0
 11
87.00298649999991
 21
412.47101
 31
0.0
  0
LINE
  5
5C
330
1E
100
AcDbEntity
  8
0
100
AcDbLine
 10
40.4501265
 20
408.3060099999999
 30
0.0
 11
40.5367265
 21
408.7970099999999
 31
0.0
  0
LINE
  5
5D
330
1E
100
AcDbEntity
  8
0
100
AcDbLine
 10
39.7087265
 20
407.42301
 30
0.0
 11
40.4501265
 21
408.3060099999999
 31
0.0
  0
LINE
  5
5E
330
1E
100
AcDbEntity
  8
0
100
AcDbLine
 10
39.0540265
 20
407.0320099999999
 30
0.0
 11
39.7087265
 21
407.42301
 31
0.0
  0
LINE
  5
5F
330
1E
100
AcDbEntity
  8
0
100
AcDbLine
 10
26.8138265
 20
399.02401
 30
0.0
 11
29.9387265
 21
398.47301
 31
0.0
  0
LINE
  5
60
330
1E
100
AcDbEntity
  8
0
100
AcDbLine
 10
20.5640265
 20
400.12601
 30
0.0
 11
23.6889265
 21
399.57501
 31
0.0
  0
LINE
  5
61
330
1E
100
AcDbEntity
  8
0
100
AcDbLine
 10
14.7674265
 20
416.4100099999999
 30
0.0
 11
15.8929265
 21
416.18401
 31
0.0
  0
LINE
  5
62
330
1E
100
AcDbEntity
  8
0
100
AcDbLine
 10
15.8929265
 20
416.18401
 30
0.0
 11
17.8762265
 21
415.8310099999999
 31
0.0
  0
LINE
  5
63
330
1E
100
AcDbEntity
  8
0
100
AcDbLine
 10
17.8762265
 20
415.8310099999999
 30
0.0
 11
20.4888265
 21
415.36701
 31
0.0
  0
LINE
  5
64
330
1E
100
AcDbEntity
  8
0
100
AcDbLine
 10
20.4888265
 20
415.36701
 30
0.0
 11
23.46532649999999
 21
414.8550099999999
 31
0.0
  0
LINE
  5
65
330
1E
100
AcDbEntity
  8
0
100
AcDbLine
 10
23.46532649999999
 20
414.8550099999999
 30
0.0
 11
26.6153265
 21
414.2750099999999
 31
0.0
  0
LINE
  5
66
330
1E
100
AcDbEntity
  8
0
100
AcDbLine
 10
14.3529265
 20
416.45301
 30
0.0
 11
15.8520265
 21
421.52601
 31
0.0
  0
LINE
  5
67
330
1E
100
AcDbEntity
  8
0
100
AcDbLine
 10
14.3529265
 20
416.45301
 30
0.0
 11
14.7674265
 21
416.4100099999999
 31
0.0
  0
LINE
  5
68
330
1E
100
AcDbEntity
  8
0
100
AcDbLine
 10
87.0244265
 20
414.7540099999999
 30
0.0
 11
87.5024265
 21
418.72901
 31
0.0
  0
LINE
  5
69
330
1E
100
AcDbEntity
  8
0
100
AcDbLine
 10
41.7553265
 20
416.81901
 30
0.0
 11
43.6096265
 21
418.9340099999999
 31
0.0
  0
LINE
  5
6A
330
1E
100
AcDbEntity
  8
0
100
AcDbLine
 10
43.6096265
 20
418.9340099999999
 30
0.0
 11
45.72402649999999
 21
420.7880099999999
 31
0.0
  0
LINE
  5
6B
330
1E
100
AcDbEntity
  8
0
100
AcDbLine
 10
11.8204265
 20
415.38001
 30
0.0
 11
14.3529265
 21
416.45301
 31
0.0
  0
LINE
  5
6D
330
1E
100
AcDbEntity
  8
0
100
AcDbLine
 10
87.0054265
 20
414.6270099999999
 30
0.0
 11
87.08516505190258
 21
415.259105698353
 31
0.0
  0
LINE
  5
6E
330
1E
100
AcDbEntity
  8
0
100
AcDbLine
 10
88.07251581005209
 20
410.19785082084
 30
0.0
 11
88.7684265
 21
409.60601
 31
0.0
  0
LINE
  5
6F
330
1E
100
AcDbEntity
  8
0
100
AcDbLine
 10
88.0954265
 20
410.16401
 30
0.0
 11
88.2857713275872
 21
410.016486570556
 31
0.0
  0
LINE
  5
73
330
1E
100
AcDbEntity
  8
0
100
AcDbLine
 10
87.2884265
 20
411.3560099999999
 30
0.0
 11
87.9994265
 21
410.26001
 31
0.0
  0
LINE
  5
74
330
1E
100
AcDbEntity
  8
0
100
AcDbLine
 10
87.9994265
 20
410.26001
 30
0.0
 11
88.7684265
 21
409.60601
 31
0.0
  0
LINE
  5
75
330
1E
100
AcDbEntity
  8
0
100
AcDbLine
 10
88.7684265
 20
409.60601
 30
0.0
 11
89.88342649999999
 21
409.08701
 31
0.0
  0
LINE
  5
76
330
1E
100
AcDbEntity
  8
0
100
AcDbLine
 10
89.88342649999999
 20
409.08701
 30
0.0
 11
92.81242650000001
 21
408.73101
 31
0.0
  0
LINE
  5
7A
330
1E
100
AcDbEntity
  8
0
100
AcDbLine
 10
97.6254265
 20
410.26001
 30
0.0
 11
98.33642650000001
 21
411.3560099999999
 31
0.0
  0
LINE
  5
7B
330
1E
100
AcDbEntity
  8
0
100
AcDbLine
 10
97.3390816724126
 20
410.016486570556
 30
0.0
 11
97.52942650000001
 21
410.16401
 31
0.0
  0
LINE
  5
7C
330
1E
100
AcDbEntity
  8
0
100
AcDbLine
 10
96.8564265
 20
409.60601
 30
0.0
 11
97.6254265
 21
410.26001
 31
0.0
  0
LINE
  5
7D
330
1E
100
AcDbEntity
  8
0
100
AcDbLine
 10
96.8564265
 20
409.60601
 30
0.0
 11
97.5524007326673
 21
410.1979048610719
 31
0.0
  0
LINE
  5
7E
330
1E
100
AcDbEntity
  8
0
100
AcDbLine
 10
95.7414265
 20
409.08701
 30
0.0
 11
96.8564265
 21
409.60601
 31
0.0
  0
LINE
  5
7F
330
1E
100
AcDbEntity
  8
0
100
AcDbLine
 10
92.81242650000001
 20
408.73101
 30
0.0
 11
95.7414265
 21
409.08701
 31
0.0
  0
LINE
  5
80
330
1E
100
AcDbEntity
  8
0
100
AcDbLine
 10
98.6004265
 20
414.7540099999999
 30
0.0
 11
98.7204265
 21
412.85601
 31
0.0
  0
LINE
  5
81
330
1E
100
AcDbEntity
  8
0
100
AcDbLine
 10
98.6004265
 20
414.7540099999999
 30
0.0
 11
98.64358195243619
 21
414.0714345939669
 31
0.0
  0
LINE
  5
82
330
1E
100
AcDbEntity
  8
0
100
AcDbLine
 10
98.61942650000001
 20
414.6270099999999
 30
0.0
 11
98.64358195243619
 21
414.0714345939669
 31
0.0
  0
LINE
  5
83
330
1E
100
AcDbEntity
  8
0
100
AcDbLine
 10
98.33642650000001
 20
411.3560099999999
 30
0.0
 11
98.7204265
 21
412.85601
 31
0.0
  0
LINE
  5
84
330
1E
100
AcDbEntity
  8
0
100
AcDbLine
 10
98.62186650000001
 20
412.47101
 30
0.0
 11
98.7014265
 21
412.74101
 31
0.0
  0
LINE
  5
85
330
1E
100
AcDbEntity
  8
0
100
AcDbLine
 10
98.5396879480975
 20
415.259105698353
 30
0.0
 11
98.61942650000001
 21
414.6270099999999
 31
0.0
  0
LINE
  5
86
330
1E
100
AcDbEntity
  8
0
100
AcDbLine
 10
98.12242650000001
 20
418.72901
 30
0.0
 11
98.5396879480975
 21
415.259105698353
 31
0.0
  0
LINE
  5
87
330
1E
100
AcDbEntity
  8
0
100
AcDbLine
 10
98.12242650000001
 20
418.72901
 30
0.0
 11
98.6004265
 21
414.7540099999999
 31
0.0
  0
LINE
  5
88
330
1E
100
AcDbEntity
  8
0
100
AcDbLine
 10
97.8550766468296
 20
420.526899714679
 30
0.0
 11
98.12242650000001
 21
418.72901
 31
0.0
  0
LINE
  5
89
330
1E
100
AcDbEntity
  8
0
100
AcDbLine
 10
87.76977635317029
 20
420.526899714679
 30
0.0
 11
88.05542649999999
 21
422.5930099999999
 31
0.0
  0
LINE
  5
8A
330
1E
100
AcDbEntity
  8
0
100
AcDbLine
 10
87.5024265
 20
418.72901
 30
0.0
 11
87.76977635317029
 21
420.526899714679
 31
0.0
  0
LINE
  5
8B
330
1E
100
AcDbEntity
  8
0
100
AcDbLine
 10
87.5024265
 20
418.72901
 30
0.0
 11
88.0294265
 21
422.2730099999999
 31
0.0
  0
LINE
  5
8C
330
1E
100
AcDbEntity
  8
0
100
AcDbLine
 10
87.08516505190258
 20
415.259105698353
 30
0.0
 11
87.5024265
 21
418.72901
 31
0.0
  0
LINE
  5
8D
330
1E
100
AcDbEntity
  8
0
100
AcDbLine
 10
15.8520265
 20
421.52601
 30
0.0
 11
18.5422265
 21
426.9810099999999
 31
0.0
  0
LINE
  5
8E
330
1E
100
AcDbEntity
  8
0
100
AcDbLine
 10
140.3124264999999
 20
421.8310099999999
 30
0.0
 11
140.3124264999999
 21
423.43101
 31
0.0
  0
LINE
  5
8F
330
1E
100
AcDbEntity
  8
0
100
AcDbLine
 10
140.3124264999999
 20
421.8310099999999
 30
0.0
 11
140.3124264999999
 21
421.2310099999999
 31
0.0
  0
LINE
  5
90
330
1E
100
AcDbEntity
  8
0
100
AcDbLine
 10
139.8124264999999
 20
422.2310099999999
 30
0.0
 11
139.8124264999999
 21
426.3900099999999
 31
0.0
  0
LINE
  5
91
330
1E
100
AcDbEntity
  8
0
100
AcDbLine
 10
45.72402649999999
 20
420.7880099999999
 30
0.0
 11
48.0624265
 21
422.3510099999999
 31
0.0
  0
LINE
  5
92
330
1E
100
AcDbEntity
  8
0
100
AcDbLine
 10
97.5954265
 20
422.2730099999999
 30
0.0
 11
98.12242650000001
 21
418.72901
 31
0.0
  0
LINE
  5
93
330
1E
100
AcDbEntity
  8
0
100
AcDbLine
 10
88.05542649999999
 20
422.5930099999999
 30
0.0
 11
88.1599738599893
 21
423.3462262071959
 31
0.0
  0
LINE
  5
94
330
1E
100
AcDbEntity
  8
0
100
AcDbLine
 10
88.0294265
 20
422.2730099999999
 30
0.0
 11
88.3644265
 21
425.0270099999999
 31
0.0
  0
LINE
  5
95
330
1E
100
AcDbEntity
  8
0
100
AcDbLine
 10
88.0294265
 20
422.2730099999999
 30
0.0
 11
88.05542649999999
 21
422.5930099999999
 31
0.0
  0
LINE
  5
96
330
1E
100
AcDbEntity
  8
0
100
AcDbLine
 10
48.0624265
 20
422.3510099999999
 30
0.0
 11
50.5847265
 21
423.5940099999999
 31
0.0
  0
LINE
  5
97
330
1E
100
AcDbEntity
  8
0
100
AcDbLine
 10
50.5847265
 20
423.5940099999999
 30
0.0
 11
53.2478265
 21
424.4980099999999
 31
0.0
  0
LINE
  5
98
330
1E
100
AcDbEntity
  8
0
100
AcDbLine
 10
56.0061265
 20
425.0470099999999
 30
0.0
 11
58.8124265
 21
425.2310099999999
 31
0.0
  0
LINE
  5
99
330
1E
100
AcDbEntity
  8
0
100
AcDbLine
 10
53.2478265
 20
424.4980099999999
 30
0.0
 11
56.0061265
 21
425.0470099999999
 31
0.0
  0
LINE
  5
9A
330
1E
100
AcDbEntity
  8
0
100
AcDbLine
 10
26.1037344088998
 20
436.76170023695
 30
0.0
 11
33.8932265
 21
434.8810099999999
 31
0.0
  0
LINE
  5
9C
330
1E
100
AcDbEntity
  8
0
100
AcDbLine
 10
21.9215265
 20
432.03801
 30
0.0
 11
25.9319265
 21
436.6110099999999
 31
0.0
  0
LINE
  5
9D
330
1E
100
AcDbEntity
  8
0
100
AcDbLine
 10
18.5422265
 20
426.9810099999999
 30
0.0
 11
21.9215265
 21
432.03801
 31
0.0
  0
LINE
  5
9E
330
1E
100
AcDbEntity
  8
0
100
AcDbLine
 10
4.58032649999999
 20
446.2240099999999
 30
0.0
 11
9.518326499999989
 21
444.9010099999999
 31
0.0
  0
LINE
  5
9F
330
1E
100
AcDbEntity
  8
0
100
AcDbLine
 10
3.48718649999999
 20
446.5170099999999
 30
0.0
 11
4.58032649999999
 21
446.2240099999999
 31
0.0
  0
LINE
  5
A0
330
1E
100
AcDbEntity
  8
0
100
AcDbLine
 10
2.80868649999999
 20
446.69901
 30
0.0
 11
3.48718649999999
 21
446.5170099999999
 31
0.0
  0
LINE
  5
A1
330
1E
100
AcDbEntity
  8
0
100
AcDbLine
 10
2.54481649999999
 20
446.77001
 30
0.0
 11
2.80868649999999
 21
446.69901
 31
0.0
  0
LINE
  5
A2
330
1E
100
AcDbEntity
  8
0
100
AcDbLine
 10
3.06185649999999
 20
446.8900099999999
 30
0.0
 11
4.26808649999999
 21
446.5670099999999
 31
0.0
  0
LINE
  5
A3
330
1E
100
AcDbEntity
  8
0
100
AcDbLine
 10
2.30796649999999
 20
447.0920099999999
 30
0.0
 11
3.06185649999999
 21
446.8900099999999
 31
0.0
  0
LINE
  5
A4
330
1E
100
AcDbEntity
  8
0
100
AcDbLine
 10
0.187573499999987
 20
448.7160099999999
 30
0.0
 11
2.118766499999989
 21
455.9230099999999
 31
0.0
  0
LINE
  5
A5
330
1E
100
AcDbEntity
  8
0
100
AcDbLine
 10
0.187573499999987
 20
448.7160099999999
 30
0.0
 11
0.5353074999999871
 21
448.6220099999999
 31
0.0
  0
LINE
  5
A6
330
1E
100
AcDbEntity
  8
0
100
AcDbLine
 10
1.624736499999989
 20
448.0520099999999
 30
0.0
 11
3.13157649999999
 21
447.6480099999999
 31
0.0
  0
LINE
  5
A7
330
1E
100
AcDbEntity
  8
0
100
AcDbLine
 10
1.462596499999989
 20
448.3740099999999
 30
0.0
 11
3.00807649999999
 21
447.9600099999999
 31
0.0
  0
LINE
  5
A8
330
1E
100
AcDbEntity
  8
0
100
AcDbLine
 10
0.6974474999999871
 20
448.3000099999999
 30
0.0
 11
1.624736499999989
 21
448.0520099999999
 31
0.0
  0
LINE
  5
A9
330
1E
100
AcDbEntity
  8
0
100
AcDbLine
 10
0.5353074999999871
 20
448.6220099999999
 30
0.0
 11
1.462596499999989
 21
448.3740099999999
 31
0.0
  0
LINE
  5
AA
330
1E
100
AcDbEntity
  8
0
100
AcDbLine
 10
0.349714499999987
 20
448.3930099999999
 30
0.0
 11
0.6974474999999871
 21
448.3000099999999
 31
0.0
  0
LINE
  5
AB
330
1E
100
AcDbEntity
  8
0
100
AcDbLine
 10
0.187573499999987
 20
448.7160099999999
 30
0.0
 11
0.5353074999999871
 21
448.6220099999999
 31
0.0
  0
LINE
  5
AC
330
1E
100
AcDbEntity
  8
0
100
AcDbLine
 10
0.187573499999987
 20
448.7160099999999
 30
0.0
 11
0.349714499999987
 21
448.3930099999999
 31
0.0
  0
LINE
  5
AD
330
1E
100
AcDbEntity
  8
0
100
AcDbLine
 10
0.187573499999987
 20
448.7160099999999
 30
0.0
 11
2.118766499999989
 21
455.9230099999999
 31
0.0
  0
LINE
  5
AE
330
1E
100
AcDbEntity
  8
0
100
AcDbLine
 10
3.13157649999999
 20
447.6480099999999
 30
0.0
 11
5.10206649999999
 21
447.1200099999999
 31
0.0
  0
LINE
  5
AF
330
1E
100
AcDbEntity
  8
0
100
AcDbLine
 10
3.13157649999999
 20
447.6480099999999
 30
0.0
 11
3.74516750868495
 21
447.4835960458129
 31
0.0
  0
LINE
  5
B0
330
1E
100
AcDbEntity
  8
0
100
AcDbLine
 10
3.06749649999999
 20
447.6650099999999
 30
0.0
 11
3.74516750868495
 21
447.4835960458129
 31
0.0
  0
LINE
  5
B1
330
1E
100
AcDbEntity
  8
0
100
AcDbLine
 10
3.00807649999999
 20
447.9600099999999
 30
0.0
 11
5.05583649999999
 21
447.4110099999999
 31
0.0
  0
LINE
  5
B2
330
1E
100
AcDbEntity
  8
0
100
AcDbLine
 10
2.31360649999999
 20
447.8670099999999
 30
0.0
 11
3.06749649999999
 21
447.6650099999999
 31
0.0
  0
LINE
  5
B3
330
1E
100
AcDbEntity
  8
0
100
AcDbLine
 10
2.049746499999989
 20
447.9380099999999
 30
0.0
 11
2.31360649999999
 21
447.8670099999999
 31
0.0
  0
LINE
  5
B4
330
1E
100
AcDbEntity
  8
0
100
AcDbLine
 10
2.044096499999989
 20
447.1630099999999
 30
0.0
 11
2.30796649999999
 21
447.0920099999999
 31
0.0
  0
LINE
  5
B5
330
1E
100
AcDbEntity
  8
0
100
AcDbLine
 10
2.044096499999989
 20
447.1630099999999
 30
0.0
 11
2.049746499999989
 21
447.9380099999999
 31
0.0
  0
LINE
  5
B6
330
1E
100
AcDbEntity
  8
0
100
AcDbLine
 10
2.044096499999989
 20
447.1630099999999
 30
0.0
 11
2.54481649999999
 21
446.77001
 31
0.0
  0
LINE
  5
B7
330
1E
100
AcDbEntity
  8
0
100
AcDbLine
 10
7.29365649999999
 20
446.18101
 30
0.0
 11
8.328536499999991
 21
445.40701
 31
0.0
  0
LINE
  5
B8
330
1E
100
AcDbEntity
  8
0
100
AcDbLine
 10
6.47682649999999
 20
447.2280099999999
 30
0.0
 11
7.29365649999999
 21
446.18101
 31
0.0
  0
LINE
  5
B9
330
1E
100
AcDbEntity
  8
0
100
AcDbLine
 10
5.10206649999999
 20
447.1200099999999
 30
0.0
 11
6.94631761596567
 21
446.6262235837129
 31
0.0
  0
LINE
  5
BA
330
1E
100
AcDbEntity
  8
0
100
AcDbLine
 10
5.97843649999999
 20
448.45901
 30
0.0
 11
6.47682649999999
 21
447.2280099999999
 31
0.0
  0
LINE
  5
BB
330
1E
100
AcDbEntity
  8
0
100
AcDbLine
 10
5.82537649999999
 20
449.7420099999999
 30
0.0
 11
5.97843649999999
 21
448.45901
 31
0.0
  0
LINE
  5
BC
330
1E
100
AcDbEntity
  8
0
100
AcDbLine
 10
5.82537649999999
 20
449.7420099999999
 30
0.0
 11
5.98279649999999
 21
451.0250099999999
 31
0.0
  0
LINE
  5
BD
330
1E
100
AcDbEntity
  8
0
100
AcDbLine
 10
5.98279649999999
 20
451.0250099999999
 30
0.0
 11
6.48795649999999
 21
452.2150099999999
 31
0.0
  0
LINE
  5
BE
330
1E
100
AcDbEntity
  8
0
100
AcDbLine
 10
6.48795649999999
 20
452.2150099999999
 30
0.0
 11
7.26217649999999
 21
453.25001
 31
0.0
  0
LINE
  5
BF
330
1E
100
AcDbEntity
  8
0
100
AcDbLine
 10
6.81957649999999
 20
449.7390099999999
 30
0.0
 11
6.94872649999999
 21
450.7660099999999
 31
0.0
  0
LINE
  5
C0
330
1E
100
AcDbEntity
  8
0
100
AcDbLine
 10
6.81957649999999
 20
449.7390099999999
 30
0.0
 11
6.95292649999999
 21
448.7090099999999
 31
0.0
  0
LINE
  5
C1
330
1E
100
AcDbEntity
  8
0
100
AcDbLine
 10
7.35432649999999
 20
447.7340099999999
 30
0.0
 11
7.99776649999999
 21
446.89901
 31
0.0
  0
LINE
  5
C2
330
1E
100
AcDbEntity
  8
0
100
AcDbLine
 10
6.95292649999999
 20
448.7090099999999
 30
0.0
 11
7.35432649999999
 21
447.7340099999999
 31
0.0
  0
LINE
  5
C3
330
1E
100
AcDbEntity
  8
0
100
AcDbLine
 10
7.35060649999999
 20
451.7210099999999
 30
0.0
 11
7.98089649999999
 21
452.54601
 31
0.0
  0
LINE
  5
C4
330
1E
100
AcDbEntity
  8
0
100
AcDbLine
 10
6.94872649999999
 20
450.7660099999999
 30
0.0
 11
7.35060649999999
 21
451.7210099999999
 31
0.0
  0
LINE
  5
C5
330
1E
100
AcDbEntity
  8
0
100
AcDbLine
 10
5.05583649999999
 20
447.4110099999999
 30
0.0
 11
6.67176558389814
 21
446.978140111723
 31
0.0
  0
LINE
  5
C6
330
1E
100
AcDbEntity
  8
0
100
AcDbLine
 10
4.26808649999999
 20
446.5670099999999
 30
0.0
 11
5.85126649999999
 21
446.1430099999999
 31
0.0
  0
LINE
  5
C7
330
1E
100
AcDbEntity
  8
0
100
AcDbLine
 10
5.85126649999999
 20
446.1430099999999
 30
0.0
 11
7.66061649999999
 21
445.65801
 31
0.0
  0
LINE
  5
C8
330
1E
100
AcDbEntity
  8
0
100
AcDbLine
 10
10.8013265
 20
444.7440099999999
 30
0.0
 11
12.0846265
 21
444.8970099999999
 31
0.0
  0
LINE
  5
C9
330
1E
100
AcDbEntity
  8
0
100
AcDbLine
 10
17.8099265
 20
441.02601
 30
0.0
 11
22.18482649999999
 21
438.3080099999999
 31
0.0
  0
LINE
  5
CA
330
1E
100
AcDbEntity
  8
0
100
AcDbLine
 10
22.4318141398913
 20
438.210817931466
 30
0.0
 11
22.4758265
 21
438.1840099999999
 31
0.0
  0
LINE
  5
CB
330
1E
100
AcDbEntity
  8
0
100
AcDbLine
 10
23.1179265
 20
442.3740099999999
 30
0.0
 11
27.7833265
 21
441.02601
 31
0.0
  0
LINE
  5
CC
330
1E
100
AcDbEntity
  8
0
100
AcDbLine
 10
27.7833265
 20
441.02601
 30
0.0
 11
34.7296265
 21
440.0920099999999
 31
0.0
  0
LINE
  5
CD
330
1E
100
AcDbEntity
  8
0
100
AcDbLine
 10
22.18482649999999
 20
438.3080099999999
 30
0.0
 11
22.4758265
 21
438.1840099999999
 31
0.0
  0
LINE
  5
CF
330
1E
100
AcDbEntity
  8
0
100
AcDbLine
 10
22.4758265
 20
438.1840099999999
 30
0.0
 11
26.1037344088998
 21
436.76170023695
 31
0.0
  0
LINE
  5
D1
330
1E
100
AcDbEntity
  8
0
100
AcDbLine
 10
16.18013344622869
 20
443.116759510291
 30
0.0
 11
17.8099265
 21
441.02601
 31
0.0
  0
LINE
  5
D2
330
1E
100
AcDbEntity
  8
0
100
AcDbLine
 10
15.5494265
 20
443.2850099999999
 30
0.0
 11
16.18013344622869
 21
443.116759510291
 31
0.0
  0
LINE
  5
D3
330
1E
100
AcDbEntity
  8
0
100
AcDbLine
 10
14.8979265
 20
443.7190099999999
 30
0.0
 11
15.92505203874369
 21
443.443985918914
 31
0.0
  0
LINE
  5
D4
330
1E
100
AcDbEntity
  8
0
100
AcDbLine
 10
18.9708265
 20
444.7600099999999
 30
0.0
 11
23.1179265
 21
442.3740099999999
 31
0.0
  0
LINE
  5
D5
330
1E
100
AcDbEntity
  8
0
100
AcDbLine
 10
14.4522265
 20
444.6150099999999
 30
0.0
 11
15.16005728775749
 21
444.425345114978
 31
0.0
  0
LINE
  5
D6
330
1E
100
AcDbEntity
  8
0
100
AcDbLine
 10
19.71810078495989
 20
444.330071863974
 30
0.0
 11
21.4373265
 21
450.7460099999999
 31
0.0
  0
LINE
  5
D7
330
1E
100
AcDbEntity
  8
0
100
AcDbLine
 10
13.3148265
 20
444.1430099999999
 30
0.0
 11
14.8979265
 21
443.7190099999999
 31
0.0
  0
LINE
  5
D8
330
1E
100
AcDbEntity
  8
0
100
AcDbLine
 10
11.5054265
 20
444.62801
 30
0.0
 11
13.3148265
 21
444.1430099999999
 31
0.0
  0
LINE
  5
D9
330
1E
100
AcDbEntity
  8
0
100
AcDbLine
 10
12.0846265
 20
444.8970099999999
 30
0.0
 11
13.3156265
 21
445.3950099999999
 31
0.0
  0
LINE
  5
DA
330
1E
100
AcDbEntity
  8
0
100
AcDbLine
 10
8.328536499999991
 20
445.40701
 30
0.0
 11
9.518326499999989
 21
444.9010099999999
 31
0.0
  0
LINE
  5
DB
330
1E
100
AcDbEntity
  8
0
100
AcDbLine
 10
8.822746499999981
 20
446.2690099999999
 30
0.0
 11
9.777146499999989
 21
445.8670099999999
 31
0.0
  0
LINE
  5
DC
330
1E
100
AcDbEntity
  8
0
100
AcDbLine
 10
7.99776649999999
 20
446.89901
 30
0.0
 11
8.822746499999981
 21
446.2690099999999
 31
0.0
  0
LINE
  5
DD
330
1E
100
AcDbEntity
  8
0
100
AcDbLine
 10
9.777146499999989
 20
445.8670099999999
 30
0.0
 11
10.8046265
 21
445.7380099999999
 31
0.0
  0
LINE
  5
DE
330
1E
100
AcDbEntity
  8
0
100
AcDbLine
 10
10.8046265
 20
445.7380099999999
 30
0.0
 11
11.8342265
 21
445.8720099999999
 31
0.0
  0
LINE
  5
DF
330
1E
100
AcDbEntity
  8
0
100
AcDbLine
 10
11.8342265
 20
445.8720099999999
 30
0.0
 11
12.8089265
 21
446.2730099999999
 31
0.0
  0
LINE
  5
E0
330
1E
100
AcDbEntity
  8
0
100
AcDbLine
 10
8.81588649999999
 20
453.1890099999999
 30
0.0
 11
9.790626499999991
 21
453.5900099999999
 31
0.0
  0
LINE
  5
E1
330
1E
100
AcDbEntity
  8
0
100
AcDbLine
 10
7.98089649999999
 20
452.54601
 30
0.0
 11
8.81588649999999
 21
453.1890099999999
 31
0.0
  0
LINE
  5
E2
330
1E
100
AcDbEntity
  8
0
100
AcDbLine
 10
9.518326499999989
 20
444.9010099999999
 30
0.0
 11
15.5494265
 21
443.2850099999999
 31
0.0
  0
LINE
  5
E3
330
1E
100
AcDbEntity
  8
0
100
AcDbLine
 10
9.518326499999989
 20
444.9010099999999
 30
0.0
 11
10.8013265
 21
444.7440099999999
 31
0.0
  0
LINE
  5
E4
330
1E
100
AcDbEntity
  8
0
100
AcDbLine
 10
12.8089265
 20
446.2730099999999
 30
0.0
 11
13.6439265
 21
446.9160099999999
 31
0.0
  0
LINE
  5
E5
330
1E
100
AcDbEntity
  8
0
100
AcDbLine
 10
12.608090049197
 20
445.1087767323319
 30
0.0
 11
14.4522265
 21
444.6150099999999
 31
0.0
  0
LINE
  5
E8
330
1E
100
AcDbEntity
  8
0
100
AcDbLine
 10
13.99246752039569
 20
445.923165791464
 30
0.0
 11
17.8099265
 21
441.02601
 31
0.0
  0
LINE
  5
E9
330
1E
100
AcDbEntity
  8
0
100
AcDbLine
 10
13.6439265
 20
446.9160099999999
 30
0.0
 11
14.2742265
 21
447.7410099999999
 31
0.0
  0
LINE
  5
EB
330
1E
100
AcDbEntity
  8
0
100
AcDbLine
 10
14.2742265
 20
447.7410099999999
 30
0.0
 11
14.6761265
 21
448.6960099999999
 31
0.0
  0
LINE
  5
ED
330
1E
100
AcDbEntity
  8
0
100
AcDbLine
 10
13.99246752039591
 20
445.9231657914641
 30
0.0
 11
17.8099265
 21
441.02601
 31
0.0
  0
LINE
  5
EE
330
1E
100
AcDbEntity
  8
0
100
AcDbLine
 10
15.50475045889549
 20
448.1135918869249
 30
0.0
 11
18.9708265
 21
444.7600099999999
 31
0.0
  0
LINE
  5
EF
330
1E
100
AcDbEntity
  8
0
100
AcDbLine
 10
15.50475045889549
 20
448.1135918869249
 30
0.0
 11
15.6420265
 21
448.4370099999999
 31
0.0
  0
LINE
  5
F0
330
1E
100
AcDbEntity
  8
0
100
AcDbLine
 10
14.6719265
 20
450.7530099999999
 30
0.0
 11
14.8052265
 21
449.72301
 31
0.0
  0
LINE
  5
F1
330
1E
100
AcDbEntity
  8
0
100
AcDbLine
 10
15.6464265
 20
451.0030099999999
 30
0.0
 11
15.7995265
 21
449.7200099999999
 31
0.0
  0
LINE
  5
F2
330
1E
100
AcDbEntity
  8
0
100
AcDbLine
 10
15.6420265
 20
448.4370099999999
 30
0.0
 11
15.7995265
 21
449.7200099999999
 31
0.0
  0
LINE
  5
F3
330
1E
100
AcDbEntity
  8
0
100
AcDbLine
 10
14.6761265
 20
448.6960099999999
 30
0.0
 11
14.8052265
 21
449.72301
 31
0.0
  0
LINE
  5
F4
330
1E
100
AcDbEntity
  8
0
100
AcDbLine
 10
15.50475045889536
 20
448.1135918869246
 30
0.0
 11
18.9708265
 21
444.7600099999999
 31
0.0
  0
LINE
  5
F5
330
1E
100
AcDbEntity
  8
0
100
AcDbLine
 10
13.022943385285
 20
445.2766052955909
 30
0.0
 11
14.6378265
 21
444.84401
 31
0.0
  0
LINE
  5
F6
330
1E
100
AcDbEntity
  8
0
100
AcDbLine
 10
14.6378265
 20
444.84401
 30
0.0
 11
14.8854460170571
 21
444.777625043039
 31
0.0
  0
LINE
  5
F7
330
1E
100
AcDbEntity
  8
0
100
AcDbLine
 10
18.6167265
 20
451.50201
 30
0.0
 11
20.1622265
 21
451.0880099999999
 31
0.0
  0
LINE
  5
F8
330
1E
100
AcDbEntity
  8
0
100
AcDbLine
 10
14.2705265
 20
451.7280099999999
 30
0.0
 11
14.6719265
 21
450.7530099999999
 31
0.0
  0
LINE
  5
F9
330
1E
100
AcDbEntity
  8
0
100
AcDbLine
 10
18.4932265
 20
451.8140099999999
 30
0.0
 11
20.00012649999999
 21
451.4100099999999
 31
0.0
  0
LINE
  5
FA
330
1E
100
AcDbEntity
  8
0
100
AcDbLine
 10
17.87670197157049
 20
451.979217547204
 30
0.0
 11
18.5573265
 21
451.7970099999999
 31
0.0
  0
LINE
  5
FB
330
1E
100
AcDbEntity
  8
0
100
AcDbLine
 10
17.87670197157049
 20
451.979217547204
 30
0.0
 11
18.4932265
 21
451.8140099999999
 31
0.0
  0
LINE
  5
FC
330
1E
100
AcDbEntity
  8
0
100
AcDbLine
 10
13.6271265
 20
452.5630099999999
 30
0.0
 11
14.2705265
 21
451.7280099999999
 31
0.0
  0
LINE
  5
FD
330
1E
100
AcDbEntity
  8
0
100
AcDbLine
 10
12.8021265
 20
453.1930099999999
 30
0.0
 11
13.6271265
 21
452.5630099999999
 31
0.0
  0
LINE
  5
FE
330
1E
100
AcDbEntity
  8
0
100
AcDbLine
 10
14.67855748299959
 20
452.835790191968
 30
0.0
 11
16.5228265
 21
452.34201
 31
0.0
  0
LINE
  5
FF
330
1E
100
AcDbEntity
  8
0
100
AcDbLine
 10
15.1480265
 20
452.23401
 30
0.0
 11
15.6464265
 21
451.0030099999999
 31
0.0
  0
LINE
  5
100
330
1E
100
AcDbEntity
  8
0
100
AcDbLine
 10
16.5228265
 20
452.34201
 30
0.0
 11
18.4932265
 21
451.8140099999999
 31
0.0
  0
LINE
  5
101
330
1E
100
AcDbEntity
  8
0
100
AcDbLine
 10
14.9530883005539
 20
452.4838879319539
 30
0.0
 11
16.5690265
 21
452.05101
 31
0.0
  0
LINE
  5
102
330
1E
100
AcDbEntity
  8
0
100
AcDbLine
 10
16.5690265
 20
452.05101
 30
0.0
 11
18.6167265
 21
451.50201
 31
0.0
  0
LINE
  5
103
330
1E
100
AcDbEntity
  8
0
100
AcDbLine
 10
18.1376265
 20
452.94501
 30
0.0
 11
18.8161265
 21
452.7630099999999
 31
0.0
  0
LINE
  5
104
330
1E
100
AcDbEntity
  8
0
100
AcDbLine
 10
17.3567265
 20
452.8950099999999
 30
0.0
 11
18.5629265
 21
452.57201
 31
0.0
  0
LINE
  5
105
330
1E
100
AcDbEntity
  8
0
100
AcDbLine
 10
17.87670197157049
 20
451.979217547204
 30
0.0
 11
18.5573265
 21
451.7970099999999
 31
0.0
  0
LINE
  5
106
330
1E
100
AcDbEntity
  8
0
100
AcDbLine
 10
19.0800265
 20
452.6920099999999
 30
0.0
 11
19.5807265
 21
452.2990099999999
 31
0.0
  0
LINE
  5
107
330
1E
100
AcDbEntity
  8
0
100
AcDbLine
 10
18.8161265
 20
452.7630099999999
 30
0.0
 11
19.0800265
 21
452.6920099999999
 31
0.0
  0
LINE
  5
108
330
1E
100
AcDbEntity
  8
0
100
AcDbLine
 10
18.5629265
 20
452.57201
 30
0.0
 11
19.3169265
 21
452.37001
 31
0.0
  0
LINE
  5
109
330
1E
100
AcDbEntity
  8
0
100
AcDbLine
 10
18.5573265
 20
451.7970099999999
 30
0.0
 11
19.3112265
 21
451.5950099999999
 31
0.0
  0
LINE
  5
10A
330
1E
100
AcDbEntity
  8
0
100
AcDbLine
 10
19.3169265
 20
452.37001
 30
0.0
 11
19.5807265
 21
452.2990099999999
 31
0.0
  0
LINE
  5
10B
330
1E
100
AcDbEntity
  8
0
100
AcDbLine
 10
19.3112265
 20
451.5950099999999
 30
0.0
 11
19.57512649999999
 21
451.5240099999999
 31
0.0
  0
LINE
  5
10C
330
1E
100
AcDbEntity
  8
0
100
AcDbLine
 10
20.00012649999999
 20
451.4100099999999
 30
0.0
 11
20.9274265
 21
451.16201
 31
0.0
  0
LINE
  5
10D
330
1E
100
AcDbEntity
  8
0
100
AcDbLine
 10
20.9274265
 20
451.16201
 30
0.0
 11
21.2751265
 21
451.0690099999999
 31
0.0
  0
LINE
  5
10E
330
1E
100
AcDbEntity
  8
0
100
AcDbLine
 10
21.2751265
 20
451.0690099999999
 30
0.0
 11
21.4373265
 21
450.7460099999999
 31
0.0
  0
LINE
  5
10F
330
1E
100
AcDbEntity
  8
0
100
AcDbLine
 10
20.1622265
 20
451.0880099999999
 30
0.0
 11
21.0895265
 21
450.8400099999999
 31
0.0
  0
LINE
  5
110
330
1E
100
AcDbEntity
  8
0
100
AcDbLine
 10
21.0895265
 20
450.8400099999999
 30
0.0
 11
21.4373265
 21
450.7460099999999
 31
0.0
  0
LINE
  5
111
330
1E
100
AcDbEntity
  8
0
100
AcDbLine
 10
19.57512649999999
 20
451.5240099999999
 30
0.0
 11
19.5807265
 21
452.2990099999999
 31
0.0
  0
LINE
  5
112
330
1E
100
AcDbEntity
  8
0
100
AcDbLine
 10
13.6220265
 20
444.8370099999999
 30
0.0
 11
15.16022681975919
 21
444.425127634023
 31
0.0
  0
LINE
  5
113
330
1E
100
AcDbEntity
  8
0
100
AcDbLine
 10
12.6080242100979
 20
445.1087500971799
 30
0.0
 11
13.6220265
 21
444.8370099999999
 31
0.0
  0
LINE
  5
114
330
1E
100
AcDbEntity
  8
0
100
AcDbLine
 10
10.9889309584855
 20
444.7663769306849
 30
0.0
 11
11.5054265
 21
444.62801
 31
0.0
  0
LINE
  5
115
330
1E
100
AcDbEntity
  8
0
100
AcDbLine
 10
7.66061649999999
 20
445.65801
 30
0.0
 11
8.178397531128899
 21
445.5193008568199
 31
0.0
  0
LINE
  5
116
330
1E
100
AcDbEntity
  8
0
100
AcDbLine
 10
25.9319265
 20
436.6110099999999
 30
0.0
 11
26.1037344088998
 21
436.76170023695
 31
0.0
  0
LINE
  5
117
330
1E
100
AcDbEntity
  8
0
100
AcDbLine
 10
33.8932265
 20
434.8810099999999
 30
0.0
 11
41.3407265
 21
434.7590099999999
 31
0.0
  0
LINE
  5
119
330
1E
100
AcDbEntity
  8
0
100
AcDbLine
 10
34.7296265
 20
440.0920099999999
 30
0.0
 11
41.2612265
 21
439.6780099999999
 31
0.0
  0
LINE
  5
11A
330
1E
100
AcDbEntity
  8
0
100
AcDbLine
 10
41.3407265
 20
434.7590099999999
 30
0.0
 11
50.0091265
 21
434.7590099999999
 31
0.0
  0
LINE
  5
11D
330
1E
100
AcDbEntity
  8
0
100
AcDbLine
 10
41.2612265
 20
439.6780099999999
 30
0.0
 11
49.5553265
 21
439.8850099999999
 31
0.0
  0
LINE
  5
11E
330
1E
100
AcDbEntity
  8
0
100
AcDbLine
 10
50.0091265
 20
434.7590099999999
 30
0.0
 11
60.02042649999999
 21
434.8810099999999
 31
0.0
  0
LINE
  5
11F
330
1E
100
AcDbEntity
  8
0
100
AcDbLine
 10
49.5553265
 20
439.8850099999999
 30
0.0
 11
60.13022649999999
 21
440.3000099999999
 31
0.0
  0
LINE
  5
120
330
1E
100
AcDbEntity
  8
0
100
AcDbLine
 10
41.0176265
 20
446.6910099999999
 30
0.0
 11
46.7773265
 21
448.64701
 31
0.0
  0
LINE
  5
121
330
1E
100
AcDbEntity
  8
0
100
AcDbLine
 10
35.5624265
 20
444.0010099999999
 30
0.0
 11
41.0176265
 21
446.6910099999999
 31
0.0
  0
LINE
  5
122
330
1E
100
AcDbEntity
  8
0
100
AcDbLine
 10
52.7429265
 20
449.8330099999999
 30
0.0
 11
58.8124265
 21
450.2310099999999
 31
0.0
  0
LINE
  5
123
330
1E
100
AcDbEntity
  8
0
100
AcDbLine
 10
46.7773265
 20
448.64701
 30
0.0
 11
52.7429265
 21
449.8330099999999
 31
0.0
  0
LINE
  5
124
330
1E
100
AcDbEntity
  8
0
100
AcDbLine
 10
30.5524230836668
 20
440.6536770732409
 30
0.0
 11
35.5624265
 21
444.0010099999999
 31
0.0
  0
LINE
  5
125
330
1E
100
AcDbEntity
  8
0
100
AcDbLine
 10
58.8124265
 20
425.2310099999999
 30
0.0
 11
84.42909316666662
 21
425.2310099999999
 31
0.0
  0
LINE
  5
126
330
1E
100
AcDbEntity
  8
0
100
AcDbLine
 10
60.02042649999999
 20
434.8810099999999
 30
0.0
 11
76.05750958434859
 21
435.9664117926899
 31
0.0
  0
LINE
  5
127
330
1E
100
AcDbEntity
  8
0
100
AcDbLine
 10
60.02042649999999
 20
434.8810099999999
 30
0.0
 11
76.05750958434859
 21
435.9664117926899
 31
0.0
  0
LINE
  5
129
330
1E
100
AcDbEntity
  8
0
100
AcDbLine
 10
77.9124265
 20
430.8810099999999
 30
0.0
 11
80.11242649999999
 21
428.03101
 31
0.0
  0
LINE
  5
12B
330
1E
100
AcDbEntity
  8
0
100
AcDbLine
 10
76.5624265
 20
434.18101
 30
0.0
 11
77.9124265
 21
430.8810099999999
 31
0.0
  0
LINE
  5
12D
330
1E
100
AcDbEntity
  8
0
100
AcDbLine
 10
79.3929265
 20
431.7600099999999
 30
0.0
 11
81.3246265
 21
429.2430099999999
 31
0.0
  0
LINE
  5
12F
330
1E
100
AcDbEntity
  8
0
100
AcDbLine
 10
80.11242649999999
 20
428.03101
 30
0.0
 11
82.96242650000001
 21
425.8310099999999
 31
0.0
  0
LINE
  5
131
330
1E
100
AcDbEntity
  8
0
100
AcDbLine
 10
82.96242650000001
 20
425.8310099999999
 30
0.0
 11
86.2624265
 21
424.4810099999999
 31
0.0
  0
LINE
  5
133
330
1E
100
AcDbEntity
  8
0
100
AcDbLine
 10
81.3246265
 20
429.2430099999999
 30
0.0
 11
83.84172650000001
 21
427.3110099999999
 31
0.0
  0
LINE
  5
134
330
1E
100
AcDbEntity
  8
0
100
AcDbLine
 10
81.1295265
 20
432.7550099999999
 30
0.0
 11
82.73922650000001
 21
430.6580099999999
 31
0.0
  0
LINE
  5
135
330
1E
100
AcDbEntity
  8
0
100
AcDbLine
 10
82.73922650000001
 20
430.6580099999999
 30
0.0
 11
84.8368265
 21
429.0480099999999
 31
0.0
  0
LINE
  5
136
330
1E
100
AcDbEntity
  8
0
100
AcDbLine
 10
82.93442650000001
 20
430.8530099999999
 30
0.0
 11
84.9831265
 21
429.2920099999999
 31
0.0
  0
LINE
  5
137
330
1E
100
AcDbEntity
  8
0
100
AcDbLine
 10
81.3734265
 20
432.90201
 30
0.0
 11
82.93442650000001
 21
430.8530099999999
 31
0.0
  0
LINE
  5
138
330
1E
100
AcDbEntity
  8
0
100
AcDbLine
 10
81.5587265
 20
429.47701
 30
0.0
 11
84.01732649999999
 21
427.6040099999999
 31
0.0
  0
LINE
  5
139
330
1E
100
AcDbEntity
  8
0
100
AcDbLine
 10
79.68562649999999
 20
431.9360099999999
 30
0.0
 11
81.5587265
 21
429.47701
 31
0.0
  0
LINE
  5
13A
330
1E
100
AcDbEntity
  8
0
100
AcDbLine
 10
78.5148265
 20
434.7460099999999
 30
0.0
 11
79.68562649999999
 21
431.9360099999999
 31
0.0
  0
LINE
  5
13B
330
1E
100
AcDbEntity
  8
0
100
AcDbLine
 10
78.2222265
 20
434.6290099999999
 30
0.0
 11
79.3929265
 21
431.7600099999999
 31
0.0
  0
LINE
  5
13C
330
1E
100
AcDbEntity
  8
0
100
AcDbLine
 10
76.5624265
 20
441.2810099999999
 30
0.0
 11
77.9124265
 21
444.5810099999999
 31
0.0
  0
LINE
  5
140
330
1E
100
AcDbEntity
  8
0
100
AcDbLine
 10
76.0624265
 20
437.7310099999999
 30
0.0
 11
76.5624265
 21
434.18101
 31
0.0
  0
LINE
  5
141
330
1E
100
AcDbEntity
  8
0
100
AcDbLine
 10
76.0624265
 20
437.7310099999999
 30
0.0
 11
76.5624265
 21
441.2810099999999
 31
0.0
  0
LINE
  5
142
330
1E
100
AcDbEntity
  8
0
100
AcDbLine
 10
80.39782650000001
 20
435.2430099999999
 30
0.0
 11
81.3734265
 21
432.90201
 31
0.0
  0
LINE
  5
143
330
1E
100
AcDbEntity
  8
0
100
AcDbLine
 10
80.1539265
 20
435.1460099999999
 30
0.0
 11
81.1295265
 21
432.7550099999999
 31
0.0
  0
LINE
  5
144
330
1E
100
AcDbEntity
  8
0
100
AcDbLine
 10
80.0563265
 20
437.7310099999999
 30
0.0
 11
80.39782650000001
 21
435.2430099999999
 31
0.0
  0
LINE
  5
145
330
1E
100
AcDbEntity
  8
0
100
AcDbLine
 10
80.0563265
 20
437.7310099999999
 30
0.0
 11
80.39782650000001
 21
440.2190099999999
 31
0.0
  0
LINE
  5
146
330
1E
100
AcDbEntity
  8
0
100
AcDbLine
 10
79.8124265
 20
437.7310099999999
 30
0.0
 11
80.1539265
 21
435.1460099999999
 31
0.0
  0
LINE
  5
147
330
1E
100
AcDbEntity
  8
0
100
AcDbLine
 10
79.8124265
 20
437.7310099999999
 30
0.0
 11
80.1539265
 21
440.31601
 31
0.0
  0
LINE
  5
149
330
1E
100
AcDbEntity
  8
0
100
AcDbLine
 10
77.9124265
 20
444.5810099999999
 30
0.0
 11
80.11242649999999
 21
447.4310099999999
 31
0.0
  0
LINE
  5
14A
330
1E
100
AcDbEntity
  8
0
100
AcDbLine
 10
78.2222265
 20
440.8330099999999
 30
0.0
 11
79.3929265
 21
443.7020099999999
 31
0.0
  0
LINE
  5
14B
330
1E
100
AcDbEntity
  8
0
100
AcDbLine
 10
80.1539265
 20
440.31601
 30
0.0
 11
81.1295265
 21
442.7070099999999
 31
0.0
  0
LINE
  5
14C
330
1E
100
AcDbEntity
  8
0
100
AcDbLine
 10
81.1295265
 20
442.7070099999999
 30
0.0
 11
82.73922650000001
 21
444.8040099999999
 31
0.0
  0
LINE
  5
14D
330
1E
100
AcDbEntity
  8
0
100
AcDbLine
 10
81.3734265
 20
442.5600099999999
 30
0.0
 11
82.93442650000001
 21
444.6090099999999
 31
0.0
  0
LINE
  5
14E
330
1E
100
AcDbEntity
  8
0
100
AcDbLine
 10
80.39782650000001
 20
440.2190099999999
 30
0.0
 11
81.3734265
 21
442.5600099999999
 31
0.0
  0
LINE
  5
14F
330
1E
100
AcDbEntity
  8
0
100
AcDbLine
 10
79.3929265
 20
443.7020099999999
 30
0.0
 11
81.3246265
 21
446.2190099999999
 31
0.0
  0
LINE
  5
150
330
1E
100
AcDbEntity
  8
0
100
AcDbLine
 10
79.68562649999999
 20
443.5260099999999
 30
0.0
 11
81.5587265
 21
445.9850099999999
 31
0.0
  0
LINE
  5
151
330
1E
100
AcDbEntity
  8
0
100
AcDbLine
 10
78.5148265
 20
440.7160099999999
 30
0.0
 11
79.68562649999999
 21
443.5260099999999
 31
0.0
  0
LINE
  5
154
330
1E
100
AcDbEntity
  8
0
100
AcDbLine
 10
80.11242649999999
 20
447.4310099999999
 30
0.0
 11
82.96242650000001
 21
449.6310099999999
 31
0.0
  0
LINE
  5
155
330
1E
100
AcDbEntity
  8
0
100
AcDbLine
 10
81.3246265
 20
446.2190099999999
 30
0.0
 11
83.84172650000001
 21
448.1500099999999
 31
0.0
  0
LINE
  5
156
330
1E
100
AcDbEntity
  8
0
100
AcDbLine
 10
82.96242650000001
 20
449.6310099999999
 30
0.0
 11
86.2624265
 21
450.98101
 31
0.0
  0
LINE
  5
158
330
1E
100
AcDbEntity
  8
0
100
AcDbLine
 10
82.73922650000001
 20
444.8040099999999
 30
0.0
 11
84.8368265
 21
446.4140099999999
 31
0.0
  0
LINE
  5
159
330
1E
100
AcDbEntity
  8
0
100
AcDbLine
 10
82.93442650000001
 20
444.6090099999999
 30
0.0
 11
84.9831265
 21
446.1700099999999
 31
0.0
  0
LINE
  5
15A
330
1E
100
AcDbEntity
  8
0
100
AcDbLine
 10
81.5587265
 20
445.9850099999999
 30
0.0
 11
84.01732649999999
 21
447.85801
 31
0.0
  0
LINE
  5
15B
330
1E
100
AcDbEntity
  8
0
100
AcDbLine
 10
78.10512649999999
 20
437.7310099999999
 30
0.0
 11
78.5148265
 21
434.7460099999999
 31
0.0
  0
LINE
  5
15C
330
1E
100
AcDbEntity
  8
0
100
AcDbLine
 10
78.10512649999999
 20
437.7310099999999
 30
0.0
 11
78.5148265
 21
440.7160099999999
 31
0.0
  0
LINE
  5
15D
330
1E
100
AcDbEntity
  8
0
100
AcDbLine
 10
77.8124265
 20
437.7310099999999
 30
0.0
 11
78.2222265
 21
434.6290099999999
 31
0.0
  0
LINE
  5
15E
330
1E
100
AcDbEntity
  8
0
100
AcDbLine
 10
77.8124265
 20
437.7310099999999
 30
0.0
 11
78.2222265
 21
440.8330099999999
 31
0.0
  0
LINE
  5
160
330
1E
100
AcDbEntity
  8
0
100
AcDbLine
 10
60.13022649999999
 20
440.3000099999999
 30
0.0
 11
76.5597663498735
 21
441.262122934102
 31
0.0
  0
LINE
  5
163
330
1E
100
AcDbEntity
  8
0
100
AcDbLine
 10
86.2624265
 20
424.4810099999999
 30
0.0
 11
88.25940402183011
 21
424.199745560306
 31
0.0
  0
LINE
  5
164
330
1E
100
AcDbEntity
  8
0
100
AcDbLine
 10
88.3644265
 20
425.0270099999999
 30
0.0
 11
88.6694265
 21
427.3090099999999
 31
0.0
  0
LINE
  5
165
330
1E
100
AcDbEntity
  8
0
100
AcDbLine
 10
97.1472283566085
 20
425.8739547974399
 30
0.0
 11
99.72442650000001
 21
427.8190099999999
 31
0.0
  0
LINE
  5
166
330
1E
100
AcDbEntity
  8
0
100
AcDbLine
 10
97.10709116890599
 20
426.174259919857
 30
0.0
 11
99.51242650000001
 21
428.03101
 31
0.0
  0
LINE
  5
167
330
1E
100
AcDbEntity
  8
0
100
AcDbLine
 10
86.7100265
 20
426.1410099999999
 30
0.0
 11
88.4820187073825
 21
425.906831040154
 31
0.0
  0
LINE
  5
168
330
1E
100
AcDbEntity
  8
0
100
AcDbLine
 10
83.84172650000001
 20
448.1500099999999
 30
0.0
 11
86.7100265
 21
449.3210099999999
 31
0.0
  0
LINE
  5
169
330
1E
100
AcDbEntity
  8
0
100
AcDbLine
 10
83.84172650000001
 20
427.3110099999999
 30
0.0
 11
86.7100265
 21
426.1410099999999
 31
0.0
  0
LINE
  5
16A
330
1E
100
AcDbEntity
  8
0
100
AcDbLine
 10
86.81242649999999
 20
428.73101
 30
0.0
 11
87.3124265
 21
427.2310099999999
 31
0.0
  0
LINE
  5
16B
330
1E
100
AcDbEntity
  8
0
100
AcDbLine
 10
87.3124265
 20
428.6310099999999
 30
0.0
 11
87.3124265
 21
427.6310099999999
 31
0.0
  0
LINE
  5
16C
330
1E
100
AcDbEntity
  8
0
100
AcDbLine
 10
87.3124265
 20
428.6310099999999
 30
0.0
 11
87.3124265
 21
430.3310099999999
 31
0.0
  0
LINE
  5
16D
330
1E
100
AcDbEntity
  8
0
100
AcDbLine
 10
87.3124265
 20
427.6310099999999
 30
0.0
 11
87.3124265
 21
427.2310099999999
 31
0.0
  0
LINE
  5
16E
330
1E
100
AcDbEntity
  8
0
100
AcDbLine
 10
87.3124265
 20
427.6310099999999
 30
0.0
 11
87.3124265
 21
428.6310099999999
 31
0.0
  0
LINE
  5
16F
330
1E
100
AcDbEntity
  8
0
100
AcDbLine
 10
96.98202410723672
 20
427.2398028217099
 30
0.0
 11
97.81242650000001
 21
429.7310099999999
 31
0.0
  0
LINE
  5
170
330
1E
100
AcDbEntity
  8
0
100
AcDbLine
 10
88.6694265
 20
427.3090099999999
 30
0.0
 11
88.8124265
 21
429.2310099999999
 31
0.0
  0
LINE
  5
171
330
1E
100
AcDbEntity
  8
0
100
AcDbLine
 10
96.9554265
 20
427.3090099999999
 30
0.0
 11
97.26042650000001
 21
425.0270099999999
 31
0.0
  0
LINE
  5
172
330
1E
100
AcDbEntity
  8
0
100
AcDbLine
 10
87.3124265
 20
427.2310099999999
 30
0.0
 11
88.5962289798512
 21
426.80307584005
 31
0.0
  0
LINE
  5
173
330
1E
100
AcDbEntity
  8
0
100
AcDbLine
 10
87.3124265
 20
427.2310099999999
 30
0.0
 11
87.3124265
 21
427.6310099999999
 31
0.0
  0
LINE
  5
174
330
1E
100
AcDbEntity
  8
0
100
AcDbLine
 10
96.81242650000001
 20
429.2310099999999
 30
0.0
 11
96.9554265
 21
431.7310099999999
 31
0.0
  0
LINE
  5
175
330
1E
100
AcDbEntity
  8
0
100
AcDbLine
 10
96.81242650000001
 20
429.2310099999999
 30
0.0
 11
96.9554265
 21
427.3090099999999
 31
0.0
  0
LINE
  5
176
330
1E
100
AcDbEntity
  8
0
100
AcDbLine
 10
84.8368265
 20
429.0480099999999
 30
0.0
 11
87.0013801370387
 21
428.1641490888839
 31
0.0
  0
LINE
  5
177
330
1E
100
AcDbEntity
  8
0
100
AcDbLine
 10
84.8368265
 20
446.4140099999999
 30
0.0
 11
87.0013801370387
 21
447.297870911116
 31
0.0
  0
LINE
  5
178
330
1E
100
AcDbEntity
  8
0
100
AcDbLine
 10
86.81242649999999
 20
429.9310099999999
 30
0.0
 11
86.81242649999999
 21
431.3310099999999
 31
0.0
  0
LINE
  5
179
330
1E
100
AcDbEntity
  8
0
100
AcDbLine
 10
86.81242649999999
 20
431.3310099999999
 30
0.0
 11
86.81242649999999
 21
433.2310099999999
 31
0.0
  0
LINE
  5
17A
330
1E
100
AcDbEntity
  8
0
100
AcDbLine
 10
86.81242649999999
 20
431.3310099999999
 30
0.0
 11
86.81242649999999
 21
428.73101
 31
0.0
  0
LINE
  5
17B
330
1E
100
AcDbEntity
  8
0
100
AcDbLine
 10
86.81242649999999
 20
433.2310099999999
 30
0.0
 11
86.81242649999999
 21
431.3310099999999
 31
0.0
  0
LINE
  5
17C
330
1E
100
AcDbEntity
  8
0
100
AcDbLine
 10
86.81242649999999
 20
433.2310099999999
 30
0.0
 11
86.81242649999999
 21
435.4310099999999
 31
0.0
  0
LINE
  5
17D
330
1E
100
AcDbEntity
  8
0
100
AcDbLine
 10
86.81242649999999
 20
435.4310099999999
 30
0.0
 11
86.81242649999999
 21
433.2310099999999
 31
0.0
  0
LINE
  5
17E
330
1E
100
AcDbEntity
  8
0
100
AcDbLine
 10
86.81242649999999
 20
435.4310099999999
 30
0.0
 11
86.81242649999999
 21
437.7310099999999
 31
0.0
  0
LINE
  5
17F
330
1E
100
AcDbEntity
  8
0
100
AcDbLine
 10
86.90442649999999
 20
436.9310099999999
 30
0.0
 11
86.9234265
 21
437.7310099999999
 31
0.0
  0
LINE
  5
180
330
1E
100
AcDbEntity
  8
0
100
AcDbLine
 10
86.90442649999999
 20
436.9310099999999
 30
0.0
 11
87.2884265
 21
436.9310099999999
 31
0.0
  0
LINE
  5
181
330
1E
100
AcDbEntity
  8
0
100
AcDbLine
 10
86.90442649999999
 20
436.9310099999999
 30
0.0
 11
87.4034265
 21
436.4310099999999
 31
0.0
  0
LINE
  5
182
330
1E
100
AcDbEntity
  8
0
100
AcDbLine
 10
87.3124265
 20
430.3310099999999
 30
0.0
 11
87.3124265
 21
432.53101
 31
0.0
  0
LINE
  5
183
330
1E
100
AcDbEntity
  8
0
100
AcDbLine
 10
87.3124265
 20
430.3310099999999
 30
0.0
 11
87.3124265
 21
428.6310099999999
 31
0.0
  0
LINE
  5
184
330
1E
100
AcDbEntity
  8
0
100
AcDbLine
 10
87.3124265
 20
432.53101
 30
0.0
 11
87.3124265
 21
430.3310099999999
 31
0.0
  0
LINE
  5
185
330
1E
100
AcDbEntity
  8
0
100
AcDbLine
 10
87.3124265
 20
432.53101
 30
0.0
 11
87.3124265
 21
435.0310099999999
 31
0.0
  0
LINE
  5
186
330
1E
100
AcDbEntity
  8
0
100
AcDbLine
 10
87.3124265
 20
435.0310099999999
 30
0.0
 11
87.3124265
 21
432.53101
 31
0.0
  0
LINE
  5
187
330
1E
100
AcDbEntity
  8
0
100
AcDbLine
 10
87.3124265
 20
435.0310099999999
 30
0.0
 11
87.3124265
 21
436.5221923647299
 31
0.0
  0
LINE
  5
188
330
1E
100
AcDbEntity
  8
0
100
AcDbLine
 10
87.64109157429729
 20
436.35578482407
 30
0.0
 11
88.0294265
 21
435.5850099999999
 31
0.0
  0
LINE
  5
18B
330
1E
100
AcDbEntity
  8
0
100
AcDbLine
 10
87.4034265
 20
436.4310099999999
 30
0.0
 11
89.8634265
 21
435.93101
 31
0.0
  0
LINE
  5
18C
330
1E
100
AcDbEntity
  8
0
100
AcDbLine
 10
88.6694265
 20
431.7310099999999
 30
0.0
 11
88.8124265
 21
429.2310099999999
 31
0.0
  0
LINE
  5
18D
330
1E
100
AcDbEntity
  8
0
100
AcDbLine
 10
88.3644265
 20
433.7410099999999
 30
0.0
 11
88.6694265
 21
431.7310099999999
 31
0.0
  0
LINE
  5
18E
330
1E
100
AcDbEntity
  8
0
100
AcDbLine
 10
88.0294265
 20
435.5850099999999
 30
0.0
 11
88.3644265
 21
433.7410099999999
 31
0.0
  0
LINE
  5
190
330
1E
100
AcDbEntity
  8
0
100
AcDbLine
 10
87.3124265
 20
436.5221923647299
 30
0.0
 11
87.3124265
 21
435.0310099999999
 31
0.0
  0
LINE
  5
192
330
1E
100
AcDbEntity
  8
0
100
AcDbLine
 10
87.2884265
 20
436.9310099999999
 30
0.0
 11
87.9994265
 21
436.9310099999999
 31
0.0
  0
LINE
  5
193
330
1E
100
AcDbEntity
  8
0
100
AcDbLine
 10
87.9994265
 20
436.9310099999999
 30
0.0
 11
88.7684265
 21
436.9310099999999
 31
0.0
  0
LINE
  5
194
330
1E
100
AcDbEntity
  8
0
100
AcDbLine
 10
96.9554265
 20
431.7310099999999
 30
0.0
 11
97.26042650000001
 21
433.7410099999999
 31
0.0
  0
LINE
  5
195
330
1E
100
AcDbEntity
  8
0
100
AcDbLine
 10
95.76142649999999
 20
435.93101
 30
0.0
 11
98.22142650000001
 21
436.4310099999999
 31
0.0
  0
LINE
  5
197
330
1E
100
AcDbEntity
  8
0
100
AcDbLine
 10
92.81242650000001
 20
435.7310099999999
 30
0.0
 11
95.76142649999999
 21
435.93101
 31
0.0
  0
LINE
  5
19A
330
1E
100
AcDbEntity
  8
0
100
AcDbLine
 10
96.8564265
 20
436.9310099999999
 30
0.0
 11
97.6254265
 21
436.9310099999999
 31
0.0
  0
LINE
  5
19B
330
1E
100
AcDbEntity
  8
0
100
AcDbLine
 10
95.7414265
 20
436.9310099999999
 30
0.0
 11
96.8564265
 21
436.9310099999999
 31
0.0
  0
LINE
  5
19C
330
1E
100
AcDbEntity
  8
0
100
AcDbLine
 10
92.81242650000001
 20
436.9310099999999
 30
0.0
 11
95.7414265
 21
436.9310099999999
 31
0.0
  0
LINE
  5
19D
330
1E
100
AcDbEntity
  8
0
100
AcDbLine
 10
89.8634265
 20
435.93101
 30
0.0
 11
92.81242650000001
 21
435.7310099999999
 31
0.0
  0
LINE
  5
19E
330
1E
100
AcDbEntity
  8
0
100
AcDbLine
 10
88.7684265
 20
436.9310099999999
 30
0.0
 11
89.88342649999999
 21
436.9310099999999
 31
0.0
  0
LINE
  5
19F
330
1E
100
AcDbEntity
  8
0
100
AcDbLine
 10
86.81242649999999
 20
442.2310099999999
 30
0.0
 11
86.81242649999999
 21
440.0310099999999
 31
0.0
  0
LINE
  5
1A0
330
1E
100
AcDbEntity
  8
0
100
AcDbLine
 10
86.81242649999999
 20
442.2310099999999
 30
0.0
 11
86.81242649999999
 21
444.1310099999999
 31
0.0
  0
LINE
  5
1A1
330
1E
100
AcDbEntity
  8
0
100
AcDbLine
 10
86.81242649999999
 20
440.0310099999999
 30
0.0
 11
86.81242649999999
 21
437.7310099999999
 31
0.0
  0
LINE
  5
1A2
330
1E
100
AcDbEntity
  8
0
100
AcDbLine
 10
86.81242649999999
 20
440.0310099999999
 30
0.0
 11
86.81242649999999
 21
442.2310099999999
 31
0.0
  0
LINE
  5
1A3
330
1E
100
AcDbEntity
  8
0
100
AcDbLine
 10
86.81242649999999
 20
446.4310099999999
 30
0.0
 11
86.81242649999999
 21
446.7310099999999
 31
0.0
  0
LINE
  5
1A4
330
1E
100
AcDbEntity
  8
0
100
AcDbLine
 10
86.81242649999999
 20
446.4310099999999
 30
0.0
 11
86.81242649999999
 21
444.1310099999999
 31
0.0
  0
LINE
  5
1A5
330
1E
100
AcDbEntity
  8
0
100
AcDbLine
 10
86.81242649999999
 20
444.1310099999999
 30
0.0
 11
86.81242649999999
 21
446.4310099999999
 31
0.0
  0
LINE
  5
1A6
330
1E
100
AcDbEntity
  8
0
100
AcDbLine
 10
86.81242649999999
 20
444.1310099999999
 30
0.0
 11
86.81242649999999
 21
442.2310099999999
 31
0.0
  0
LINE
  5
1A7
330
1E
100
AcDbEntity
  8
0
100
AcDbLine
 10
86.81242649999999
 20
446.7310099999999
 30
0.0
 11
87.3124265
 21
448.2310099999999
 31
0.0
  0
LINE
  5
1A8
330
1E
100
AcDbEntity
  8
0
100
AcDbLine
 10
86.81242649999999
 20
446.7310099999999
 30
0.0
 11
86.81242649999999
 21
446.4310099999999
 31
0.0
  0
LINE
  5
1A9
330
1E
100
AcDbEntity
  8
0
100
AcDbLine
 10
86.90442649999999
 20
438.5310099999999
 30
0.0
 11
86.9234265
 21
437.7310099999999
 31
0.0
  0
LINE
  5
1AA
330
1E
100
AcDbEntity
  8
0
100
AcDbLine
 10
86.90442649999999
 20
438.5310099999999
 30
0.0
 11
87.2884265
 21
438.5310099999999
 31
0.0
  0
LINE
  5
1AB
330
1E
100
AcDbEntity
  8
0
100
AcDbLine
 10
86.90442649999999
 20
438.5310099999999
 30
0.0
 11
87.4034265
 21
439.0310099999999
 31
0.0
  0
LINE
  5
1AC
330
1E
100
AcDbEntity
  8
0
100
AcDbLine
 10
87.3124265
 20
438.939827635271
 30
0.0
 11
87.3124265
 21
440.43101
 31
0.0
  0
LINE
  5
1AE
330
1E
100
AcDbEntity
  8
0
100
AcDbLine
 10
87.4034265
 20
439.0310099999999
 30
0.0
 11
89.8634265
 21
439.5310099999999
 31
0.0
  0
LINE
  5
1AF
330
1E
100
AcDbEntity
  8
0
100
AcDbLine
 10
87.2884265
 20
438.5310099999999
 30
0.0
 11
87.9994265
 21
438.5310099999999
 31
0.0
  0
LINE
  5
1B0
330
1E
100
AcDbEntity
  8
0
100
AcDbLine
 10
87.9994265
 20
438.5310099999999
 30
0.0
 11
88.7684265
 21
438.5310099999999
 31
0.0
  0
LINE
  5
1B1
330
1E
100
AcDbEntity
  8
0
100
AcDbLine
 10
88.7684265
 20
438.5310099999999
 30
0.0
 11
89.88342649999999
 21
438.5310099999999
 31
0.0
  0
LINE
  5
1B4
330
1E
100
AcDbEntity
  8
0
100
AcDbLine
 10
89.88342649999999
 20
438.5310099999999
 30
0.0
 11
92.81242650000001
 21
438.5310099999999
 31
0.0
  0
LINE
  5
1B5
330
1E
100
AcDbEntity
  8
0
100
AcDbLine
 10
96.8564265
 20
438.5310099999999
 30
0.0
 11
97.6254265
 21
438.5310099999999
 31
0.0
  0
LINE
  5
1B7
330
1E
100
AcDbEntity
  8
0
100
AcDbLine
 10
95.7414265
 20
438.5310099999999
 30
0.0
 11
96.8564265
 21
438.5310099999999
 31
0.0
  0
LINE
  5
1B8
330
1E
100
AcDbEntity
  8
0
100
AcDbLine
 10
92.81242650000001
 20
438.5310099999999
 30
0.0
 11
95.7414265
 21
438.5310099999999
 31
0.0
  0
LINE
  5
1B9
330
1E
100
AcDbEntity
  8
0
100
AcDbLine
 10
89.8634265
 20
439.5310099999999
 30
0.0
 11
92.81242650000001
 21
439.7310099999999
 31
0.0
  0
LINE
  5
1BA
330
1E
100
AcDbEntity
  8
0
100
AcDbLine
 10
95.76142649999999
 20
439.5310099999999
 30
0.0
 11
98.22142650000001
 21
439.0310099999999
 31
0.0
  0
LINE
  5
1BB
330
1E
100
AcDbEntity
  8
0
100
AcDbLine
 10
87.64109157429729
 20
439.1062351759299
 30
0.0
 11
88.0294265
 21
439.87701
 31
0.0
  0
LINE
  5
1BD
330
1E
100
AcDbEntity
  8
0
100
AcDbLine
 10
87.3124265
 20
442.9310099999999
 30
0.0
 11
87.3124265
 21
440.43101
 31
0.0
  0
LINE
  5
1BE
330
1E
100
AcDbEntity
  8
0
100
AcDbLine
 10
87.3124265
 20
442.9310099999999
 30
0.0
 11
87.3124265
 21
445.1310099999999
 31
0.0
  0
LINE
  5
1BF
330
1E
100
AcDbEntity
  8
0
100
AcDbLine
 10
87.3124265
 20
440.43101
 30
0.0
 11
87.3124265
 21
438.939827635271
 31
0.0
  0
LINE
  5
1C0
330
1E
100
AcDbEntity
  8
0
100
AcDbLine
 10
87.3124265
 20
440.43101
 30
0.0
 11
87.3124265
 21
442.9310099999999
 31
0.0
  0
LINE
  5
1C1
330
1E
100
AcDbEntity
  8
0
100
AcDbLine
 10
87.3124265
 20
445.1310099999999
 30
0.0
 11
87.3124265
 21
446.8310099999999
 31
0.0
  0
LINE
  5
1C2
330
1E
100
AcDbEntity
  8
0
100
AcDbLine
 10
87.3124265
 20
445.1310099999999
 30
0.0
 11
87.3124265
 21
442.9310099999999
 31
0.0
  0
LINE
  5
1C3
330
1E
100
AcDbEntity
  8
0
100
AcDbLine
 10
87.3124265
 20
446.8310099999999
 30
0.0
 11
87.3124265
 21
445.1310099999999
 31
0.0
  0
LINE
  5
1C4
330
1E
100
AcDbEntity
  8
0
100
AcDbLine
 10
87.3124265
 20
446.8310099999999
 30
0.0
 11
87.3124265
 21
447.8310099999999
 31
0.0
  0
LINE
  5
1C5
330
1E
100
AcDbEntity
  8
0
100
AcDbLine
 10
87.3124265
 20
447.8310099999999
 30
0.0
 11
87.3124265
 21
446.8310099999999
 31
0.0
  0
LINE
  5
1C6
330
1E
100
AcDbEntity
  8
0
100
AcDbLine
 10
87.3124265
 20
447.8310099999999
 30
0.0
 11
87.3124265
 21
448.2310099999999
 31
0.0
  0
LINE
  5
1C7
330
1E
100
AcDbEntity
  8
0
100
AcDbLine
 10
87.3124265
 20
448.2310099999999
 30
0.0
 11
88.5962289798512
 21
448.65894415995
 31
0.0
  0
LINE
  5
1C8
330
1E
100
AcDbEntity
  8
0
100
AcDbLine
 10
87.3124265
 20
448.2310099999999
 30
0.0
 11
87.3124265
 21
447.8310099999999
 31
0.0
  0
LINE
  5
1C9
330
1E
100
AcDbEntity
  8
0
100
AcDbLine
 10
88.6694265
 20
448.1530099999999
 30
0.0
 11
88.8124265
 21
446.2310099999999
 31
0.0
  0
LINE
  5
1CA
330
1E
100
AcDbEntity
  8
0
100
AcDbLine
 10
88.6694265
 20
443.7310099999999
 30
0.0
 11
88.8124265
 21
446.2310099999999
 31
0.0
  0
LINE
  5
1CB
330
1E
100
AcDbEntity
  8
0
100
AcDbLine
 10
96.81242650000001
 20
446.2310099999999
 30
0.0
 11
96.9554265
 21
448.1530099999999
 31
0.0
  0
LINE
  5
1CC
330
1E
100
AcDbEntity
  8
0
100
AcDbLine
 10
96.81242650000001
 20
446.2310099999999
 30
0.0
 11
96.9554265
 21
443.7310099999999
 31
0.0
  0
LINE
  5
1CD
330
1E
100
AcDbEntity
  8
0
100
AcDbLine
 10
88.3644265
 20
441.72101
 30
0.0
 11
88.6694265
 21
443.7310099999999
 31
0.0
  0
LINE
  5
1CE
330
1E
100
AcDbEntity
  8
0
100
AcDbLine
 10
96.9554265
 20
443.7310099999999
 30
0.0
 11
97.26042650000001
 21
441.72101
 31
0.0
  0
LINE
  5
1CF
330
1E
100
AcDbEntity
  8
0
100
AcDbLine
 10
96.98202410723672
 20
448.22221717829
 30
0.0
 11
97.81242650000001
 21
445.7310099999999
 31
0.0
  0
LINE
  5
1D0
330
1E
100
AcDbEntity
  8
0
100
AcDbLine
 10
96.9554265
 20
448.1530099999999
 30
0.0
 11
97.26042650000001
 21
450.4350099999999
 31
0.0
  0
LINE
  5
1D3
330
1E
100
AcDbEntity
  8
0
100
AcDbLine
 10
92.81242650000001
 20
439.7310099999999
 30
0.0
 11
95.76142649999999
 21
439.5310099999999
 31
0.0
  0
LINE
  5
1D4
330
1E
100
AcDbEntity
  8
0
100
AcDbLine
 10
88.0294265
 20
439.87701
 30
0.0
 11
88.3644265
 21
441.72101
 31
0.0
  0
LINE
  5
1D6
330
1E
100
AcDbEntity
  8
0
100
AcDbLine
 10
86.81242649999999
 20
437.7310099999999
 30
0.0
 11
86.81242649999999
 21
435.4310099999999
 31
0.0
  0
LINE
  5
1D7
330
1E
100
AcDbEntity
  8
0
100
AcDbLine
 10
86.81242649999999
 20
437.7310099999999
 30
0.0
 11
86.81242649999999
 21
440.0310099999999
 31
0.0
  0
LINE
  5
1D8
330
1E
100
AcDbEntity
  8
0
100
AcDbLine
 10
89.88342649999999
 20
436.9310099999999
 30
0.0
 11
92.81242650000001
 21
436.9310099999999
 31
0.0
  0
LINE
  5
1D9
330
1E
100
AcDbEntity
  8
0
100
AcDbLine
 10
84.9831265
 20
446.1700099999999
 30
0.0
 11
86.89043184016702
 21
446.965026020501
 31
0.0
  0
LINE
  5
1DA
330
1E
100
AcDbEntity
  8
0
100
AcDbLine
 10
84.9831265
 20
429.2920099999999
 30
0.0
 11
86.89043184016702
 21
428.4969939794989
 31
0.0
  0
LINE
  5
1DB
330
1E
100
AcDbEntity
  8
0
100
AcDbLine
 10
84.01732649999999
 20
447.85801
 30
0.0
 11
86.82702650000001
 21
449.02901
 31
0.0
  0
LINE
  5
1DC
330
1E
100
AcDbEntity
  8
0
100
AcDbLine
 10
97.10709116890599
 20
449.2877600801429
 30
0.0
 11
99.51242650000001
 21
447.4310099999999
 31
0.0
  0
LINE
  5
1DD
330
1E
100
AcDbEntity
  8
0
100
AcDbLine
 10
97.14722835660861
 20
449.5880652025599
 30
0.0
 11
99.72442650000001
 21
447.6430099999999
 31
0.0
  0
LINE
  5
1DF
330
1E
100
AcDbEntity
  8
0
100
AcDbLine
 10
86.7100265
 20
449.3210099999999
 30
0.0
 11
88.4820187073825
 21
449.5551889598459
 31
0.0
  0
LINE
  5
1E0
330
1E
100
AcDbEntity
  8
0
100
AcDbLine
 10
86.82702650000001
 20
449.02901
 30
0.0
 11
88.52132126710658
 21
449.2611284965989
 31
0.0
  0
LINE
  5
1E1
330
1E
100
AcDbEntity
  8
0
100
AcDbLine
 10
84.01732649999999
 20
427.6040099999999
 30
0.0
 11
86.82702650000001
 21
426.4330099999999
 31
0.0
  0
LINE
  5
1E2
330
1E
100
AcDbEntity
  8
0
100
AcDbLine
 10
86.82702650000001
 20
426.4330099999999
 30
0.0
 11
88.52132126710658
 21
426.200891503401
 31
0.0
  0
LINE
  5
1E4
330
1E
100
AcDbEntity
  8
0
100
AcDbLine
 10
58.8124265
 20
450.2310099999999
 30
0.0
 11
84.42909316666669
 21
450.2310099999999
 31
0.0
  0
LINE
  5
1E5
330
1E
100
AcDbEntity
  8
0
100
AcDbLine
 10
97.26042650000001
 20
425.0270099999999
 30
0.0
 11
97.5954265
 21
422.2730099999999
 31
0.0
  0
LINE
  5
1E6
330
1E
100
AcDbEntity
  8
0
100
AcDbLine
 10
97.42611959344579
 20
428.5720892803369
 30
0.0
 11
98.30022650000001
 21
429.2430099999999
 31
0.0
  0
LINE
  5
1E7
330
1E
100
AcDbEntity
  8
0
100
AcDbLine
 10
97.61258923533469
 20
429.131498206004
 30
0.0
 11
98.06612649999999
 21
429.47701
 31
0.0
  0
LINE
  5
1E8
330
1E
100
AcDbEntity
  8
0
100
AcDbLine
 10
119.3124264999999
 20
425.7310099999999
 30
0.0
 11
120.8124264999999
 21
425.7310099999999
 31
0.0
  0
LINE
  5
1E9
330
1E
100
AcDbEntity
  8
0
100
AcDbLine
 10
119.3124264999999
 20
425.7310099999999
 30
0.0
 11
119.3124264999999
 21
426.1310099999999
 31
0.0
  0
LINE
  5
1EA
330
1E
100
AcDbEntity
  8
0
100
AcDbLine
 10
120.8124264999999
 20
425.7310099999999
 30
0.0
 11
121.3124264999999
 21
426.2310099999999
 31
0.0
  0
LINE
  5
1EB
330
1E
100
AcDbEntity
  8
0
100
AcDbLine
 10
120.8124264999999
 20
425.7310099999999
 30
0.0
 11
120.8124264999999
 21
426.1310099999999
 31
0.0
  0
LINE
  5
1EC
330
1E
100
AcDbEntity
  8
0
100
AcDbLine
 10
119.3124264999999
 20
426.1310099999999
 30
0.0
 11
119.3124264999999
 21
425.7310099999999
 31
0.0
  0
LINE
  5
1ED
330
1E
100
AcDbEntity
  8
0
100
AcDbLine
 10
119.3124264999999
 20
426.1310099999999
 30
0.0
 11
119.3124264999999
 21
427.3310099999999
 31
0.0
  0
LINE
  5
1EE
330
1E
100
AcDbEntity
  8
0
100
AcDbLine
 10
120.8124264999999
 20
426.1310099999999
 30
0.0
 11
120.8124264999999
 21
425.7310099999999
 31
0.0
  0
LINE
  5
1EF
330
1E
100
AcDbEntity
  8
0
100
AcDbLine
 10
120.8124264999999
 20
426.1310099999999
 30
0.0
 11
120.8124264999999
 21
427.3310099999999
 31
0.0
  0
LINE
  5
1F0
330
1E
100
AcDbEntity
  8
0
100
AcDbLine
 10
133.8124264999999
 20
426.1310099999999
 30
0.0
 11
133.8124264999999
 21
427.3310099999999
 31
0.0
  0
LINE
  5
1F1
330
1E
100
AcDbEntity
  8
0
100
AcDbLine
 10
121.8124264999999
 20
425.7310099999999
 30
0.0
 11
133.8124264999999
 21
425.7310099999999
 31
0.0
  0
LINE
  5
1F2
330
1E
100
AcDbEntity
  8
0
100
AcDbLine
 10
121.8124264999999
 20
425.7310099999999
 30
0.0
 11
121.8124264999999
 21
426.1310099999999
 31
0.0
  0
LINE
  5
1F3
330
1E
100
AcDbEntity
  8
0
100
AcDbLine
 10
133.8124264999999
 20
425.7310099999999
 30
0.0
 11
133.8124264999999
 21
426.1310099999999
 31
0.0
  0
LINE
  5
1F4
330
1E
100
AcDbEntity
  8
0
100
AcDbLine
 10
133.8124264999999
 20
425.7310099999999
 30
0.0
 11
133.8124264999999
 21
422.2310099999999
 31
0.0
  0
LINE
  5
1F5
330
1E
100
AcDbEntity
  8
0
100
AcDbLine
 10
118.8124264999999
 20
426.2310099999999
 30
0.0
 11
119.3124264999999
 21
425.7310099999999
 31
0.0
  0
LINE
  5
1F6
330
1E
100
AcDbEntity
  8
0
100
AcDbLine
 10
118.8124264999999
 20
426.2310099999999
 30
0.0
 11
118.8124264999999
 21
426.6310099999999
 31
0.0
  0
LINE
  5
1F7
330
1E
100
AcDbEntity
  8
0
100
AcDbLine
 10
118.8124264999999
 20
426.6310099999999
 30
0.0
 11
118.8124264999999
 21
426.2310099999999
 31
0.0
  0
LINE
  5
1F8
330
1E
100
AcDbEntity
  8
0
100
AcDbLine
 10
118.8124264999999
 20
426.6310099999999
 30
0.0
 11
118.8124264999999
 21
427.73101
 31
0.0
  0
LINE
  5
1F9
330
1E
100
AcDbEntity
  8
0
100
AcDbLine
 10
118.8124264999999
 20
427.73101
 30
0.0
 11
118.8124264999999
 21
426.6310099999999
 31
0.0
  0
LINE
  5
1FA
330
1E
100
AcDbEntity
  8
0
100
AcDbLine
 10
118.8124264999999
 20
427.73101
 30
0.0
 11
118.8124264999999
 21
429.6310099999999
 31
0.0
  0
LINE
  5
1FB
330
1E
100
AcDbEntity
  8
0
100
AcDbLine
 10
119.3124264999999
 20
427.3310099999999
 30
0.0
 11
119.3124264999999
 21
426.1310099999999
 31
0.0
  0
LINE
  5
1FC
330
1E
100
AcDbEntity
  8
0
100
AcDbLine
 10
119.3124264999999
 20
427.3310099999999
 30
0.0
 11
119.3124264999999
 21
429.2310099999999
 31
0.0
  0
LINE
  5
1FD
330
1E
100
AcDbEntity
  8
0
100
AcDbLine
 10
120.8124264999999
 20
427.3310099999999
 30
0.0
 11
120.8124264999999
 21
426.1310099999999
 31
0.0
  0
LINE
  5
1FE
330
1E
100
AcDbEntity
  8
0
100
AcDbLine
 10
120.8124264999999
 20
427.3310099999999
 30
0.0
 11
120.8124264999999
 21
429.2310099999999
 31
0.0
  0
LINE
  5
1FF
330
1E
100
AcDbEntity
  8
0
100
AcDbLine
 10
121.3124264999999
 20
427.73101
 30
0.0
 11
121.3124264999999
 21
426.6310099999999
 31
0.0
  0
LINE
  5
200
330
1E
100
AcDbEntity
  8
0
100
AcDbLine
 10
121.3124264999999
 20
427.73101
 30
0.0
 11
121.3124264999999
 21
429.6310099999999
 31
0.0
  0
LINE
  5
201
330
1E
100
AcDbEntity
  8
0
100
AcDbLine
 10
121.3124264999999
 20
426.6310099999999
 30
0.0
 11
121.3124264999999
 21
426.2310099999999
 31
0.0
  0
LINE
  5
202
330
1E
100
AcDbEntity
  8
0
100
AcDbLine
 10
121.3124264999999
 20
426.6310099999999
 30
0.0
 11
121.3124264999999
 21
427.73101
 31
0.0
  0
LINE
  5
203
330
1E
100
AcDbEntity
  8
0
100
AcDbLine
 10
121.3124264999999
 20
426.2310099999999
 30
0.0
 11
121.8124264999999
 21
425.7310099999999
 31
0.0
  0
LINE
  5
204
330
1E
100
AcDbEntity
  8
0
100
AcDbLine
 10
121.3124264999999
 20
426.2310099999999
 30
0.0
 11
121.3124264999999
 21
426.6310099999999
 31
0.0
  0
LINE
  5
205
330
1E
100
AcDbEntity
  8
0
100
AcDbLine
 10
133.8124264999999
 20
426.3900099999999
 30
0.0
 11
133.8124264999999
 21
422.2310099999999
 31
0.0
  0
LINE
  5
207
330
1E
100
AcDbEntity
  8
0
100
AcDbLine
 10
133.8124264999999
 20
426.3900099999999
 30
0.0
 11
133.8124264999999
 21
441.89001
 31
0.0
  0
LINE
  5
208
330
1E
100
AcDbEntity
  8
0
100
AcDbLine
 10
133.8124264999999
 20
427.3310099999999
 30
0.0
 11
133.8124264999999
 21
429.2310099999999
 31
0.0
  0
LINE
  5
209
330
1E
100
AcDbEntity
  8
0
100
AcDbLine
 10
121.8124264999999
 20
427.3310099999999
 30
0.0
 11
121.8124264999999
 21
426.1310099999999
 31
0.0
  0
LINE
  5
20A
330
1E
100
AcDbEntity
  8
0
100
AcDbLine
 10
121.8124264999999
 20
427.3310099999999
 30
0.0
 11
121.8124264999999
 21
429.2310099999999
 31
0.0
  0
LINE
  5
20B
330
1E
100
AcDbEntity
  8
0
100
AcDbLine
 10
121.8124264999999
 20
426.1310099999999
 30
0.0
 11
121.8124264999999
 21
425.7310099999999
 31
0.0
  0
LINE
  5
20C
330
1E
100
AcDbEntity
  8
0
100
AcDbLine
 10
121.8124264999999
 20
426.1310099999999
 30
0.0
 11
121.8124264999999
 21
427.3310099999999
 31
0.0
  0
LINE
  5
20D
330
1E
100
AcDbEntity
  8
0
100
AcDbLine
 10
99.72442650000001
 20
427.8190099999999
 30
0.0
 11
101.7212265000009
 21
430.464770000001
 31
0.0
  0
LINE
  5
20E
330
1E
100
AcDbEntity
  8
0
100
AcDbLine
 10
119.3124264999999
 20
429.2310099999999
 30
0.0
 11
119.3124264999999
 21
431.7310099999999
 31
0.0
  0
LINE
  5
20F
330
1E
100
AcDbEntity
  8
0
100
AcDbLine
 10
119.3124264999999
 20
429.2310099999999
 30
0.0
 11
119.3124264999999
 21
427.3310099999999
 31
0.0
  0
LINE
  5
210
330
1E
100
AcDbEntity
  8
0
100
AcDbLine
 10
120.8124264999999
 20
429.2310099999999
 30
0.0
 11
120.8124264999999
 21
431.7310099999999
 31
0.0
  0
LINE
  5
211
330
1E
100
AcDbEntity
  8
0
100
AcDbLine
 10
120.8124264999999
 20
429.2310099999999
 30
0.0
 11
120.8124264999999
 21
427.3310099999999
 31
0.0
  0
LINE
  5
212
330
1E
100
AcDbEntity
  8
0
100
AcDbLine
 10
121.8124264999999
 20
429.2310099999999
 30
0.0
 11
121.8124264999999
 21
431.7310099999999
 31
0.0
  0
LINE
  5
213
330
1E
100
AcDbEntity
  8
0
100
AcDbLine
 10
121.8124264999999
 20
429.2310099999999
 30
0.0
 11
121.8124264999999
 21
427.3310099999999
 31
0.0
  0
LINE
  5
214
330
1E
100
AcDbEntity
  8
0
100
AcDbLine
 10
133.8124264999999
 20
429.2310099999999
 30
0.0
 11
133.8124264999999
 21
431.7310099999999
 31
0.0
  0
LINE
  5
215
330
1E
100
AcDbEntity
  8
0
100
AcDbLine
 10
99.51242650000001
 20
428.03101
 30
0.0
 11
101.7124265
 21
430.8810099999999
 31
0.0
  0
LINE
  5
217
330
1E
100
AcDbEntity
  8
0
100
AcDbLine
 10
98.30022650000001
 20
429.2430099999999
 30
0.0
 11
99.82633440623761
 21
431.2310099999999
 31
0.0
  0
LINE
  5
219
330
1E
100
AcDbEntity
  8
0
100
AcDbLine
 10
97.26042650000001
 20
441.72101
 30
0.0
 11
97.5954265
 21
439.87701
 31
0.0
  0
LINE
  5
21C
330
1E
100
AcDbEntity
  8
0
100
AcDbLine
 10
97.26042650000001
 20
433.7410099999999
 30
0.0
 11
97.5954265
 21
435.5850099999999
 31
0.0
  0
LINE
  5
21D
330
1E
100
AcDbEntity
  8
0
100
AcDbLine
 10
97.81242650000001
 20
430.8310099999999
 30
0.0
 11
97.81242650000001
 21
430.0310099999999
 31
0.0
  0
LINE
  5
21E
330
1E
100
AcDbEntity
  8
0
100
AcDbLine
 10
97.81242650000001
 20
430.8310099999999
 30
0.0
 11
97.81242650000001
 21
432.1310099999999
 31
0.0
  0
LINE
  5
21F
330
1E
100
AcDbEntity
  8
0
100
AcDbLine
 10
97.81242650000001
 20
429.7310099999999
 30
0.0
 11
99.8124265
 21
431.2310099999999
 31
0.0
  0
LINE
  5
220
330
1E
100
AcDbEntity
  8
0
100
AcDbLine
 10
97.81242650000001
 20
429.7310099999999
 30
0.0
 11
97.81242650000001
 21
430.0310099999999
 31
0.0
  0
LINE
  5
221
330
1E
100
AcDbEntity
  8
0
100
AcDbLine
 10
97.81242650000001
 20
430.0310099999999
 30
0.0
 11
97.81242650000001
 21
429.7310099999999
 31
0.0
  0
LINE
  5
222
330
1E
100
AcDbEntity
  8
0
100
AcDbLine
 10
97.81242650000001
 20
430.0310099999999
 30
0.0
 11
97.81242650000001
 21
430.8310099999999
 31
0.0
  0
LINE
  5
223
330
1E
100
AcDbEntity
  8
0
100
AcDbLine
 10
97.81242650000001
 20
432.1310099999999
 30
0.0
 11
97.81242650000001
 21
433.7310099999999
 31
0.0
  0
LINE
  5
224
330
1E
100
AcDbEntity
  8
0
100
AcDbLine
 10
97.81242650000001
 20
432.1310099999999
 30
0.0
 11
97.81242650000001
 21
430.8310099999999
 31
0.0
  0
LINE
  5
225
330
1E
100
AcDbEntity
  8
0
100
AcDbLine
 10
97.81242650000001
 20
433.7310099999999
 30
0.0
 11
97.81242650000001
 21
432.1310099999999
 31
0.0
  0
LINE
  5
226
330
1E
100
AcDbEntity
  8
0
100
AcDbLine
 10
97.81242650000001
 20
433.7310099999999
 30
0.0
 11
97.81242650000001
 21
435.6310099999999
 31
0.0
  0
LINE
  5
227
330
1E
100
AcDbEntity
  8
0
100
AcDbLine
 10
97.6254265
 20
438.5310099999999
 30
0.0
 11
98.33642650000001
 21
438.5310099999999
 31
0.0
  0
LINE
  5
228
330
1E
100
AcDbEntity
  8
0
100
AcDbLine
 10
97.5954265
 20
439.87701
 30
0.0
 11
97.98376142570271
 21
439.1062351759299
 31
0.0
  0
LINE
  5
229
330
1E
100
AcDbEntity
  8
0
100
AcDbLine
 10
97.81242650000001
 20
435.6310099999999
 30
0.0
 11
97.81242650000001
 21
433.7310099999999
 31
0.0
  0
LINE
  5
22A
330
1E
100
AcDbEntity
  8
0
100
AcDbLine
 10
97.81242650000001
 20
435.6310099999999
 30
0.0
 11
97.81242650000001
 21
436.015715882353
 31
0.0
  0
LINE
  5
22B
330
1E
100
AcDbEntity
  8
0
100
AcDbLine
 10
97.81242650000001
 20
436.015715882353
 30
0.0
 11
97.81242650000001
 21
435.6310099999999
 31
0.0
  0
LINE
  5
22C
330
1E
100
AcDbEntity
  8
0
100
AcDbLine
 10
97.81242650000001
 20
439.446304117647
 30
0.0
 11
97.81242650000001
 21
439.8310099999999
 31
0.0
  0
LINE
  5
22D
330
1E
100
AcDbEntity
  8
0
100
AcDbLine
 10
97.81242650000001
 20
441.7310099999999
 30
0.0
 11
97.81242650000001
 21
439.8310099999999
 31
0.0
  0
LINE
  5
22E
330
1E
100
AcDbEntity
  8
0
100
AcDbLine
 10
97.81242650000001
 20
441.7310099999999
 30
0.0
 11
97.81242650000001
 21
443.3310099999999
 31
0.0
  0
LINE
  5
22F
330
1E
100
AcDbEntity
  8
0
100
AcDbLine
 10
97.81242650000001
 20
439.8310099999999
 30
0.0
 11
97.81242650000001
 21
439.446304117647
 31
0.0
  0
LINE
  5
230
330
1E
100
AcDbEntity
  8
0
100
AcDbLine
 10
97.81242650000001
 20
439.8310099999999
 30
0.0
 11
97.81242650000001
 21
441.7310099999999
 31
0.0
  0
LINE
  5
231
330
1E
100
AcDbEntity
  8
0
100
AcDbLine
 10
97.81242650000001
 20
443.3310099999999
 30
0.0
 11
97.81242650000001
 21
444.6310099999999
 31
0.0
  0
LINE
  5
232
330
1E
100
AcDbEntity
  8
0
100
AcDbLine
 10
97.81242650000001
 20
443.3310099999999
 30
0.0
 11
97.81242650000001
 21
441.7310099999999
 31
0.0
  0
LINE
  5
233
330
1E
100
AcDbEntity
  8
0
100
AcDbLine
 10
97.81242650000001
 20
444.6310099999999
 30
0.0
 11
97.81242650000001
 21
443.3310099999999
 31
0.0
  0
LINE
  5
234
330
1E
100
AcDbEntity
  8
0
100
AcDbLine
 10
97.81242650000001
 20
444.6310099999999
 30
0.0
 11
97.81242650000001
 21
445.4310099999999
 31
0.0
  0
LINE
  5
235
330
1E
100
AcDbEntity
  8
0
100
AcDbLine
 10
97.81242650000001
 20
445.4310099999999
 30
0.0
 11
97.81242650000001
 21
444.6310099999999
 31
0.0
  0
LINE
  5
236
330
1E
100
AcDbEntity
  8
0
100
AcDbLine
 10
97.81242650000001
 20
445.4310099999999
 30
0.0
 11
97.81242650000001
 21
445.7310099999999
 31
0.0
  0
LINE
  5
237
330
1E
100
AcDbEntity
  8
0
100
AcDbLine
 10
97.81242650000001
 20
445.7310099999999
 30
0.0
 11
99.8124265
 21
444.2310099999999
 31
0.0
  0
LINE
  5
238
330
1E
100
AcDbEntity
  8
0
100
AcDbLine
 10
97.81242650000001
 20
445.7310099999999
 30
0.0
 11
97.81242650000001
 21
445.4310099999999
 31
0.0
  0
LINE
  5
23B
330
1E
100
AcDbEntity
  8
0
100
AcDbLine
 10
97.6254265
 20
436.9310099999999
 30
0.0
 11
98.33642650000001
 21
436.9310099999999
 31
0.0
  0
LINE
  5
23C
330
1E
100
AcDbEntity
  8
0
100
AcDbLine
 10
97.5954265
 20
435.5850099999999
 30
0.0
 11
97.9837614257026
 21
436.35578482407
 31
0.0
  0
LINE
  5
23E
330
1E
100
AcDbEntity
  8
0
100
AcDbLine
 10
97.42627512018039
 20
446.889464139459
 30
0.0
 11
98.30022650000001
 21
446.2190099999999
 31
0.0
  0
LINE
  5
23F
330
1E
100
AcDbEntity
  8
0
100
AcDbLine
 10
97.61258923533469
 20
446.3305217939959
 30
0.0
 11
98.06612649999999
 21
445.9850099999999
 31
0.0
  0
LINE
  5
240
330
1E
100
AcDbEntity
  8
0
100
AcDbLine
 10
99.8124265
 20
432.1310099999999
 30
0.0
 11
99.8124265
 21
431.4310099999999
 31
0.0
  0
LINE
  5
241
330
1E
100
AcDbEntity
  8
0
100
AcDbLine
 10
99.8124265
 20
432.1310099999999
 30
0.0
 11
99.8124265
 21
433.1310099999999
 31
0.0
  0
LINE
  5
242
330
1E
100
AcDbEntity
  8
0
100
AcDbLine
 10
99.8124265
 20
431.2310099999999
 30
0.0
 11
107.8124264999999
 21
431.2310099999999
 31
0.0
  0
LINE
  5
243
330
1E
100
AcDbEntity
  8
0
100
AcDbLine
 10
99.8124265
 20
431.2310099999999
 30
0.0
 11
99.8124265
 21
431.4310099999999
 31
0.0
  0
LINE
  5
244
330
1E
100
AcDbEntity
  8
0
100
AcDbLine
 10
99.8124265
 20
431.4310099999999
 30
0.0
 11
99.8124265
 21
431.2310099999999
 31
0.0
  0
LINE
  5
245
330
1E
100
AcDbEntity
  8
0
100
AcDbLine
 10
99.8124265
 20
431.4310099999999
 30
0.0
 11
99.8124265
 21
432.1310099999999
 31
0.0
  0
LINE
  5
246
330
1E
100
AcDbEntity
  8
0
100
AcDbLine
 10
99.8124265
 20
433.1310099999999
 30
0.0
 11
99.8124265
 21
434.5310099999999
 31
0.0
  0
LINE
  5
247
330
1E
100
AcDbEntity
  8
0
100
AcDbLine
 10
99.8124265
 20
433.1310099999999
 30
0.0
 11
99.8124265
 21
432.1310099999999
 31
0.0
  0
LINE
  5
248
330
1E
100
AcDbEntity
  8
0
100
AcDbLine
 10
99.8124265
 20
434.5310099999999
 30
0.0
 11
99.8124265
 21
433.1310099999999
 31
0.0
  0
LINE
  5
249
330
1E
100
AcDbEntity
  8
0
100
AcDbLine
 10
99.8124265
 20
434.5310099999999
 30
0.0
 11
99.8124265
 21
436.0310099999999
 31
0.0
  0
LINE
  5
24A
330
1E
100
AcDbEntity
  8
0
100
AcDbLine
 10
99.8124265
 20
436.0310099999999
 30
0.0
 11
99.8124265
 21
434.5310099999999
 31
0.0
  0
LINE
  5
24B
330
1E
100
AcDbEntity
  8
0
100
AcDbLine
 10
99.8124265
 20
436.0310099999999
 30
0.0
 11
99.8124265
 21
437.7310099999999
 31
0.0
  0
LINE
  5
24C
330
1E
100
AcDbEntity
  8
0
100
AcDbLine
 10
98.22142650000001
 20
436.4310099999999
 30
0.0
 11
98.7204265
 21
436.9310099999999
 31
0.0
  0
LINE
  5
24D
330
1E
100
AcDbEntity
  8
0
100
AcDbLine
 10
98.22142650000001
 20
439.0310099999999
 30
0.0
 11
98.7204265
 21
438.5310099999999
 31
0.0
  0
LINE
  5
24E
330
1E
100
AcDbEntity
  8
0
100
AcDbLine
 10
98.33642650000001
 20
438.5310099999999
 30
0.0
 11
98.7204265
 21
438.5310099999999
 31
0.0
  0
LINE
  5
24F
330
1E
100
AcDbEntity
  8
0
100
AcDbLine
 10
99.8124265
 20
440.9310099999999
 30
0.0
 11
99.8124265
 21
439.4310099999999
 31
0.0
  0
LINE
  5
250
330
1E
100
AcDbEntity
  8
0
100
AcDbLine
 10
99.8124265
 20
440.9310099999999
 30
0.0
 11
99.8124265
 21
442.3310099999999
 31
0.0
  0
LINE
  5
251
330
1E
100
AcDbEntity
  8
0
100
AcDbLine
 10
99.8124265
 20
439.4310099999999
 30
0.0
 11
99.8124265
 21
437.7310099999999
 31
0.0
  0
LINE
  5
252
330
1E
100
AcDbEntity
  8
0
100
AcDbLine
 10
99.8124265
 20
439.4310099999999
 30
0.0
 11
99.8124265
 21
440.9310099999999
 31
0.0
  0
LINE
  5
253
330
1E
100
AcDbEntity
  8
0
100
AcDbLine
 10
99.8124265
 20
442.3310099999999
 30
0.0
 11
99.8124265
 21
443.3310099999999
 31
0.0
  0
LINE
  5
254
330
1E
100
AcDbEntity
  8
0
100
AcDbLine
 10
99.8124265
 20
442.3310099999999
 30
0.0
 11
99.8124265
 21
440.9310099999999
 31
0.0
  0
LINE
  5
255
330
1E
100
AcDbEntity
  8
0
100
AcDbLine
 10
99.8124265
 20
443.3310099999999
 30
0.0
 11
99.8124265
 21
442.3310099999999
 31
0.0
  0
LINE
  5
256
330
1E
100
AcDbEntity
  8
0
100
AcDbLine
 10
99.8124265
 20
443.3310099999999
 30
0.0
 11
99.8124265
 21
444.0310099999999
 31
0.0
  0
LINE
  5
257
330
1E
100
AcDbEntity
  8
0
100
AcDbLine
 10
99.8124265
 20
444.0310099999999
 30
0.0
 11
99.8124265
 21
443.3310099999999
 31
0.0
  0
LINE
  5
258
330
1E
100
AcDbEntity
  8
0
100
AcDbLine
 10
99.8124265
 20
444.0310099999999
 30
0.0
 11
99.8124265
 21
444.2310099999999
 31
0.0
  0
LINE
  5
259
330
1E
100
AcDbEntity
  8
0
100
AcDbLine
 10
99.8124265
 20
444.2310099999999
 30
0.0
 11
107.8124264999999
 21
444.2310099999999
 31
0.0
  0
LINE
  5
25A
330
1E
100
AcDbEntity
  8
0
100
AcDbLine
 10
99.8124265
 20
444.2310099999999
 30
0.0
 11
99.8124265
 21
444.0310099999999
 31
0.0
  0
LINE
  5
25B
330
1E
100
AcDbEntity
  8
0
100
AcDbLine
 10
99.8124265
 20
437.7310099999999
 30
0.0
 11
99.8124265
 21
436.0310099999999
 31
0.0
  0
LINE
  5
25C
330
1E
100
AcDbEntity
  8
0
100
AcDbLine
 10
99.8124265
 20
437.7310099999999
 30
0.0
 11
99.8124265
 21
439.4310099999999
 31
0.0
  0
LINE
  5
25D
330
1E
100
AcDbEntity
  8
0
100
AcDbLine
 10
98.7014265
 20
437.7310099999999
 30
0.0
 11
98.7204265
 21
436.9310099999999
 31
0.0
  0
LINE
  5
25E
330
1E
100
AcDbEntity
  8
0
100
AcDbLine
 10
98.7014265
 20
437.7310099999999
 30
0.0
 11
98.7204265
 21
438.5310099999999
 31
0.0
  0
LINE
  5
25F
330
1E
100
AcDbEntity
  8
0
100
AcDbLine
 10
98.33642650000001
 20
436.9310099999999
 30
0.0
 11
98.7204265
 21
436.9310099999999
 31
0.0
  0
LINE
  5
260
330
1E
100
AcDbEntity
  8
0
100
AcDbLine
 10
101.7124265
 20
444.5810099999999
 30
0.0
 11
101.8556083181819
 21
444.2310099999999
 31
0.0
  0
LINE
  5
261
330
1E
100
AcDbEntity
  8
0
100
AcDbLine
 10
101.7124265
 20
430.8810099999999
 30
0.0
 11
101.8556083181819
 21
431.2310099999999
 31
0.0
  0
LINE
  5
262
330
1E
100
AcDbEntity
  8
0
100
AcDbLine
 10
107.8124264999999
 20
431.2310099999999
 30
0.0
 11
107.8124264999999
 21
431.4310099999999
 31
0.0
  0
LINE
  5
263
330
1E
100
AcDbEntity
  8
0
100
AcDbLine
 10
107.8124264999999
 20
431.4310099999999
 30
0.0
 11
107.8124264999999
 21
431.2310099999999
 31
0.0
  0
LINE
  5
264
330
1E
100
AcDbEntity
  8
0
100
AcDbLine
 10
107.8124264999999
 20
431.4310099999999
 30
0.0
 11
107.8124264999999
 21
432.1310099999999
 31
0.0
  0
LINE
  5
265
330
1E
100
AcDbEntity
  8
0
100
AcDbLine
 10
107.8124264999999
 20
431.7310099999999
 30
0.0
 11
118.8124264999999
 21
431.7310099999999
 31
0.0
  0
LINE
  5
266
330
1E
100
AcDbEntity
  8
0
100
AcDbLine
 10
118.8124264999999
 20
431.7310099999999
 30
0.0
 11
118.8124264999999
 21
429.6310099999999
 31
0.0
  0
LINE
  5
267
330
1E
100
AcDbEntity
  8
0
100
AcDbLine
 10
118.8124264999999
 20
431.7310099999999
 30
0.0
 11
118.8124264999999
 21
431.93101
 31
0.0
  0
LINE
  5
268
330
1E
100
AcDbEntity
  8
0
100
AcDbLine
 10
118.8124264999999
 20
429.6310099999999
 30
0.0
 11
118.8124264999999
 21
432.0310099999999
 31
0.0
  0
LINE
  5
269
330
1E
100
AcDbEntity
  8
0
100
AcDbLine
 10
118.8124264999999
 20
429.6310099999999
 30
0.0
 11
118.8124264999999
 21
427.73101
 31
0.0
  0
LINE
  5
26A
330
1E
100
AcDbEntity
  8
0
100
AcDbLine
 10
118.8124264999999
 20
429.6310099999999
 30
0.0
 11
118.8124264999999
 21
431.7310099999999
 31
0.0
  0
LINE
  5
26B
330
1E
100
AcDbEntity
  8
0
100
AcDbLine
 10
119.3124264999999
 20
431.7310099999999
 30
0.0
 11
119.3124264999999
 21
429.2310099999999
 31
0.0
  0
LINE
  5
26C
330
1E
100
AcDbEntity
  8
0
100
AcDbLine
 10
119.3124264999999
 20
431.7310099999999
 30
0.0
 11
119.3124264999999
 21
434.6310099999999
 31
0.0
  0
LINE
  5
26D
330
1E
100
AcDbEntity
  8
0
100
AcDbLine
 10
121.3124264999999
 20
429.6310099999999
 30
0.0
 11
121.3124264999999
 21
432.0310099999999
 31
0.0
  0
LINE
  5
26E
330
1E
100
AcDbEntity
  8
0
100
AcDbLine
 10
121.3124264999999
 20
429.6310099999999
 30
0.0
 11
121.3124264999999
 21
427.73101
 31
0.0
  0
LINE
  5
26F
330
1E
100
AcDbEntity
  8
0
100
AcDbLine
 10
120.8124264999999
 20
431.7310099999999
 30
0.0
 11
120.8124264999999
 21
429.2310099999999
 31
0.0
  0
LINE
  5
270
330
1E
100
AcDbEntity
  8
0
100
AcDbLine
 10
120.8124264999999
 20
431.7310099999999
 30
0.0
 11
120.8124264999999
 21
434.6310099999999
 31
0.0
  0
LINE
  5
271
330
1E
100
AcDbEntity
  8
0
100
AcDbLine
 10
118.8124264999999
 20
431.93101
 30
0.0
 11
118.8124264999999
 21
432.53101
 31
0.0
  0
LINE
  5
272
330
1E
100
AcDbEntity
  8
0
100
AcDbLine
 10
107.8124264999999
 20
432.1310099999999
 30
0.0
 11
107.8124264999999
 21
431.4310099999999
 31
0.0
  0
LINE
  5
273
330
1E
100
AcDbEntity
  8
0
100
AcDbLine
 10
107.8124264999999
 20
432.1310099999999
 30
0.0
 11
107.8124264999999
 21
433.1310099999999
 31
0.0
  0
LINE
  5
274
330
1E
100
AcDbEntity
  8
0
100
AcDbLine
 10
118.8124264999999
 20
432.53101
 30
0.0
 11
118.8124264999999
 21
433.53101
 31
0.0
  0
LINE
  5
275
330
1E
100
AcDbEntity
  8
0
100
AcDbLine
 10
107.8124264999999
 20
433.1310099999999
 30
0.0
 11
107.8124264999999
 21
434.5310099999999
 31
0.0
  0
LINE
  5
276
330
1E
100
AcDbEntity
  8
0
100
AcDbLine
 10
107.8124264999999
 20
433.1310099999999
 30
0.0
 11
107.8124264999999
 21
432.1310099999999
 31
0.0
  0
LINE
  5
277
330
1E
100
AcDbEntity
  8
0
100
AcDbLine
 10
107.8124264999999
 20
434.5310099999999
 30
0.0
 11
107.8124264999999
 21
433.1310099999999
 31
0.0
  0
LINE
  5
278
330
1E
100
AcDbEntity
  8
0
100
AcDbLine
 10
107.8124264999999
 20
434.5310099999999
 30
0.0
 11
107.8124264999999
 21
436.0310099999999
 31
0.0
  0
LINE
  5
279
330
1E
100
AcDbEntity
  8
0
100
AcDbLine
 10
118.8124264999999
 20
433.53101
 30
0.0
 11
118.8124264999999
 21
434.7310099999999
 31
0.0
  0
LINE
  5
27A
330
1E
100
AcDbEntity
  8
0
100
AcDbLine
 10
118.8124264999999
 20
432.0310099999999
 30
0.0
 11
118.8124264999999
 21
429.6310099999999
 31
0.0
  0
LINE
  5
27B
330
1E
100
AcDbEntity
  8
0
100
AcDbLine
 10
118.8124264999999
 20
432.0310099999999
 30
0.0
 11
118.8124264999999
 21
434.7310099999999
 31
0.0
  0
LINE
  5
27C
330
1E
100
AcDbEntity
  8
0
100
AcDbLine
 10
119.3124264999999
 20
434.6310099999999
 30
0.0
 11
119.3124264999999
 21
431.7310099999999
 31
0.0
  0
LINE
  5
27D
330
1E
100
AcDbEntity
  8
0
100
AcDbLine
 10
119.3124264999999
 20
434.6310099999999
 30
0.0
 11
119.3124264999999
 21
437.7310099999999
 31
0.0
  0
LINE
  5
27E
330
1E
100
AcDbEntity
  8
0
100
AcDbLine
 10
120.8124264999999
 20
434.6310099999999
 30
0.0
 11
120.8124264999999
 21
431.7310099999999
 31
0.0
  0
LINE
  5
27F
330
1E
100
AcDbEntity
  8
0
100
AcDbLine
 10
120.8124264999999
 20
434.6310099999999
 30
0.0
 11
120.8124264999999
 21
437.7310099999999
 31
0.0
  0
LINE
  5
280
330
1E
100
AcDbEntity
  8
0
100
AcDbLine
 10
121.3124264999999
 20
432.0310099999999
 30
0.0
 11
121.3124264999999
 21
429.6310099999999
 31
0.0
  0
LINE
  5
281
330
1E
100
AcDbEntity
  8
0
100
AcDbLine
 10
121.3124264999999
 20
432.0310099999999
 30
0.0
 11
121.3124264999999
 21
434.7310099999999
 31
0.0
  0
LINE
  5
282
330
1E
100
AcDbEntity
  8
0
100
AcDbLine
 10
121.8124264999999
 20
431.7310099999999
 30
0.0
 11
121.8124264999999
 21
429.2310099999999
 31
0.0
  0
LINE
  5
283
330
1E
100
AcDbEntity
  8
0
100
AcDbLine
 10
121.8124264999999
 20
431.7310099999999
 30
0.0
 11
121.8124264999999
 21
434.6310099999999
 31
0.0
  0
LINE
  5
284
330
1E
100
AcDbEntity
  8
0
100
AcDbLine
 10
133.8124264999999
 20
431.7310099999999
 30
0.0
 11
133.8124264999999
 21
434.6310099999999
 31
0.0
  0
LINE
  5
285
330
1E
100
AcDbEntity
  8
0
100
AcDbLine
 10
118.8124264999999
 20
434.7310099999999
 30
0.0
 11
118.8124264999999
 21
432.0310099999999
 31
0.0
  0
LINE
  5
286
330
1E
100
AcDbEntity
  8
0
100
AcDbLine
 10
118.8124264999999
 20
434.7310099999999
 30
0.0
 11
118.8124264999999
 21
437.7310099999999
 31
0.0
  0
LINE
  5
287
330
1E
100
AcDbEntity
  8
0
100
AcDbLine
 10
118.8124264999999
 20
434.7310099999999
 30
0.0
 11
118.8124264999999
 21
436.23101
 31
0.0
  0
LINE
  5
288
330
1E
100
AcDbEntity
  8
0
100
AcDbLine
 10
107.8124264999999
 20
436.0310099999999
 30
0.0
 11
107.8124264999999
 21
434.5310099999999
 31
0.0
  0
LINE
  5
289
330
1E
100
AcDbEntity
  8
0
100
AcDbLine
 10
107.8124264999999
 20
436.0310099999999
 30
0.0
 11
107.8124264999999
 21
437.7310099999999
 31
0.0
  0
LINE
  5
28A
330
1E
100
AcDbEntity
  8
0
100
AcDbLine
 10
107.8124264999999
 20
437.7310099999999
 30
0.0
 11
107.8124264999999
 21
436.0310099999999
 31
0.0
  0
LINE
  5
28B
330
1E
100
AcDbEntity
  8
0
100
AcDbLine
 10
107.8124264999999
 20
437.7310099999999
 30
0.0
 11
107.8124264999999
 21
439.4310099999999
 31
0.0
  0
LINE
  5
28C
330
1E
100
AcDbEntity
  8
0
100
AcDbLine
 10
118.8124264999999
 20
436.23101
 30
0.0
 11
118.8124264999999
 21
437.7310099999999
 31
0.0
  0
LINE
  5
28D
330
1E
100
AcDbEntity
  8
0
100
AcDbLine
 10
118.8124264999999
 20
437.7310099999999
 30
0.0
 11
118.8124264999999
 21
434.7310099999999
 31
0.0
  0
LINE
  5
28E
330
1E
100
AcDbEntity
  8
0
100
AcDbLine
 10
118.8124264999999
 20
437.7310099999999
 30
0.0
 11
118.8124264999999
 21
440.73101
 31
0.0
  0
LINE
  5
28F
330
1E
100
AcDbEntity
  8
0
100
AcDbLine
 10
118.8124264999999
 20
437.7310099999999
 30
0.0
 11
118.8124264999999
 21
439.2310099999999
 31
0.0
  0
LINE
  5
290
330
1E
100
AcDbEntity
  8
0
100
AcDbLine
 10
119.3124264999999
 20
437.7310099999999
 30
0.0
 11
119.3124264999999
 21
434.6310099999999
 31
0.0
  0
LINE
  5
291
330
1E
100
AcDbEntity
  8
0
100
AcDbLine
 10
119.3124264999999
 20
437.7310099999999
 30
0.0
 11
119.3124264999999
 21
440.8310099999999
 31
0.0
  0
LINE
  5
292
330
1E
100
AcDbEntity
  8
0
100
AcDbLine
 10
120.8124264999999
 20
437.7310099999999
 30
0.0
 11
120.8124264999999
 21
434.6310099999999
 31
0.0
  0
LINE
  5
293
330
1E
100
AcDbEntity
  8
0
100
AcDbLine
 10
120.8124264999999
 20
437.7310099999999
 30
0.0
 11
120.8124264999999
 21
440.8310099999999
 31
0.0
  0
LINE
  5
294
330
1E
100
AcDbEntity
  8
0
100
AcDbLine
 10
121.3124264999999
 20
434.7310099999999
 30
0.0
 11
121.3124264999999
 21
432.0310099999999
 31
0.0
  0
LINE
  5
295
330
1E
100
AcDbEntity
  8
0
100
AcDbLine
 10
121.3124264999999
 20
434.7310099999999
 30
0.0
 11
121.3124264999999
 21
437.7310099999999
 31
0.0
  0
LINE
  5
296
330
1E
100
AcDbEntity
  8
0
100
AcDbLine
 10
133.8124264999999
 20
437.7310099999999
 30
0.0
 11
133.8124264999999
 21
440.8310099999999
 31
0.0
  0
LINE
  5
297
330
1E
100
AcDbEntity
  8
0
100
AcDbLine
 10
121.3124264999999
 20
437.7310099999999
 30
0.0
 11
121.3124264999999
 21
434.7310099999999
 31
0.0
  0
LINE
  5
298
330
1E
100
AcDbEntity
  8
0
100
AcDbLine
 10
121.3124264999999
 20
437.7310099999999
 30
0.0
 11
121.3124264999999
 21
440.73101
 31
0.0
  0
LINE
  5
299
330
1E
100
AcDbEntity
  8
0
100
AcDbLine
 10
121.8124264999999
 20
434.6310099999999
 30
0.0
 11
121.8124264999999
 21
431.7310099999999
 31
0.0
  0
LINE
  5
29A
330
1E
100
AcDbEntity
  8
0
100
AcDbLine
 10
121.8124264999999
 20
434.6310099999999
 30
0.0
 11
121.8124264999999
 21
437.7310099999999
 31
0.0
  0
LINE
  5
29B
330
1E
100
AcDbEntity
  8
0
100
AcDbLine
 10
133.8124264999999
 20
434.6310099999999
 30
0.0
 11
133.8124264999999
 21
437.7310099999999
 31
0.0
  0
LINE
  5
29C
330
1E
100
AcDbEntity
  8
0
100
AcDbLine
 10
107.8124264999999
 20
440.9310099999999
 30
0.0
 11
107.8124264999999
 21
439.4310099999999
 31
0.0
  0
LINE
  5
29D
330
1E
100
AcDbEntity
  8
0
100
AcDbLine
 10
107.8124264999999
 20
440.9310099999999
 30
0.0
 11
107.8124264999999
 21
442.3310099999999
 31
0.0
  0
LINE
  5
29E
330
1E
100
AcDbEntity
  8
0
100
AcDbLine
 10
107.8124264999999
 20
439.4310099999999
 30
0.0
 11
107.8124264999999
 21
437.7310099999999
 31
0.0
  0
LINE
  5
29F
330
1E
100
AcDbEntity
  8
0
100
AcDbLine
 10
107.8124264999999
 20
439.4310099999999
 30
0.0
 11
107.8124264999999
 21
440.9310099999999
 31
0.0
  0
LINE
  5
2A0
330
1E
100
AcDbEntity
  8
0
100
AcDbLine
 10
118.8124264999999
 20
439.2310099999999
 30
0.0
 11
118.8124264999999
 21
440.73101
 31
0.0
  0
LINE
  5
2A1
330
1E
100
AcDbEntity
  8
0
100
AcDbLine
 10
107.8124264999999
 20
442.3310099999999
 30
0.0
 11
107.8124264999999
 21
443.3310099999999
 31
0.0
  0
LINE
  5
2A2
330
1E
100
AcDbEntity
  8
0
100
AcDbLine
 10
107.8124264999999
 20
442.3310099999999
 30
0.0
 11
107.8124264999999
 21
440.9310099999999
 31
0.0
  0
LINE
  5
2A3
330
1E
100
AcDbEntity
  8
0
100
AcDbLine
 10
107.8124264999999
 20
443.3310099999999
 30
0.0
 11
107.8124264999999
 21
442.3310099999999
 31
0.0
  0
LINE
  5
2A4
330
1E
100
AcDbEntity
  8
0
100
AcDbLine
 10
107.8124264999999
 20
443.3310099999999
 30
0.0
 11
107.8124264999999
 21
444.0310099999999
 31
0.0
  0
LINE
  5
2A5
330
1E
100
AcDbEntity
  8
0
100
AcDbLine
 10
118.8124264999999
 20
441.9310099999999
 30
0.0
 11
118.8124264999999
 21
442.9310099999999
 31
0.0
  0
LINE
  5
2A6
330
1E
100
AcDbEntity
  8
0
100
AcDbLine
 10
118.8124264999999
 20
442.9310099999999
 30
0.0
 11
118.8124264999999
 21
443.5310099999999
 31
0.0
  0
LINE
  5
2A7
330
1E
100
AcDbEntity
  8
0
100
AcDbLine
 10
107.8124264999999
 20
444.0310099999999
 30
0.0
 11
107.8124264999999
 21
443.3310099999999
 31
0.0
  0
LINE
  5
2A8
330
1E
100
AcDbEntity
  8
0
100
AcDbLine
 10
107.8124264999999
 20
444.0310099999999
 30
0.0
 11
107.8124264999999
 21
444.2310099999999
 31
0.0
  0
LINE
  5
2A9
330
1E
100
AcDbEntity
  8
0
100
AcDbLine
 10
107.8124264999999
 20
444.2310099999999
 30
0.0
 11
107.8124264999999
 21
444.0310099999999
 31
0.0
  0
LINE
  5
2AA
330
1E
100
AcDbEntity
  8
0
100
AcDbLine
 10
118.8124264999999
 20
443.5310099999999
 30
0.0
 11
118.8124264999999
 21
443.7310099999999
 31
0.0
  0
LINE
  5
2AB
330
1E
100
AcDbEntity
  8
0
100
AcDbLine
 10
107.8124264999999
 20
443.7310099999999
 30
0.0
 11
118.8124264999999
 21
443.7310099999999
 31
0.0
  0
LINE
  5
2AC
330
1E
100
AcDbEntity
  8
0
100
AcDbLine
 10
118.8124264999999
 20
443.4310099999999
 30
0.0
 11
118.8124264999999
 21
440.73101
 31
0.0
  0
LINE
  5
2AD
330
1E
100
AcDbEntity
  8
0
100
AcDbLine
 10
118.8124264999999
 20
443.4310099999999
 30
0.0
 11
118.8124264999999
 21
445.8310099999999
 31
0.0
  0
LINE
  5
2AE
330
1E
100
AcDbEntity
  8
0
100
AcDbLine
 10
118.8124264999999
 20
440.73101
 30
0.0
 11
118.8124264999999
 21
437.7310099999999
 31
0.0
  0
LINE
  5
2AF
330
1E
100
AcDbEntity
  8
0
100
AcDbLine
 10
118.8124264999999
 20
440.73101
 30
0.0
 11
118.8124264999999
 21
443.4310099999999
 31
0.0
  0
LINE
  5
2B0
330
1E
100
AcDbEntity
  8
0
100
AcDbLine
 10
118.8124264999999
 20
440.73101
 30
0.0
 11
118.8124264999999
 21
441.9310099999999
 31
0.0
  0
LINE
  5
2B1
330
1E
100
AcDbEntity
  8
0
100
AcDbLine
 10
118.8124264999999
 20
445.8310099999999
 30
0.0
 11
118.8124264999999
 21
443.7310099999999
 31
0.0
  0
LINE
  5
2B2
330
1E
100
AcDbEntity
  8
0
100
AcDbLine
 10
118.8124264999999
 20
445.8310099999999
 30
0.0
 11
118.8124264999999
 21
447.7310099999999
 31
0.0
  0
LINE
  5
2B3
330
1E
100
AcDbEntity
  8
0
100
AcDbLine
 10
118.8124264999999
 20
445.8310099999999
 30
0.0
 11
118.8124264999999
 21
443.4310099999999
 31
0.0
  0
LINE
  5
2B4
330
1E
100
AcDbEntity
  8
0
100
AcDbLine
 10
119.3124264999999
 20
440.8310099999999
 30
0.0
 11
119.3124264999999
 21
437.7310099999999
 31
0.0
  0
LINE
  5
2B5
330
1E
100
AcDbEntity
  8
0
100
AcDbLine
 10
119.3124264999999
 20
440.8310099999999
 30
0.0
 11
119.3124264999999
 21
443.7310099999999
 31
0.0
  0
LINE
  5
2B6
330
1E
100
AcDbEntity
  8
0
100
AcDbLine
 10
120.8124264999999
 20
440.8310099999999
 30
0.0
 11
120.8124264999999
 21
437.7310099999999
 31
0.0
  0
LINE
  5
2B7
330
1E
100
AcDbEntity
  8
0
100
AcDbLine
 10
120.8124264999999
 20
440.8310099999999
 30
0.0
 11
120.8124264999999
 21
443.7310099999999
 31
0.0
  0
LINE
  5
2B8
330
1E
100
AcDbEntity
  8
0
100
AcDbLine
 10
119.3124264999999
 20
443.7310099999999
 30
0.0
 11
119.3124264999999
 21
440.8310099999999
 31
0.0
  0
LINE
  5
2B9
330
1E
100
AcDbEntity
  8
0
100
AcDbLine
 10
119.3124264999999
 20
443.7310099999999
 30
0.0
 11
119.3124264999999
 21
446.2310099999999
 31
0.0
  0
LINE
  5
2BA
330
1E
100
AcDbEntity
  8
0
100
AcDbLine
 10
120.8124264999999
 20
443.7310099999999
 30
0.0
 11
120.8124264999999
 21
440.8310099999999
 31
0.0
  0
LINE
  5
2BB
330
1E
100
AcDbEntity
  8
0
100
AcDbLine
 10
120.8124264999999
 20
443.7310099999999
 30
0.0
 11
120.8124264999999
 21
446.2310099999999
 31
0.0
  0
LINE
  5
2BC
330
1E
100
AcDbEntity
  8
0
100
AcDbLine
 10
121.3124264999999
 20
443.4310099999999
 30
0.0
 11
121.3124264999999
 21
440.73101
 31
0.0
  0
LINE
  5
2BD
330
1E
100
AcDbEntity
  8
0
100
AcDbLine
 10
121.3124264999999
 20
443.4310099999999
 30
0.0
 11
121.3124264999999
 21
445.8310099999999
 31
0.0
  0
LINE
  5
2BE
330
1E
100
AcDbEntity
  8
0
100
AcDbLine
 10
121.3124264999999
 20
440.73101
 30
0.0
 11
121.3124264999999
 21
437.7310099999999
 31
0.0
  0
LINE
  5
2BF
330
1E
100
AcDbEntity
  8
0
100
AcDbLine
 10
121.3124264999999
 20
440.73101
 30
0.0
 11
121.3124264999999
 21
443.4310099999999
 31
0.0
  0
LINE
  5
2C0
330
1E
100
AcDbEntity
  8
0
100
AcDbLine
 10
121.8124264999999
 20
443.7310099999999
 30
0.0
 11
121.8124264999999
 21
440.8310099999999
 31
0.0
  0
LINE
  5
2C1
330
1E
100
AcDbEntity
  8
0
100
AcDbLine
 10
121.8124264999999
 20
443.7310099999999
 30
0.0
 11
121.8124264999999
 21
446.2310099999999
 31
0.0
  0
LINE
  5
2C3
330
1E
100
AcDbEntity
  8
0
100
AcDbLine
 10
133.8124264999999
 20
441.89001
 30
0.0
 11
133.8124264999999
 21
426.3900099999999
 31
0.0
  0
LINE
  5
2C4
330
1E
100
AcDbEntity
  8
0
100
AcDbLine
 10
133.8124264999999
 20
441.89001
 30
0.0
 11
133.8124264999999
 21
453.23101
 31
0.0
  0
LINE
  5
2C5
330
1E
100
AcDbEntity
  8
0
100
AcDbLine
 10
133.8124264999999
 20
443.7310099999999
 30
0.0
 11
133.8124264999999
 21
446.2310099999999
 31
0.0
  0
LINE
  5
2C6
330
1E
100
AcDbEntity
  8
0
100
AcDbLine
 10
133.8124264999999
 20
440.8310099999999
 30
0.0
 11
133.8124264999999
 21
443.7310099999999
 31
0.0
  0
LINE
  5
2C7
330
1E
100
AcDbEntity
  8
0
100
AcDbLine
 10
121.8124264999999
 20
440.8310099999999
 30
0.0
 11
121.8124264999999
 21
437.7310099999999
 31
0.0
  0
LINE
  5
2C8
330
1E
100
AcDbEntity
  8
0
100
AcDbLine
 10
121.8124264999999
 20
440.8310099999999
 30
0.0
 11
121.8124264999999
 21
443.7310099999999
 31
0.0
  0
LINE
  5
2C9
330
1E
100
AcDbEntity
  8
0
100
AcDbLine
 10
121.3124264999999
 20
445.8310099999999
 30
0.0
 11
121.3124264999999
 21
447.7310099999999
 31
0.0
  0
LINE
  5
2CA
330
1E
100
AcDbEntity
  8
0
100
AcDbLine
 10
121.3124264999999
 20
445.8310099999999
 30
0.0
 11
121.3124264999999
 21
443.4310099999999
 31
0.0
  0
LINE
  5
2CB
330
1E
100
AcDbEntity
  8
0
100
AcDbLine
 10
118.8124264999999
 20
443.7310099999999
 30
0.0
 11
118.8124264999999
 21
445.8310099999999
 31
0.0
  0
LINE
  5
2CC
330
1E
100
AcDbEntity
  8
0
100
AcDbLine
 10
121.8124264999999
 20
437.7310099999999
 30
0.0
 11
121.8124264999999
 21
434.6310099999999
 31
0.0
  0
LINE
  5
2CD
330
1E
100
AcDbEntity
  8
0
100
AcDbLine
 10
121.8124264999999
 20
437.7310099999999
 30
0.0
 11
121.8124264999999
 21
440.8310099999999
 31
0.0
  0
LINE
  5
2CE
330
1E
100
AcDbEntity
  8
0
100
AcDbLine
 10
101.7212265000009
 20
430.464770000001
 30
0.0
 11
102.1437697835819
 21
431.2310099999999
 31
0.0
  0
LINE
  5
2D0
330
1E
100
AcDbEntity
  8
0
100
AcDbLine
 10
99.51242650000001
 20
447.4310099999999
 30
0.0
 11
101.7124265
 21
444.5810099999999
 31
0.0
  0
LINE
  5
2D1
330
1E
100
AcDbEntity
  8
0
100
AcDbLine
 10
119.3124264999999
 20
446.2310099999999
 30
0.0
 11
119.3124264999999
 21
448.1310099999999
 31
0.0
  0
LINE
  5
2D2
330
1E
100
AcDbEntity
  8
0
100
AcDbLine
 10
119.3124264999999
 20
446.2310099999999
 30
0.0
 11
119.3124264999999
 21
443.7310099999999
 31
0.0
  0
LINE
  5
2D3
330
1E
100
AcDbEntity
  8
0
100
AcDbLine
 10
120.8124264999999
 20
446.2310099999999
 30
0.0
 11
120.8124264999999
 21
448.1310099999999
 31
0.0
  0
LINE
  5
2D4
330
1E
100
AcDbEntity
  8
0
100
AcDbLine
 10
120.8124264999999
 20
446.2310099999999
 30
0.0
 11
120.8124264999999
 21
443.7310099999999
 31
0.0
  0
LINE
  5
2D5
330
1E
100
AcDbEntity
  8
0
100
AcDbLine
 10
121.8124264999999
 20
446.2310099999999
 30
0.0
 11
121.8124264999999
 21
448.1310099999999
 31
0.0
  0
LINE
  5
2D6
330
1E
100
AcDbEntity
  8
0
100
AcDbLine
 10
121.8124264999999
 20
446.2310099999999
 30
0.0
 11
121.8124264999999
 21
443.7310099999999
 31
0.0
  0
LINE
  5
2D7
330
1E
100
AcDbEntity
  8
0
100
AcDbLine
 10
133.8124264999999
 20
446.2310099999999
 30
0.0
 11
133.8124264999999
 21
448.1310099999999
 31
0.0
  0
LINE
  5
2D8
330
1E
100
AcDbEntity
  8
0
100
AcDbLine
 10
118.8124264999999
 20
447.7310099999999
 30
0.0
 11
118.8124264999999
 21
448.8310099999999
 31
0.0
  0
LINE
  5
2D9
330
1E
100
AcDbEntity
  8
0
100
AcDbLine
 10
118.8124264999999
 20
447.7310099999999
 30
0.0
 11
118.8124264999999
 21
445.8310099999999
 31
0.0
  0
LINE
  5
2DA
330
1E
100
AcDbEntity
  8
0
100
AcDbLine
 10
118.8124264999999
 20
448.8310099999999
 30
0.0
 11
118.8124264999999
 21
449.23101
 31
0.0
  0
LINE
  5
2DB
330
1E
100
AcDbEntity
  8
0
100
AcDbLine
 10
118.8124264999999
 20
448.8310099999999
 30
0.0
 11
118.8124264999999
 21
447.7310099999999
 31
0.0
  0
LINE
  5
2DC
330
1E
100
AcDbEntity
  8
0
100
AcDbLine
 10
119.3124264999999
 20
448.1310099999999
 30
0.0
 11
119.3124264999999
 21
446.2310099999999
 31
0.0
  0
LINE
  5
2DD
330
1E
100
AcDbEntity
  8
0
100
AcDbLine
 10
119.3124264999999
 20
448.1310099999999
 30
0.0
 11
119.3124264999999
 21
449.3310099999999
 31
0.0
  0
LINE
  5
2DE
330
1E
100
AcDbEntity
  8
0
100
AcDbLine
 10
120.8124264999999
 20
448.1310099999999
 30
0.0
 11
120.8124264999999
 21
446.2310099999999
 31
0.0
  0
LINE
  5
2DF
330
1E
100
AcDbEntity
  8
0
100
AcDbLine
 10
120.8124264999999
 20
448.1310099999999
 30
0.0
 11
120.8124264999999
 21
449.3310099999999
 31
0.0
  0
LINE
  5
2E0
330
1E
100
AcDbEntity
  8
0
100
AcDbLine
 10
121.3124264999999
 20
447.7310099999999
 30
0.0
 11
121.3124264999999
 21
445.8310099999999
 31
0.0
  0
LINE
  5
2E1
330
1E
100
AcDbEntity
  8
0
100
AcDbLine
 10
121.3124264999999
 20
447.7310099999999
 30
0.0
 11
121.3124264999999
 21
448.8310099999999
 31
0.0
  0
LINE
  5
2E2
330
1E
100
AcDbEntity
  8
0
100
AcDbLine
 10
121.3124264999999
 20
448.8310099999999
 30
0.0
 11
121.3124264999999
 21
447.7310099999999
 31
0.0
  0
LINE
  5
2E3
330
1E
100
AcDbEntity
  8
0
100
AcDbLine
 10
121.3124264999999
 20
448.8310099999999
 30
0.0
 11
121.3124264999999
 21
449.23101
 31
0.0
  0
LINE
  5
2E4
330
1E
100
AcDbEntity
  8
0
100
AcDbLine
 10
121.8124264999999
 20
448.1310099999999
 30
0.0
 11
121.8124264999999
 21
446.2310099999999
 31
0.0
  0
LINE
  5
2E5
330
1E
100
AcDbEntity
  8
0
100
AcDbLine
 10
121.8124264999999
 20
448.1310099999999
 30
0.0
 11
121.8124264999999
 21
449.3310099999999
 31
0.0
  0
LINE
  5
2E6
330
1E
100
AcDbEntity
  8
0
100
AcDbLine
 10
118.8124264999999
 20
449.23101
 30
0.0
 11
119.3124264999999
 21
449.7310099999999
 31
0.0
  0
LINE
  5
2E7
330
1E
100
AcDbEntity
  8
0
100
AcDbLine
 10
118.8124264999999
 20
449.23101
 30
0.0
 11
118.8124264999999
 21
448.8310099999999
 31
0.0
  0
LINE
  5
2E8
330
1E
100
AcDbEntity
  8
0
100
AcDbLine
 10
119.3124264999999
 20
449.3310099999999
 30
0.0
 11
119.3124264999999
 21
448.1310099999999
 31
0.0
  0
LINE
  5
2E9
330
1E
100
AcDbEntity
  8
0
100
AcDbLine
 10
119.3124264999999
 20
449.3310099999999
 30
0.0
 11
119.3124264999999
 21
449.7310099999999
 31
0.0
  0
LINE
  5
2EA
330
1E
100
AcDbEntity
  8
0
100
AcDbLine
 10
120.8124264999999
 20
449.3310099999999
 30
0.0
 11
120.8124264999999
 21
448.1310099999999
 31
0.0
  0
LINE
  5
2EB
330
1E
100
AcDbEntity
  8
0
100
AcDbLine
 10
120.8124264999999
 20
449.3310099999999
 30
0.0
 11
120.8124264999999
 21
449.7310099999999
 31
0.0
  0
LINE
  5
2EC
330
1E
100
AcDbEntity
  8
0
100
AcDbLine
 10
119.3124264999999
 20
449.7310099999999
 30
0.0
 11
120.8124264999999
 21
449.7310099999999
 31
0.0
  0
LINE
  5
2ED
330
1E
100
AcDbEntity
  8
0
100
AcDbLine
 10
119.3124264999999
 20
449.7310099999999
 30
0.0
 11
119.3124264999999
 21
449.3310099999999
 31
0.0
  0
LINE
  5
2EE
330
1E
100
AcDbEntity
  8
0
100
AcDbLine
 10
121.8124264999999
 20
449.3310099999999
 30
0.0
 11
121.8124264999999
 21
448.1310099999999
 31
0.0
  0
LINE
  5
2EF
330
1E
100
AcDbEntity
  8
0
100
AcDbLine
 10
121.8124264999999
 20
449.3310099999999
 30
0.0
 11
121.8124264999999
 21
449.7310099999999
 31
0.0
  0
LINE
  5
2F0
330
1E
100
AcDbEntity
  8
0
100
AcDbLine
 10
120.8124264999999
 20
449.7310099999999
 30
0.0
 11
121.3124264999999
 21
449.23101
 31
0.0
  0
LINE
  5
2F1
330
1E
100
AcDbEntity
  8
0
100
AcDbLine
 10
120.8124264999999
 20
449.7310099999999
 30
0.0
 11
120.8124264999999
 21
449.3310099999999
 31
0.0
  0
LINE
  5
2F2
330
1E
100
AcDbEntity
  8
0
100
AcDbLine
 10
121.3124264999999
 20
449.23101
 30
0.0
 11
121.8124264999999
 21
449.7310099999999
 31
0.0
  0
LINE
  5
2F3
330
1E
100
AcDbEntity
  8
0
100
AcDbLine
 10
121.3124264999999
 20
449.23101
 30
0.0
 11
121.3124264999999
 21
448.8310099999999
 31
0.0
  0
LINE
  5
2F4
330
1E
100
AcDbEntity
  8
0
100
AcDbLine
 10
133.8124264999999
 20
448.1310099999999
 30
0.0
 11
133.8124264999999
 21
449.3310099999999
 31
0.0
  0
LINE
  5
2F5
330
1E
100
AcDbEntity
  8
0
100
AcDbLine
 10
133.8124264999999
 20
449.7310099999999
 30
0.0
 11
133.8124264999999
 21
453.23101
 31
0.0
  0
LINE
  5
2F6
330
1E
100
AcDbEntity
  8
0
100
AcDbLine
 10
133.8124264999999
 20
449.3310099999999
 30
0.0
 11
133.8124264999999
 21
449.7310099999999
 31
0.0
  0
LINE
  5
2F7
330
1E
100
AcDbEntity
  8
0
100
AcDbLine
 10
121.8124264999999
 20
449.7310099999999
 30
0.0
 11
133.8124264999999
 21
449.7310099999999
 31
0.0
  0
LINE
  5
2F8
330
1E
100
AcDbEntity
  8
0
100
AcDbLine
 10
121.8124264999999
 20
449.7310099999999
 30
0.0
 11
121.8124264999999
 21
449.3310099999999
 31
0.0
  0
LINE
  5
2F9
330
1E
100
AcDbEntity
  8
0
100
AcDbLine
 10
99.72442650000001
 20
447.6430099999999
 30
0.0
 11
101.721226500004
 21
444.9972499999949
 31
0.0
  0
LINE
  5
2FB
330
1E
100
AcDbEntity
  8
0
100
AcDbLine
 10
98.30022650000001
 20
446.2190099999999
 30
0.0
 11
99.8263344062375
 21
444.2310099999999
 31
0.0
  0
LINE
  5
2FC
330
1E
100
AcDbEntity
  8
0
100
AcDbLine
 10
98.06612649999999
 20
445.9850099999999
 30
0.0
 11
98.85572860384002
 21
444.9485334221201
 31
0.0
  0
LINE
  5
2FD
330
1E
100
AcDbEntity
  8
0
100
AcDbLine
 10
98.06612649999999
 20
429.47701
 30
0.0
 11
98.85572860384002
 21
430.5134865778799
 31
0.0
  0
LINE
  5
2FE
330
1E
100
AcDbEntity
  8
0
100
AcDbLine
 10
97.2331609434706
 20
425.2310099999999
 30
0.0
 11
133.8124264999999
 21
425.2310099999999
 31
0.0
  0
LINE
  5
2FF
330
1E
100
AcDbEntity
  8
0
100
AcDbLine
 10
88.3644265
 20
450.4350099999999
 30
0.0
 11
88.6694265
 21
448.1530099999999
 31
0.0
  0
LINE
  5
300
330
1E
100
AcDbEntity
  8
0
100
AcDbLine
 10
88.0294265
 20
453.1890099999999
 30
0.0
 11
88.3644265
 21
450.4350099999999
 31
0.0
  0
LINE
  5
301
330
1E
100
AcDbEntity
  8
0
100
AcDbLine
 10
88.0294265
 20
453.1890099999999
 30
0.0
 11
88.05542649999999
 21
452.8690099999999
 31
0.0
  0
LINE
  5
302
330
1E
100
AcDbEntity
  8
0
100
AcDbLine
 10
97.46487914001079
 20
452.115793792805
 30
0.0
 11
97.5694265
 21
452.8690099999999
 31
0.0
  0
LINE
  5
303
330
1E
100
AcDbEntity
  8
0
100
AcDbLine
 10
97.5694265
 20
452.8690099999999
 30
0.0
 11
97.5954265
 21
453.1890099999999
 31
0.0
  0
LINE
  5
304
330
1E
100
AcDbEntity
  8
0
100
AcDbLine
 10
97.5694265
 20
452.8690099999999
 30
0.0
 11
97.85507664682942
 21
454.93512028532
 31
0.0
  0
LINE
  5
305
330
1E
100
AcDbEntity
  8
0
100
AcDbLine
 10
97.26042650000001
 20
450.4350099999999
 30
0.0
 11
97.5954265
 21
453.1890099999999
 31
0.0
  0
LINE
  5
306
330
1E
100
AcDbEntity
  8
0
100
AcDbLine
 10
97.5954265
 20
453.1890099999999
 30
0.0
 11
98.12242650000001
 21
456.7330099999999
 31
0.0
  0
LINE
  5
307
330
1E
100
AcDbEntity
  8
0
100
AcDbLine
 10
86.2624265
 20
450.98101
 30
0.0
 11
88.25940402183011
 21
451.2622744396939
 31
0.0
  0
LINE
  5
308
330
1E
100
AcDbEntity
  8
0
100
AcDbLine
 10
97.23316094347071
 20
450.2310099999999
 30
0.0
 11
133.8124264999999
 21
450.2310099999999
 31
0.0
  0
LINE
  5
309
330
1E
100
AcDbEntity
  8
0
100
AcDbLine
 10
58.8124265
 20
450.2310099999999
 30
0.0
 11
84.42909316666669
 21
450.2310099999999
 31
0.0
  0
LINE
  5
30A
330
1E
100
AcDbEntity
  8
0
100
AcDbLine
 10
97.5694265
 20
422.5930099999999
 30
0.0
 11
97.8550766468296
 21
420.526899714679
 31
0.0
  0
LINE
  5
30B
330
1E
100
AcDbEntity
  8
0
100
AcDbLine
 10
97.5694265
 20
422.5930099999999
 30
0.0
 11
97.5954265
 21
422.2730099999999
 31
0.0
  0
LINE
  5
30C
330
1E
100
AcDbEntity
  8
0
100
AcDbLine
 10
133.8124264999999
 20
450.2310099999999
 30
0.0
 11
133.8124264999999
 21
453.23101
 31
0.0
  0
LINE
  5
30D
330
1E
100
AcDbEntity
  8
0
100
AcDbLine
 10
7.26217649999999
 20
453.25001
 30
0.0
 11
8.30926649999999
 21
454.0670099999999
 31
0.0
  0
LINE
  5
30E
330
1E
100
AcDbEntity
  8
0
100
AcDbLine
 10
6.98702649999999
 20
454.6180099999999
 30
0.0
 11
8.60193064754487
 21
454.1854128023119
 31
0.0
  0
LINE
  5
30F
330
1E
100
AcDbEntity
  8
0
100
AcDbLine
 10
8.30926649999999
 20
454.0670099999999
 30
0.0
 11
9.540206499999991
 21
454.5650099999999
 31
0.0
  0
LINE
  5
310
330
1E
100
AcDbEntity
  8
0
100
AcDbLine
 10
9.790626499999991
 20
453.5900099999999
 30
0.0
 11
10.8202265
 21
453.7240099999999
 31
0.0
  0
LINE
  5
311
330
1E
100
AcDbEntity
  8
0
100
AcDbLine
 10
9.540206499999991
 20
454.5650099999999
 30
0.0
 11
10.8235265
 21
454.7180099999999
 31
0.0
  0
LINE
  5
312
330
1E
100
AcDbEntity
  8
0
100
AcDbLine
 10
8.002846499999989
 20
454.6250099999999
 30
0.0
 11
9.01683569926415
 21
454.353270468612
 31
0.0
  0
LINE
  5
313
330
1E
100
AcDbEntity
  8
0
100
AcDbLine
 10
7.17262649999999
 20
454.8470099999999
 30
0.0
 11
9.016779378229561
 21
454.353247682875
 31
0.0
  0
LINE
  5
314
330
1E
100
AcDbEntity
  8
0
100
AcDbLine
 10
10.11942649999999
 20
454.8340099999999
 30
0.0
 11
10.63592300035359
 21
454.695643532209
 31
0.0
  0
LINE
  5
315
330
1E
100
AcDbEntity
  8
0
100
AcDbLine
 10
13.2963265
 20
454.0550099999999
 30
0.0
 11
14.3312265
 21
453.2810099999999
 31
0.0
  0
LINE
  5
316
330
1E
100
AcDbEntity
  8
0
100
AcDbLine
 10
11.84772649999999
 20
453.5950099999999
 30
0.0
 11
12.8021265
 21
453.1930099999999
 31
0.0
  0
LINE
  5
317
330
1E
100
AcDbEntity
  8
0
100
AcDbLine
 10
10.8202265
 20
453.7240099999999
 30
0.0
 11
11.84772649999999
 21
453.5950099999999
 31
0.0
  0
LINE
  5
318
330
1E
100
AcDbEntity
  8
0
100
AcDbLine
 10
10.8235265
 20
454.7180099999999
 30
0.0
 11
12.1065265
 21
454.5610099999999
 31
0.0
  0
LINE
  5
319
330
1E
100
AcDbEntity
  8
0
100
AcDbLine
 10
12.1065265
 20
454.5610099999999
 30
0.0
 11
13.9159265
 21
454.0760099999999
 31
0.0
  0
LINE
  5
31A
330
1E
100
AcDbEntity
  8
0
100
AcDbLine
 10
12.1065265
 20
454.5610099999999
 30
0.0
 11
13.2963265
 21
454.0550099999999
 31
0.0
  0
LINE
  5
31B
330
1E
100
AcDbEntity
  8
0
100
AcDbLine
 10
14.3312265
 20
453.2810099999999
 30
0.0
 11
15.1480265
 21
452.23401
 31
0.0
  0
LINE
  5
31C
330
1E
100
AcDbEntity
  8
0
100
AcDbLine
 10
15.7735265
 20
453.3190099999999
 30
0.0
 11
17.3567265
 21
452.8950099999999
 31
0.0
  0
LINE
  5
31D
330
1E
100
AcDbEntity
  8
0
100
AcDbLine
 10
87.76977635317029
 20
454.9351202853209
 30
0.0
 11
88.05542649999999
 21
452.8690099999999
 31
0.0
  0
LINE
  5
31E
330
1E
100
AcDbEntity
  8
0
100
AcDbLine
 10
13.9159265
 20
454.0760099999999
 30
0.0
 11
15.5744265
 21
453.6310099999999
 31
0.0
  0
LINE
  5
31F
330
1E
100
AcDbEntity
  8
0
100
AcDbLine
 10
13.9642265
 20
453.8040099999999
 30
0.0
 11
15.7735265
 21
453.3190099999999
 31
0.0
  0
LINE
  5
320
330
1E
100
AcDbEntity
  8
0
100
AcDbLine
 10
13.4464781456064
 20
453.942711832352
 30
0.0
 11
13.9642265
 21
453.8040099999999
 31
0.0
  0
LINE
  5
321
330
1E
100
AcDbEntity
  8
0
100
AcDbLine
 10
15.5744265
 20
453.6310099999999
 30
0.0
 11
18.1376265
 21
452.94501
 31
0.0
  0
LINE
  5
322
330
1E
100
AcDbEntity
  8
0
100
AcDbLine
 10
10.2972265
 20
455.0450099999999
 30
0.0
 11
12.1065265
 21
454.5610099999999
 31
0.0
  0
LINE
  5
323
330
1E
100
AcDbEntity
  8
0
100
AcDbLine
 10
3.69528649999999
 20
455.77901
 30
0.0
 11
5.20213649999999
 21
455.37501
 31
0.0
  0
LINE
  5
324
330
1E
100
AcDbEntity
  8
0
100
AcDbLine
 10
3.39378649999999
 20
455.5810099999999
 30
0.0
 11
4.93926649999999
 21
455.1670099999999
 31
0.0
  0
LINE
  5
325
330
1E
100
AcDbEntity
  8
0
100
AcDbLine
 10
2.46649649999999
 20
455.8300099999999
 30
0.0
 11
3.39378649999999
 21
455.5810099999999
 31
0.0
  0
LINE
  5
326
330
1E
100
AcDbEntity
  8
0
100
AcDbLine
 10
2.76799649999999
 20
456.0280099999999
 30
0.0
 11
3.69528649999999
 21
455.77901
 31
0.0
  0
LINE
  5
327
330
1E
100
AcDbEntity
  8
0
100
AcDbLine
 10
2.42026649999999
 20
456.1210099999999
 30
0.0
 11
2.76799649999999
 21
456.0280099999999
 31
0.0
  0
LINE
  5
328
330
1E
100
AcDbEntity
  8
0
100
AcDbLine
 10
2.118766499999989
 20
455.9230099999999
 30
0.0
 11
2.46649649999999
 21
455.8300099999999
 31
0.0
  0
LINE
  5
329
330
1E
100
AcDbEntity
  8
0
100
AcDbLine
 10
2.118766499999989
 20
455.9230099999999
 30
0.0
 11
2.42026649999999
 21
456.1210099999999
 31
0.0
  0
LINE
  5
32A
330
1E
100
AcDbEntity
  8
0
100
AcDbLine
 10
5.20213649999999
 20
455.37501
 30
0.0
 11
7.17262649999999
 21
454.8470099999999
 31
0.0
  0
LINE
  5
32B
330
1E
100
AcDbEntity
  8
0
100
AcDbLine
 10
4.93926649999999
 20
455.1670099999999
 30
0.0
 11
6.98702649999999
 21
454.6180099999999
 31
0.0
  0
LINE
  5
32C
330
1E
100
AcDbEntity
  8
0
100
AcDbLine
 10
8.310046499999989
 20
455.3190099999999
 30
0.0
 11
10.11942649999999
 21
454.8340099999999
 31
0.0
  0
LINE
  5
32D
330
1E
100
AcDbEntity
  8
0
100
AcDbLine
 10
5.13805649999999
 20
455.3930099999999
 30
0.0
 11
6.38197649999999
 21
455.0590099999999
 31
0.0
  0
LINE
  5
32E
330
1E
100
AcDbEntity
  8
0
100
AcDbLine
 10
4.38415649999999
 20
455.5950099999999
 30
0.0
 11
5.13805649999999
 21
455.3930099999999
 31
0.0
  0
LINE
  5
32F
330
1E
100
AcDbEntity
  8
0
100
AcDbLine
 10
87.5024265
 20
456.7330099999999
 30
0.0
 11
88.0294265
 21
453.1890099999999
 31
0.0
  0
LINE
  5
330
330
1E
100
AcDbEntity
  8
0
100
AcDbLine
 10
86.90442649999999
 20
462.60601
 30
0.0
 11
87.2884265
 21
464.1060099999999
 31
0.0
  0
LINE
  5
331
330
1E
100
AcDbEntity
  8
0
100
AcDbLine
 10
86.90442649999999
 20
462.60601
 30
0.0
 11
87.0244265
 21
460.7080099999999
 31
0.0
  0
LINE
  5
332
330
1E
100
AcDbEntity
  8
0
100
AcDbLine
 10
86.98127104756379
 20
461.390585406033
 30
0.0
 11
87.0244265
 21
460.7080099999999
 31
0.0
  0
LINE
  5
333
330
1E
100
AcDbEntity
  8
0
100
AcDbLine
 10
86.98127104756379
 20
461.390585406033
 30
0.0
 11
87.0054265
 21
460.83501
 31
0.0
  0
LINE
  5
334
330
1E
100
AcDbEntity
  8
0
100
AcDbLine
 10
86.9234265
 20
462.72101
 30
0.0
 11
87.00298649999979
 21
462.991009999999
 31
0.0
  0
LINE
  5
335
330
1E
100
AcDbEntity
  8
0
100
AcDbLine
 10
86.92494217944249
 20
462.686149372822
 30
0.0
 11
87.00298649999979
 21
462.991009999999
 31
0.0
  0
LINE
  5
338
330
1E
100
AcDbEntity
  8
0
100
AcDbLine
 10
87.2884265
 20
464.1060099999999
 30
0.0
 11
87.9994265
 21
465.2020099999999
 31
0.0
  0
LINE
  5
339
330
1E
100
AcDbEntity
  8
0
100
AcDbLine
 10
87.9994265
 20
465.2020099999999
 30
0.0
 11
88.7684265
 21
465.8560099999999
 31
0.0
  0
LINE
  5
33B
330
1E
100
AcDbEntity
  8
0
100
AcDbLine
 10
88.07245226733281
 20
465.2641151389279
 30
0.0
 11
88.7684265
 21
465.8560099999999
 31
0.0
  0
LINE
  5
33C
330
1E
100
AcDbEntity
  8
0
100
AcDbLine
 10
88.0954265
 20
465.2980099999999
 30
0.0
 11
88.2857713275864
 21
465.4455334294429
 31
0.0
  0
LINE
  5
33D
330
1E
100
AcDbEntity
  8
0
100
AcDbLine
 10
87.0054265
 20
460.83501
 30
0.0
 11
87.08516505190241
 21
460.202914301648
 31
0.0
  0
LINE
  5
33E
330
1E
100
AcDbEntity
  8
0
100
AcDbLine
 10
87.0244265
 20
460.7080099999999
 30
0.0
 11
87.08516505190241
 21
460.202914301648
 31
0.0
  0
LINE
  5
33F
330
1E
100
AcDbEntity
  8
0
100
AcDbLine
 10
87.0244265
 20
460.7080099999999
 30
0.0
 11
87.5024265
 21
456.7330099999999
 31
0.0
  0
LINE
  5
340
330
1E
100
AcDbEntity
  8
0
100
AcDbLine
 10
5.13300649999999
 20
456.42901
 30
0.0
 11
10.2972265
 21
455.0450099999999
 31
0.0
  0
LINE
  5
341
330
1E
100
AcDbEntity
  8
0
100
AcDbLine
 10
5.52063649999999
 20
456.0660099999999
 30
0.0
 11
6.72686649999999
 21
455.7430099999999
 31
0.0
  0
LINE
  5
342
330
1E
100
AcDbEntity
  8
0
100
AcDbLine
 10
4.76674649999999
 20
456.26901
 30
0.0
 11
5.52063649999999
 21
456.0660099999999
 31
0.0
  0
LINE
  5
343
330
1E
100
AcDbEntity
  8
0
100
AcDbLine
 10
6.72686649999999
 20
455.7430099999999
 30
0.0
 11
8.310046499999989
 21
455.3190099999999
 31
0.0
  0
LINE
  5
344
330
1E
100
AcDbEntity
  8
0
100
AcDbLine
 10
4.50287649999999
 20
456.3390099999999
 30
0.0
 11
5.13300649999999
 21
456.42901
 31
0.0
  0
LINE
  5
345
330
1E
100
AcDbEntity
  8
0
100
AcDbLine
 10
4.50287649999999
 20
456.3390099999999
 30
0.0
 11
4.76674649999999
 21
456.26901
 31
0.0
  0
LINE
  5
346
330
1E
100
AcDbEntity
  8
0
100
AcDbLine
 10
4.138404862604339
 20
455.6602059926389
 30
0.0
 11
4.38415649999999
 21
455.5950099999999
 31
0.0
  0
LINE
  5
347
330
1E
100
AcDbEntity
  8
0
100
AcDbLine
 10
4.120321628713879
 20
455.6650542698339
 30
0.0
 11
4.50287649999999
 21
456.3390099999999
 31
0.0
  0
LINE
  5
348
330
1E
100
AcDbEntity
  8
0
100
AcDbLine
 10
6.38197649999999
 20
455.0590099999999
 30
0.0
 11
8.002846499999989
 21
454.6250099999999
 31
0.0
  0
LINE
  5
34B
330
1E
100
AcDbEntity
  8
0
100
AcDbLine
 10
95.7414265
 20
466.3750099999999
 30
0.0
 11
96.8564265
 21
465.8560099999999
 31
0.0
  0
LINE
  5
34C
330
1E
100
AcDbEntity
  8
0
100
AcDbLine
 10
96.8564265
 20
465.8560099999999
 30
0.0
 11
97.55233718994791
 21
465.2641691791599
 31
0.0
  0
LINE
  5
34D
330
1E
100
AcDbEntity
  8
0
100
AcDbLine
 10
96.8564265
 20
465.8560099999999
 30
0.0
 11
97.6254265
 21
465.2020099999999
 31
0.0
  0
LINE
  5
34E
330
1E
100
AcDbEntity
  8
0
100
AcDbLine
 10
97.33908167241372
 20
465.4455334294429
 30
0.0
 11
97.52942650000001
 21
465.2980099999999
 31
0.0
  0
LINE
  5
34F
330
1E
100
AcDbEntity
  8
0
100
AcDbLine
 10
88.7684265
 20
465.8560099999999
 30
0.0
 11
89.88342649999999
 21
466.3750099999999
 31
0.0
  0
LINE
  5
350
330
1E
100
AcDbEntity
  8
0
100
AcDbLine
 10
92.81242650000001
 20
466.7310099999999
 30
0.0
 11
95.7414265
 21
466.3750099999999
 31
0.0
  0
LINE
  5
351
330
1E
100
AcDbEntity
  8
0
100
AcDbLine
 10
89.88342649999999
 20
466.3750099999999
 30
0.0
 11
92.81242650000001
 21
466.7310099999999
 31
0.0
  0
LINE
  5
352
330
1E
100
AcDbEntity
  8
0
100
AcDbLine
 10
98.12242650000001
 20
456.7330099999999
 30
0.0
 11
98.6004265
 21
460.7080099999999
 31
0.0
  0
LINE
  5
354
330
1E
100
AcDbEntity
  8
0
100
AcDbLine
 10
98.33642650000001
 20
464.1060099999999
 30
0.0
 11
98.7204265
 21
462.60601
 31
0.0
  0
LINE
  5
355
330
1E
100
AcDbEntity
  8
0
100
AcDbLine
 10
98.61942650000001
 20
460.83501
 30
0.0
 11
98.64358195243619
 21
461.390585406032
 31
0.0
  0
LINE
  5
356
330
1E
100
AcDbEntity
  8
0
100
AcDbLine
 10
98.6004265
 20
460.7080099999999
 30
0.0
 11
98.64358195243619
 21
461.390585406032
 31
0.0
  0
LINE
  5
357
330
1E
100
AcDbEntity
  8
0
100
AcDbLine
 10
98.6004265
 20
460.7080099999999
 30
0.0
 11
98.7204265
 21
462.60601
 31
0.0
  0
LINE
  5
358
330
1E
100
AcDbEntity
  8
0
100
AcDbLine
 10
98.62186650000021
 20
462.991009999999
 30
0.0
 11
98.7014265
 21
462.72101
 31
0.0
  0
LINE
  5
359
330
1E
100
AcDbEntity
  8
0
100
AcDbLine
 10
98.53968794809759
 20
460.202914301649
 30
0.0
 11
98.61942650000001
 21
460.83501
 31
0.0
  0
LINE
  5
35A
330
1E
100
AcDbEntity
  8
0
100
AcDbLine
 10
98.53968794809759
 20
460.202914301649
 30
0.0
 11
98.6004265
 21
460.7080099999999
 31
0.0
  0
LINE
  5
35B
330
1E
100
AcDbEntity
  8
0
100
AcDbLine
 10
120.6124264999999
 20
504.0650099999999
 30
0.0
 11
125.6124264999999
 21
504.0650099999999
 31
0.0
  0
LINE
  5
35C
330
1E
100
AcDbEntity
  8
0
100
AcDbLine
 10
118.8124264999999
 20
504.0650099999999
 30
0.0
 11
120.6124264999999
 21
504.0650099999999
 31
0.0
  0
LINE
  5
35D
330
1E
100
AcDbEntity
  8
0
100
AcDbLine
 10
125.6124264999999
 20
504.0650099999999
 30
0.0
 11
133.8124264999999
 21
504.0650099999999
 31
0.0
  0
LINE
  5
35E
330
1E
100
AcDbEntity
  8
0
100
AcDbLine
 10
126.5124264999999
 20
504.0650099999999
 30
0.0
 11
134.5124265
 21
504.0650099999999
 31
0.0
  0
LINE
  5
35F
330
1E
100
AcDbEntity
  8
0
100
AcDbLine
 10
121.6124264999999
 20
504.0650099999999
 30
0.0
 11
126.5124264999999
 21
504.0650099999999
 31
0.0
  0
LINE
  5
360
330
1E
100
AcDbEntity
  8
0
100
AcDbLine
 10
117.3124264999999
 20
508.0660099999999
 30
0.0
 11
119.2124264999999
 21
508.0660099999999
 31
0.0
  0
LINE
  5
361
330
1E
100
AcDbEntity
  8
0
100
AcDbLine
 10
117.3124264999999
 20
508.0660099999999
 30
0.0
 11
118.8124264999999
 21
508.5660099999999
 31
0.0
  0
LINE
  5
362
330
1E
100
AcDbEntity
  8
0
100
AcDbLine
 10
116.8124264999999
 20
506.56501
 30
0.0
 11
116.8124264999999
 21
506.06501
 31
0.0
  0
LINE
  5
363
330
1E
100
AcDbEntity
  8
0
100
AcDbLine
 10
116.8124264999999
 20
506.56501
 30
0.0
 11
117.3124264999999
 21
508.0660099999999
 31
0.0
  0
LINE
  5
364
330
1E
100
AcDbEntity
  8
0
100
AcDbLine
 10
116.8124264999999
 20
506.06501
 30
0.0
 11
117.3124264999999
 21
504.5660099999999
 31
0.0
  0
LINE
  5
365
330
1E
100
AcDbEntity
  8
0
100
AcDbLine
 10
116.8124264999999
 20
506.06501
 30
0.0
 11
116.8124264999999
 21
506.56501
 31
0.0
  0
LINE
  5
366
330
1E
100
AcDbEntity
  8
0
100
AcDbLine
 10
132.8124264999999
 20
504.5650099999999
 30
0.0
 11
143.7124265
 21
504.5660099999999
 31
0.0
  0
LINE
  5
367
330
1E
100
AcDbEntity
  8
0
100
AcDbLine
 10
124.3124264999999
 20
504.5660099999999
 30
0.0
 11
132.8124264999999
 21
504.5650099999999
 31
0.0
  0
LINE
  5
368
330
1E
100
AcDbEntity
  8
0
100
AcDbLine
 10
118.8124264999999
 20
508.5660099999999
 30
0.0
 11
120.6124264999999
 21
508.5650099999999
 31
0.0
  0
LINE
  5
369
330
1E
100
AcDbEntity
  8
0
100
AcDbLine
 10
118.8124264999999
 20
508.5660099999999
 30
0.0
 11
119.3124264999999
 21
514.0650099999999
 31
0.0
  0
LINE
  5
36A
330
1E
100
AcDbEntity
  8
0
100
AcDbLine
 10
132.8124264999999
 20
508.0650099999999
 30
0.0
 11
143.7124265
 21
508.0660099999999
 31
0.0
  0
LINE
  5
36B
330
1E
100
AcDbEntity
  8
0
100
AcDbLine
 10
119.8124264999999
 20
515.5650099999999
 30
0.0
 11
121.6124264999999
 21
515.5650099999999
 31
0.0
  0
LINE
  5
36C
330
1E
100
AcDbEntity
  8
0
100
AcDbLine
 10
119.8124264999999
 20
515.5650099999999
 30
0.0
 11
121.3124264999999
 21
516.0650099999998
 31
0.0
  0
LINE
  5
36D
330
1E
100
AcDbEntity
  8
0
100
AcDbLine
 10
119.3124264999999
 20
514.0650099999999
 30
0.0
 11
119.8124264999999
 21
515.5650099999999
 31
0.0
  0
LINE
  5
36E
330
1E
100
AcDbEntity
  8
0
100
AcDbLine
 10
133.8124264999999
 20
508.5650099999999
 30
0.0
 11
144.4124264999999
 21
508.5660099999999
 31
0.0
  0
LINE
  5
36F
330
1E
100
AcDbEntity
  8
0
100
AcDbLine
 10
121.3124264999999
 20
523.0650099999999
 30
0.0
 11
122.3124264999999
 21
524.5650099999998
 31
0.0
  0
LINE
  5
370
330
1E
100
AcDbEntity
  8
0
100
AcDbLine
 10
120.8124264999999
 20
521.5650099999999
 30
0.0
 11
121.3124264999999
 21
520.0650099999998
 31
0.0
  0
LINE
  5
371
330
1E
100
AcDbEntity
  8
0
100
AcDbLine
 10
120.8124264999999
 20
521.5650099999999
 30
0.0
 11
122.6124264999999
 21
521.5650099999999
 31
0.0
  0
LINE
  5
372
330
1E
100
AcDbEntity
  8
0
100
AcDbLine
 10
120.8124264999999
 20
521.5650099999999
 30
0.0
 11
121.3124264999999
 21
523.0650099999999
 31
0.0
  0
LINE
  5
373
330
1E
100
AcDbEntity
  8
0
100
AcDbLine
 10
121.3124264999999
 20
520.0650099999998
 30
0.0
 11
121.8124264999999
 21
519.0650099999999
 31
0.0
  0
LINE
  5
374
330
1E
100
AcDbEntity
  8
0
100
AcDbLine
 10
121.3124264999999
 20
518.0650099999999
 30
0.0
 11
121.3124264999999
 21
516.0650099999998
 31
0.0
  0
LINE
  5
375
330
1E
100
AcDbEntity
  8
0
100
AcDbLine
 10
121.3124264999999
 20
518.0650099999999
 30
0.0
 11
121.8124264999999
 21
519.0650099999999
 31
0.0
  0
LINE
  5
376
330
1E
100
AcDbEntity
  8
0
100
AcDbLine
 10
121.3124264999999
 20
516.0650099999998
 30
0.0
 11
123.1124264999999
 21
516.06601
 31
0.0
  0
LINE
  5
377
330
1E
100
AcDbEntity
  8
0
100
AcDbLine
 10
121.3124264999999
 20
516.0650099999998
 30
0.0
 11
121.3124264999999
 21
518.0650099999999
 31
0.0
  0
LINE
  5
378
330
1E
100
AcDbEntity
  8
0
100
AcDbLine
 10
122.3124264999999
 20
524.5650099999998
 30
0.0
 11
122.8124264999999
 21
527.0650099999999
 31
0.0
  0
LINE
  5
379
330
1E
100
AcDbEntity
  8
0
100
AcDbLine
 10
122.8124264999999
 20
527.0650099999999
 30
0.0
 11
123.3124264999999
 21
528.5650099999998
 31
0.0
  0
LINE
  5
37A
330
1E
100
AcDbEntity
  8
0
100
AcDbLine
 10
122.6124264999999
 20
521.5650099999999
 30
0.0
 11
127.4124264999999
 21
521.5650099999999
 31
0.0
  0
LINE
  5
37B
330
1E
100
AcDbEntity
  8
0
100
AcDbLine
 10
121.8124264999999
 20
519.0650099999999
 30
0.0
 11
123.5124264999999
 21
519.0650099999999
 31
0.0
  0
LINE
  5
37C
330
1E
100
AcDbEntity
  8
0
100
AcDbLine
 10
123.3124264999999
 20
528.5650099999998
 30
0.0
 11
124.3124264999999
 21
529.5650099999999
 31
0.0
  0
LINE
  5
37D
330
1E
100
AcDbEntity
  8
0
100
AcDbLine
 10
125.8124264999999
 20
530.0650099999999
 30
0.0
 11
142.8124264999999
 21
532.0650099999999
 31
0.0
  0
LINE
  5
37E
330
1E
100
AcDbEntity
  8
0
100
AcDbLine
 10
124.3124264999999
 20
529.5650099999999
 30
0.0
 11
125.8124264999999
 21
530.0650099999999
 31
0.0
  0
LINE
  5
37F
330
1E
100
AcDbEntity
  8
0
100
AcDbLine
 10
127.4124264999999
 20
521.5650099999999
 30
0.0
 11
135.2124265
 21
521.5650099999999
 31
0.0
  0
LINE
  5
380
330
1E
100
AcDbEntity
  8
0
100
AcDbLine
 10
128.2124264999999
 20
519.0650099999999
 30
0.0
 11
135.9124264999999
 21
519.06601
 31
0.0
  0
LINE
  5
381
330
1E
100
AcDbEntity
  8
0
100
AcDbLine
 10
123.5124264999999
 20
519.0650099999999
 30
0.0
 11
128.2124264999999
 21
519.0650099999999
 31
0.0
  0
LINE
  5
382
330
1E
100
AcDbEntity
  8
0
100
AcDbLine
 10
127.8124264999999
 20
516.06601
 30
0.0
 11
135.6124265
 21
516.06601
 31
0.0
  0
LINE
  5
383
330
1E
100
AcDbEntity
  8
0
100
AcDbLine
 10
123.1124264999999
 20
516.06601
 30
0.0
 11
127.8124264999999
 21
516.06601
 31
0.0
  0
LINE
  5
384
330
1E
100
AcDbEntity
  8
0
100
AcDbLine
 10
126.5124264999999
 20
515.5650099999999
 30
0.0
 11
134.5124265
 21
515.5650099999999
 31
0.0
  0
LINE
  5
385
330
1E
100
AcDbEntity
  8
0
100
AcDbLine
 10
121.6124264999999
 20
515.5650099999999
 30
0.0
 11
126.5124264999999
 21
515.5650099999999
 31
0.0
  0
LINE
  5
386
330
1E
100
AcDbEntity
  8
0
100
AcDbLine
 10
125.6124264999999
 20
508.5660099999999
 30
0.0
 11
133.8124264999999
 21
508.5650099999999
 31
0.0
  0
LINE
  5
387
330
1E
100
AcDbEntity
  8
0
100
AcDbLine
 10
120.6124264999999
 20
508.5650099999999
 30
0.0
 11
125.6124264999999
 21
508.5660099999999
 31
0.0
  0
LINE
  5
388
330
1E
100
AcDbEntity
  8
0
100
AcDbLine
 10
124.3124264999999
 20
508.0660099999999
 30
0.0
 11
132.8124264999999
 21
508.0650099999999
 31
0.0
  0
LINE
  5
389
330
1E
100
AcDbEntity
  8
0
100
AcDbLine
 10
119.2124264999999
 20
508.0660099999999
 30
0.0
 11
124.3124264999999
 21
508.0660099999999
 31
0.0
  0
LINE
  5
38A
330
1E
100
AcDbEntity
  8
0
100
AcDbLine
 10
119.2124264999999
 20
504.5660099999999
 30
0.0
 11
124.3124264999999
 21
504.5660099999999
 31
0.0
  0
LINE
  5
38B
330
1E
100
AcDbEntity
  8
0
100
AcDbLine
 10
117.3124264999999
 20
504.5660099999999
 30
0.0
 11
119.2124264999999
 21
504.5660099999999
 31
0.0
  0
LINE
  5
38C
330
1E
100
AcDbEntity
  8
0
100
AcDbLine
 10
117.3124264999999
 20
504.5660099999999
 30
0.0
 11
118.8124264999999
 21
504.0650099999999
 31
0.0
  0
LINE
  5
38D
330
1E
100
AcDbEntity
  8
0
100
AcDbLine
 10
119.8124264999999
 20
504.0650099999999
 30
0.0
 11
121.6124264999999
 21
504.0650099999999
 31
0.0
  0
LINE
  5
38E
330
1E
100
AcDbEntity
  8
0
100
AcDbLine
 10
97.6254265
 20
465.2020099999999
 30
0.0
 11
98.33642650000001
 21
464.1060099999999
 31
0.0
  0
LINE
  5
38F
330
1E
100
AcDbEntity
  8
0
100
AcDbLine
 10
133.8124264999999
 20
453.23101
 30
0.0
 11
133.8124264999999
 21
450.2310099999999
 31
0.0
  0
LINE
  5
390
330
1E
100
AcDbEntity
  8
0
100
AcDbLine
 10
133.8124264999999
 20
453.23101
 30
0.0
 11
133.8124264999999
 21
441.89001
 31
0.0
  0
LINE
  5
391
330
1E
100
AcDbEntity
  8
0
100
AcDbLine
 10
133.8124264999999
 20
453.23101
 30
0.0
 11
139.8124264999999
 21
453.23101
 31
0.0
  0
LINE
  5
392
330
1E
100
AcDbEntity
  8
0
100
AcDbLine
 10
133.8124264999999
 20
453.23101
 30
0.0
 11
133.8124264999999
 21
449.7310099999999
 31
0.0
  0
LINE
  5
393
330
1E
100
AcDbEntity
  8
0
100
AcDbLine
 10
134.5124265
 20
515.5650099999999
 30
0.0
 11
144.9124264999999
 21
515.5650099999999
 31
0.0
  0
LINE
  5
394
330
1E
100
AcDbEntity
  8
0
100
AcDbLine
 10
139.8124264999999
 20
426.3900099999999
 30
0.0
 11
139.8124264999999
 21
441.89001
 31
0.0
  0
LINE
  5
395
330
1E
100
AcDbEntity
  8
0
100
AcDbLine
 10
139.8124264999999
 20
426.3900099999999
 30
0.0
 11
139.8124264999999
 21
422.2310099999999
 31
0.0
  0
LINE
  5
396
330
1E
100
AcDbEntity
  8
0
100
AcDbLine
 10
139.8124264999999
 20
441.89001
 30
0.0
 11
139.8124264999999
 21
453.23101
 31
0.0
  0
LINE
  5
397
330
1E
100
AcDbEntity
  8
0
100
AcDbLine
 10
139.8124264999999
 20
441.89001
 30
0.0
 11
139.8124264999999
 21
426.3900099999999
 31
0.0
  0
LINE
  5
398
330
1E
100
AcDbEntity
  8
0
100
AcDbLine
 10
139.8124264999999
 20
453.23101
 30
0.0
 11
139.8124264999999
 21
441.89001
 31
0.0
  0
LINE
  5
399
330
1E
100
AcDbEntity
  8
0
100
AcDbLine
 10
139.8124264999999
 20
452.73101
 30
0.0
 11
140.3124264999999
 21
454.2310099999999
 31
0.0
  0
LINE
  5
39A
330
1E
100
AcDbEntity
  8
0
100
AcDbLine
 10
140.3124264999999
 20
423.43101
 30
0.0
 11
140.3124264999999
 21
426.0310099999999
 31
0.0
  0
LINE
  5
39B
330
1E
100
AcDbEntity
  8
0
100
AcDbLine
 10
140.3124264999999
 20
423.43101
 30
0.0
 11
140.3124264999999
 21
421.8310099999999
 31
0.0
  0
LINE
  5
39C
330
1E
100
AcDbEntity
  8
0
100
AcDbLine
 10
140.3124264999999
 20
426.0310099999999
 30
0.0
 11
140.3124264999999
 21
429.53101
 31
0.0
  0
LINE
  5
39D
330
1E
100
AcDbEntity
  8
0
100
AcDbLine
 10
140.3124264999999
 20
426.0310099999999
 30
0.0
 11
140.3124264999999
 21
423.43101
 31
0.0
  0
LINE
  5
39E
330
1E
100
AcDbEntity
  8
0
100
AcDbLine
 10
140.3124264999999
 20
429.53101
 30
0.0
 11
140.3124264999999
 21
433.53101
 31
0.0
  0
LINE
  5
39F
330
1E
100
AcDbEntity
  8
0
100
AcDbLine
 10
140.3124264999999
 20
429.53101
 30
0.0
 11
140.3124264999999
 21
426.0310099999999
 31
0.0
  0
LINE
  5
3A0
330
1E
100
AcDbEntity
  8
0
100
AcDbLine
 10
140.3124264999999
 20
445.9310099999999
 30
0.0
 11
140.3124264999999
 21
449.4310099999999
 31
0.0
  0
LINE
  5
3A1
330
1E
100
AcDbEntity
  8
0
100
AcDbLine
 10
140.3124264999999
 20
445.9310099999999
 30
0.0
 11
140.3124264999999
 21
441.9310099999999
 31
0.0
  0
LINE
  5
3A2
330
1E
100
AcDbEntity
  8
0
100
AcDbLine
 10
140.3124264999999
 20
441.9310099999999
 30
0.0
 11
140.3124264999999
 21
445.9310099999999
 31
0.0
  0
LINE
  5
3A3
330
1E
100
AcDbEntity
  8
0
100
AcDbLine
 10
140.3124264999999
 20
441.9310099999999
 30
0.0
 11
140.3124264999999
 21
437.7310099999999
 31
0.0
  0
LINE
  5
3A4
330
1E
100
AcDbEntity
  8
0
100
AcDbLine
 10
140.3124264999999
 20
437.7310099999999
 30
0.0
 11
140.3124264999999
 21
433.53101
 31
0.0
  0
LINE
  5
3A5
330
1E
100
AcDbEntity
  8
0
100
AcDbLine
 10
140.3124264999999
 20
437.7310099999999
 30
0.0
 11
140.3124264999999
 21
441.9310099999999
 31
0.0
  0
LINE
  5
3A6
330
1E
100
AcDbEntity
  8
0
100
AcDbLine
 10
140.3124264999999
 20
433.53101
 30
0.0
 11
140.3124264999999
 21
437.7310099999999
 31
0.0
  0
LINE
  5
3A7
330
1E
100
AcDbEntity
  8
0
100
AcDbLine
 10
140.3124264999999
 20
433.53101
 30
0.0
 11
140.3124264999999
 21
429.53101
 31
0.0
  0
LINE
  5
3A8
330
1E
100
AcDbEntity
  8
0
100
AcDbLine
 10
139.8124264999999
 20
422.7310099999999
 30
0.0
 11
140.3124264999999
 21
421.2310099999999
 31
0.0
  0
LINE
  5
3A9
330
1E
100
AcDbEntity
  8
0
100
AcDbLine
 10
135.6124265
 20
516.06601
 30
0.0
 11
145.7124265
 21
516.06601
 31
0.0
  0
LINE
  5
3AA
330
1E
100
AcDbEntity
  8
0
100
AcDbLine
 10
134.5124265
 20
504.0650099999999
 30
0.0
 11
144.9124264999999
 21
504.0650099999999
 31
0.0
  0
LINE
  5
3AB
330
1E
100
AcDbEntity
  8
0
100
AcDbLine
 10
135.2124265
 20
521.5650099999999
 30
0.0
 11
145.4124264999999
 21
521.5650099999999
 31
0.0
  0
LINE
  5
3AC
330
1E
100
AcDbEntity
  8
0
100
AcDbLine
 10
135.9124264999999
 20
519.06601
 30
0.0
 11
145.9124264999999
 21
519.0650099999999
 31
0.0
  0
LINE
  5
3AD
330
1E
100
AcDbEntity
  8
0
100
AcDbLine
 10
133.8124264999999
 20
425.2310099999999
 30
0.0
 11
133.8124264999999
 21
422.2310099999999
 31
0.0
  0
LINE
  5
3AE
330
1E
100
AcDbEntity
  8
0
100
AcDbLine
 10
133.8124264999999
 20
422.2310099999999
 30
0.0
 11
139.8124264999999
 21
422.2310099999999
 31
0.0
  0
LINE
  5
3AF
330
1E
100
AcDbEntity
  8
0
100
AcDbLine
 10
133.8124264999999
 20
422.2310099999999
 30
0.0
 11
133.8124264999999
 21
425.2310099999999
 31
0.0
  0
LINE
  5
3B0
330
1E
100
AcDbEntity
  8
0
100
AcDbLine
 10
133.8124264999999
 20
422.2310099999999
 30
0.0
 11
133.8124264999999
 21
425.7310099999999
 31
0.0
  0
LINE
  5
3B1
330
1E
100
AcDbEntity
  8
0
100
AcDbLine
 10
133.8124264999999
 20
422.2310099999999
 30
0.0
 11
133.8124264999999
 21
426.3900099999999
 31
0.0
  0
LINE
  5
3B2
330
1E
100
AcDbEntity
  8
0
100
AcDbLine
 10
140.3124264999999
 20
449.4310099999999
 30
0.0
 11
140.3124264999999
 21
452.0310099999999
 31
0.0
  0
LINE
  5
3B3
330
1E
100
AcDbEntity
  8
0
100
AcDbLine
 10
140.3124264999999
 20
452.0310099999999
 30
0.0
 11
140.3124264999999
 21
453.6310099999999
 31
0.0
  0
LINE
  5
3B4
330
1E
100
AcDbEntity
  8
0
100
AcDbLine
 10
140.3124264999999
 20
452.0310099999999
 30
0.0
 11
140.3124264999999
 21
449.4310099999999
 31
0.0
  0
LINE
  5
3B5
330
1E
100
AcDbEntity
  8
0
100
AcDbLine
 10
140.3124264999999
 20
453.6310099999999
 30
0.0
 11
140.3124264999999
 21
454.2310099999999
 31
0.0
  0
LINE
  5
3B6
330
1E
100
AcDbEntity
  8
0
100
AcDbLine
 10
140.3124264999999
 20
453.6310099999999
 30
0.0
 11
140.3124264999999
 21
452.0310099999999
 31
0.0
  0
LINE
  5
3BA
330
1E
100
AcDbEntity
  8
0
100
AcDbLine
 10
143.3124264999999
 20
423.43101
 30
0.0
 11
143.3124264999999
 21
426.0310099999999
 31
0.0
  0
LINE
  5
3BB
330
1E
100
AcDbEntity
  8
0
100
AcDbLine
 10
143.3124264999999
 20
423.43101
 30
0.0
 11
143.3124264999999
 21
421.8310099999999
 31
0.0
  0
LINE
  5
3BC
330
1E
100
AcDbEntity
  8
0
100
AcDbLine
 10
143.3124264999999
 20
421.8310099999999
 30
0.0
 11
143.3124264999999
 21
423.43101
 31
0.0
  0
LINE
  5
3BD
330
1E
100
AcDbEntity
  8
0
100
AcDbLine
 10
143.3124264999999
 20
421.8310099999999
 30
0.0
 11
143.3124264999999
 21
421.2310099999999
 31
0.0
  0
LINE
  5
3C1
330
1E
100
AcDbEntity
  8
0
100
AcDbLine
 10
143.3124264999999
 20
426.0310099999999
 30
0.0
 11
143.3124264999999
 21
429.53101
 31
0.0
  0
LINE
  5
3C2
330
1E
100
AcDbEntity
  8
0
100
AcDbLine
 10
143.3124264999999
 20
426.0310099999999
 30
0.0
 11
143.3124264999999
 21
423.43101
 31
0.0
  0
LINE
  5
3C3
330
1E
100
AcDbEntity
  8
0
100
AcDbLine
 10
143.3124264999999
 20
429.53101
 30
0.0
 11
143.3124264999999
 21
433.53101
 31
0.0
  0
LINE
  5
3C4
330
1E
100
AcDbEntity
  8
0
100
AcDbLine
 10
143.3124264999999
 20
429.53101
 30
0.0
 11
143.3124264999999
 21
426.0310099999999
 31
0.0
  0
LINE
  5
3C8
330
1E
100
AcDbEntity
  8
0
100
AcDbLine
 10
143.3124264999999
 20
445.9310099999999
 30
0.0
 11
143.3124264999999
 21
449.4310099999999
 31
0.0
  0
LINE
  5
3C9
330
1E
100
AcDbEntity
  8
0
100
AcDbLine
 10
143.3124264999999
 20
445.9310099999999
 30
0.0
 11
143.3124264999999
 21
441.9310099999999
 31
0.0
  0
LINE
  5
3CA
330
1E
100
AcDbEntity
  8
0
100
AcDbLine
 10
143.3124264999999
 20
441.9310099999999
 30
0.0
 11
143.3124264999999
 21
445.9310099999999
 31
0.0
  0
LINE
  5
3CB
330
1E
100
AcDbEntity
  8
0
100
AcDbLine
 10
143.3124264999999
 20
441.9310099999999
 30
0.0
 11
143.3124264999999
 21
437.7310099999999
 31
0.0
  0
LINE
  5
3CC
330
1E
100
AcDbEntity
  8
0
100
AcDbLine
 10
143.3124264999999
 20
449.4310099999999
 30
0.0
 11
143.3124264999999
 21
452.0310099999999
 31
0.0
  0
LINE
  5
3CD
330
1E
100
AcDbEntity
  8
0
100
AcDbLine
 10
143.3124264999999
 20
449.4310099999999
 30
0.0
 11
143.3124264999999
 21
445.9310099999999
 31
0.0
  0
LINE
  5
3D1
330
1E
100
AcDbEntity
  8
0
100
AcDbLine
 10
143.3124264999999
 20
452.0310099999999
 30
0.0
 11
143.3124264999999
 21
453.6310099999999
 31
0.0
  0
LINE
  5
3D2
330
1E
100
AcDbEntity
  8
0
100
AcDbLine
 10
143.3124264999999
 20
452.0310099999999
 30
0.0
 11
143.3124264999999
 21
449.4310099999999
 31
0.0
  0
LINE
  5
3D3
330
1E
100
AcDbEntity
  8
0
100
AcDbLine
 10
143.3124264999999
 20
453.6310099999999
 30
0.0
 11
143.3124264999999
 21
454.2310099999999
 31
0.0
  0
LINE
  5
3D4
330
1E
100
AcDbEntity
  8
0
100
AcDbLine
 10
143.3124264999999
 20
453.6310099999999
 30
0.0
 11
143.3124264999999
 21
452.0310099999999
 31
0.0
  0
LINE
  5
3D7
330
1E
100
AcDbEntity
  8
0
100
AcDbLine
 10
143.3124264999999
 20
437.7310099999999
 30
0.0
 11
143.3124264999999
 21
433.53101
 31
0.0
  0
LINE
  5
3D8
330
1E
100
AcDbEntity
  8
0
100
AcDbLine
 10
143.3124264999999
 20
437.7310099999999
 30
0.0
 11
143.3124264999999
 21
441.9310099999999
 31
0.0
  0
LINE
  5
3D9
330
1E
100
AcDbEntity
  8
0
100
AcDbLine
 10
143.3124264999999
 20
433.53101
 30
0.0
 11
143.3124264999999
 21
437.7310099999999
 31
0.0
  0
LINE
  5
3DA
330
1E
100
AcDbEntity
  8
0
100
AcDbLine
 10
143.3124264999999
 20
433.53101
 30
0.0
 11
143.3124264999999
 21
429.53101
 31
0.0
  0
LINE
  5
3DB
330
1E
100
AcDbEntity
  8
0
100
AcDbLine
 10
140.3124264999999
 20
454.2310099999999
 30
0.0
 11
141.8124264999999
 21
454.7310099999999
 31
0.0
  0
LINE
  5
3DC
330
1E
100
AcDbEntity
  8
0
100
AcDbLine
 10
140.3124264999999
 20
454.2310099999999
 30
0.0
 11
140.3124264999999
 21
453.6310099999999
 31
0.0
  0
LINE
  5
3DD
330
1E
100
AcDbEntity
  8
0
100
AcDbLine
 10
141.8124264999999
 20
454.7310099999999
 30
0.0
 11
143.3124264999999
 21
454.2310099999999
 31
0.0
  0
LINE
  5
3DF
330
1E
100
AcDbEntity
  8
0
100
AcDbLine
 10
143.3124264999999
 20
454.2310099999999
 30
0.0
 11
143.8124264999999
 21
453.23101
 31
0.0
  0
LINE
  5
3E0
330
1E
100
AcDbEntity
  8
0
100
AcDbLine
 10
143.3124264999999
 20
454.2310099999999
 30
0.0
 11
143.3124264999999
 21
453.6310099999999
 31
0.0
  0
LINE
  5
3E1
330
1E
100
AcDbEntity
  8
0
100
AcDbLine
 10
142.8124264999999
 20
532.0650099999999
 30
0.0
 11
154.8124265
 21
533.0650099999998
 31
0.0
  0
LINE
  5
3E2
330
1E
100
AcDbEntity
  8
0
100
AcDbLine
 10
140.3124264999999
 20
421.2310099999999
 30
0.0
 11
141.8124264999999
 21
420.7310099999999
 31
0.0
  0
LINE
  5
3E3
330
1E
100
AcDbEntity
  8
0
100
AcDbLine
 10
140.3124264999999
 20
421.2310099999999
 30
0.0
 11
140.3124264999999
 21
421.8310099999999
 31
0.0
  0
LINE
  5
3E4
330
1E
100
AcDbEntity
  8
0
100
AcDbLine
 10
141.8124264999999
 20
420.7310099999999
 30
0.0
 11
143.3124264999999
 21
421.2310099999999
 31
0.0
  0
LINE
  5
3E6
330
1E
100
AcDbEntity
  8
0
100
AcDbLine
 10
157.217640100526
 20
419.148601984231
 30
0.0
 11
158.2054265
 21
389.51501
 31
0.0
  0
LINE
  5
3E7
330
1E
100
AcDbEntity
  8
0
100
AcDbLine
 10
158.2054265
 20
389.51501
 30
0.0
 11
158.6054265
 21
389.51501
 31
0.0
  0
LINE
  5
3E8
330
1E
100
AcDbEntity
  8
0
100
AcDbLine
 10
158.6054265
 20
389.51501
 30
0.0
 11
159.6054265
 21
389.51501
 31
0.0
  0
LINE
  5
3E9
330
1E
100
AcDbEntity
  8
0
100
AcDbLine
 10
159.6054265
 20
389.51501
 30
0.0
 11
160.8124264999999
 21
389.51501
 31
0.0
  0
LINE
  5
3EA
330
1E
100
AcDbEntity
  8
0
100
AcDbLine
 10
158.4714264999999
 20
419.23101
 30
0.0
 11
160.4034264999999
 21
419.23101
 31
0.0
  0
LINE
  5
3EB
330
1E
100
AcDbEntity
  8
0
100
AcDbLine
 10
157.3354264999999
 20
419.23101
 30
0.0
 11
158.4714264999999
 21
419.23101
 31
0.0
  0
LINE
  5
3EC
330
1E
100
AcDbEntity
  8
0
100
AcDbLine
 10
156.8804264999999
 20
419.23101
 30
0.0
 11
157.3354264999999
 21
419.23101
 31
0.0
  0
LINE
  5
3ED
330
1E
100
AcDbEntity
  8
0
100
AcDbLine
 10
156.8804264999999
 20
419.23101
 30
0.0
 11
157.2181949106609
 21
419.1319576801579
 31
0.0
  0
LINE
  5
3EE
330
1E
100
AcDbEntity
  8
0
100
AcDbLine
 10
160.8124264999999
 20
22.55011
 30
0.0
 11
160.8124264999999
 21
14.47721
 31
0.0
  0
LINE
  5
3EF
330
1E
100
AcDbEntity
  8
0
100
AcDbLine
 10
160.8124264999999
 20
22.55011
 30
0.0
 11
160.8124264999999
 21
33.65811
 31
0.0
  0
LINE
  5
3F0
330
1E
100
AcDbEntity
  8
0
100
AcDbLine
 10
160.8124264999999
 20
14.47721
 30
0.0
 11
160.8124264999999
 21
9.577610000000019
 31
0.0
  0
LINE
  5
3F1
330
1E
100
AcDbEntity
  8
0
100
AcDbLine
 10
160.8124264999999
 20
14.47721
 30
0.0
 11
160.8124264999999
 21
22.55011
 31
0.0
  0
LINE
  5
3F2
330
1E
100
AcDbEntity
  8
0
100
AcDbLine
 10
160.8124264999999
 20
9.577610000000019
 30
0.0
 11
160.8124264999999
 21
7.934990000000018
 31
0.0
  0
LINE
  5
3F3
330
1E
100
AcDbEntity
  8
0
100
AcDbLine
 10
160.8124264999999
 20
9.577610000000019
 30
0.0
 11
160.8124264999999
 21
14.47721
 31
0.0
  0
LINE
  5
3F4
330
1E
100
AcDbEntity
  8
0
100
AcDbLine
 10
160.8124264999999
 20
7.934990000000018
 30
0.0
 11
161.1004265
 21
5.886990000000019
 31
0.0
  0
LINE
  5
3F5
330
1E
100
AcDbEntity
  8
0
100
AcDbLine
 10
160.8124264999999
 20
7.934990000000018
 30
0.0
 11
160.8124264999999
 21
9.577610000000019
 31
0.0
  0
LINE
  5
3F6
330
1E
100
AcDbEntity
  8
0
100
AcDbLine
 10
160.8124264999999
 20
33.65811
 30
0.0
 11
160.8124264999999
 21
47.61110999999999
 31
0.0
  0
LINE
  5
3F7
330
1E
100
AcDbEntity
  8
0
100
AcDbLine
 10
160.8124264999999
 20
33.65811
 30
0.0
 11
160.8124264999999
 21
22.55011
 31
0.0
  0
LINE
  5
3F8
330
1E
100
AcDbEntity
  8
0
100
AcDbLine
 10
160.8124264999999
 20
83.05280999999999
 30
0.0
 11
160.8124264999999
 21
103.9350099999999
 31
0.0
  0
LINE
  5
3F9
330
1E
100
AcDbEntity
  8
0
100
AcDbLine
 10
160.8124264999999
 20
83.05280999999999
 30
0.0
 11
160.8124264999999
 21
64.17050999999999
 31
0.0
  0
LINE
  5
3FA
330
1E
100
AcDbEntity
  8
0
100
AcDbLine
 10
160.8124264999999
 20
103.9350099999999
 30
0.0
 11
160.8124264999999
 21
83.05280999999999
 31
0.0
  0
LINE
  5
3FB
330
1E
100
AcDbEntity
  8
0
100
AcDbLine
 10
160.8124264999999
 20
103.9350099999999
 30
0.0
 11
160.8124264999999
 21
126.46001
 31
0.0
  0
LINE
  5
3FC
330
1E
100
AcDbEntity
  8
0
100
AcDbLine
 10
160.8124264999999
 20
47.61110999999999
 30
0.0
 11
160.8124264999999
 21
64.17050999999999
 31
0.0
  0
LINE
  5
3FD
330
1E
100
AcDbEntity
  8
0
100
AcDbLine
 10
160.8124264999999
 20
47.61110999999999
 30
0.0
 11
160.8124264999999
 21
33.65811
 31
0.0
  0
LINE
  5
3FE
330
1E
100
AcDbEntity
  8
0
100
AcDbLine
 10
168.8124264999999
 20
-0.0650099999999842
 30
0.0
 11
170.8604264999999
 21
0.222990000000016
 31
0.0
  0
LINE
  5
3FF
330
1E
100
AcDbEntity
  8
0
100
AcDbLine
 10
168.8124264999999
 20
-0.0650099999999842
 30
0.0
 11
170.8604264999999
 21
0.222990000000016
 31
0.0
  0
LINE
  5
400
330
1E
100
AcDbEntity
  8
0
100
AcDbLine
 10
170.8604264999999
 20
0.222990000000016
 30
0.0
 11
172.7804264999999
 21
0.9909900000000158
 31
0.0
  0
LINE
  5
401
330
1E
100
AcDbEntity
  8
0
100
AcDbLine
 10
172.7804264999999
 20
0.9909900000000158
 30
0.0
 11
174.4764265
 21
2.270990000000019
 31
0.0
  0
LINE
  5
402
330
1E
100
AcDbEntity
  8
0
100
AcDbLine
 10
174.4764265
 20
2.270990000000019
 30
0.0
 11
175.7564265
 21
3.96699000000002
 31
0.0
  0
LINE
  5
403
330
1E
100
AcDbEntity
  8
0
100
AcDbLine
 10
166.7644264999999
 20
0.222990000000016
 30
0.0
 11
168.8124264999999
 21
-0.0650099999999842
 31
0.0
  0
LINE
  5
404
330
1E
100
AcDbEntity
  8
0
100
AcDbLine
 10
166.7644264999999
 20
0.222990000000016
 30
0.0
 11
168.8124264999999
 21
-0.0650099999999842
 31
0.0
  0
LINE
  5
405
330
1E
100
AcDbEntity
  8
0
100
AcDbLine
 10
164.8444265
 20
0.9909900000000158
 30
0.0
 11
166.7644264999999
 21
0.222990000000016
 31
0.0
  0
LINE
  5
406
330
1E
100
AcDbEntity
  8
0
100
AcDbLine
 10
175.7564265
 20
3.96699000000002
 30
0.0
 11
176.5244264999999
 21
5.886990000000009
 31
0.0
  0
LINE
  5
407
330
1E
100
AcDbEntity
  8
0
100
AcDbLine
 10
176.5244264999999
 20
5.886990000000009
 30
0.0
 11
176.8124264999999
 21
7.934990000000018
 31
0.0
  0
LINE
  5
408
330
1E
100
AcDbEntity
  8
0
100
AcDbLine
 10
163.1484265
 20
2.270990000000019
 30
0.0
 11
164.8444265
 21
0.9909900000000158
 31
0.0
  0
LINE
  5
409
330
1E
100
AcDbEntity
  8
0
100
AcDbLine
 10
161.8684264999999
 20
3.96699000000002
 30
0.0
 11
163.1484265
 21
2.270990000000019
 31
0.0
  0
LINE
  5
40A
330
1E
100
AcDbEntity
  8
0
100
AcDbLine
 10
160.8124264999999
 20
126.46001
 30
0.0
 11
160.8124264999999
 21
150.24201
 31
0.0
  0
LINE
  5
40B
330
1E
100
AcDbEntity
  8
0
100
AcDbLine
 10
160.8124264999999
 20
256.19301
 30
0.0
 11
160.8124264999999
 21
339.2440099999999
 31
0.0
  0
LINE
  5
40C
330
1E
100
AcDbEntity
  8
0
100
AcDbLine
 10
160.8124264999999
 20
256.19301
 30
0.0
 11
160.8124264999999
 21
193.43901
 31
0.0
  0
LINE
  5
40D
330
1E
100
AcDbEntity
  8
0
100
AcDbLine
 10
160.8124264999999
 20
339.2440099999999
 30
0.0
 11
160.8124264999999
 21
409.8740099999999
 31
0.0
  0
LINE
  5
40E
330
1E
100
AcDbEntity
  8
0
100
AcDbLine
 10
160.8124264999999
 20
339.2440099999999
 30
0.0
 11
160.8124264999999
 21
256.19301
 31
0.0
  0
LINE
  5
40F
330
1E
100
AcDbEntity
  8
0
100
AcDbLine
 10
160.8124264999999
 20
344.10101
 30
0.0
 11
160.8124264999999
 21
367.88301
 31
0.0
  0
LINE
  5
410
330
1E
100
AcDbEntity
  8
0
100
AcDbLine
 10
160.8124264999999
 20
344.10101
 30
0.0
 11
160.8124264999999
 21
321.57601
 31
0.0
  0
LINE
  5
411
330
1E
100
AcDbEntity
  8
0
100
AcDbLine
 10
160.8124264999999
 20
367.88301
 30
0.0
 11
160.8124264999999
 21
389.51501
 31
0.0
  0
LINE
  5
412
330
1E
100
AcDbEntity
  8
0
100
AcDbLine
 10
160.8124264999999
 20
367.88301
 30
0.0
 11
160.8124264999999
 21
344.10101
 31
0.0
  0
LINE
  5
413
330
1E
100
AcDbEntity
  8
0
100
AcDbLine
 10
160.8124264999999
 20
389.51501
 30
0.0
 11
160.8124264999999
 21
367.88301
 31
0.0
  0
LINE
  5
414
330
1E
100
AcDbEntity
  8
0
100
AcDbLine
 10
160.8124264999999
 20
321.57601
 30
0.0
 11
160.8124264999999
 21
300.69401
 31
0.0
  0
LINE
  5
415
330
1E
100
AcDbEntity
  8
0
100
AcDbLine
 10
160.8124264999999
 20
321.57601
 30
0.0
 11
160.8124264999999
 21
344.10101
 31
0.0
  0
LINE
  5
416
330
1E
100
AcDbEntity
  8
0
100
AcDbLine
 10
160.8124264999999
 20
300.69401
 30
0.0
 11
160.8124264999999
 21
273.41001
 31
0.0
  0
LINE
  5
417
330
1E
100
AcDbEntity
  8
0
100
AcDbLine
 10
160.8124264999999
 20
300.69401
 30
0.0
 11
160.8124264999999
 21
321.57601
 31
0.0
  0
LINE
  5
418
330
1E
100
AcDbEntity
  8
0
100
AcDbLine
 10
160.8124264999999
 20
273.41001
 30
0.0
 11
160.8124264999999
 21
300.69401
 31
0.0
  0
LINE
  5
419
330
1E
100
AcDbEntity
  8
0
100
AcDbLine
 10
160.8124264999999
 20
273.41001
 30
0.0
 11
160.8124264999999
 21
249.62801
 31
0.0
  0
LINE
  5
41A
330
1E
100
AcDbEntity
  8
0
100
AcDbLine
 10
160.8124264999999
 20
249.62801
 30
0.0
 11
160.8124264999999
 21
224.99601
 31
0.0
  0
LINE
  5
41B
330
1E
100
AcDbEntity
  8
0
100
AcDbLine
 10
160.8124264999999
 20
249.62801
 30
0.0
 11
160.8124264999999
 21
273.41001
 31
0.0
  0
LINE
  5
41C
330
1E
100
AcDbEntity
  8
0
100
AcDbLine
 10
160.8124264999999
 20
224.99601
 30
0.0
 11
160.8124264999999
 21
199.93501
 31
0.0
  0
LINE
  5
41D
330
1E
100
AcDbEntity
  8
0
100
AcDbLine
 10
160.8124264999999
 20
224.99601
 30
0.0
 11
160.8124264999999
 21
249.62801
 31
0.0
  0
LINE
  5
41E
330
1E
100
AcDbEntity
  8
0
100
AcDbLine
 10
160.8124264999999
 20
199.93501
 30
0.0
 11
160.8124264999999
 21
174.87401
 31
0.0
  0
LINE
  5
41F
330
1E
100
AcDbEntity
  8
0
100
AcDbLine
 10
160.8124264999999
 20
199.93501
 30
0.0
 11
160.8124264999999
 21
224.99601
 31
0.0
  0
LINE
  5
420
330
1E
100
AcDbEntity
  8
0
100
AcDbLine
 10
160.8124264999999
 20
174.87401
 30
0.0
 11
160.8124264999999
 21
199.93501
 31
0.0
  0
LINE
  5
421
330
1E
100
AcDbEntity
  8
0
100
AcDbLine
 10
160.8124264999999
 20
174.87401
 30
0.0
 11
160.8124264999999
 21
150.24201
 31
0.0
  0
LINE
  5
422
330
1E
100
AcDbEntity
  8
0
100
AcDbLine
 10
160.8124264999999
 20
150.24201
 30
0.0
 11
160.8124264999999
 21
193.43901
 31
0.0
  0
LINE
  5
423
330
1E
100
AcDbEntity
  8
0
100
AcDbLine
 10
160.8124264999999
 20
150.24201
 30
0.0
 11
160.8124264999999
 21
126.46001
 31
0.0
  0
LINE
  5
424
330
1E
100
AcDbEntity
  8
0
100
AcDbLine
 10
160.8124264999999
 20
150.24201
 30
0.0
 11
160.8124264999999
 21
174.87401
 31
0.0
  0
LINE
  5
425
330
1E
100
AcDbEntity
  8
0
100
AcDbLine
 10
176.8124264999999
 20
7.934990000000018
 30
0.0
 11
176.8124264999999
 21
9.577610000000019
 31
0.0
  0
LINE
  5
426
330
1E
100
AcDbEntity
  8
0
100
AcDbLine
 10
176.8124264999999
 20
22.55011
 30
0.0
 11
176.8124264999999
 21
33.65811
 31
0.0
  0
LINE
  5
427
330
1E
100
AcDbEntity
  8
0
100
AcDbLine
 10
176.8124264999999
 20
22.55011
 30
0.0
 11
176.8124264999999
 21
14.47721
 31
0.0
  0
LINE
  5
428
330
1E
100
AcDbEntity
  8
0
100
AcDbLine
 10
176.8124264999999
 20
14.47721
 30
0.0
 11
176.8124264999999
 21
9.577610000000019
 31
0.0
  0
LINE
  5
429
330
1E
100
AcDbEntity
  8
0
100
AcDbLine
 10
176.8124264999999
 20
14.47721
 30
0.0
 11
176.8124264999999
 21
22.55011
 31
0.0
  0
LINE
  5
42A
330
1E
100
AcDbEntity
  8
0
100
AcDbLine
 10
176.8124264999999
 20
9.577610000000019
 30
0.0
 11
176.8124264999999
 21
14.47721
 31
0.0
  0
LINE
  5
42B
330
1E
100
AcDbEntity
  8
0
100
AcDbLine
 10
176.8124264999999
 20
9.577610000000019
 30
0.0
 11
176.8124264999999
 21
7.934990000000018
 31
0.0
  0
LINE
  5
42C
330
1E
100
AcDbEntity
  8
0
100
AcDbLine
 10
176.8124264999999
 20
83.05280999999999
 30
0.0
 11
176.8124264999999
 21
103.9350099999999
 31
0.0
  0
LINE
  5
42D
330
1E
100
AcDbEntity
  8
0
100
AcDbLine
 10
176.8124264999999
 20
83.05280999999999
 30
0.0
 11
176.8124264999999
 21
64.17050999999999
 31
0.0
  0
LINE
  5
42E
330
1E
100
AcDbEntity
  8
0
100
AcDbLine
 10
176.8124264999999
 20
64.17050999999999
 30
0.0
 11
176.8124264999999
 21
47.61110999999999
 31
0.0
  0
LINE
  5
42F
330
1E
100
AcDbEntity
  8
0
100
AcDbLine
 10
176.8124264999999
 20
64.17050999999999
 30
0.0
 11
176.8124264999999
 21
83.05280999999999
 31
0.0
  0
LINE
  5
430
330
1E
100
AcDbEntity
  8
0
100
AcDbLine
 10
176.8124264999999
 20
47.61110999999999
 30
0.0
 11
176.8124264999999
 21
33.65811
 31
0.0
  0
LINE
  5
431
330
1E
100
AcDbEntity
  8
0
100
AcDbLine
 10
176.8124264999999
 20
47.61110999999999
 30
0.0
 11
176.8124264999999
 21
64.17050999999999
 31
0.0
  0
LINE
  5
432
330
1E
100
AcDbEntity
  8
0
100
AcDbLine
 10
176.8124264999999
 20
33.65811
 30
0.0
 11
176.8124264999999
 21
47.61110999999999
 31
0.0
  0
LINE
  5
433
330
1E
100
AcDbEntity
  8
0
100
AcDbLine
 10
176.8124264999999
 20
33.65811
 30
0.0
 11
176.8124264999999
 21
22.55011
 31
0.0
  0
LINE
  5
434
330
1E
100
AcDbEntity
  8
0
100
AcDbLine
 10
176.8124264999999
 20
150.24201
 30
0.0
 11
176.8124264999999
 21
126.46001
 31
0.0
  0
LINE
  5
435
330
1E
100
AcDbEntity
  8
0
100
AcDbLine
 10
176.8124264999999
 20
150.24201
 30
0.0
 11
176.8124264999999
 21
193.43901
 31
0.0
  0
LINE
  5
436
330
1E
100
AcDbEntity
  8
0
100
AcDbLine
 10
176.8124264999999
 20
126.46001
 30
0.0
 11
176.8124264999999
 21
103.9350099999999
 31
0.0
  0
LINE
  5
437
330
1E
100
AcDbEntity
  8
0
100
AcDbLine
 10
176.8124264999999
 20
126.46001
 30
0.0
 11
176.8124264999999
 21
150.24201
 31
0.0
  0
LINE
  5
438
330
1E
100
AcDbEntity
  8
0
100
AcDbLine
 10
176.8124264999999
 20
174.87401
 30
0.0
 11
176.8124264999999
 21
193.43901
 31
0.0
  0
LINE
  5
439
330
1E
100
AcDbEntity
  8
0
100
AcDbLine
 10
176.8124264999999
 20
103.9350099999999
 30
0.0
 11
176.8124264999999
 21
126.46001
 31
0.0
  0
LINE
  5
43A
330
1E
100
AcDbEntity
  8
0
100
AcDbLine
 10
176.8124264999999
 20
103.9350099999999
 30
0.0
 11
176.8124264999999
 21
83.05280999999999
 31
0.0
  0
LINE
  5
43B
330
1E
100
AcDbEntity
  8
0
100
AcDbLine
 10
176.8124264999999
 20
193.43901
 30
0.0
 11
176.8124264999999
 21
256.19301
 31
0.0
  0
LINE
  5
43C
330
1E
100
AcDbEntity
  8
0
100
AcDbLine
 10
176.8124264999999
 20
193.43901
 30
0.0
 11
176.8124264999999
 21
174.87401
 31
0.0
  0
LINE
  5
43D
330
1E
100
AcDbEntity
  8
0
100
AcDbLine
 10
176.8124264999999
 20
256.19301
 30
0.0
 11
176.8124264999999
 21
339.2440099999999
 31
0.0
  0
LINE
  5
43E
330
1E
100
AcDbEntity
  8
0
100
AcDbLine
 10
176.8124264999999
 20
256.19301
 30
0.0
 11
176.8124264999999
 21
193.43901
 31
0.0
  0
LINE
  5
43F
330
1E
100
AcDbEntity
  8
0
100
AcDbLine
 10
176.8124264999999
 20
339.2440099999999
 30
0.0
 11
176.8124264999999
 21
409.8740099999999
 31
0.0
  0
LINE
  5
440
330
1E
100
AcDbEntity
  8
0
100
AcDbLine
 10
176.8124264999999
 20
339.2440099999999
 30
0.0
 11
176.8124264999999
 21
256.19301
 31
0.0
  0
LINE
  5
441
330
1E
100
AcDbEntity
  8
0
100
AcDbLine
 10
160.8124264999999
 20
193.43901
 30
0.0
 11
160.8124264999999
 21
150.24201
 31
0.0
  0
LINE
  5
442
330
1E
100
AcDbEntity
  8
0
100
AcDbLine
 10
160.8124264999999
 20
193.43901
 30
0.0
 11
160.8124264999999
 21
256.19301
 31
0.0
  0
LINE
  5
443
330
1E
100
AcDbEntity
  8
0
100
AcDbLine
 10
161.1004265
 20
5.886990000000019
 30
0.0
 11
161.8684264999999
 21
3.96699000000002
 31
0.0
  0
LINE
  5
444
330
1E
100
AcDbEntity
  8
0
100
AcDbLine
 10
160.8124264999999
 20
64.17050999999999
 30
0.0
 11
160.8124264999999
 21
47.61110999999999
 31
0.0
  0
LINE
  5
445
330
1E
100
AcDbEntity
  8
0
100
AcDbLine
 10
160.8124264999999
 20
64.17050999999999
 30
0.0
 11
160.8124264999999
 21
83.05280999999999
 31
0.0
  0
LINE
  5
446
330
1E
100
AcDbEntity
  8
0
100
AcDbLine
 10
176.8124264999999
 20
409.8740099999999
 30
0.0
 11
176.8124264999999
 21
447.7560099999999
 31
0.0
  0
LINE
  5
447
330
1E
100
AcDbEntity
  8
0
100
AcDbLine
 10
176.8124264999999
 20
409.8740099999999
 30
0.0
 11
176.8124264999999
 21
339.2440099999999
 31
0.0
  0
LINE
  5
448
330
1E
100
AcDbEntity
  8
0
100
AcDbLine
 10
160.8124264999999
 20
409.8740099999999
 30
0.0
 11
160.8124264999999
 21
447.7560099999999
 31
0.0
  0
LINE
  5
449
330
1E
100
AcDbEntity
  8
0
100
AcDbLine
 10
160.8124264999999
 20
409.8740099999999
 30
0.0
 11
160.8124264999999
 21
339.2440099999999
 31
0.0
  0
LINE
  5
44A
330
1E
100
AcDbEntity
  8
0
100
AcDbLine
 10
176.8124264999999
 20
389.51501
 30
0.0
 11
177.8054264999999
 21
389.51501
 31
0.0
  0
LINE
  5
44B
330
1E
100
AcDbEntity
  8
0
100
AcDbLine
 10
160.4034264999999
 20
419.23101
 30
0.0
 11
160.8124264999999
 21
419.23101
 31
0.0
  0
LINE
  5
44C
330
1E
100
AcDbEntity
  8
0
100
AcDbLine
 10
176.8124264999999
 20
419.23101
 30
0.0
 11
177.2214264999999
 21
419.23101
 31
0.0
  0
LINE
  5
44D
330
1E
100
AcDbEntity
  8
0
100
AcDbLine
 10
179.2054264999999
 20
389.51501
 30
0.0
 11
180.191455343627
 21
419.095875308804
 31
0.0
  0
LINE
  5
44E
330
1E
100
AcDbEntity
  8
0
100
AcDbLine
 10
179.2054264999999
 20
389.51501
 30
0.0
 11
180.191455343627
 21
419.095875308804
 31
0.0
  0
LINE
  5
44F
330
1E
100
AcDbEntity
  8
0
100
AcDbLine
 10
178.8054264999999
 20
389.51501
 30
0.0
 11
179.2054264999999
 21
389.51501
 31
0.0
  0
LINE
  5
450
330
1E
100
AcDbEntity
  8
0
100
AcDbLine
 10
177.8054264999999
 20
389.51501
 30
0.0
 11
178.8054264999999
 21
389.51501
 31
0.0
  0
LINE
  5
451
330
1E
100
AcDbEntity
  8
0
100
AcDbLine
 10
177.2214264999999
 20
419.23101
 30
0.0
 11
179.1534264999999
 21
419.23101
 31
0.0
  0
LINE
  5
452
330
1E
100
AcDbEntity
  8
0
100
AcDbLine
 10
179.1534264999999
 20
419.23101
 30
0.0
 11
180.2894264999999
 21
419.23101
 31
0.0
  0
LINE
  5
453
330
1E
100
AcDbEntity
  8
0
100
AcDbLine
 10
238.3124265
 20
401.63101
 30
0.0
 11
238.3124265
 21
400.23101
 31
0.0
  0
LINE
  5
454
330
1E
100
AcDbEntity
  8
0
100
AcDbLine
 10
238.3124265
 20
401.63101
 30
0.0
 11
238.3124265
 21
405.23101
 31
0.0
  0
LINE
  5
455
330
1E
100
AcDbEntity
  8
0
100
AcDbLine
 10
225.3124265
 20
413.23101
 30
0.0
 11
232.8124265
 21
407.23101
 31
0.0
  0
LINE
  5
456
330
1E
100
AcDbEntity
  8
0
100
AcDbLine
 10
215.8124265
 20
418.73101
 30
0.0
 11
225.3124265
 21
413.23101
 31
0.0
  0
LINE
  5
457
330
1E
100
AcDbEntity
  8
0
100
AcDbLine
 10
238.3124265
 20
405.23101
 30
0.0
 11
238.3124265
 21
401.63101
 31
0.0
  0
LINE
  5
458
330
1E
100
AcDbEntity
  8
0
100
AcDbLine
 10
238.3124265
 20
405.23101
 30
0.0
 11
238.3124265
 21
411.3310099999999
 31
0.0
  0
LINE
  5
459
330
1E
100
AcDbEntity
  8
0
100
AcDbLine
 10
238.3124265
 20
411.3310099999999
 30
0.0
 11
238.3124265
 21
419.1310099999999
 31
0.0
  0
LINE
  5
45A
330
1E
100
AcDbEntity
  8
0
100
AcDbLine
 10
238.3124265
 20
411.3310099999999
 30
0.0
 11
238.3124265
 21
405.23101
 31
0.0
  0
LINE
  5
45B
330
1E
100
AcDbEntity
  8
0
100
AcDbLine
 10
238.3124265
 20
419.1310099999999
 30
0.0
 11
238.3124265
 21
411.3310099999999
 31
0.0
  0
LINE
  5
45C
330
1E
100
AcDbEntity
  8
0
100
AcDbLine
 10
238.3124265
 20
419.1310099999999
 30
0.0
 11
238.3124265
 21
428.1310099999999
 31
0.0
  0
LINE
  5
45D
330
1E
100
AcDbEntity
  8
0
100
AcDbLine
 10
232.8124265
 20
407.23101
 30
0.0
 11
237.3124265
 21
401.73101
 31
0.0
  0
LINE
  5
45E
330
1E
100
AcDbEntity
  8
0
100
AcDbLine
 10
237.3124265
 20
401.73101
 30
0.0
 11
238.3124265
 21
400.23101
 31
0.0
  0
LINE
  5
45F
330
1E
100
AcDbEntity
  8
0
100
AcDbLine
 10
239.8124265
 20
404.83101
 30
0.0
 11
239.8124265
 21
401.13101
 31
0.0
  0
LINE
  5
460
330
1E
100
AcDbEntity
  8
0
100
AcDbLine
 10
239.8124265
 20
404.83101
 30
0.0
 11
239.8124265
 21
410.93101
 31
0.0
  0
LINE
  5
461
330
1E
100
AcDbEntity
  8
0
100
AcDbLine
 10
239.8124265
 20
401.13101
 30
0.0
 11
239.8124265
 21
399.73101
 31
0.0
  0
LINE
  5
462
330
1E
100
AcDbEntity
  8
0
100
AcDbLine
 10
239.8124265
 20
401.13101
 30
0.0
 11
239.8124265
 21
404.83101
 31
0.0
  0
LINE
  5
463
330
1E
100
AcDbEntity
  8
0
100
AcDbLine
 10
239.8124265
 20
410.93101
 30
0.0
 11
239.8124265
 21
418.8310099999999
 31
0.0
  0
LINE
  5
464
330
1E
100
AcDbEntity
  8
0
100
AcDbLine
 10
239.8124265
 20
410.93101
 30
0.0
 11
239.8124265
 21
404.83101
 31
0.0
  0
LINE
  5
465
330
1E
100
AcDbEntity
  8
0
100
AcDbLine
 10
239.8124265
 20
418.8310099999999
 30
0.0
 11
239.8124265
 21
410.93101
 31
0.0
  0
LINE
  5
466
330
1E
100
AcDbEntity
  8
0
100
AcDbLine
 10
239.8124265
 20
418.8310099999999
 30
0.0
 11
239.8124265
 21
427.93101
 31
0.0
  0
LINE
  5
467
330
1E
100
AcDbEntity
  8
0
100
AcDbLine
 10
238.3124265
 20
400.23101
 30
0.0
 11
239.8124265
 21
399.73101
 31
0.0
  0
LINE
  5
468
330
1E
100
AcDbEntity
  8
0
100
AcDbLine
 10
238.3124265
 20
400.23101
 30
0.0
 11
238.3124265
 21
401.63101
 31
0.0
  0
LINE
  5
469
330
1E
100
AcDbEntity
  8
0
100
AcDbLine
 10
239.8124265
 20
399.73101
 30
0.0
 11
240.8124265
 21
397.73101
 31
0.0
  0
LINE
  5
46A
330
1E
100
AcDbEntity
  8
0
100
AcDbLine
 10
239.8124265
 20
399.73101
 30
0.0
 11
239.8124265
 21
401.13101
 31
0.0
  0
LINE
  5
46B
330
1E
100
AcDbEntity
  8
0
100
AcDbLine
 10
240.8124265
 20
397.73101
 30
0.0
 11
241.3124264999999
 21
395.23101
 31
0.0
  0
LINE
  5
46C
330
1E
100
AcDbEntity
  8
0
100
AcDbLine
 10
241.3124264999999
 20
395.23101
 30
0.0
 11
243.3124265
 21
393.23101
 31
0.0
  0
LINE
  5
46D
330
1E
100
AcDbEntity
  8
0
100
AcDbLine
 10
245.8124265
 20
392.73101
 30
0.0
 11
245.8124265
 21
394.33101
 31
0.0
  0
LINE
  5
46E
330
1E
100
AcDbEntity
  8
0
100
AcDbLine
 10
245.8124265
 20
398.73101
 30
0.0
 11
245.8124265
 21
394.33101
 31
0.0
  0
LINE
  5
46F
330
1E
100
AcDbEntity
  8
0
100
AcDbLine
 10
245.8124265
 20
398.73101
 30
0.0
 11
245.8124265
 21
406.03101
 31
0.0
  0
LINE
  5
470
330
1E
100
AcDbEntity
  8
0
100
AcDbLine
 10
245.8124265
 20
394.33101
 30
0.0
 11
245.8124265
 21
392.73101
 31
0.0
  0
LINE
  5
471
330
1E
100
AcDbEntity
  8
0
100
AcDbLine
 10
245.8124265
 20
394.33101
 30
0.0
 11
245.8124265
 21
398.73101
 31
0.0
  0
LINE
  5
472
330
1E
100
AcDbEntity
  8
0
100
AcDbLine
 10
245.8124265
 20
406.03101
 30
0.0
 11
245.8124265
 21
415.3310099999999
 31
0.0
  0
LINE
  5
473
330
1E
100
AcDbEntity
  8
0
100
AcDbLine
 10
245.8124265
 20
406.03101
 30
0.0
 11
245.8124265
 21
398.73101
 31
0.0
  0
LINE
  5
474
330
1E
100
AcDbEntity
  8
0
100
AcDbLine
 10
245.8124265
 20
415.3310099999999
 30
0.0
 11
245.8124265
 21
406.03101
 31
0.0
  0
LINE
  5
475
330
1E
100
AcDbEntity
  8
0
100
AcDbLine
 10
245.8124265
 20
415.3310099999999
 30
0.0
 11
245.8124265
 21
426.1310099999999
 31
0.0
  0
LINE
  5
476
330
1E
100
AcDbEntity
  8
0
100
AcDbLine
 10
243.3124265
 20
393.23101
 30
0.0
 11
245.8124265
 21
392.73101
 31
0.0
  0
LINE
  5
477
330
1E
100
AcDbEntity
  8
0
100
AcDbLine
 10
180.2894264999999
 20
419.23101
 30
0.0
 11
180.7444264999999
 21
419.23101
 31
0.0
  0
LINE
  5
478
330
1E
100
AcDbEntity
  8
0
100
AcDbLine
 10
180.184510583251
 20
419.0668117839449
 30
0.0
 11
180.7444264999999
 21
419.23101
 31
0.0
  0
LINE
  5
479
330
1E
100
AcDbEntity
  8
0
100
AcDbLine
 10
154.1724265
 20
420.7310099999999
 30
0.0
 11
154.7124264999999
 21
420.7310099999999
 31
0.0
  0
LINE
  5
47A
330
1E
100
AcDbEntity
  8
0
100
AcDbLine
 10
154.7124264999999
 20
420.7310099999999
 30
0.0
 11
156.1524264999999
 21
420.7310099999999
 31
0.0
  0
LINE
  5
47B
330
1E
100
AcDbEntity
  8
0
100
AcDbLine
 10
156.1524264999999
 20
420.7310099999999
 30
0.0
 11
158.4924264999999
 21
420.7310099999999
 31
0.0
  0
LINE
  5
47C
330
1E
100
AcDbEntity
  8
0
100
AcDbLine
 10
156.1524264999999
 20
420.7310099999999
 30
0.0
 11
156.3124264999999
 21
420.7310099999999
 31
0.0
  0
LINE
  5
47D
330
1E
100
AcDbEntity
  8
0
100
AcDbLine
 10
158.4924264999999
 20
420.7310099999999
 30
0.0
 11
160.8124264999999
 21
420.7310099999999
 31
0.0
  0
LINE
  5
47E
330
1E
100
AcDbEntity
  8
0
100
AcDbLine
 10
158.0164265
 20
420.7310099999999
 30
0.0
 11
159.9484264999999
 21
420.7310099999999
 31
0.0
  0
LINE
  5
47F
330
1E
100
AcDbEntity
  8
0
100
AcDbLine
 10
156.7664264999999
 20
420.7310099999999
 30
0.0
 11
158.0164265
 21
420.7310099999999
 31
0.0
  0
LINE
  5
480
330
1E
100
AcDbEntity
  8
0
100
AcDbLine
 10
156.3124264999999
 20
420.7310099999999
 30
0.0
 11
156.8804264999999
 21
419.23101
 31
0.0
  0
LINE
  5
481
330
1E
100
AcDbEntity
  8
0
100
AcDbLine
 10
156.3124264999999
 20
420.7310099999999
 30
0.0
 11
156.7664264999999
 21
420.7310099999999
 31
0.0
  0
LINE
  5
482
330
1E
100
AcDbEntity
  8
0
100
AcDbLine
 10
159.9484264999999
 20
420.7310099999999
 30
0.0
 11
160.8124264999999
 21
420.7310099999999
 31
0.0
  0
LINE
  5
483
330
1E
100
AcDbEntity
  8
0
100
AcDbLine
 10
176.8124264999999
 20
420.7310099999999
 30
0.0
 11
177.6764264999999
 21
420.7310099999999
 31
0.0
  0
LINE
  5
484
330
1E
100
AcDbEntity
  8
0
100
AcDbLine
 10
176.8124264999999
 20
420.7310099999999
 30
0.0
 11
179.1324264999999
 21
420.7310099999999
 31
0.0
  0
LINE
  5
485
330
1E
100
AcDbEntity
  8
0
100
AcDbLine
 10
179.1324264999999
 20
420.7310099999999
 30
0.0
 11
181.4724264999999
 21
420.7310099999999
 31
0.0
  0
LINE
  5
486
330
1E
100
AcDbEntity
  8
0
100
AcDbLine
 10
177.6764264999999
 20
420.7310099999999
 30
0.0
 11
179.6074265
 21
420.7310099999999
 31
0.0
  0
LINE
  5
487
330
1E
100
AcDbEntity
  8
0
100
AcDbLine
 10
153.8124264999999
 20
421.3310099999999
 30
0.0
 11
154.1724265
 21
420.7310099999999
 31
0.0
  0
LINE
  5
488
330
1E
100
AcDbEntity
  8
0
100
AcDbLine
 10
153.8124264999999
 20
421.3310099999999
 30
0.0
 11
153.8124264999999
 21
422.7310099999999
 31
0.0
  0
LINE
  5
489
330
1E
100
AcDbEntity
  8
0
100
AcDbLine
 10
143.8124264999999
 20
422.2310099999999
 30
0.0
 11
145.3124264999999
 21
422.7310099999999
 31
0.0
  0
LINE
  5
48A
330
1E
100
AcDbEntity
  8
0
100
AcDbLine
 10
143.8124264999999
 20
422.2310099999999
 30
0.0
 11
143.8124264999999
 21
422.8310099999999
 31
0.0
  0
LINE
  5
48B
330
1E
100
AcDbEntity
  8
0
100
AcDbLine
 10
145.3124264999999
 20
422.7310099999999
 30
0.0
 11
153.8124264999999
 21
422.7310099999999
 31
0.0
  0
LINE
  5
48C
330
1E
100
AcDbEntity
  8
0
100
AcDbLine
 10
145.3124264999999
 20
422.7310099999999
 30
0.0
 11
160.8124264999999
 21
422.7310099999999
 31
0.0
  0
LINE
  5
48D
330
1E
100
AcDbEntity
  8
0
100
AcDbLine
 10
143.8124264999999
 20
424.3310099999999
 30
0.0
 11
143.8124264999999
 21
426.8310099999999
 31
0.0
  0
LINE
  5
48E
330
1E
100
AcDbEntity
  8
0
100
AcDbLine
 10
143.8124264999999
 20
424.3310099999999
 30
0.0
 11
143.8124264999999
 21
422.8310099999999
 31
0.0
  0
LINE
  5
48F
330
1E
100
AcDbEntity
  8
0
100
AcDbLine
 10
143.8124264999999
 20
422.8310099999999
 30
0.0
 11
143.8124264999999
 21
424.3310099999999
 31
0.0
  0
LINE
  5
490
330
1E
100
AcDbEntity
  8
0
100
AcDbLine
 10
143.8124264999999
 20
422.8310099999999
 30
0.0
 11
143.8124264999999
 21
422.2310099999999
 31
0.0
  0
LINE
  5
491
330
1E
100
AcDbEntity
  8
0
100
AcDbLine
 10
143.8124264999999
 20
426.8310099999999
 30
0.0
 11
143.8124264999999
 21
430.0310099999999
 31
0.0
  0
LINE
  5
492
330
1E
100
AcDbEntity
  8
0
100
AcDbLine
 10
143.8124264999999
 20
426.8310099999999
 30
0.0
 11
143.8124264999999
 21
424.3310099999999
 31
0.0
  0
LINE
  5
493
330
1E
100
AcDbEntity
  8
0
100
AcDbLine
 10
143.8124264999999
 20
430.0310099999999
 30
0.0
 11
143.8124264999999
 21
433.7310099999999
 31
0.0
  0
LINE
  5
494
330
1E
100
AcDbEntity
  8
0
100
AcDbLine
 10
143.8124264999999
 20
430.0310099999999
 30
0.0
 11
143.8124264999999
 21
426.8310099999999
 31
0.0
  0
LINE
  5
495
330
1E
100
AcDbEntity
  8
0
100
AcDbLine
 10
143.8124264999999
 20
445.4310099999999
 30
0.0
 11
143.8124264999999
 21
448.6310099999999
 31
0.0
  0
LINE
  5
496
330
1E
100
AcDbEntity
  8
0
100
AcDbLine
 10
143.8124264999999
 20
445.4310099999999
 30
0.0
 11
143.8124264999999
 21
441.7310099999999
 31
0.0
  0
LINE
  5
497
330
1E
100
AcDbEntity
  8
0
100
AcDbLine
 10
143.8124264999999
 20
441.7310099999999
 30
0.0
 11
143.8124264999999
 21
445.4310099999999
 31
0.0
  0
LINE
  5
498
330
1E
100
AcDbEntity
  8
0
100
AcDbLine
 10
143.8124264999999
 20
441.7310099999999
 30
0.0
 11
143.8124264999999
 21
437.7310099999999
 31
0.0
  0
LINE
  5
499
330
1E
100
AcDbEntity
  8
0
100
AcDbLine
 10
143.8124264999999
 20
448.6310099999999
 30
0.0
 11
143.8124264999999
 21
451.1310099999999
 31
0.0
  0
LINE
  5
49A
330
1E
100
AcDbEntity
  8
0
100
AcDbLine
 10
143.8124264999999
 20
448.6310099999999
 30
0.0
 11
143.8124264999999
 21
445.4310099999999
 31
0.0
  0
LINE
  5
49B
330
1E
100
AcDbEntity
  8
0
100
AcDbLine
 10
143.8124264999999
 20
451.1310099999999
 30
0.0
 11
143.8124264999999
 21
452.6310099999999
 31
0.0
  0
LINE
  5
49C
330
1E
100
AcDbEntity
  8
0
100
AcDbLine
 10
143.8124264999999
 20
451.1310099999999
 30
0.0
 11
143.8124264999999
 21
448.6310099999999
 31
0.0
  0
LINE
  5
49D
330
1E
100
AcDbEntity
  8
0
100
AcDbLine
 10
143.8124264999999
 20
452.6310099999999
 30
0.0
 11
143.8124264999999
 21
453.23101
 31
0.0
  0
LINE
  5
49E
330
1E
100
AcDbEntity
  8
0
100
AcDbLine
 10
143.8124264999999
 20
452.6310099999999
 30
0.0
 11
143.8124264999999
 21
451.1310099999999
 31
0.0
  0
LINE
  5
49F
330
1E
100
AcDbEntity
  8
0
100
AcDbLine
 10
143.8124264999999
 20
437.7310099999999
 30
0.0
 11
143.8124264999999
 21
433.7310099999999
 31
0.0
  0
LINE
  5
4A0
330
1E
100
AcDbEntity
  8
0
100
AcDbLine
 10
143.8124264999999
 20
437.7310099999999
 30
0.0
 11
143.8124264999999
 21
441.7310099999999
 31
0.0
  0
LINE
  5
4A1
330
1E
100
AcDbEntity
  8
0
100
AcDbLine
 10
143.8124264999999
 20
433.7310099999999
 30
0.0
 11
143.8124264999999
 21
437.7310099999999
 31
0.0
  0
LINE
  5
4A2
330
1E
100
AcDbEntity
  8
0
100
AcDbLine
 10
143.8124264999999
 20
433.7310099999999
 30
0.0
 11
143.8124264999999
 21
430.0310099999999
 31
0.0
  0
LINE
  5
4A3
330
1E
100
AcDbEntity
  8
0
100
AcDbLine
 10
145.3124264999999
 20
452.73101
 30
0.0
 11
160.8124264999999
 21
452.73101
 31
0.0
  0
LINE
  5
4A4
330
1E
100
AcDbEntity
  8
0
100
AcDbLine
 10
143.8124264999999
 20
453.23101
 30
0.0
 11
145.3124264999999
 21
452.73101
 31
0.0
  0
LINE
  5
4A5
330
1E
100
AcDbEntity
  8
0
100
AcDbLine
 10
143.8124264999999
 20
453.23101
 30
0.0
 11
143.8124264999999
 21
452.6310099999999
 31
0.0
  0
LINE
  5
4A6
330
1E
100
AcDbEntity
  8
0
100
AcDbLine
 10
158.8124264999999
 20
452.73101
 30
0.0
 11
158.8124264999999
 21
454.7310099999999
 31
0.0
  0
LINE
  5
4A7
330
1E
100
AcDbEntity
  8
0
100
AcDbLine
 10
153.8124264999999
 20
422.7310099999999
 30
0.0
 11
153.8124264999999
 21
421.3310099999999
 31
0.0
  0
LINE
  5
4A8
330
1E
100
AcDbEntity
  8
0
100
AcDbLine
 10
176.8124264999999
 20
422.7310099999999
 30
0.0
 11
195.8124265
 21
422.7310099999999
 31
0.0
  0
LINE
  5
4A9
330
1E
100
AcDbEntity
  8
0
100
AcDbLine
 10
176.8124264999999
 20
452.73101
 30
0.0
 11
195.8124265
 21
452.73101
 31
0.0
  0
LINE
  5
4AA
330
1E
100
AcDbEntity
  8
0
100
AcDbLine
 10
176.8124264999999
 20
447.7560099999999
 30
0.0
 11
176.8124264999999
 21
487.3730099999999
 31
0.0
  0
LINE
  5
4AB
330
1E
100
AcDbEntity
  8
0
100
AcDbLine
 10
176.8124264999999
 20
447.7560099999999
 30
0.0
 11
176.8124264999999
 21
409.8740099999999
 31
0.0
  0
LINE
  5
4AC
330
1E
100
AcDbEntity
  8
0
100
AcDbLine
 10
160.8124264999999
 20
447.7560099999999
 30
0.0
 11
160.8124264999999
 21
487.3730099999999
 31
0.0
  0
LINE
  5
4AD
330
1E
100
AcDbEntity
  8
0
100
AcDbLine
 10
160.8124264999999
 20
447.7560099999999
 30
0.0
 11
160.8124264999999
 21
409.8740099999999
 31
0.0
  0
LINE
  5
4AE
330
1E
100
AcDbEntity
  8
0
100
AcDbLine
 10
160.126219603448
 20
422.7310099999999
 30
0.0
 11
160.8124264999999
 21
422.207325789474
 31
0.0
  0
LINE
  5
4AF
330
1E
100
AcDbEntity
  8
0
100
AcDbLine
 10
160.126219603448
 20
452.73101
 30
0.0
 11
160.8124264999999
 21
453.254694210526
 31
0.0
  0
LINE
  5
4B0
330
1E
100
AcDbEntity
  8
0
100
AcDbLine
 10
144.4124264999999
 20
504.0650099999999
 30
0.0
 11
156.7124264999999
 21
504.0650099999999
 31
0.0
  0
LINE
  5
4B1
330
1E
100
AcDbEntity
  8
0
100
AcDbLine
 10
143.7124265
 20
508.0660099999999
 30
0.0
 11
156.3124264999999
 21
508.0650099999999
 31
0.0
  0
LINE
  5
4B2
330
1E
100
AcDbEntity
  8
0
100
AcDbLine
 10
144.9124264999999
 20
515.5650099999999
 30
0.0
 11
157.0124265
 21
515.56601
 31
0.0
  0
LINE
  5
4B3
330
1E
100
AcDbEntity
  8
0
100
AcDbLine
 10
144.4124264999999
 20
508.5660099999999
 30
0.0
 11
156.7124264999999
 21
508.5660099999999
 31
0.0
  0
LINE
  5
4B4
330
1E
100
AcDbEntity
  8
0
100
AcDbLine
 10
143.7124265
 20
504.5660099999999
 30
0.0
 11
156.3124264999999
 21
504.5650099999999
 31
0.0
  0
LINE
  5
4B5
330
1E
100
AcDbEntity
  8
0
100
AcDbLine
 10
144.4124264999999
 20
504.0660099999999
 30
0.0
 11
156.7124264999999
 21
504.0650099999999
 31
0.0
  0
LINE
  5
4B6
330
1E
100
AcDbEntity
  8
0
100
AcDbLine
 10
157.0124265
 20
504.0650099999999
 30
0.0
 11
160.8124264999999
 21
504.0650099999999
 31
0.0
  0
LINE
  5
4B7
330
1E
100
AcDbEntity
  8
0
100
AcDbLine
 10
145.7124265
 20
516.06601
 30
0.0
 11
157.3124264999999
 21
516.06601
 31
0.0
  0
LINE
  5
4B8
330
1E
100
AcDbEntity
  8
0
100
AcDbLine
 10
157.0124265
 20
515.56601
 30
0.0
 11
160.8124264999999
 21
515.56601
 31
0.0
  0
LINE
  5
4B9
330
1E
100
AcDbEntity
  8
0
100
AcDbLine
 10
156.7124264999999
 20
508.5660099999999
 30
0.0
 11
160.8124264999999
 21
508.565697022901
 31
0.0
  0
LINE
  5
4BA
330
1E
100
AcDbEntity
  8
0
100
AcDbLine
 10
156.3124264999999
 20
508.0650099999999
 30
0.0
 11
160.8124264999999
 21
508.0650099999999
 31
0.0
  0
LINE
  5
4BB
330
1E
100
AcDbEntity
  8
0
100
AcDbLine
 10
156.3124264999999
 20
504.5650099999999
 30
0.0
 11
160.8124264999999
 21
504.5650099999999
 31
0.0
  0
LINE
  5
4BC
330
1E
100
AcDbEntity
  8
0
100
AcDbLine
 10
156.7124264999999
 20
504.0650099999999
 30
0.0
 11
160.8124264999999
 21
504.0650099999999
 31
0.0
  0
LINE
  5
4BD
330
1E
100
AcDbEntity
  8
0
100
AcDbLine
 10
144.9124264999999
 20
504.0650099999999
 30
0.0
 11
150.764065844262
 21
504.065493606557
 31
0.0
  0
LINE
  5
4BE
330
1E
100
AcDbEntity
  8
0
100
AcDbLine
 10
156.8124264999999
 20
559.06601
 30
0.0
 11
157.3124264999999
 21
555.76501
 31
0.0
  0
LINE
  5
4BF
330
1E
100
AcDbEntity
  8
0
100
AcDbLine
 10
156.8124264999999
 20
559.06601
 30
0.0
 11
157.301944747557
 21
562.296830433874
 31
0.0
  0
LINE
  5
4C0
330
1E
100
AcDbEntity
  8
0
100
AcDbLine
 10
156.8124264999999
 20
551.5660099999999
 30
0.0
 11
159.2124264999999
 21
548.46501
 31
0.0
  0
LINE
  5
4C1
330
1E
100
AcDbEntity
  8
0
100
AcDbLine
 10
155.3124264999999
 20
555.1650099999999
 30
0.0
 11
156.8124264999999
 21
551.5660099999999
 31
0.0
  0
LINE
  5
4C2
330
1E
100
AcDbEntity
  8
0
100
AcDbLine
 10
155.3124264999999
 20
562.96501
 30
0.0
 11
155.9925069297499
 21
564.5972030313999
 31
0.0
  0
LINE
  5
4C3
330
1E
100
AcDbEntity
  8
0
100
AcDbLine
 10
154.8124265
 20
559.06601
 30
0.0
 11
155.3124264999999
 21
555.1650099999999
 31
0.0
  0
LINE
  5
4C4
330
1E
100
AcDbEntity
  8
0
100
AcDbLine
 10
154.8124265
 20
559.06601
 30
0.0
 11
155.3124264999999
 21
562.96501
 31
0.0
  0
LINE
  5
4C5
330
1E
100
AcDbEntity
  8
0
100
AcDbLine
 10
156.8124264999999
 20
534.5650099999999
 30
0.0
 11
158.3124264999999
 21
536.5650099999998
 31
0.0
  0
LINE
  5
4C6
330
1E
100
AcDbEntity
  8
0
100
AcDbLine
 10
154.8124265
 20
533.0650099999998
 30
0.0
 11
156.8124264999999
 21
534.5650099999999
 31
0.0
  0
LINE
  5
4C7
330
1E
100
AcDbEntity
  8
0
100
AcDbLine
 10
145.4124264999999
 20
521.5650099999999
 30
0.0
 11
157.2124265
 21
521.56601
 31
0.0
  0
LINE
  5
4C8
330
1E
100
AcDbEntity
  8
0
100
AcDbLine
 10
145.9124264999999
 20
519.0650099999999
 30
0.0
 11
157.5124265
 21
519.0650099999999
 31
0.0
  0
LINE
  5
4C9
330
1E
100
AcDbEntity
  8
0
100
AcDbLine
 10
176.8124264999999
 20
454.7310099999999
 30
0.0
 11
177.6004265
 21
454.7310099999999
 31
0.0
  0
LINE
  5
4CA
330
1E
100
AcDbEntity
  8
0
100
AcDbLine
 10
160.2644264999999
 20
454.7310099999999
 30
0.0
 11
160.8124264999999
 21
454.7310099999999
 31
0.0
  0
LINE
  5
4CB
330
1E
100
AcDbEntity
  8
0
100
AcDbLine
 10
159.2084264999999
 20
454.7310099999999
 30
0.0
 11
160.2644264999999
 21
454.7310099999999
 31
0.0
  0
LINE
  5
4CC
330
1E
100
AcDbEntity
  8
0
100
AcDbLine
 10
158.5144264999999
 20
454.98101
 30
0.0
 11
159.6854264999999
 21
454.98101
 31
0.0
  0
LINE
  5
4CD
330
1E
100
AcDbEntity
  8
0
100
AcDbLine
 10
158.5144264999999
 20
456.4810099999999
 30
0.0
 11
159.6854264999999
 21
456.4810099999999
 31
0.0
  0
LINE
  5
4CF
330
1E
100
AcDbEntity
  8
0
100
AcDbLine
 10
158.1054264999999
 20
454.98101
 30
0.0
 11
158.9834264999999
 21
454.7310099999999
 31
0.0
  0
LINE
  5
4D0
330
1E
100
AcDbEntity
  8
0
100
AcDbLine
 10
158.1054264999999
 20
454.98101
 30
0.0
 11
158.5144264999999
 21
454.98101
 31
0.0
  0
LINE
  5
4D1
330
1E
100
AcDbEntity
  8
0
100
AcDbLine
 10
158.1054264999999
 20
456.4810099999999
 30
0.0
 11
158.9834264999999
 21
456.7310099999999
 31
0.0
  0
LINE
  5
4D2
330
1E
100
AcDbEntity
  8
0
100
AcDbLine
 10
158.1054264999999
 20
456.4810099999999
 30
0.0
 11
158.5144264999999
 21
456.4810099999999
 31
0.0
  0
LINE
  5
4D3
330
1E
100
AcDbEntity
  8
0
100
AcDbLine
 10
157.8124264999999
 20
455.7310099999999
 30
0.0
 11
158.1054264999999
 21
456.4810099999999
 31
0.0
  0
LINE
  5
4D4
330
1E
100
AcDbEntity
  8
0
100
AcDbLine
 10
157.8124264999999
 20
455.7310099999999
 30
0.0
 11
158.1054264999999
 21
454.98101
 31
0.0
  0
LINE
  5
4D6
330
1E
100
AcDbEntity
  8
0
100
AcDbLine
 10
158.8124264999999
 20
456.7310099999999
 30
0.0
 11
158.9414264999999
 21
457.7540099999999
 31
0.0
  0
LINE
  5
4D7
330
1E
100
AcDbEntity
  8
0
100
AcDbLine
 10
158.8124264999999
 20
456.7310099999999
 30
0.0
 11
158.9834264999999
 21
456.7310099999999
 31
0.0
  0
LINE
  5
4D8
330
1E
100
AcDbEntity
  8
0
100
AcDbLine
 10
158.8124264999999
 20
456.7310099999999
 30
0.0
 11
159.2004264999999
 21
456.7310099999999
 31
0.0
  0
LINE
  5
4D9
330
1E
100
AcDbEntity
  8
0
100
AcDbLine
 10
158.9834264999999
 20
456.7310099999999
 30
0.0
 11
159.3934265
 21
456.7310099999999
 31
0.0
  0
LINE
  5
4DA
330
1E
100
AcDbEntity
  8
0
100
AcDbLine
 10
159.6854264999999
 20
454.98101
 30
0.0
 11
160.8124264999999
 21
454.98101
 31
0.0
  0
LINE
  5
4DB
330
1E
100
AcDbEntity
  8
0
100
AcDbLine
 10
176.8124264999999
 20
454.98101
 30
0.0
 11
178.0664264999999
 21
454.98101
 31
0.0
  0
LINE
  5
4DD
330
1E
100
AcDbEntity
  8
0
100
AcDbLine
 10
159.3934265
 20
456.7310099999999
 30
0.0
 11
160.4464265
 21
456.7310099999999
 31
0.0
  0
LINE
  5
4DE
330
1E
100
AcDbEntity
  8
0
100
AcDbLine
 10
160.4464265
 20
456.7310099999999
 30
0.0
 11
160.8124264999999
 21
456.7310099999999
 31
0.0
  0
LINE
  5
4DF
330
1E
100
AcDbEntity
  8
0
100
AcDbLine
 10
159.6854264999999
 20
456.4810099999999
 30
0.0
 11
160.8124264999999
 21
456.4810099999999
 31
0.0
  0
LINE
  5
4E1
330
1E
100
AcDbEntity
  8
0
100
AcDbLine
 10
176.8124264999999
 20
456.4810099999999
 30
0.0
 11
178.0664264999999
 21
456.4810099999999
 31
0.0
  0
LINE
  5
4E2
330
1E
100
AcDbEntity
  8
0
100
AcDbLine
 10
160.2874264999999
 20
456.7310099999999
 30
0.0
 11
160.8124264999999
 21
456.7310099999999
 31
0.0
  0
LINE
  5
4E3
330
1E
100
AcDbEntity
  8
0
100
AcDbLine
 10
159.2004264999999
 20
456.7310099999999
 30
0.0
 11
160.2874264999999
 21
456.7310099999999
 31
0.0
  0
LINE
  5
4E4
330
1E
100
AcDbEntity
  8
0
100
AcDbLine
 10
176.8124264999999
 20
456.7310099999999
 30
0.0
 11
177.5774265
 21
456.7310099999999
 31
0.0
  0
LINE
  5
4E5
330
1E
100
AcDbEntity
  8
0
100
AcDbLine
 10
176.8124264999999
 20
456.7310099999999
 30
0.0
 11
177.4804265
 21
456.7310099999999
 31
0.0
  0
LINE
  5
4E6
330
1E
100
AcDbEntity
  8
0
100
AcDbLine
 10
158.9414264999999
 20
457.7540099999999
 30
0.0
 11
159.7184264999999
 21
460.0280099999999
 31
0.0
  0
LINE
  5
4E7
330
1E
100
AcDbEntity
  8
0
100
AcDbLine
 10
176.8124264999999
 20
487.3730099999999
 30
0.0
 11
176.8124264999999
 21
447.7560099999999
 31
0.0
  0
LINE
  5
4E8
330
1E
100
AcDbEntity
  8
0
100
AcDbLine
 10
176.8124264999999
 20
487.3730099999999
 30
0.0
 11
176.8124264999999
 21
517.96001
 31
0.0
  0
LINE
  5
4E9
330
1E
100
AcDbEntity
  8
0
100
AcDbLine
 10
160.8124264999999
 20
487.3730099999999
 30
0.0
 11
160.8124264999999
 21
517.96001
 31
0.0
  0
LINE
  5
4EA
330
1E
100
AcDbEntity
  8
0
100
AcDbLine
 10
160.8124264999999
 20
487.3730099999999
 30
0.0
 11
160.8124264999999
 21
447.7560099999999
 31
0.0
  0
LINE
  5
4EB
330
1E
100
AcDbEntity
  8
0
100
AcDbLine
 10
157.3124264999999
 20
516.06601
 30
0.0
 11
160.8124264999999
 21
516.06601
 31
0.0
  0
LINE
  5
4EC
330
1E
100
AcDbEntity
  8
0
100
AcDbLine
 10
176.8124264999999
 20
517.96001
 30
0.0
 11
176.8124264999999
 21
531.9130099999999
 31
0.0
  0
LINE
  5
4ED
330
1E
100
AcDbEntity
  8
0
100
AcDbLine
 10
176.8124264999999
 20
517.96001
 30
0.0
 11
176.8124264999999
 21
487.3730099999999
 31
0.0
  0
LINE
  5
4EE
330
1E
100
AcDbEntity
  8
0
100
AcDbLine
 10
160.8124264999999
 20
517.96001
 30
0.0
 11
160.8124264999999
 21
531.9130099999999
 31
0.0
  0
LINE
  5
4EF
330
1E
100
AcDbEntity
  8
0
100
AcDbLine
 10
160.8124264999999
 20
517.96001
 30
0.0
 11
160.8124264999999
 21
487.3730099999999
 31
0.0
  0
LINE
  5
4F0
330
1E
100
AcDbEntity
  8
0
100
AcDbLine
 10
157.5124265
 20
519.0650099999999
 30
0.0
 11
160.8124264999999
 21
519.065278292683
 31
0.0
  0
LINE
  5
4F1
330
1E
100
AcDbEntity
  8
0
100
AcDbLine
 10
176.8124264999999
 20
531.9130099999999
 30
0.0
 11
176.8124264999999
 21
543.0210099999999
 31
0.0
  0
LINE
  5
4F2
330
1E
100
AcDbEntity
  8
0
100
AcDbLine
 10
176.8124264999999
 20
531.9130099999999
 30
0.0
 11
176.8124264999999
 21
517.96001
 31
0.0
  0
LINE
  5
4F3
330
1E
100
AcDbEntity
  8
0
100
AcDbLine
 10
160.8124264999999
 20
531.9130099999999
 30
0.0
 11
160.8124264999999
 21
517.96001
 31
0.0
  0
LINE
  5
4F4
330
1E
100
AcDbEntity
  8
0
100
AcDbLine
 10
160.8124264999999
 20
531.9130099999999
 30
0.0
 11
160.8124264999999
 21
543.0210099999999
 31
0.0
  0
LINE
  5
4F5
330
1E
100
AcDbEntity
  8
0
100
AcDbLine
 10
160.6124265
 20
542.06601
 30
0.0
 11
160.8124264999999
 21
542.06601
 31
0.0
  0
LINE
  5
4F6
330
1E
100
AcDbEntity
  8
0
100
AcDbLine
 10
160.3124264999999
 20
542.0650099999999
 30
0.0
 11
160.6124265
 21
542.06601
 31
0.0
  0
LINE
  5
4F7
330
1E
100
AcDbEntity
  8
0
100
AcDbLine
 10
159.3124264999999
 20
541.0650099999998
 30
0.0
 11
160.3124264999999
 21
542.0650099999999
 31
0.0
  0
LINE
  5
4F8
330
1E
100
AcDbEntity
  8
0
100
AcDbLine
 10
158.3124264999999
 20
536.5650099999998
 30
0.0
 11
159.3124264999999
 21
541.0650099999998
 31
0.0
  0
LINE
  5
4F9
330
1E
100
AcDbEntity
  8
0
100
AcDbLine
 10
157.2124265
 20
521.56601
 30
0.0
 11
160.8124264999999
 21
521.56601
 31
0.0
  0
LINE
  5
4FA
330
1E
100
AcDbEntity
  8
0
100
AcDbLine
 10
176.8124264999999
 20
543.0210099999999
 30
0.0
 11
176.8124264999999
 21
551.0940099999999
 31
0.0
  0
LINE
  5
4FB
330
1E
100
AcDbEntity
  8
0
100
AcDbLine
 10
176.8124264999999
 20
543.0210099999999
 30
0.0
 11
176.8124264999999
 21
531.9130099999999
 31
0.0
  0
LINE
  5
4FC
330
1E
100
AcDbEntity
  8
0
100
AcDbLine
 10
160.8124264999999
 20
543.0210099999999
 30
0.0
 11
160.8124264999999
 21
551.0940099999999
 31
0.0
  0
LINE
  5
4FD
330
1E
100
AcDbEntity
  8
0
100
AcDbLine
 10
160.8124264999999
 20
543.0210099999999
 30
0.0
 11
160.8124264999999
 21
531.9130099999999
 31
0.0
  0
LINE
  5
4FE
330
1E
100
AcDbEntity
  8
0
100
AcDbLine
 10
160.6124265
 20
549.8650099999999
 30
0.0
 11
160.8124264999999
 21
549.7095285185189
 31
0.0
  0
LINE
  5
4FF
330
1E
100
AcDbEntity
  8
0
100
AcDbLine
 10
159.2124264999999
 20
548.46501
 30
0.0
 11
160.8124264999999
 21
547.226816451613
 31
0.0
  0
LINE
  5
500
330
1E
100
AcDbEntity
  8
0
100
AcDbLine
 10
176.8124264999999
 20
548.154713703704
 30
0.0
 11
179.0124265
 21
549.8650099999999
 31
0.0
  0
LINE
  5
501
330
1E
100
AcDbEntity
  8
0
100
AcDbLine
 10
157.2054265
 20
559.17601
 30
0.0
 11
157.6054264999999
 21
556.1760099999999
 31
0.0
  0
LINE
  5
502
330
1E
100
AcDbEntity
  8
0
100
AcDbLine
 10
157.2054265
 20
559.17601
 30
0.0
 11
157.6054264999999
 21
562.17601
 31
0.0
  0
LINE
  5
503
330
1E
100
AcDbEntity
  8
0
100
AcDbLine
 10
176.8124264999999
 20
551.0940099999999
 30
0.0
 11
176.8124264999999
 21
543.0210099999999
 31
0.0
  0
LINE
  5
504
330
1E
100
AcDbEntity
  8
0
100
AcDbLine
 10
176.8124264999999
 20
551.0940099999999
 30
0.0
 11
176.8124264999999
 21
555.99401
 31
0.0
  0
LINE
  5
505
330
1E
100
AcDbEntity
  8
0
100
AcDbLine
 10
160.8124264999999
 20
551.0940099999999
 30
0.0
 11
160.8124264999999
 21
543.0210099999999
 31
0.0
  0
LINE
  5
506
330
1E
100
AcDbEntity
  8
0
100
AcDbLine
 10
160.8124264999999
 20
551.0940099999999
 30
0.0
 11
160.8124264999999
 21
555.99401
 31
0.0
  0
LINE
  5
507
330
1E
100
AcDbEntity
  8
0
100
AcDbLine
 10
176.8124264999999
 20
551.0848521052629
 30
0.0
 11
178.7054264999999
 21
553.4760099999999
 31
0.0
  0
LINE
  5
508
330
1E
100
AcDbEntity
  8
0
100
AcDbLine
 10
160.6054265
 20
551.0760099999999
 30
0.0
 11
160.8124264999999
 21
550.9121349999999
 31
0.0
  0
LINE
  5
509
330
1E
100
AcDbEntity
  8
0
100
AcDbLine
 10
157.6054264999999
 20
562.17601
 30
0.0
 11
158.7054264999999
 21
564.8760099999999
 31
0.0
  0
LINE
  5
50A
330
1E
100
AcDbEntity
  8
0
100
AcDbLine
 10
158.6054265
 20
561.8760099999999
 30
0.0
 11
159.6054265
 21
564.3760099999999
 31
0.0
  0
LINE
  5
50B
330
1E
100
AcDbEntity
  8
0
100
AcDbLine
 10
158.7054264999999
 20
564.8760099999999
 30
0.0
 11
160.6054265
 21
567.2760099999999
 31
0.0
  0
LINE
  5
50C
330
1E
100
AcDbEntity
  8
0
100
AcDbLine
 10
159.6054265
 20
564.3760099999999
 30
0.0
 11
161.3054264999999
 21
566.5760099999999
 31
0.0
  0
LINE
  5
50D
330
1E
100
AcDbEntity
  8
0
100
AcDbLine
 10
158.2054265
 20
559.17601
 30
0.0
 11
158.6054265
 21
556.4760099999999
 31
0.0
  0
LINE
  5
50E
330
1E
100
AcDbEntity
  8
0
100
AcDbLine
 10
158.2054265
 20
559.17601
 30
0.0
 11
158.6054265
 21
561.8760099999999
 31
0.0
  0
LINE
  5
50F
330
1E
100
AcDbEntity
  8
0
100
AcDbLine
 10
158.6054265
 20
556.4760099999999
 30
0.0
 11
159.6054265
 21
553.9760099999999
 31
0.0
  0
LINE
  5
510
330
1E
100
AcDbEntity
  8
0
100
AcDbLine
 10
157.6054264999999
 20
556.1760099999999
 30
0.0
 11
158.7054264999999
 21
553.4760099999999
 31
0.0
  0
LINE
  5
511
330
1E
100
AcDbEntity
  8
0
100
AcDbLine
 10
158.7054264999999
 20
553.4760099999999
 30
0.0
 11
160.6054265
 21
551.0760099999999
 31
0.0
  0
LINE
  5
512
330
1E
100
AcDbEntity
  8
0
100
AcDbLine
 10
160.8124264999999
 20
555.99401
 30
0.0
 11
160.8124264999999
 21
559.5410099999999
 31
0.0
  0
LINE
  5
513
330
1E
100
AcDbEntity
  8
0
100
AcDbLine
 10
160.8124264999999
 20
555.99401
 30
0.0
 11
160.8124264999999
 21
551.0940099999999
 31
0.0
  0
LINE
  5
514
330
1E
100
AcDbEntity
  8
0
100
AcDbLine
 10
176.8124264999999
 20
559.5410099999999
 30
0.0
 11
176.8124264999999
 21
555.99401
 31
0.0
  0
LINE
  5
515
330
1E
100
AcDbEntity
  8
0
100
AcDbLine
 10
176.8124264999999
 20
555.99401
 30
0.0
 11
176.8124264999999
 21
559.5410099999999
 31
0.0
  0
LINE
  5
516
330
1E
100
AcDbEntity
  8
0
100
AcDbLine
 10
176.8124264999999
 20
555.99401
 30
0.0
 11
176.8124264999999
 21
551.0940099999999
 31
0.0
  0
LINE
  5
517
330
1E
100
AcDbEntity
  8
0
100
AcDbLine
 10
160.8124264999999
 20
559.5410099999999
 30
0.0
 11
160.8124264999999
 21
555.99401
 31
0.0
  0
LINE
  5
518
330
1E
100
AcDbEntity
  8
0
100
AcDbLine
 10
176.8124264999999
 20
552.690951176471
 30
0.0
 11
177.8054264999999
 21
553.9760099999999
 31
0.0
  0
LINE
  5
519
330
1E
100
AcDbEntity
  8
0
100
AcDbLine
 10
159.6054265
 20
553.9760099999999
 30
0.0
 11
160.8124264999999
 21
552.4140099999999
 31
0.0
  0
LINE
  5
51A
330
1E
100
AcDbEntity
  8
0
100
AcDbLine
 10
158.5124265
 20
552.56601
 30
0.0
 11
160.6124265
 21
549.8650099999999
 31
0.0
  0
LINE
  5
51B
330
1E
100
AcDbEntity
  8
0
100
AcDbLine
 10
157.3124264999999
 20
555.76501
 30
0.0
 11
158.5124265
 21
552.56601
 31
0.0
  0
LINE
  5
51D
330
1E
100
AcDbEntity
  8
0
100
AcDbLine
 10
176.8124264999999
 20
545.857537777778
 30
0.0
 11
177.3124264999999
 21
546.06601
 31
0.0
  0
LINE
  5
51E
330
1E
100
AcDbEntity
  8
0
100
AcDbLine
 10
176.8124264999999
 20
542.06601
 30
0.0
 11
178.0124264999999
 21
542.06601
 31
0.0
  0
LINE
  5
51F
330
1E
100
AcDbEntity
  8
0
100
AcDbLine
 10
176.8124264999999
 20
521.56601
 30
0.0
 11
182.4124264999999
 21
521.56601
 31
0.0
  0
LINE
  5
520
330
1E
100
AcDbEntity
  8
0
100
AcDbLine
 10
176.8124264999999
 20
519.0654408943089
 30
0.0
 11
182.1124264999999
 21
519.0650099999999
 31
0.0
  0
LINE
  5
521
330
1E
100
AcDbEntity
  8
0
100
AcDbLine
 10
176.8124264999999
 20
516.06601
 30
0.0
 11
182.3124264999999
 21
516.06601
 31
0.0
  0
LINE
  5
522
330
1E
100
AcDbEntity
  8
0
100
AcDbLine
 10
176.8124264999999
 20
515.56601
 30
0.0
 11
182.6124264999999
 21
515.56601
 31
0.0
  0
LINE
  5
523
330
1E
100
AcDbEntity
  8
0
100
AcDbLine
 10
176.8124264999999
 20
508.565544351145
 30
0.0
 11
182.9124264999999
 21
508.5660099999999
 31
0.0
  0
LINE
  5
524
330
1E
100
AcDbEntity
  8
0
100
AcDbLine
 10
176.8124264999999
 20
508.0650099999999
 30
0.0
 11
183.3124265
 21
508.0650099999999
 31
0.0
  0
LINE
  5
525
330
1E
100
AcDbEntity
  8
0
100
AcDbLine
 10
176.8124264999999
 20
504.5650099999999
 30
0.0
 11
183.3124265
 21
504.5650099999999
 31
0.0
  0
LINE
  5
526
330
1E
100
AcDbEntity
  8
0
100
AcDbLine
 10
176.8124264999999
 20
504.0650099999999
 30
0.0
 11
182.9124264999999
 21
504.0650099999999
 31
0.0
  0
LINE
  5
527
330
1E
100
AcDbEntity
  8
0
100
AcDbLine
 10
176.8124264999999
 20
504.0650099999999
 30
0.0
 11
182.6124264999999
 21
504.0650099999999
 31
0.0
  0
LINE
  5
529
330
1E
100
AcDbEntity
  8
0
100
AcDbLine
 10
159.7184264999999
 20
460.0280099999999
 30
0.0
 11
160.8124264999999
 21
461.950541684699
 31
0.0
  0
LINE
  5
52A
330
1E
100
AcDbEntity
  8
0
100
AcDbLine
 10
176.8124264999999
 20
464.108963642384
 30
0.0
 11
178.6124264999999
 21
462.3020099999999
 31
0.0
  0
LINE
  5
52B
330
1E
100
AcDbEntity
  8
0
100
AcDbLine
 10
158.8124264999999
 20
454.7310099999999
 30
0.0
 11
158.8124264999999
 21
452.73101
 31
0.0
  0
LINE
  5
52C
330
1E
100
AcDbEntity
  8
0
100
AcDbLine
 10
158.8124264999999
 20
454.7310099999999
 30
0.0
 11
159.2084264999999
 21
454.7310099999999
 31
0.0
  0
LINE
  5
52D
330
1E
100
AcDbEntity
  8
0
100
AcDbLine
 10
157.2034264999999
 20
562.7920099999999
 30
0.0
 11
157.4932972478529
 21
561.335040608901
 31
0.0
  0
LINE
  5
52E
330
1E
100
AcDbEntity
  8
0
100
AcDbLine
 10
155.2404264999999
 20
566.02801
 30
0.0
 11
155.2554264999999
 21
567.03801
 31
0.0
  0
LINE
  5
52F
330
1E
100
AcDbEntity
  8
0
100
AcDbLine
 10
155.2404264999999
 20
566.02801
 30
0.0
 11
155.4714264999999
 21
565.37401
 31
0.0
  0
LINE
  5
530
330
1E
100
AcDbEntity
  8
0
100
AcDbLine
 10
155.2554264999999
 20
567.03801
 30
0.0
 11
155.6834264999999
 21
567.84501
 31
0.0
  0
LINE
  5
531
330
1E
100
AcDbEntity
  8
0
100
AcDbLine
 10
176.1054265
 20
566.5760099999999
 30
0.0
 11
177.8054264999999
 21
564.3760099999999
 31
0.0
  0
LINE
  5
532
330
1E
100
AcDbEntity
  8
0
100
AcDbLine
 10
176.8054264999999
 20
567.2760099999999
 30
0.0
 11
178.7054264999999
 21
564.8760099999999
 31
0.0
  0
LINE
  5
533
330
1E
100
AcDbEntity
  8
0
100
AcDbLine
 10
160.6054265
 20
567.2760099999999
 30
0.0
 11
163.0054265
 21
569.17601
 31
0.0
  0
LINE
  5
534
330
1E
100
AcDbEntity
  8
0
100
AcDbLine
 10
161.3054264999999
 20
566.5760099999999
 30
0.0
 11
163.5054264999999
 21
568.2760099999999
 31
0.0
  0
LINE
  5
535
330
1E
100
AcDbEntity
  8
0
100
AcDbLine
 10
159.383430390392
 20
566.68487214479
 30
0.0
 11
160.6124265
 21
568.26501
 31
0.0
  0
LINE
  5
536
330
1E
100
AcDbEntity
  8
0
100
AcDbLine
 10
158.8204264999999
 20
567.5620099999999
 30
0.0
 11
159.721039815147
 21
566.1588899770269
 31
0.0
  0
LINE
  5
537
330
1E
100
AcDbEntity
  8
0
100
AcDbLine
 10
158.3134264999999
 20
568.03701
 30
0.0
 11
158.8204264999999
 21
567.5620099999999
 31
0.0
  0
LINE
  5
538
330
1E
100
AcDbEntity
  8
0
100
AcDbLine
 10
173.9054264999999
 20
568.2760099999999
 30
0.0
 11
176.1054265
 21
566.5760099999999
 31
0.0
  0
LINE
  5
539
330
1E
100
AcDbEntity
  8
0
100
AcDbLine
 10
163.5054264999999
 20
568.2760099999999
 30
0.0
 11
166.0054265
 21
569.2760099999999
 31
0.0
  0
LINE
  5
53A
330
1E
100
AcDbEntity
  8
0
100
AcDbLine
 10
160.6124265
 20
568.26501
 30
0.0
 11
163.3124265
 21
570.3660099999999
 31
0.0
  0
LINE
  5
53B
330
1E
100
AcDbEntity
  8
0
100
AcDbLine
 10
158.0404123661679
 20
568.151670071244
 30
0.0
 11
159.2124264999999
 21
569.6660099999999
 31
0.0
  0
LINE
  5
53C
330
1E
100
AcDbEntity
  8
0
100
AcDbLine
 10
163.0054265
 20
569.17601
 30
0.0
 11
165.7054265
 21
570.2760099999998
 31
0.0
  0
LINE
  5
53D
330
1E
100
AcDbEntity
  8
0
100
AcDbLine
 10
168.7054264999999
 20
569.67601
 30
0.0
 11
171.4054264999999
 21
569.2760099999999
 31
0.0
  0
LINE
  5
53E
330
1E
100
AcDbEntity
  8
0
100
AcDbLine
 10
165.7054265
 20
570.2760099999998
 30
0.0
 11
168.7054264999999
 21
570.67601
 31
0.0
  0
LINE
  5
53F
330
1E
100
AcDbEntity
  8
0
100
AcDbLine
 10
166.0054265
 20
569.2760099999999
 30
0.0
 11
168.7054264999999
 21
569.67601
 31
0.0
  0
LINE
  5
540
330
1E
100
AcDbEntity
  8
0
100
AcDbLine
 10
163.3124265
 20
570.3660099999999
 30
0.0
 11
166.5124265
 21
571.5650099999999
 31
0.0
  0
LINE
  5
541
330
1E
100
AcDbEntity
  8
0
100
AcDbLine
 10
166.5124265
 20
571.5650099999999
 30
0.0
 11
169.8124264999999
 21
572.0650099999999
 31
0.0
  0
LINE
  5
542
330
1E
100
AcDbEntity
  8
0
100
AcDbLine
 10
168.7054264999999
 20
570.67601
 30
0.0
 11
171.7054264999999
 21
570.2760099999998
 31
0.0
  0
LINE
  5
544
330
1E
100
AcDbEntity
  8
0
100
AcDbLine
 10
169.6750047227789
 20
570.54673290363
 30
0.0
 11
169.8124264999999
 21
570.5650099999998
 31
0.0
  0
LINE
  5
545
330
1E
100
AcDbEntity
  8
0
100
AcDbLine
 10
159.2124264999999
 20
569.6660099999999
 30
0.0
 11
162.3124264999999
 21
572.0650099999999
 31
0.0
  0
LINE
  5
546
330
1E
100
AcDbEntity
  8
0
100
AcDbLine
 10
162.3124264999999
 20
572.0650099999999
 30
0.0
 11
165.9124264999999
 21
573.5650099999999
 31
0.0
  0
LINE
  5
547
330
1E
100
AcDbEntity
  8
0
100
AcDbLine
 10
165.9124264999999
 20
573.5650099999999
 30
0.0
 11
169.8124264999999
 21
574.0650099999998
 31
0.0
  0
LINE
  5
548
330
1E
100
AcDbEntity
  8
0
100
AcDbLine
 10
169.8124264999999
 20
574.0650099999998
 30
0.0
 11
173.7124265
 21
573.5650099999999
 31
0.0
  0
LINE
  5
549
330
1E
100
AcDbEntity
  8
0
100
AcDbLine
 10
169.8124264999999
 20
572.0650099999999
 30
0.0
 11
173.1124265
 21
571.5650099999999
 31
0.0
  0
LINE
  5
54B
330
1E
100
AcDbEntity
  8
0
100
AcDbLine
 10
174.4054264999999
 20
569.17601
 30
0.0
 11
176.8054264999999
 21
567.2760099999999
 31
0.0
  0
LINE
  5
54C
330
1E
100
AcDbEntity
  8
0
100
AcDbLine
 10
171.4054264999999
 20
569.2760099999999
 30
0.0
 11
173.9054264999999
 21
568.2760099999999
 31
0.0
  0
LINE
  5
54D
330
1E
100
AcDbEntity
  8
0
100
AcDbLine
 10
175.5124265
 20
569.0650099999999
 30
0.0
 11
177.9124264999999
 21
567.1660099999999
 31
0.0
  0
LINE
  5
54E
330
1E
100
AcDbEntity
  8
0
100
AcDbLine
 10
171.7054264999999
 20
570.2760099999998
 30
0.0
 11
174.4054264999999
 21
569.17601
 31
0.0
  0
LINE
  5
54F
330
1E
100
AcDbEntity
  8
0
100
AcDbLine
 10
173.7124265
 20
573.5650099999999
 30
0.0
 11
177.3124264999999
 21
572.0650099999999
 31
0.0
  0
LINE
  5
550
330
1E
100
AcDbEntity
  8
0
100
AcDbLine
 10
176.3124264999999
 20
570.3660099999999
 30
0.0
 11
179.0124265
 21
568.26501
 31
0.0
  0
LINE
  5
551
330
1E
100
AcDbEntity
  8
0
100
AcDbLine
 10
173.1124265
 20
571.5650099999999
 30
0.0
 11
176.3124264999999
 21
570.3660099999999
 31
0.0
  0
LINE
  5
552
330
1E
100
AcDbEntity
  8
0
100
AcDbLine
 10
172.8124264999999
 20
570.1660099999998
 30
0.0
 11
175.5124265
 21
569.0650099999999
 31
0.0
  0
LINE
  5
553
330
1E
100
AcDbEntity
  8
0
100
AcDbLine
 10
169.8124264999999
 20
570.5650099999998
 30
0.0
 11
172.8124264999999
 21
570.1660099999998
 31
0.0
  0
LINE
  5
554
330
1E
100
AcDbEntity
  8
0
100
AcDbLine
 10
157.3824264999999
 20
568.4280099999999
 30
0.0
 11
158.3134264999999
 21
568.03701
 31
0.0
  0
LINE
  5
555
330
1E
100
AcDbEntity
  8
0
100
AcDbLine
 10
157.3824264999999
 20
568.4280099999999
 30
0.0
 11
158.0404123661679
 21
568.151670071244
 31
0.0
  0
LINE
  5
556
330
1E
100
AcDbEntity
  8
0
100
AcDbLine
 10
156.4704265
 20
568.3600099999999
 30
0.0
 11
157.3824264999999
 21
568.4280099999999
 31
0.0
  0
LINE
  5
557
330
1E
100
AcDbEntity
  8
0
100
AcDbLine
 10
156.0514264999999
 20
568.1420099999999
 30
0.0
 11
156.4704265
 21
568.3600099999999
 31
0.0
  0
LINE
  5
558
330
1E
100
AcDbEntity
  8
0
100
AcDbLine
 10
155.6834264999999
 20
567.84501
 30
0.0
 11
156.0514264999999
 21
568.1420099999999
 31
0.0
  0
LINE
  5
559
330
1E
100
AcDbEntity
  8
0
100
AcDbLine
 10
155.4714264999999
 20
565.37401
 30
0.0
 11
157.2034264999999
 21
562.7920099999999
 31
0.0
  0
LINE
  5
55A
330
1E
100
AcDbEntity
  8
0
100
AcDbLine
 10
155.4714264999999
 20
565.37401
 30
0.0
 11
155.9925069297499
 21
564.5972030313999
 31
0.0
  0
LINE
  5
55B
330
1E
100
AcDbEntity
  8
0
100
AcDbLine
 10
176.8124264999999
 20
550.2534669740559
 30
0.0
 11
178.2974265
 21
551.2460099999999
 31
0.0
  0
LINE
  5
55C
330
1E
100
AcDbEntity
  8
0
100
AcDbLine
 10
176.8124264999999
 20
454.082172790698
 30
0.0
 11
178.7124264999999
 21
453.3310099999999
 31
0.0
  0
LINE
  5
55D
330
1E
100
AcDbEntity
  8
0
100
AcDbLine
 10
176.8124264999999
 20
453.6191052380949
 30
0.0
 11
178.5124265
 21
452.93101
 31
0.0
  0
LINE
  5
55E
330
1E
100
AcDbEntity
  8
0
100
AcDbLine
 10
176.8124264999999
 20
421.379847209302
 30
0.0
 11
178.7124264999999
 21
422.1310099999999
 31
0.0
  0
LINE
  5
55F
330
1E
100
AcDbEntity
  8
0
100
AcDbLine
 10
178.7124264999999
 20
422.1310099999999
 30
0.0
 11
179.498633396552
 21
422.7310099999999
 31
0.0
  0
LINE
  5
560
330
1E
100
AcDbEntity
  8
0
100
AcDbLine
 10
177.4804265
 20
456.7310099999999
 30
0.0
 11
179.1784264999999
 21
456.7310099999999
 31
0.0
  0
LINE
  5
561
330
1E
100
AcDbEntity
  8
0
100
AcDbLine
 10
177.3124264999999
 20
546.06601
 30
0.0
 11
180.4124264999999
 21
548.46501
 31
0.0
  0
LINE
  5
562
330
1E
100
AcDbEntity
  8
0
100
AcDbLine
 10
177.5774265
 20
456.7310099999999
 30
0.0
 11
179.3374264999999
 21
456.7310099999999
 31
0.0
  0
LINE
  5
563
330
1E
100
AcDbEntity
  8
0
100
AcDbLine
 10
178.0664264999999
 20
454.98101
 30
0.0
 11
179.9394265
 21
454.98101
 31
0.0
  0
LINE
  5
565
330
1E
100
AcDbEntity
  8
0
100
AcDbLine
 10
177.8124264999999
 20
542.06601
 30
0.0
 11
177.8124264999999
 21
546.4529454838709
 31
0.0
  0
LINE
  5
566
330
1E
100
AcDbEntity
  8
0
100
AcDbLine
 10
177.8124264999999
 20
546.4529454838709
 30
0.0
 11
177.8124264999999
 21
542.06601
 31
0.0
  0
LINE
  5
568
330
1E
100
AcDbEntity
  8
0
100
AcDbLine
 10
178.0124264999999
 20
542.06601
 30
0.0
 11
179.0124265
 21
542.06601
 31
0.0
  0
LINE
  5
569
330
1E
100
AcDbEntity
  8
0
100
AcDbLine
 10
178.0664264999999
 20
456.4810099999999
 30
0.0
 11
179.9394265
 21
456.4810099999999
 31
0.0
  0
LINE
  5
56A
330
1E
100
AcDbEntity
  8
0
100
AcDbLine
 10
177.6004265
 20
454.7310099999999
 30
0.0
 11
179.3604264999999
 21
454.7310099999999
 31
0.0
  0
LINE
  5
56B
330
1E
100
AcDbEntity
  8
0
100
AcDbLine
 10
177.8054264999999
 20
564.3760099999999
 30
0.0
 11
178.8054264999999
 21
561.8760099999999
 31
0.0
  0
LINE
  5
56C
330
1E
100
AcDbEntity
  8
0
100
AcDbLine
 10
177.8054264999999
 20
553.9760099999999
 30
0.0
 11
178.8054264999999
 21
556.4760099999999
 31
0.0
  0
LINE
  5
56D
330
1E
100
AcDbEntity
  8
0
100
AcDbLine
 10
177.9124264999999
 20
567.1660099999999
 30
0.0
 11
179.368889758423
 21
565.32550037712
 31
0.0
  0
LINE
  5
56E
330
1E
100
AcDbEntity
  8
0
100
AcDbLine
 10
177.3124264999999
 20
572.0650099999999
 30
0.0
 11
180.4124264999999
 21
569.6660099999999
 31
0.0
  0
LINE
  5
56F
330
1E
100
AcDbEntity
  8
0
100
AcDbLine
 10
178.2974265
 20
551.2460099999999
 30
0.0
 11
180.8994264999999
 21
555.1390099999999
 31
0.0
  0
LINE
  5
570
330
1E
100
AcDbEntity
  8
0
100
AcDbLine
 10
180.8124265
 20
452.73101
 30
0.0
 11
180.8124265
 21
454.7310099999999
 31
0.0
  0
LINE
  5
571
330
1E
100
AcDbEntity
  8
0
100
AcDbLine
 10
178.7054264999999
 20
564.8760099999999
 30
0.0
 11
179.8054264999999
 21
562.17601
 31
0.0
  0
LINE
  5
572
330
1E
100
AcDbEntity
  8
0
100
AcDbLine
 10
178.8054264999999
 20
561.8760099999999
 30
0.0
 11
179.2054264999999
 21
559.17601
 31
0.0
  0
LINE
  5
573
330
1E
100
AcDbEntity
  8
0
100
AcDbLine
 10
178.8054264999999
 20
556.4760099999999
 30
0.0
 11
179.2054264999999
 21
559.17601
 31
0.0
  0
LINE
  5
574
330
1E
100
AcDbEntity
  8
0
100
AcDbLine
 10
178.7054264999999
 20
553.4760099999999
 30
0.0
 11
179.8054264999999
 21
556.1760099999999
 31
0.0
  0
LINE
  5
575
330
1E
100
AcDbEntity
  8
0
100
AcDbLine
 10
178.6124264999999
 20
462.3020099999999
 30
0.0
 11
179.9064264999999
 21
460.0280099999999
 31
0.0
  0
LINE
  5
576
330
1E
100
AcDbEntity
  8
0
100
AcDbLine
 10
179.1784264999999
 20
456.7310099999999
 30
0.0
 11
180.2324265
 21
456.7310099999999
 31
0.0
  0
LINE
  5
577
330
1E
100
AcDbEntity
  8
0
100
AcDbLine
 10
179.3374264999999
 20
456.7310099999999
 30
0.0
 11
180.4244264999999
 21
456.7310099999999
 31
0.0
  0
LINE
  5
578
330
1E
100
AcDbEntity
  8
0
100
AcDbLine
 10
179.9394265
 20
454.98101
 30
0.0
 11
181.1104264999999
 21
454.98101
 31
0.0
  0
LINE
  5
579
330
1E
100
AcDbEntity
  8
0
100
AcDbLine
 10
179.9394265
 20
456.4810099999999
 30
0.0
 11
181.1104264999999
 21
456.4810099999999
 31
0.0
  0
LINE
  5
57A
330
1E
100
AcDbEntity
  8
0
100
AcDbLine
 10
179.3604264999999
 20
454.7310099999999
 30
0.0
 11
180.4164265
 21
454.7310099999999
 31
0.0
  0
LINE
  5
57B
330
1E
100
AcDbEntity
  8
0
100
AcDbLine
 10
179.0124265
 20
549.8650099999999
 30
0.0
 11
181.1124265
 21
552.56601
 31
0.0
  0
LINE
  5
57C
330
1E
100
AcDbEntity
  8
0
100
AcDbLine
 10
179.8054264999999
 20
562.17601
 30
0.0
 11
180.2054264999999
 21
559.17601
 31
0.0
  0
LINE
  5
57D
330
1E
100
AcDbEntity
  8
0
100
AcDbLine
 10
179.8054264999999
 20
556.1760099999999
 30
0.0
 11
180.2054264999999
 21
559.17601
 31
0.0
  0
LINE
  5
580
330
1E
100
AcDbEntity
  8
0
100
AcDbLine
 10
179.3124264999999
 20
542.0650099999999
 30
0.0
 11
180.3124264999999
 21
541.0650099999998
 31
0.0
  0
LINE
  5
581
330
1E
100
AcDbEntity
  8
0
100
AcDbLine
 10
179.0124265
 20
542.06601
 30
0.0
 11
179.3124264999999
 21
542.0650099999999
 31
0.0
  0
LINE
  5
582
330
1E
100
AcDbEntity
  8
0
100
AcDbLine
 10
179.9064264999999
 20
460.0280099999999
 30
0.0
 11
180.6834264999999
 21
457.7540099999999
 31
0.0
  0
LINE
  5
583
330
1E
100
AcDbEntity
  8
0
100
AcDbLine
 10
180.2324265
 20
456.7310099999999
 30
0.0
 11
180.6414264999999
 21
456.7310099999999
 31
0.0
  0
LINE
  5
585
330
1E
100
AcDbEntity
  8
0
100
AcDbLine
 10
180.4244264999999
 20
456.7310099999999
 30
0.0
 11
180.8124265
 21
456.7310099999999
 31
0.0
  0
LINE
  5
586
330
1E
100
AcDbEntity
  8
0
100
AcDbLine
 10
180.4164265
 20
454.7310099999999
 30
0.0
 11
180.8124265
 21
454.7310099999999
 31
0.0
  0
LINE
  5
587
330
1E
100
AcDbEntity
  8
0
100
AcDbLine
 10
180.8124265
 20
454.7310099999999
 30
0.0
 11
180.8124265
 21
452.73101
 31
0.0
  0
LINE
  5
588
330
1E
100
AcDbEntity
  8
0
100
AcDbLine
 10
180.6414264999999
 20
454.7310099999999
 30
0.0
 11
181.5194264999999
 21
454.98101
 31
0.0
  0
LINE
  5
589
330
1E
100
AcDbEntity
  8
0
100
AcDbLine
 10
180.4124264999999
 20
548.46501
 30
0.0
 11
182.8124264999999
 21
551.5660099999999
 31
0.0
  0
LINE
  5
58A
330
1E
100
AcDbEntity
  8
0
100
AcDbLine
 10
180.3124264999999
 20
541.0650099999998
 30
0.0
 11
181.3124264999999
 21
536.5650099999998
 31
0.0
  0
LINE
  5
58B
330
1E
100
AcDbEntity
  8
0
100
AcDbLine
 10
180.6834264999999
 20
457.7540099999999
 30
0.0
 11
180.8124265
 21
456.7310099999999
 31
0.0
  0
LINE
  5
58C
330
1E
100
AcDbEntity
  8
0
100
AcDbLine
 10
180.6414264999999
 20
456.7310099999999
 30
0.0
 11
180.8124265
 21
456.7310099999999
 31
0.0
  0
LINE
  5
58D
330
1E
100
AcDbEntity
  8
0
100
AcDbLine
 10
180.6414264999999
 20
456.7310099999999
 30
0.0
 11
181.5194264999999
 21
456.4810099999999
 31
0.0
  0
LINE
  5
58F
330
1E
100
AcDbEntity
  8
0
100
AcDbLine
 10
179.0124265
 20
568.26501
 30
0.0
 11
180.241422609608
 21
566.68487214479
 31
0.0
  0
LINE
  5
590
330
1E
100
AcDbEntity
  8
0
100
AcDbLine
 10
180.4124264999999
 20
569.6660099999999
 30
0.0
 11
181.584440633832
 21
568.151670071244
 31
0.0
  0
LINE
  5
591
330
1E
100
AcDbEntity
  8
0
100
AcDbLine
 10
180.8044264999999
 20
567.5620099999999
 30
0.0
 11
181.3114264999999
 21
568.03701
 31
0.0
  0
LINE
  5
592
330
1E
100
AcDbEntity
  8
0
100
AcDbLine
 10
178.851011131983
 20
564.5186659033149
 30
0.0
 11
180.8044264999999
 21
567.5620099999999
 31
0.0
  0
LINE
  5
593
330
1E
100
AcDbEntity
  8
0
100
AcDbLine
 10
178.7124264999999
 20
453.3310099999999
 30
0.0
 11
179.498633396552
 21
452.73101
 31
0.0
  0
LINE
  5
594
330
1E
100
AcDbEntity
  8
0
100
AcDbLine
 10
178.5124265
 20
452.93101
 30
0.0
 11
178.7767122142859
 21
452.73101
 31
0.0
  0
LINE
  5
595
330
1E
100
AcDbEntity
  8
0
100
AcDbLine
 10
178.5124265
 20
422.5310099999999
 30
0.0
 11
178.7767122142859
 21
422.7310099999999
 31
0.0
  0
LINE
  5
596
330
1E
100
AcDbEntity
  8
0
100
AcDbLine
 10
176.8124264999999
 20
421.8429147619049
 30
0.0
 11
178.5124265
 21
422.5310099999999
 31
0.0
  0
LINE
  5
597
330
1E
100
AcDbEntity
  8
0
100
AcDbLine
 10
179.6074265
 20
420.7310099999999
 30
0.0
 11
180.8574265
 21
420.7310099999999
 31
0.0
  0
LINE
  5
598
330
1E
100
AcDbEntity
  8
0
100
AcDbLine
 10
183.4524264999999
 20
420.7310099999999
 30
0.0
 11
183.8124264999999
 21
421.3310099999999
 31
0.0
  0
LINE
  5
599
330
1E
100
AcDbEntity
  8
0
100
AcDbLine
 10
182.9124264999999
 20
420.7310099999999
 30
0.0
 11
183.4524264999999
 21
420.7310099999999
 31
0.0
  0
LINE
  5
59A
330
1E
100
AcDbEntity
  8
0
100
AcDbLine
 10
181.4724264999999
 20
420.7310099999999
 30
0.0
 11
182.9124264999999
 21
420.7310099999999
 31
0.0
  0
LINE
  5
59B
330
1E
100
AcDbEntity
  8
0
100
AcDbLine
 10
183.8124264999999
 20
421.3310099999999
 30
0.0
 11
183.8124264999999
 21
422.7310099999999
 31
0.0
  0
LINE
  5
59C
330
1E
100
AcDbEntity
  8
0
100
AcDbLine
 10
181.3124264999999
 20
420.7310099999999
 30
0.0
 11
181.4724264999999
 21
420.7310099999999
 31
0.0
  0
LINE
  5
59D
330
1E
100
AcDbEntity
  8
0
100
AcDbLine
 10
214.8124265
 20
420.7310099999999
 30
0.0
 11
215.8124265
 21
418.73101
 31
0.0
  0
LINE
  5
59E
330
1E
100
AcDbEntity
  8
0
100
AcDbLine
 10
201.7484264999999
 20
420.7310099999999
 30
0.0
 11
212.8774265
 21
420.7310099999999
 31
0.0
  0
LINE
  5
59F
330
1E
100
AcDbEntity
  8
0
100
AcDbLine
 10
199.3124264999999
 20
421.2310099999999
 30
0.0
 11
199.8124264999999
 21
422.7310099999999
 31
0.0
  0
LINE
  5
5A0
330
1E
100
AcDbEntity
  8
0
100
AcDbLine
 10
199.3124264999999
 20
421.2310099999999
 30
0.0
 11
199.3124264999999
 21
421.8310099999999
 31
0.0
  0
LINE
  5
5A1
330
1E
100
AcDbEntity
  8
0
100
AcDbLine
 10
212.8774265
 20
420.7310099999999
 30
0.0
 11
213.8444265
 21
421.8360099999999
 31
0.0
  0
LINE
  5
5A2
330
1E
100
AcDbEntity
  8
0
100
AcDbLine
 10
197.8124264999999
 20
420.7310099999999
 30
0.0
 11
199.3124264999999
 21
421.2310099999999
 31
0.0
  0
LINE
  5
5A4
330
1E
100
AcDbEntity
  8
0
100
AcDbLine
 10
195.8124265
 20
427.1310099999999
 30
0.0
 11
195.8124265
 21
430.2310099999999
 31
0.0
  0
LINE
  5
5A5
330
1E
100
AcDbEntity
  8
0
100
AcDbLine
 10
195.8124265
 20
427.1310099999999
 30
0.0
 11
195.8124265
 21
424.7310099999999
 31
0.0
  0
LINE
  5
5A6
330
1E
100
AcDbEntity
  8
0
100
AcDbLine
 10
195.8124265
 20
430.2310099999999
 30
0.0
 11
195.8124265
 21
433.8310099999999
 31
0.0
  0
LINE
  5
5A7
330
1E
100
AcDbEntity
  8
0
100
AcDbLine
 10
195.8124265
 20
430.2310099999999
 30
0.0
 11
195.8124265
 21
427.1310099999999
 31
0.0
  0
LINE
  5
5A8
330
1E
100
AcDbEntity
  8
0
100
AcDbLine
 10
195.8124265
 20
433.8310099999999
 30
0.0
 11
195.8124265
 21
437.7310099999999
 31
0.0
  0
LINE
  5
5A9
330
1E
100
AcDbEntity
  8
0
100
AcDbLine
 10
195.8124265
 20
433.8310099999999
 30
0.0
 11
195.8124265
 21
430.2310099999999
 31
0.0
  0
LINE
  5
5AA
330
1E
100
AcDbEntity
  8
0
100
AcDbLine
 10
195.8124265
 20
424.7310099999999
 30
0.0
 11
195.8124265
 21
427.1310099999999
 31
0.0
  0
LINE
  5
5AB
330
1E
100
AcDbEntity
  8
0
100
AcDbLine
 10
195.8124265
 20
424.7310099999999
 30
0.0
 11
195.8124265
 21
423.2310099999999
 31
0.0
  0
LINE
  5
5AC
330
1E
100
AcDbEntity
  8
0
100
AcDbLine
 10
195.8124265
 20
423.2310099999999
 30
0.0
 11
195.8124265
 21
424.7310099999999
 31
0.0
  0
LINE
  5
5AD
330
1E
100
AcDbEntity
  8
0
100
AcDbLine
 10
195.8124265
 20
423.2310099999999
 30
0.0
 11
195.8124265
 21
422.7310099999999
 31
0.0
  0
LINE
  5
5AE
330
1E
100
AcDbEntity
  8
0
100
AcDbLine
 10
195.8124265
 20
448.3310099999999
 30
0.0
 11
195.8124265
 21
450.7310099999999
 31
0.0
  0
LINE
  5
5AF
330
1E
100
AcDbEntity
  8
0
100
AcDbLine
 10
195.8124265
 20
448.3310099999999
 30
0.0
 11
195.8124265
 21
445.23101
 31
0.0
  0
LINE
  5
5B0
330
1E
100
AcDbEntity
  8
0
100
AcDbLine
 10
195.8124265
 20
445.23101
 30
0.0
 11
195.8124265
 21
448.3310099999999
 31
0.0
  0
LINE
  5
5B1
330
1E
100
AcDbEntity
  8
0
100
AcDbLine
 10
195.8124265
 20
445.23101
 30
0.0
 11
195.8124265
 21
441.6310099999999
 31
0.0
  0
LINE
  5
5B2
330
1E
100
AcDbEntity
  8
0
100
AcDbLine
 10
195.8124265
 20
441.6310099999999
 30
0.0
 11
195.8124265
 21
445.23101
 31
0.0
  0
LINE
  5
5B3
330
1E
100
AcDbEntity
  8
0
100
AcDbLine
 10
195.8124265
 20
441.6310099999999
 30
0.0
 11
195.8124265
 21
437.7310099999999
 31
0.0
  0
LINE
  5
5B4
330
1E
100
AcDbEntity
  8
0
100
AcDbLine
 10
195.8124265
 20
437.7310099999999
 30
0.0
 11
195.8124265
 21
441.6310099999999
 31
0.0
  0
LINE
  5
5B5
330
1E
100
AcDbEntity
  8
0
100
AcDbLine
 10
195.8124265
 20
437.7310099999999
 30
0.0
 11
195.8124265
 21
433.8310099999999
 31
0.0
  0
LINE
  5
5B6
330
1E
100
AcDbEntity
  8
0
100
AcDbLine
 10
196.3124264999999
 20
421.8310099999999
 30
0.0
 11
196.3124264999999
 21
423.43101
 31
0.0
  0
LINE
  5
5B7
330
1E
100
AcDbEntity
  8
0
100
AcDbLine
 10
196.3124264999999
 20
429.53101
 30
0.0
 11
196.3124264999999
 21
426.0310099999999
 31
0.0
  0
LINE
  5
5B8
330
1E
100
AcDbEntity
  8
0
100
AcDbLine
 10
196.3124264999999
 20
429.53101
 30
0.0
 11
196.3124264999999
 21
433.53101
 31
0.0
  0
LINE
  5
5B9
330
1E
100
AcDbEntity
  8
0
100
AcDbLine
 10
196.3124264999999
 20
433.53101
 30
0.0
 11
196.3124264999999
 21
429.53101
 31
0.0
  0
LINE
  5
5BA
330
1E
100
AcDbEntity
  8
0
100
AcDbLine
 10
196.3124264999999
 20
433.53101
 30
0.0
 11
196.3124264999999
 21
437.7310099999999
 31
0.0
  0
LINE
  5
5BB
330
1E
100
AcDbEntity
  8
0
100
AcDbLine
 10
196.3124264999999
 20
426.0310099999999
 30
0.0
 11
196.3124264999999
 21
423.43101
 31
0.0
  0
LINE
  5
5BC
330
1E
100
AcDbEntity
  8
0
100
AcDbLine
 10
196.3124264999999
 20
426.0310099999999
 30
0.0
 11
196.3124264999999
 21
429.53101
 31
0.0
  0
LINE
  5
5BD
330
1E
100
AcDbEntity
  8
0
100
AcDbLine
 10
196.3124264999999
 20
423.43101
 30
0.0
 11
196.3124264999999
 21
421.8310099999999
 31
0.0
  0
LINE
  5
5BE
330
1E
100
AcDbEntity
  8
0
100
AcDbLine
 10
196.3124264999999
 20
423.43101
 30
0.0
 11
196.3124264999999
 21
426.0310099999999
 31
0.0
  0
LINE
  5
5C2
330
1E
100
AcDbEntity
  8
0
100
AcDbLine
 10
199.3124264999999
 20
429.53101
 30
0.0
 11
199.3124264999999
 21
426.0310099999999
 31
0.0
  0
LINE
  5
5C3
330
1E
100
AcDbEntity
  8
0
100
AcDbLine
 10
199.3124264999999
 20
429.53101
 30
0.0
 11
199.3124264999999
 21
433.53101
 31
0.0
  0
LINE
  5
5C4
330
1E
100
AcDbEntity
  8
0
100
AcDbLine
 10
199.3124264999999
 20
433.53101
 30
0.0
 11
199.3124264999999
 21
429.53101
 31
0.0
  0
LINE
  5
5C5
330
1E
100
AcDbEntity
  8
0
100
AcDbLine
 10
199.3124264999999
 20
433.53101
 30
0.0
 11
199.3124264999999
 21
437.7310099999999
 31
0.0
  0
LINE
  5
5C6
330
1E
100
AcDbEntity
  8
0
100
AcDbLine
 10
199.3124264999999
 20
426.0310099999999
 30
0.0
 11
199.3124264999999
 21
423.43101
 31
0.0
  0
LINE
  5
5C7
330
1E
100
AcDbEntity
  8
0
100
AcDbLine
 10
199.3124264999999
 20
426.0310099999999
 30
0.0
 11
199.3124264999999
 21
429.53101
 31
0.0
  0
LINE
  5
5C8
330
1E
100
AcDbEntity
  8
0
100
AcDbLine
 10
199.3124264999999
 20
423.43101
 30
0.0
 11
199.3124264999999
 21
421.8310099999999
 31
0.0
  0
LINE
  5
5C9
330
1E
100
AcDbEntity
  8
0
100
AcDbLine
 10
199.3124264999999
 20
423.43101
 30
0.0
 11
199.3124264999999
 21
426.0310099999999
 31
0.0
  0
LINE
  5
5CA
330
1E
100
AcDbEntity
  8
0
100
AcDbLine
 10
199.3124264999999
 20
421.8310099999999
 30
0.0
 11
199.3124264999999
 21
421.2310099999999
 31
0.0
  0
LINE
  5
5CB
330
1E
100
AcDbEntity
  8
0
100
AcDbLine
 10
199.3124264999999
 20
421.8310099999999
 30
0.0
 11
199.3124264999999
 21
423.43101
 31
0.0
  0
LINE
  5
5CF
330
1E
100
AcDbEntity
  8
0
100
AcDbLine
 10
199.3124264999999
 20
437.7310099999999
 30
0.0
 11
199.3124264999999
 21
441.9310099999999
 31
0.0
  0
LINE
  5
5D0
330
1E
100
AcDbEntity
  8
0
100
AcDbLine
 10
199.3124264999999
 20
437.7310099999999
 30
0.0
 11
199.3124264999999
 21
433.53101
 31
0.0
  0
LINE
  5
5D1
330
1E
100
AcDbEntity
  8
0
100
AcDbLine
 10
199.3124264999999
 20
441.9310099999999
 30
0.0
 11
199.3124264999999
 21
437.7310099999999
 31
0.0
  0
LINE
  5
5D2
330
1E
100
AcDbEntity
  8
0
100
AcDbLine
 10
199.3124264999999
 20
441.9310099999999
 30
0.0
 11
199.3124264999999
 21
445.9310099999999
 31
0.0
  0
LINE
  5
5D5
330
1E
100
AcDbEntity
  8
0
100
AcDbLine
 10
196.3124264999999
 20
437.7310099999999
 30
0.0
 11
196.3124264999999
 21
441.9310099999999
 31
0.0
  0
LINE
  5
5D6
330
1E
100
AcDbEntity
  8
0
100
AcDbLine
 10
196.3124264999999
 20
437.7310099999999
 30
0.0
 11
196.3124264999999
 21
433.53101
 31
0.0
  0
LINE
  5
5D7
330
1E
100
AcDbEntity
  8
0
100
AcDbLine
 10
196.3124264999999
 20
449.4310099999999
 30
0.0
 11
196.3124264999999
 21
445.9310099999999
 31
0.0
  0
LINE
  5
5D8
330
1E
100
AcDbEntity
  8
0
100
AcDbLine
 10
196.3124264999999
 20
449.4310099999999
 30
0.0
 11
196.3124264999999
 21
452.0310099999999
 31
0.0
  0
LINE
  5
5D9
330
1E
100
AcDbEntity
  8
0
100
AcDbLine
 10
199.3124264999999
 20
445.9310099999999
 30
0.0
 11
199.3124264999999
 21
441.9310099999999
 31
0.0
  0
LINE
  5
5DA
330
1E
100
AcDbEntity
  8
0
100
AcDbLine
 10
199.3124264999999
 20
445.9310099999999
 30
0.0
 11
199.3124264999999
 21
449.4310099999999
 31
0.0
  0
LINE
  5
5DC
330
1E
100
AcDbEntity
  8
0
100
AcDbLine
 10
199.3124264999999
 20
449.4310099999999
 30
0.0
 11
199.3124264999999
 21
445.9310099999999
 31
0.0
  0
LINE
  5
5DD
330
1E
100
AcDbEntity
  8
0
100
AcDbLine
 10
199.3124264999999
 20
449.4310099999999
 30
0.0
 11
199.3124264999999
 21
452.0310099999999
 31
0.0
  0
LINE
  5
5DF
330
1E
100
AcDbEntity
  8
0
100
AcDbLine
 10
196.3124264999999
 20
445.9310099999999
 30
0.0
 11
196.3124264999999
 21
441.9310099999999
 31
0.0
  0
LINE
  5
5E0
330
1E
100
AcDbEntity
  8
0
100
AcDbLine
 10
196.3124264999999
 20
445.9310099999999
 30
0.0
 11
196.3124264999999
 21
449.4310099999999
 31
0.0
  0
LINE
  5
5E1
330
1E
100
AcDbEntity
  8
0
100
AcDbLine
 10
196.3124264999999
 20
441.9310099999999
 30
0.0
 11
196.3124264999999
 21
437.7310099999999
 31
0.0
  0
LINE
  5
5E2
330
1E
100
AcDbEntity
  8
0
100
AcDbLine
 10
196.3124264999999
 20
441.9310099999999
 30
0.0
 11
196.3124264999999
 21
445.9310099999999
 31
0.0
  0
LINE
  5
5E3
330
1E
100
AcDbEntity
  8
0
100
AcDbLine
 10
195.8124265
 20
422.7310099999999
 30
0.0
 11
196.3124264999999
 21
421.2310099999999
 31
0.0
  0
LINE
  5
5E4
330
1E
100
AcDbEntity
  8
0
100
AcDbLine
 10
195.8124265
 20
422.7310099999999
 30
0.0
 11
195.8124265
 21
423.2310099999999
 31
0.0
  0
LINE
  5
5E5
330
1E
100
AcDbEntity
  8
0
100
AcDbLine
 10
195.8124265
 20
450.7310099999999
 30
0.0
 11
195.8124265
 21
452.2310099999999
 31
0.0
  0
LINE
  5
5E6
330
1E
100
AcDbEntity
  8
0
100
AcDbLine
 10
195.8124265
 20
450.7310099999999
 30
0.0
 11
195.8124265
 21
448.3310099999999
 31
0.0
  0
LINE
  5
5E7
330
1E
100
AcDbEntity
  8
0
100
AcDbLine
 10
199.3124264999999
 20
452.0310099999999
 30
0.0
 11
199.3124264999999
 21
449.4310099999999
 31
0.0
  0
LINE
  5
5E8
330
1E
100
AcDbEntity
  8
0
100
AcDbLine
 10
199.3124264999999
 20
452.0310099999999
 30
0.0
 11
199.3124264999999
 21
453.6310099999999
 31
0.0
  0
LINE
  5
5EA
330
1E
100
AcDbEntity
  8
0
100
AcDbLine
 10
196.3124264999999
 20
452.0310099999999
 30
0.0
 11
196.3124264999999
 21
449.4310099999999
 31
0.0
  0
LINE
  5
5EB
330
1E
100
AcDbEntity
  8
0
100
AcDbLine
 10
196.3124264999999
 20
452.0310099999999
 30
0.0
 11
196.3124264999999
 21
453.6310099999999
 31
0.0
  0
LINE
  5
5EC
330
1E
100
AcDbEntity
  8
0
100
AcDbLine
 10
195.8124265
 20
452.2310099999999
 30
0.0
 11
195.8124265
 21
452.73101
 31
0.0
  0
LINE
  5
5ED
330
1E
100
AcDbEntity
  8
0
100
AcDbLine
 10
195.8124265
 20
452.2310099999999
 30
0.0
 11
195.8124265
 21
450.7310099999999
 31
0.0
  0
LINE
  5
5EE
330
1E
100
AcDbEntity
  8
0
100
AcDbLine
 10
199.8124264999999
 20
449.9870099999999
 30
0.0
 11
200.7804264999999
 21
453.6260099999999
 31
0.0
  0
LINE
  5
5EF
330
1E
100
AcDbEntity
  8
0
100
AcDbLine
 10
213.8444265
 20
421.8360099999999
 30
0.0
 11
214.8124265
 21
424.2780099999999
 31
0.0
  0
LINE
  5
5F0
330
1E
100
AcDbEntity
  8
0
100
AcDbLine
 10
213.8444265
 20
421.8360099999999
 30
0.0
 11
213.8444265
 21
422.27401
 31
0.0
  0
LINE
  5
5F1
330
1E
100
AcDbEntity
  8
0
100
AcDbLine
 10
213.8444265
 20
422.27401
 30
0.0
 11
213.8444265
 21
423.9050099999999
 31
0.0
  0
LINE
  5
5F2
330
1E
100
AcDbEntity
  8
0
100
AcDbLine
 10
213.8444265
 20
422.27401
 30
0.0
 11
213.8444265
 21
421.8360099999999
 31
0.0
  0
LINE
  5
5F3
330
1E
100
AcDbEntity
  8
0
100
AcDbLine
 10
200.7804264999999
 20
422.27401
 30
0.0
 11
200.7804264999999
 21
421.8360099999999
 31
0.0
  0
LINE
  5
5F4
330
1E
100
AcDbEntity
  8
0
100
AcDbLine
 10
200.7804264999999
 20
422.27401
 30
0.0
 11
200.7804264999999
 21
423.9050099999999
 31
0.0
  0
LINE
  5
5F5
330
1E
100
AcDbEntity
  8
0
100
AcDbLine
 10
200.7804264999999
 20
423.9050099999999
 30
0.0
 11
200.7804264999999
 21
433.6020099999999
 31
0.0
  0
LINE
  5
5F6
330
1E
100
AcDbEntity
  8
0
100
AcDbLine
 10
200.7804264999999
 20
445.7130099999999
 30
0.0
 11
200.7804264999999
 21
449.0600099999999
 31
0.0
  0
LINE
  5
5F7
330
1E
100
AcDbEntity
  8
0
100
AcDbLine
 10
200.7804264999999
 20
437.79101
 30
0.0
 11
200.7804264999999
 21
433.6020099999999
 31
0.0
  0
LINE
  5
5F8
330
1E
100
AcDbEntity
  8
0
100
AcDbLine
 10
200.7804264999999
 20
449.0600099999999
 30
0.0
 11
200.7804264999999
 21
437.79101
 31
0.0
  0
LINE
  5
5F9
330
1E
100
AcDbEntity
  8
0
100
AcDbLine
 10
200.7804264999999
 20
449.0600099999999
 30
0.0
 11
200.7804264999999
 21
451.46701
 31
0.0
  0
LINE
  5
5FA
330
1E
100
AcDbEntity
  8
0
100
AcDbLine
 10
200.7804264999999
 20
453.6260099999999
 30
0.0
 11
200.7804264999999
 21
449.0600099999999
 31
0.0
  0
LINE
  5
5FB
330
1E
100
AcDbEntity
  8
0
100
AcDbLine
 10
200.7804264999999
 20
433.6020099999999
 30
0.0
 11
200.7804264999999
 21
423.9050099999999
 31
0.0
  0
LINE
  5
5FC
330
1E
100
AcDbEntity
  8
0
100
AcDbLine
 10
200.7804264999999
 20
433.6020099999999
 30
0.0
 11
200.7804264999999
 21
437.79101
 31
0.0
  0
LINE
  5
601
330
1E
100
AcDbEntity
  8
0
100
AcDbLine
 10
213.8444265
 20
429.7310099999999
 30
0.0
 11
213.8444265
 21
422.27401
 31
0.0
  0
LINE
  5
602
330
1E
100
AcDbEntity
  8
0
100
AcDbLine
 10
214.8124265
 20
424.7250099999999
 30
0.0
 11
214.8124265
 21
424.2780099999999
 31
0.0
  0
LINE
  5
608
330
1E
100
AcDbEntity
  8
0
100
AcDbLine
 10
213.8444265
 20
429.7310099999999
 30
0.0
 11
213.8444265
 21
433.6020099999999
 31
0.0
  0
LINE
  5
609
330
1E
100
AcDbEntity
  8
0
100
AcDbLine
 10
213.8444265
 20
437.79101
 30
0.0
 11
213.8444265
 21
433.6020099999999
 31
0.0
  0
LINE
  5
60B
330
1E
100
AcDbEntity
  8
0
100
AcDbLine
 10
214.8124265
 20
425.7310099999999
 30
0.0
 11
214.8124265
 21
429.2310099999999
 31
0.0
  0
LINE
  5
60C
330
1E
100
AcDbEntity
  8
0
100
AcDbLine
 10
214.8124265
 20
425.7310099999999
 30
0.0
 11
214.8124265
 21
423.0310099999999
 31
0.0
  0
LINE
  5
60D
330
1E
100
AcDbEntity
  8
0
100
AcDbLine
 10
214.8124265
 20
429.2310099999999
 30
0.0
 11
214.8124265
 21
425.7310099999999
 31
0.0
  0
LINE
  5
60E
330
1E
100
AcDbEntity
  8
0
100
AcDbLine
 10
214.8124265
 20
429.2310099999999
 30
0.0
 11
214.8124265
 21
433.3310099999999
 31
0.0
  0
LINE
  5
60F
330
1E
100
AcDbEntity
  8
0
100
AcDbLine
 10
214.8124265
 20
433.3310099999999
 30
0.0
 11
214.8124265
 21
429.2310099999999
 31
0.0
  0
LINE
  5
610
330
1E
100
AcDbEntity
  8
0
100
AcDbLine
 10
214.8124265
 20
433.3310099999999
 30
0.0
 11
214.8124265
 21
437.7310099999999
 31
0.0
  0
LINE
  5
611
330
1E
100
AcDbEntity
  8
0
100
AcDbLine
 10
214.8124265
 20
434.2380099999999
 30
0.0
 11
214.8124265
 21
431.0460099999999
 31
0.0
  0
LINE
  5
612
330
1E
100
AcDbEntity
  8
0
100
AcDbLine
 10
214.8124265
 20
431.0460099999999
 30
0.0
 11
214.8124265
 21
428.1950099999999
 31
0.0
  0
LINE
  5
613
330
1E
100
AcDbEntity
  8
0
100
AcDbLine
 10
214.8124265
 20
428.1950099999999
 30
0.0
 11
214.8124265
 21
426.00901
 31
0.0
  0
LINE
  5
614
330
1E
100
AcDbEntity
  8
0
100
AcDbLine
 10
214.8124265
 20
426.00901
 30
0.0
 11
214.8124265
 21
424.7250099999999
 31
0.0
  0
LINE
  5
615
330
1E
100
AcDbEntity
  8
0
100
AcDbLine
 10
214.8124265
 20
437.7310099999999
 30
0.0
 11
214.8124265
 21
442.1310099999999
 31
0.0
  0
LINE
  5
616
330
1E
100
AcDbEntity
  8
0
100
AcDbLine
 10
214.8124265
 20
437.7310099999999
 30
0.0
 11
214.8124265
 21
433.3310099999999
 31
0.0
  0
LINE
  5
617
330
1E
100
AcDbEntity
  8
0
100
AcDbLine
 10
214.8124265
 20
437.6830099999999
 30
0.0
 11
214.8124265
 21
434.2380099999999
 31
0.0
  0
LINE
  5
618
330
1E
100
AcDbEntity
  8
0
100
AcDbLine
 10
213.8444265
 20
433.6020099999999
 30
0.0
 11
213.8444265
 21
445.7130099999999
 31
0.0
  0
LINE
  5
619
330
1E
100
AcDbEntity
  8
0
100
AcDbLine
 10
213.8444265
 20
433.6020099999999
 30
0.0
 11
213.8444265
 21
429.7310099999999
 31
0.0
  0
LINE
  5
61B
330
1E
100
AcDbEntity
  8
0
100
AcDbLine
 10
214.8124265
 20
442.1310099999999
 30
0.0
 11
214.8124265
 21
437.7310099999999
 31
0.0
  0
LINE
  5
61C
330
1E
100
AcDbEntity
  8
0
100
AcDbLine
 10
214.8124265
 20
442.1310099999999
 30
0.0
 11
214.8124265
 21
446.2310099999999
 31
0.0
  0
LINE
  5
61F
330
1E
100
AcDbEntity
  8
0
100
AcDbLine
 10
214.8124265
 20
441.23301
 30
0.0
 11
214.8124265
 21
437.6830099999999
 31
0.0
  0
LINE
  5
620
330
1E
100
AcDbEntity
  8
0
100
AcDbLine
 10
214.8124265
 20
444.4990099999999
 30
0.0
 11
214.8124265
 21
441.23301
 31
0.0
  0
LINE
  5
621
330
1E
100
AcDbEntity
  8
0
100
AcDbLine
 10
214.8124265
 20
446.2310099999999
 30
0.0
 11
214.8124265
 21
442.1310099999999
 31
0.0
  0
LINE
  5
622
330
1E
100
AcDbEntity
  8
0
100
AcDbLine
 10
214.8124265
 20
446.2310099999999
 30
0.0
 11
214.8124265
 21
449.7310099999999
 31
0.0
  0
LINE
  5
623
330
1E
100
AcDbEntity
  8
0
100
AcDbLine
 10
213.8444265
 20
445.7130099999999
 30
0.0
 11
213.8444265
 21
449.0600099999999
 31
0.0
  0
LINE
  5
624
330
1E
100
AcDbEntity
  8
0
100
AcDbLine
 10
214.8124265
 20
447.2440099999999
 30
0.0
 11
214.8124265
 21
444.4990099999999
 31
0.0
  0
LINE
  5
625
330
1E
100
AcDbEntity
  8
0
100
AcDbLine
 10
214.8124265
 20
449.7310099999999
 30
0.0
 11
214.8124265
 21
446.2310099999999
 31
0.0
  0
LINE
  5
626
330
1E
100
AcDbEntity
  8
0
100
AcDbLine
 10
213.8444265
 20
449.0600099999999
 30
0.0
 11
213.8444265
 21
451.46701
 31
0.0
  0
LINE
  5
627
330
1E
100
AcDbEntity
  8
0
100
AcDbLine
 10
213.8444265
 20
449.0600099999999
 30
0.0
 11
213.8444265
 21
445.7130099999999
 31
0.0
  0
LINE
  5
628
330
1E
100
AcDbEntity
  8
0
100
AcDbLine
 10
214.8124265
 20
449.4050099999999
 30
0.0
 11
214.8124265
 21
447.2440099999999
 31
0.0
  0
LINE
  5
629
330
1E
100
AcDbEntity
  8
0
100
AcDbLine
 10
214.8124265
 20
451.1840099999999
 30
0.0
 11
214.8124265
 21
450.7690099999999
 31
0.0
  0
LINE
  5
62A
330
1E
100
AcDbEntity
  8
0
100
AcDbLine
 10
213.8444265
 20
453.6260099999999
 30
0.0
 11
213.8444265
 21
449.0600099999999
 31
0.0
  0
LINE
  5
62B
330
1E
100
AcDbEntity
  8
0
100
AcDbLine
 10
214.8124265
 20
450.7690099999999
 30
0.0
 11
214.8124265
 21
449.4050099999999
 31
0.0
  0
LINE
  5
62F
330
1E
100
AcDbEntity
  8
0
100
AcDbLine
 10
200.7804264999999
 20
423.9050099999999
 30
0.0
 11
200.7804264999999
 21
422.27401
 31
0.0
  0
LINE
  5
630
330
1E
100
AcDbEntity
  8
0
100
AcDbLine
 10
214.8124265
 20
423.0310099999999
 30
0.0
 11
214.8124265
 21
424.2780099999999
 31
0.0
  0
LINE
  5
631
330
1E
100
AcDbEntity
  8
0
100
AcDbLine
 10
214.8124265
 20
423.0310099999999
 30
0.0
 11
214.8124265
 21
425.7310099999999
 31
0.0
  0
LINE
  5
632
330
1E
100
AcDbEntity
  8
0
100
AcDbLine
 10
238.3124265
 20
428.1310099999999
 30
0.0
 11
238.3124265
 21
419.1310099999999
 31
0.0
  0
LINE
  5
633
330
1E
100
AcDbEntity
  8
0
100
AcDbLine
 10
238.3124265
 20
428.1310099999999
 30
0.0
 11
238.3124265
 21
437.7310099999999
 31
0.0
  0
LINE
  5
634
330
1E
100
AcDbEntity
  8
0
100
AcDbLine
 10
238.3124265
 20
437.7310099999999
 30
0.0
 11
238.3124265
 21
447.3310099999999
 31
0.0
  0
LINE
  5
635
330
1E
100
AcDbEntity
  8
0
100
AcDbLine
 10
238.3124265
 20
437.7310099999999
 30
0.0
 11
238.3124265
 21
428.1310099999999
 31
0.0
  0
LINE
  5
636
330
1E
100
AcDbEntity
  8
0
100
AcDbLine
 10
239.8124265
 20
427.93101
 30
0.0
 11
239.8124265
 21
418.8310099999999
 31
0.0
  0
LINE
  5
637
330
1E
100
AcDbEntity
  8
0
100
AcDbLine
 10
239.8124265
 20
427.93101
 30
0.0
 11
239.8124265
 21
437.7310099999999
 31
0.0
  0
LINE
  5
638
330
1E
100
AcDbEntity
  8
0
100
AcDbLine
 10
245.8124265
 20
426.1310099999999
 30
0.0
 11
245.8124265
 21
415.3310099999999
 31
0.0
  0
LINE
  5
639
330
1E
100
AcDbEntity
  8
0
100
AcDbLine
 10
245.8124265
 20
426.1310099999999
 30
0.0
 11
245.8124265
 21
437.7310099999999
 31
0.0
  0
LINE
  5
63A
330
1E
100
AcDbEntity
  8
0
100
AcDbLine
 10
239.8124265
 20
437.7310099999999
 30
0.0
 11
239.8124265
 21
447.5310099999999
 31
0.0
  0
LINE
  5
63B
330
1E
100
AcDbEntity
  8
0
100
AcDbLine
 10
239.8124265
 20
437.7310099999999
 30
0.0
 11
239.8124265
 21
427.93101
 31
0.0
  0
LINE
  5
63C
330
1E
100
AcDbEntity
  8
0
100
AcDbLine
 10
238.3124265
 20
447.3310099999999
 30
0.0
 11
238.3124265
 21
437.7310099999999
 31
0.0
  0
LINE
  5
63D
330
1E
100
AcDbEntity
  8
0
100
AcDbLine
 10
238.3124265
 20
447.3310099999999
 30
0.0
 11
238.3124265
 21
456.3310099999999
 31
0.0
  0
LINE
  5
63E
330
1E
100
AcDbEntity
  8
0
100
AcDbLine
 10
239.8124265
 20
447.5310099999999
 30
0.0
 11
239.8124265
 21
437.7310099999999
 31
0.0
  0
LINE
  5
63F
330
1E
100
AcDbEntity
  8
0
100
AcDbLine
 10
239.8124265
 20
447.5310099999999
 30
0.0
 11
239.8124265
 21
456.6310099999999
 31
0.0
  0
LINE
  5
640
330
1E
100
AcDbEntity
  8
0
100
AcDbLine
 10
245.8124265
 20
437.7310099999999
 30
0.0
 11
245.8124265
 21
449.3310099999999
 31
0.0
  0
LINE
  5
641
330
1E
100
AcDbEntity
  8
0
100
AcDbLine
 10
245.8124265
 20
437.7310099999999
 30
0.0
 11
245.8124265
 21
426.1310099999999
 31
0.0
  0
LINE
  5
642
330
1E
100
AcDbEntity
  8
0
100
AcDbLine
 10
245.8124265
 20
449.3310099999999
 30
0.0
 11
245.8124265
 21
437.7310099999999
 31
0.0
  0
LINE
  5
643
330
1E
100
AcDbEntity
  8
0
100
AcDbLine
 10
245.8124265
 20
449.3310099999999
 30
0.0
 11
245.8124265
 21
460.1310099999999
 31
0.0
  0
LINE
  5
644
330
1E
100
AcDbEntity
  8
0
100
AcDbLine
 10
214.8124265
 20
424.2780099999999
 30
0.0
 11
214.8124265
 21
420.7310099999999
 31
0.0
  0
LINE
  5
645
330
1E
100
AcDbEntity
  8
0
100
AcDbLine
 10
200.7804264999999
 20
421.8360099999999
 30
0.0
 11
201.7484264999999
 21
420.7310099999999
 31
0.0
  0
LINE
  5
646
330
1E
100
AcDbEntity
  8
0
100
AcDbLine
 10
200.7804264999999
 20
421.8360099999999
 30
0.0
 11
200.7804264999999
 21
422.27401
 31
0.0
  0
LINE
  5
647
330
1E
100
AcDbEntity
  8
0
100
AcDbLine
 10
199.8124264999999
 20
425.4750099999999
 30
0.0
 11
200.7804264999999
 21
421.8360099999999
 31
0.0
  0
LINE
  5
648
330
1E
100
AcDbEntity
  8
0
100
AcDbLine
 10
196.3124264999999
 20
421.2310099999999
 30
0.0
 11
197.8124264999999
 21
420.7310099999999
 31
0.0
  0
LINE
  5
649
330
1E
100
AcDbEntity
  8
0
100
AcDbLine
 10
196.3124264999999
 20
421.2310099999999
 30
0.0
 11
196.3124264999999
 21
421.8310099999999
 31
0.0
  0
LINE
  5
64A
330
1E
100
AcDbEntity
  8
0
100
AcDbLine
 10
183.8124264999999
 20
422.7310099999999
 30
0.0
 11
183.8124264999999
 21
421.3310099999999
 31
0.0
  0
LINE
  5
64B
330
1E
100
AcDbEntity
  8
0
100
AcDbLine
 10
183.8124264999999
 20
422.7310099999999
 30
0.0
 11
195.8124265
 21
422.7310099999999
 31
0.0
  0
LINE
  5
64C
330
1E
100
AcDbEntity
  8
0
100
AcDbLine
 10
181.1104264999999
 20
454.98101
 30
0.0
 11
181.5194264999999
 21
454.98101
 31
0.0
  0
LINE
  5
64D
330
1E
100
AcDbEntity
  8
0
100
AcDbLine
 10
181.1124265
 20
552.56601
 30
0.0
 11
182.3124264999999
 21
555.76501
 31
0.0
  0
LINE
  5
64E
330
1E
100
AcDbEntity
  8
0
100
AcDbLine
 10
181.3124264999999
 20
536.5650099999998
 30
0.0
 11
182.8124264999999
 21
534.5650099999999
 31
0.0
  0
LINE
  5
64F
330
1E
100
AcDbEntity
  8
0
100
AcDbLine
 10
181.1104264999999
 20
456.4810099999999
 30
0.0
 11
181.5194264999999
 21
456.4810099999999
 31
0.0
  0
LINE
  5
651
330
1E
100
AcDbEntity
  8
0
100
AcDbLine
 10
181.5194264999999
 20
454.98101
 30
0.0
 11
181.8124264999999
 21
455.7310099999999
 31
0.0
  0
LINE
  5
652
330
1E
100
AcDbEntity
  8
0
100
AcDbLine
 10
182.9124264999999
 20
504.0650099999999
 30
0.0
 11
195.2124264999999
 21
504.0650099999999
 31
0.0
  0
LINE
  5
653
330
1E
100
AcDbEntity
  8
0
100
AcDbLine
 10
196.3124264999999
 20
453.6310099999999
 30
0.0
 11
196.3124264999999
 21
452.0310099999999
 31
0.0
  0
LINE
  5
654
330
1E
100
AcDbEntity
  8
0
100
AcDbLine
 10
196.3124264999999
 20
453.6310099999999
 30
0.0
 11
196.3124264999999
 21
454.2310099999999
 31
0.0
  0
LINE
  5
655
330
1E
100
AcDbEntity
  8
0
100
AcDbLine
 10
194.7124265
 20
504.0650099999999
 30
0.0
 11
205.1124264999999
 21
504.0650099999999
 31
0.0
  0
LINE
  5
656
330
1E
100
AcDbEntity
  8
0
100
AcDbLine
 10
182.1124264999999
 20
519.0650099999999
 30
0.0
 11
193.7124264999999
 21
519.0650099999999
 31
0.0
  0
LINE
  5
657
330
1E
100
AcDbEntity
  8
0
100
AcDbLine
 10
182.8124264999999
 20
551.5660099999999
 30
0.0
 11
184.3124264999999
 21
555.1650099999999
 31
0.0
  0
LINE
  5
658
330
1E
100
AcDbEntity
  8
0
100
AcDbLine
 10
182.8124264999999
 20
534.5650099999999
 30
0.0
 11
184.8124264999999
 21
533.0650099999998
 31
0.0
  0
LINE
  5
659
330
1E
100
AcDbEntity
  8
0
100
AcDbLine
 10
182.4124264999999
 20
521.56601
 30
0.0
 11
194.2124264999999
 21
521.5650099999999
 31
0.0
  0
LINE
  5
65A
330
1E
100
AcDbEntity
  8
0
100
AcDbLine
 10
182.3124264999999
 20
516.06601
 30
0.0
 11
193.9124264999999
 21
516.06601
 31
0.0
  0
LINE
  5
65B
330
1E
100
AcDbEntity
  8
0
100
AcDbLine
 10
182.6124264999999
 20
515.56601
 30
0.0
 11
194.7124265
 21
515.5650099999999
 31
0.0
  0
LINE
  5
65C
330
1E
100
AcDbEntity
  8
0
100
AcDbLine
 10
182.9124264999999
 20
508.5660099999999
 30
0.0
 11
195.2124264999999
 21
508.5660099999999
 31
0.0
  0
LINE
  5
65D
330
1E
100
AcDbEntity
  8
0
100
AcDbLine
 10
183.3124265
 20
508.0650099999999
 30
0.0
 11
195.9124264999999
 21
508.0660099999999
 31
0.0
  0
LINE
  5
65E
330
1E
100
AcDbEntity
  8
0
100
AcDbLine
 10
184.8124264999999
 20
533.0650099999998
 30
0.0
 11
196.8124264999999
 21
532.0650099999999
 31
0.0
  0
LINE
  5
65F
330
1E
100
AcDbEntity
  8
0
100
AcDbLine
 10
194.2124264999999
 20
521.5650099999999
 30
0.0
 11
204.4124264999999
 21
521.5650099999999
 31
0.0
  0
LINE
  5
660
330
1E
100
AcDbEntity
  8
0
100
AcDbLine
 10
193.7124264999999
 20
519.0650099999999
 30
0.0
 11
203.7124265
 21
519.06601
 31
0.0
  0
LINE
  5
661
330
1E
100
AcDbEntity
  8
0
100
AcDbLine
 10
193.9124264999999
 20
516.06601
 30
0.0
 11
204.0124265
 21
516.06601
 31
0.0
  0
LINE
  5
662
330
1E
100
AcDbEntity
  8
0
100
AcDbLine
 10
194.7124265
 20
515.5650099999999
 30
0.0
 11
205.1124264999999
 21
515.5650099999999
 31
0.0
  0
LINE
  5
663
330
1E
100
AcDbEntity
  8
0
100
AcDbLine
 10
195.2124264999999
 20
508.5660099999999
 30
0.0
 11
205.8124265
 21
508.5650099999999
 31
0.0
  0
LINE
  5
664
330
1E
100
AcDbEntity
  8
0
100
AcDbLine
 10
195.9124264999999
 20
508.0660099999999
 30
0.0
 11
206.8124264999999
 21
508.0650099999999
 31
0.0
  0
LINE
  5
665
330
1E
100
AcDbEntity
  8
0
100
AcDbLine
 10
195.9124264999999
 20
504.5660099999999
 30
0.0
 11
206.8124264999999
 21
504.5650099999999
 31
0.0
  0
LINE
  5
666
330
1E
100
AcDbEntity
  8
0
100
AcDbLine
 10
183.3124265
 20
504.5650099999999
 30
0.0
 11
195.9124264999999
 21
504.5660099999999
 31
0.0
  0
LINE
  5
667
330
1E
100
AcDbEntity
  8
0
100
AcDbLine
 10
188.8607871557379
 20
504.065493606557
 30
0.0
 11
194.7124265
 21
504.0650099999999
 31
0.0
  0
LINE
  5
668
330
1E
100
AcDbEntity
  8
0
100
AcDbLine
 10
181.5194264999999
 20
456.4810099999999
 30
0.0
 11
181.8124264999999
 21
455.7310099999999
 31
0.0
  0
LINE
  5
66A
330
1E
100
AcDbEntity
  8
0
100
AcDbLine
 10
181.584440633832
 20
568.151670071244
 30
0.0
 11
182.2424265
 21
568.4280099999999
 31
0.0
  0
LINE
  5
66B
330
1E
100
AcDbEntity
  8
0
100
AcDbLine
 10
181.3114264999999
 20
568.03701
 30
0.0
 11
182.2424265
 21
568.4280099999999
 31
0.0
  0
LINE
  5
66C
330
1E
100
AcDbEntity
  8
0
100
AcDbLine
 10
182.3124264999999
 20
555.76501
 30
0.0
 11
182.8124264999999
 21
559.06601
 31
0.0
  0
LINE
  5
66D
330
1E
100
AcDbEntity
  8
0
100
AcDbLine
 10
184.3124264999999
 20
555.1650099999999
 30
0.0
 11
184.8124264999999
 21
559.06601
 31
0.0
  0
LINE
  5
66E
330
1E
100
AcDbEntity
  8
0
100
AcDbLine
 10
182.3229082524429
 20
562.296830433874
 30
0.0
 11
182.8124264999999
 21
559.06601
 31
0.0
  0
LINE
  5
670
330
1E
100
AcDbEntity
  8
0
100
AcDbLine
 10
182.2424265
 20
568.4280099999999
 30
0.0
 11
183.1544264999999
 21
568.3600099999999
 31
0.0
  0
LINE
  5
671
330
1E
100
AcDbEntity
  8
0
100
AcDbLine
 10
183.1544264999999
 20
568.3600099999999
 30
0.0
 11
183.5734264999999
 21
568.1420099999999
 31
0.0
  0
LINE
  5
672
330
1E
100
AcDbEntity
  8
0
100
AcDbLine
 10
183.63234607025
 20
564.5972030313999
 30
0.0
 11
184.3124264999999
 21
562.96501
 31
0.0
  0
LINE
  5
673
330
1E
100
AcDbEntity
  8
0
100
AcDbLine
 10
184.3124264999999
 20
562.96501
 30
0.0
 11
184.8124264999999
 21
559.06601
 31
0.0
  0
LINE
  5
674
330
1E
100
AcDbEntity
  8
0
100
AcDbLine
 10
184.1534264999999
 20
565.37401
 30
0.0
 11
184.3844264999999
 21
566.02801
 31
0.0
  0
LINE
  5
675
330
1E
100
AcDbEntity
  8
0
100
AcDbLine
 10
184.3694265
 20
567.03801
 30
0.0
 11
184.3844264999999
 21
566.02801
 31
0.0
  0
LINE
  5
676
330
1E
100
AcDbEntity
  8
0
100
AcDbLine
 10
183.9414264999999
 20
567.84501
 30
0.0
 11
184.3694265
 21
567.03801
 31
0.0
  0
LINE
  5
677
330
1E
100
AcDbEntity
  8
0
100
AcDbLine
 10
183.5734264999999
 20
568.1420099999999
 30
0.0
 11
183.9414264999999
 21
567.84501
 31
0.0
  0
LINE
  5
678
330
1E
100
AcDbEntity
  8
0
100
AcDbLine
 10
182.4214264999999
 20
562.7920099999999
 30
0.0
 11
184.1534264999999
 21
565.37401
 31
0.0
  0
LINE
  5
679
330
1E
100
AcDbEntity
  8
0
100
AcDbLine
 10
181.8124264999999
 20
559.7310099999999
 30
0.0
 11
182.4214264999999
 21
562.7920099999999
 31
0.0
  0
LINE
  5
67A
330
1E
100
AcDbEntity
  8
0
100
AcDbLine
 10
180.8994264999999
 20
555.1390099999999
 30
0.0
 11
181.8124264999999
 21
559.7310099999999
 31
0.0
  0
LINE
  5
67B
330
1E
100
AcDbEntity
  8
0
100
AcDbLine
 10
199.3124264999999
 20
453.6310099999999
 30
0.0
 11
199.3124264999999
 21
452.0310099999999
 31
0.0
  0
LINE
  5
67C
330
1E
100
AcDbEntity
  8
0
100
AcDbLine
 10
199.3124264999999
 20
453.6310099999999
 30
0.0
 11
199.3124264999999
 21
454.2310099999999
 31
0.0
  0
LINE
  5
67F
330
1E
100
AcDbEntity
  8
0
100
AcDbLine
 10
200.7804264999999
 20
453.6260099999999
 30
0.0
 11
201.7484264999999
 21
454.7310099999999
 31
0.0
  0
LINE
  5
683
330
1E
100
AcDbEntity
  8
0
100
AcDbLine
 10
201.7484264999999
 20
454.7310099999999
 30
0.0
 11
212.8774265
 21
454.7310099999999
 31
0.0
  0
LINE
  5
684
330
1E
100
AcDbEntity
  8
0
100
AcDbLine
 10
212.8774265
 20
454.7310099999999
 30
0.0
 11
213.8444265
 21
453.6260099999999
 31
0.0
  0
LINE
  5
68A
330
1E
100
AcDbEntity
  8
0
100
AcDbLine
 10
199.3124264999999
 20
454.2310099999999
 30
0.0
 11
199.8124264999999
 21
452.73101
 31
0.0
  0
LINE
  5
68B
330
1E
100
AcDbEntity
  8
0
100
AcDbLine
 10
199.3124264999999
 20
454.2310099999999
 30
0.0
 11
199.3124264999999
 21
453.6310099999999
 31
0.0
  0
LINE
  5
68C
330
1E
100
AcDbEntity
  8
0
100
AcDbLine
 10
214.8124265
 20
451.1840099999999
 30
0.0
 11
214.8124265
 21
454.7310099999999
 31
0.0
  0
LINE
  5
68D
330
1E
100
AcDbEntity
  8
0
100
AcDbLine
 10
214.8124265
 20
454.7310099999999
 30
0.0
 11
214.8124265
 21
451.1840099999999
 31
0.0
  0
LINE
  5
68E
330
1E
100
AcDbEntity
  8
0
100
AcDbLine
 10
214.8124265
 20
454.7310099999999
 30
0.0
 11
215.8124265
 21
456.7310099999999
 31
0.0
  0
LINE
  5
68F
330
1E
100
AcDbEntity
  8
0
100
AcDbLine
 10
213.8444265
 20
453.6260099999999
 30
0.0
 11
214.8124265
 21
451.1840099999999
 31
0.0
  0
LINE
  5
690
330
1E
100
AcDbEntity
  8
0
100
AcDbLine
 10
215.8124265
 20
456.7310099999999
 30
0.0
 11
225.3124265
 21
462.2310099999999
 31
0.0
  0
LINE
  5
691
330
1E
100
AcDbEntity
  8
0
100
AcDbLine
 10
225.3124265
 20
462.2310099999999
 30
0.0
 11
232.8124265
 21
468.2310099999999
 31
0.0
  0
LINE
  5
692
330
1E
100
AcDbEntity
  8
0
100
AcDbLine
 10
238.3124265
 20
456.3310099999999
 30
0.0
 11
238.3124265
 21
447.3310099999999
 31
0.0
  0
LINE
  5
693
330
1E
100
AcDbEntity
  8
0
100
AcDbLine
 10
238.3124265
 20
456.3310099999999
 30
0.0
 11
238.3124265
 21
464.1310099999999
 31
0.0
  0
LINE
  5
694
330
1E
100
AcDbEntity
  8
0
100
AcDbLine
 10
238.3124265
 20
464.1310099999999
 30
0.0
 11
238.3124265
 21
470.23101
 31
0.0
  0
LINE
  5
695
330
1E
100
AcDbEntity
  8
0
100
AcDbLine
 10
238.3124265
 20
464.1310099999999
 30
0.0
 11
238.3124265
 21
456.3310099999999
 31
0.0
  0
LINE
  5
696
330
1E
100
AcDbEntity
  8
0
100
AcDbLine
 10
238.3124265
 20
470.23101
 30
0.0
 11
238.3124265
 21
464.1310099999999
 31
0.0
  0
LINE
  5
697
330
1E
100
AcDbEntity
  8
0
100
AcDbLine
 10
238.3124265
 20
470.23101
 30
0.0
 11
238.3124265
 21
473.8310099999999
 31
0.0
  0
LINE
  5
698
330
1E
100
AcDbEntity
  8
0
100
AcDbLine
 10
232.8124265
 20
468.2310099999999
 30
0.0
 11
237.3124265
 21
473.73101
 31
0.0
  0
LINE
  5
699
330
1E
100
AcDbEntity
  8
0
100
AcDbLine
 10
238.3124265
 20
473.8310099999999
 30
0.0
 11
238.3124265
 21
470.23101
 31
0.0
  0
LINE
  5
69A
330
1E
100
AcDbEntity
  8
0
100
AcDbLine
 10
238.3124265
 20
473.8310099999999
 30
0.0
 11
238.3124265
 21
475.2310099999999
 31
0.0
  0
LINE
  5
69B
330
1E
100
AcDbEntity
  8
0
100
AcDbLine
 10
237.3124265
 20
473.73101
 30
0.0
 11
238.3124265
 21
475.2310099999999
 31
0.0
  0
LINE
  5
69C
330
1E
100
AcDbEntity
  8
0
100
AcDbLine
 10
239.8124265
 20
456.6310099999999
 30
0.0
 11
239.8124265
 21
447.5310099999999
 31
0.0
  0
LINE
  5
69D
330
1E
100
AcDbEntity
  8
0
100
AcDbLine
 10
239.8124265
 20
456.6310099999999
 30
0.0
 11
239.8124265
 21
464.5310099999999
 31
0.0
  0
LINE
  5
69E
330
1E
100
AcDbEntity
  8
0
100
AcDbLine
 10
239.8124265
 20
464.5310099999999
 30
0.0
 11
239.8124265
 21
470.6310099999999
 31
0.0
  0
LINE
  5
69F
330
1E
100
AcDbEntity
  8
0
100
AcDbLine
 10
239.8124265
 20
464.5310099999999
 30
0.0
 11
239.8124265
 21
456.6310099999999
 31
0.0
  0
LINE
  5
6A0
330
1E
100
AcDbEntity
  8
0
100
AcDbLine
 10
239.8124265
 20
470.6310099999999
 30
0.0
 11
239.8124265
 21
464.5310099999999
 31
0.0
  0
LINE
  5
6A1
330
1E
100
AcDbEntity
  8
0
100
AcDbLine
 10
239.8124265
 20
470.6310099999999
 30
0.0
 11
239.8124265
 21
474.3310099999999
 31
0.0
  0
LINE
  5
6A2
330
1E
100
AcDbEntity
  8
0
100
AcDbLine
 10
239.8124265
 20
474.3310099999999
 30
0.0
 11
239.8124265
 21
470.6310099999999
 31
0.0
  0
LINE
  5
6A3
330
1E
100
AcDbEntity
  8
0
100
AcDbLine
 10
239.8124265
 20
474.3310099999999
 30
0.0
 11
239.8124265
 21
475.7310099999999
 31
0.0
  0
LINE
  5
6A4
330
1E
100
AcDbEntity
  8
0
100
AcDbLine
 10
238.3124265
 20
475.2310099999999
 30
0.0
 11
239.8124265
 21
475.7310099999999
 31
0.0
  0
LINE
  5
6A5
330
1E
100
AcDbEntity
  8
0
100
AcDbLine
 10
238.3124265
 20
475.2310099999999
 30
0.0
 11
238.3124265
 21
473.8310099999999
 31
0.0
  0
LINE
  5
6A6
330
1E
100
AcDbEntity
  8
0
100
AcDbLine
 10
239.8124265
 20
475.7310099999999
 30
0.0
 11
240.8124265
 21
477.73101
 31
0.0
  0
LINE
  5
6A7
330
1E
100
AcDbEntity
  8
0
100
AcDbLine
 10
239.8124265
 20
475.7310099999999
 30
0.0
 11
239.8124265
 21
474.3310099999999
 31
0.0
  0
LINE
  5
6A8
330
1E
100
AcDbEntity
  8
0
100
AcDbLine
 10
240.8124265
 20
477.73101
 30
0.0
 11
241.3124264999999
 21
480.2310099999999
 31
0.0
  0
LINE
  5
6A9
330
1E
100
AcDbEntity
  8
0
100
AcDbLine
 10
205.8124265
 20
504.0650099999999
 30
0.0
 11
214.0124265
 21
504.0650099999999
 31
0.0
  0
LINE
  5
6AA
330
1E
100
AcDbEntity
  8
0
100
AcDbLine
 10
204.0124265
 20
516.06601
 30
0.0
 11
211.8124265
 21
516.06601
 31
0.0
  0
LINE
  5
6AB
330
1E
100
AcDbEntity
  8
0
100
AcDbLine
 10
205.1124264999999
 20
515.5650099999999
 30
0.0
 11
213.1124265
 21
515.5650099999999
 31
0.0
  0
LINE
  5
6AC
330
1E
100
AcDbEntity
  8
0
100
AcDbLine
 10
205.8124265
 20
508.5650099999999
 30
0.0
 11
214.0124265
 21
508.5660099999999
 31
0.0
  0
LINE
  5
6AD
330
1E
100
AcDbEntity
  8
0
100
AcDbLine
 10
206.8124264999999
 20
508.0650099999999
 30
0.0
 11
215.3124265
 21
508.0660099999999
 31
0.0
  0
LINE
  5
6AE
330
1E
100
AcDbEntity
  8
0
100
AcDbLine
 10
211.8124265
 20
516.06601
 30
0.0
 11
216.5124265
 21
516.06601
 31
0.0
  0
LINE
  5
6AF
330
1E
100
AcDbEntity
  8
0
100
AcDbLine
 10
213.1124265
 20
515.5650099999999
 30
0.0
 11
218.0124264999999
 21
515.5650099999999
 31
0.0
  0
LINE
  5
6B0
330
1E
100
AcDbEntity
  8
0
100
AcDbLine
 10
206.8124264999999
 20
504.5650099999999
 30
0.0
 11
215.3124265
 21
504.5660099999999
 31
0.0
  0
LINE
  5
6B1
330
1E
100
AcDbEntity
  8
0
100
AcDbLine
 10
205.1124264999999
 20
504.0650099999999
 30
0.0
 11
213.1124265
 21
504.0650099999999
 31
0.0
  0
LINE
  5
6B2
330
1E
100
AcDbEntity
  8
0
100
AcDbLine
 10
214.0124265
 20
508.5660099999999
 30
0.0
 11
219.0124265
 21
508.5650099999999
 31
0.0
  0
LINE
  5
6B3
330
1E
100
AcDbEntity
  8
0
100
AcDbLine
 10
215.3124265
 20
508.0660099999999
 30
0.0
 11
220.4124265
 21
508.0660099999999
 31
0.0
  0
LINE
  5
6B4
330
1E
100
AcDbEntity
  8
0
100
AcDbLine
 10
215.3124265
 20
504.5660099999999
 30
0.0
 11
220.4124265
 21
504.5660099999999
 31
0.0
  0
LINE
  5
6B5
330
1E
100
AcDbEntity
  8
0
100
AcDbLine
 10
214.0124265
 20
504.0650099999999
 30
0.0
 11
219.0124265
 21
504.0650099999999
 31
0.0
  0
LINE
  5
6B6
330
1E
100
AcDbEntity
  8
0
100
AcDbLine
 10
213.1124265
 20
504.0650099999999
 30
0.0
 11
218.0124264999999
 21
504.0650099999999
 31
0.0
  0
LINE
  5
6B7
330
1E
100
AcDbEntity
  8
0
100
AcDbLine
 10
196.8124264999999
 20
532.0650099999999
 30
0.0
 11
213.8124265
 21
530.0650099999999
 31
0.0
  0
LINE
  5
6B8
330
1E
100
AcDbEntity
  8
0
100
AcDbLine
 10
204.4124264999999
 20
521.5650099999999
 30
0.0
 11
212.2124265
 21
521.5650099999999
 31
0.0
  0
LINE
  5
6B9
330
1E
100
AcDbEntity
  8
0
100
AcDbLine
 10
213.8124265
 20
530.0650099999999
 30
0.0
 11
215.3124265
 21
529.5650099999999
 31
0.0
  0
LINE
  5
6BA
330
1E
100
AcDbEntity
  8
0
100
AcDbLine
 10
215.3124265
 20
529.5650099999999
 30
0.0
 11
216.3124264999999
 21
528.5650099999998
 31
0.0
  0
LINE
  5
6BB
330
1E
100
AcDbEntity
  8
0
100
AcDbLine
 10
212.2124265
 20
521.5650099999999
 30
0.0
 11
217.0124265
 21
521.5650099999999
 31
0.0
  0
LINE
  5
6BC
330
1E
100
AcDbEntity
  8
0
100
AcDbLine
 10
203.7124265
 20
519.06601
 30
0.0
 11
211.4124265
 21
519.0650099999999
 31
0.0
  0
LINE
  5
6BD
330
1E
100
AcDbEntity
  8
0
100
AcDbLine
 10
211.4124265
 20
519.0650099999999
 30
0.0
 11
216.1124265
 21
519.0650099999999
 31
0.0
  0
LINE
  5
6BE
330
1E
100
AcDbEntity
  8
0
100
AcDbLine
 10
216.5124265
 20
516.06601
 30
0.0
 11
218.3124265
 21
516.0650099999998
 31
0.0
  0
LINE
  5
6BF
330
1E
100
AcDbEntity
  8
0
100
AcDbLine
 10
218.0124264999999
 20
515.5650099999999
 30
0.0
 11
219.8124265
 21
515.5650099999999
 31
0.0
  0
LINE
  5
6C0
330
1E
100
AcDbEntity
  8
0
100
AcDbLine
 10
220.8124265
 20
504.0650099999999
 30
0.0
 11
222.3124265
 21
504.5660099999999
 31
0.0
  0
LINE
  5
6C1
330
1E
100
AcDbEntity
  8
0
100
AcDbLine
 10
218.3124265
 20
518.0650099999999
 30
0.0
 11
218.3124265
 21
516.0650099999998
 31
0.0
  0
LINE
  5
6C2
330
1E
100
AcDbEntity
  8
0
100
AcDbLine
 10
218.3124265
 20
516.0650099999998
 30
0.0
 11
219.8124265
 21
515.5650099999999
 31
0.0
  0
LINE
  5
6C3
330
1E
100
AcDbEntity
  8
0
100
AcDbLine
 10
218.3124265
 20
516.0650099999998
 30
0.0
 11
218.3124265
 21
518.0650099999999
 31
0.0
  0
LINE
  5
6C4
330
1E
100
AcDbEntity
  8
0
100
AcDbLine
 10
219.8124265
 20
515.5650099999999
 30
0.0
 11
220.3124265
 21
514.0650099999999
 31
0.0
  0
LINE
  5
6C5
330
1E
100
AcDbEntity
  8
0
100
AcDbLine
 10
220.3124265
 20
514.0650099999999
 30
0.0
 11
220.8124265
 21
508.5660099999999
 31
0.0
  0
LINE
  5
6C6
330
1E
100
AcDbEntity
  8
0
100
AcDbLine
 10
219.0124265
 20
508.5650099999999
 30
0.0
 11
220.8124265
 21
508.5660099999999
 31
0.0
  0
LINE
  5
6C7
330
1E
100
AcDbEntity
  8
0
100
AcDbLine
 10
220.4124265
 20
508.0660099999999
 30
0.0
 11
222.3124265
 21
508.0660099999999
 31
0.0
  0
LINE
  5
6C8
330
1E
100
AcDbEntity
  8
0
100
AcDbLine
 10
222.8124265
 20
506.56501
 30
0.0
 11
222.8124265
 21
506.06501
 31
0.0
  0
LINE
  5
6C9
330
1E
100
AcDbEntity
  8
0
100
AcDbLine
 10
220.8124265
 20
508.5660099999999
 30
0.0
 11
222.3124265
 21
508.0660099999999
 31
0.0
  0
LINE
  5
6CA
330
1E
100
AcDbEntity
  8
0
100
AcDbLine
 10
222.3124265
 20
508.0660099999999
 30
0.0
 11
222.8124265
 21
506.56501
 31
0.0
  0
LINE
  5
6CB
330
1E
100
AcDbEntity
  8
0
100
AcDbLine
 10
222.8124265
 20
506.06501
 30
0.0
 11
222.8124265
 21
506.56501
 31
0.0
  0
LINE
  5
6CC
330
1E
100
AcDbEntity
  8
0
100
AcDbLine
 10
222.3124265
 20
504.5660099999999
 30
0.0
 11
222.8124265
 21
506.06501
 31
0.0
  0
LINE
  5
6CD
330
1E
100
AcDbEntity
  8
0
100
AcDbLine
 10
220.4124265
 20
504.5660099999999
 30
0.0
 11
222.3124265
 21
504.5660099999999
 31
0.0
  0
LINE
  5
6CE
330
1E
100
AcDbEntity
  8
0
100
AcDbLine
 10
219.0124265
 20
504.0650099999999
 30
0.0
 11
220.8124265
 21
504.0650099999999
 31
0.0
  0
LINE
  5
6CF
330
1E
100
AcDbEntity
  8
0
100
AcDbLine
 10
218.0124264999999
 20
504.0650099999999
 30
0.0
 11
219.8124265
 21
504.0650099999999
 31
0.0
  0
LINE
  5
6D0
330
1E
100
AcDbEntity
  8
0
100
AcDbLine
 10
216.3124264999999
 20
528.5650099999998
 30
0.0
 11
216.8124265
 21
527.0650099999999
 31
0.0
  0
LINE
  5
6D1
330
1E
100
AcDbEntity
  8
0
100
AcDbLine
 10
216.8124265
 20
527.0650099999999
 30
0.0
 11
217.3124265
 21
524.5650099999998
 31
0.0
  0
LINE
  5
6D2
330
1E
100
AcDbEntity
  8
0
100
AcDbLine
 10
217.3124265
 20
524.5650099999998
 30
0.0
 11
218.3124265
 21
523.0650099999999
 31
0.0
  0
LINE
  5
6D3
330
1E
100
AcDbEntity
  8
0
100
AcDbLine
 10
218.3124265
 20
523.0650099999999
 30
0.0
 11
218.8124265
 21
521.5650099999999
 31
0.0
  0
LINE
  5
6D4
330
1E
100
AcDbEntity
  8
0
100
AcDbLine
 10
217.0124265
 20
521.5650099999999
 30
0.0
 11
218.8124265
 21
521.5650099999999
 31
0.0
  0
LINE
  5
6D5
330
1E
100
AcDbEntity
  8
0
100
AcDbLine
 10
218.3124265
 20
520.0650099999998
 30
0.0
 11
218.8124265
 21
521.5650099999999
 31
0.0
  0
LINE
  5
6D6
330
1E
100
AcDbEntity
  8
0
100
AcDbLine
 10
217.8124265
 20
519.0650099999999
 30
0.0
 11
218.3124265
 21
518.0650099999999
 31
0.0
  0
LINE
  5
6D7
330
1E
100
AcDbEntity
  8
0
100
AcDbLine
 10
217.8124265
 20
519.0650099999999
 30
0.0
 11
218.3124265
 21
520.0650099999998
 31
0.0
  0
LINE
  5
6D8
330
1E
100
AcDbEntity
  8
0
100
AcDbLine
 10
216.1124265
 20
519.0650099999999
 30
0.0
 11
217.8124265
 21
519.0650099999999
 31
0.0
  0
LINE
  5
6D9
330
1E
100
AcDbEntity
  8
0
100
AcDbLine
 10
241.3124264999999
 20
480.2310099999999
 30
0.0
 11
243.3124265
 21
482.23101
 31
0.0
  0
LINE
  5
6DA
330
1E
100
AcDbEntity
  8
0
100
AcDbLine
 10
245.8124265
 20
460.1310099999999
 30
0.0
 11
245.8124265
 21
449.3310099999999
 31
0.0
  0
LINE
  5
6DB
330
1E
100
AcDbEntity
  8
0
100
AcDbLine
 10
245.8124265
 20
460.1310099999999
 30
0.0
 11
245.8124265
 21
469.43101
 31
0.0
  0
LINE
  5
6DC
330
1E
100
AcDbEntity
  8
0
100
AcDbLine
 10
245.8124265
 20
469.43101
 30
0.0
 11
245.8124265
 21
476.7310099999999
 31
0.0
  0
LINE
  5
6DD
330
1E
100
AcDbEntity
  8
0
100
AcDbLine
 10
245.8124265
 20
469.43101
 30
0.0
 11
245.8124265
 21
460.1310099999999
 31
0.0
  0
LINE
  5
6DE
330
1E
100
AcDbEntity
  8
0
100
AcDbLine
 10
245.8124265
 20
476.7310099999999
 30
0.0
 11
245.8124265
 21
469.43101
 31
0.0
  0
LINE
  5
6DF
330
1E
100
AcDbEntity
  8
0
100
AcDbLine
 10
245.8124265
 20
476.7310099999999
 30
0.0
 11
245.8124265
 21
481.1310099999999
 31
0.0
  0
LINE
  5
6E0
330
1E
100
AcDbEntity
  8
0
100
AcDbLine
 10
245.8124265
 20
481.1310099999999
 30
0.0
 11
245.8124265
 21
476.7310099999999
 31
0.0
  0
LINE
  5
6E1
330
1E
100
AcDbEntity
  8
0
100
AcDbLine
 10
245.8124265
 20
481.1310099999999
 30
0.0
 11
245.8124265
 21
482.73101
 31
0.0
  0
LINE
  5
6E2
330
1E
100
AcDbEntity
  8
0
100
AcDbLine
 10
245.8124265
 20
482.73101
 30
0.0
 11
245.8124265
 21
481.1310099999999
 31
0.0
  0
LINE
  5
6E3
330
1E
100
AcDbEntity
  8
0
100
AcDbLine
 10
243.3124265
 20
482.23101
 30
0.0
 11
245.8124265
 21
482.73101
 31
0.0
  0
LINE
  5
6E4
330
1E
100
AcDbEntity
  8
0
100
AcDbLine
 10
197.8124264999999
 20
454.7310099999999
 30
0.0
 11
199.3124264999999
 21
454.2310099999999
 31
0.0
  0
LINE
  5
6E6
330
1E
100
AcDbEntity
  8
0
100
AcDbLine
 10
196.3124264999999
 20
454.2310099999999
 30
0.0
 11
197.8124264999999
 21
454.7310099999999
 31
0.0
  0
LINE
  5
6E7
330
1E
100
AcDbEntity
  8
0
100
AcDbLine
 10
196.3124264999999
 20
454.2310099999999
 30
0.0
 11
196.3124264999999
 21
453.6310099999999
 31
0.0
  0
LINE
  5
6E8
330
1E
100
AcDbEntity
  8
0
100
AcDbLine
 10
195.8124265
 20
452.73101
 30
0.0
 11
196.3124264999999
 21
454.2310099999999
 31
0.0
  0
LINE
  5
6E9
330
1E
100
AcDbEntity
  8
0
100
AcDbLine
 10
195.8124265
 20
452.73101
 30
0.0
 11
195.8124265
 21
452.2310099999999
 31
0.0
  0
LINE
  5
6EA
330
1E
100
AcDbEntity
  8
0
100
AcDbLine
 10
180.8574265
 20
420.7310099999999
 30
0.0
 11
181.3124264999999
 21
420.7310099999999
 31
0.0
  0
LINE
  5
6EB
330
1E
100
AcDbEntity
  8
0
100
AcDbLine
 10
180.7444264999999
 20
419.23101
 30
0.0
 11
181.3124264999999
 21
420.7310099999999
 31
0.0
  0
LINE
  5
6EC
330
1E
100
AcDbEntity
  8
0
100
AcDbLine
 10
143.3124264999999
 20
421.2310099999999
 30
0.0
 11
143.8124264999999
 21
422.2310099999999
 31
0.0
  0
LINE
  5
6ED
330
1E
100
AcDbEntity
  8
0
100
AcDbLine
 10
143.3124264999999
 20
421.2310099999999
 30
0.0
 11
143.3124264999999
 21
421.8310099999999
 31
0.0
  0
LINE
  5
6F2
330
1E
100
AcDbEntity
  8
0
100
AcDbLine
 10
13.3156265
 20
445.3950099999999
 30
0.0
 11
13.99246752039569
 21
445.923165791464
 31
0.0
  0
LINE
  5
6F3
330
1E
100
AcDbEntity
  8
0
100
AcDbLine
 10
101.721226500004
 20
444.9972499999949
 30
0.0
 11
102.1775041648056
 21
444.2311476391721
 31
0.0
  0
LINE
  5
6F4
330
1E
100
AcDbEntity
  8
0
100
AcDbLine
 10
199.8124264999999
 20
422.7310099999999
 30
0.0
 11
199.8124264999999
 21
452.73101
 31
0.0
  0
ENDSEC
  0
SECTION
  2
OBJECTS
  0
DICTIONARY
  5
C
330
0
100
AcDbDictionary
281
     1
  3
ACAD_GROUP
350
D
  3
ACAD_LAYOUT
350
19
  3
ACAD_MLINESTYLE
350
16
  3
ACAD_PLOTSETTINGS
350
18
  3
ACAD_PLOTSTYLENAME
350
E
  3
AcDbVariableDictionary
350
6F5
  0
DICTIONARY
  5
D
102
{ACAD_REACTORS
330
C
102
}
330
C
100
AcDbDictionary
281
     1
  0
DICTIONARY
  5
19
102
{ACAD_REACTORS
330
C
102
}
330
C
100
AcDbDictionary
281
     1
  3
Layout1
350
1D
  3
Model
350
21
  0
DICTIONARY
  5
16
102
{ACAD_REACTORS
330
C
102
}
330
C
100
AcDbDictionary
281
     1
  3
Standard
350
17
  0
DICTIONARY
  5
18
102
{ACAD_REACTORS
330
C
102
}
330
C
100
AcDbDictionary
281
     1
  0
ACDBDICTIONARYWDFLT
  5
E
102
{ACAD_REACTORS
330
C
102
}
330
C
100
AcDbDictionary
281
     1
  3
Normal
350
F
100
AcDbDictionaryWithDefault
340
F
  0
DICTIONARY
  5
6F5
102
{ACAD_REACTORS
330
C
102
}
330
C
100
AcDbDictionary
281
     1
  3
DIMASSOC
350
6F6
  0
LAYOUT
  5
1D
102
{ACAD_REACTORS
330
19
102
}
330
19
100
AcDbPlotSettings
  1

  2
hp deskjet 980c series
  4

  6

 40
0.0
 41
0.0
 42
0.0
 43
0.0
 44
0.0
 45
0.0
 46
0.0
 47
0.0
 48
0.0
 49
0.0
140
0.0
141
0.0
142
1.0
143
1.0
 70
   688
 72
     0
 73
     0
 74
     5
  7

 75
    16
147
1.0
148
0.0
149
0.0
100
AcDbLayout
  1
Layout1
 70
     1
 71
     1
 10
0.0
 20
0.0
 11
12.0
 21
9.0
 12
0.0
 22
0.0
 32
0.0
 14
1.000000000000000E+20
 24
1.000000000000000E+20
 34
1.000000000000000E+20
 15
-1.000000000000000E+20
 25
-1.000000000000000E+20
 35
-1.000000000000000E+20
146
0.0
 13
0.0
 23
0.0
 33
0.0
 16
1.0
 26
0.0
 36
0.0
 17
0.0
 27
1.0
 37
0.0
 76
     0
330
1A
  0
LAYOUT
  5
21
102
{ACAD_REACTORS
330
19
102
}
330
19
100
AcDbPlotSettings
  1

  2
hp deskjet 980c series
  4

  6

 40
0.0
 41
0.0
 42
0.0
 43
0.0
 44
0.0
 45
0.0
 46
0.0
 47
0.0
 48
0.0
 49
0.0
140
0.0
141
0.0
142
1.0
143
1.0
 70
  1712
 72
     0
 73
     0
 74
     0
  7

 75
     0
147
1.0
148
0.0
149
0.0
100
AcDbLayout
  1
Model
 70
     1
 71
     0
 10
0.0
 20
0.0
 11
12.0
 21
9.0
 12
0.0
 22
0.0
 32
0.0
 14
0.0
 24
0.0
 34
0.0
 15
0.0
 25
0.0
 35
0.0
146
0.0
 13
0.0
 23
0.0
 33
0.0
 16
1.0
 26
0.0
 36
0.0
 17
0.0
 27
1.0
 37
0.0
 76
     0
330
1E
  0
MLINESTYLE
  5
17
102
{ACAD_REACTORS
330
16
102
}
330
16
100
AcDbMlineStyle
  2
STANDARD
 70
     0
  3

 62
   256
 51
90.0
 52
90.0
 71
     2
 49
0.5
 62
   256
  6
BYLAYER
 49
-0.5
 62
   256
  6
BYLAYER
  0
ACDBPLACEHOLDER
  5
F
102
{ACAD_REACTORS
330
E
102
}
330
E
  0
DICTIONARYVAR
  5
6F6
102
{ACAD_REACTORS
330
6F5
102
}
330
6F5
100
DictionaryVariables
280
     0
  1
1
  0
ENDSEC
  0
EOF
