  0
SECTION
  2
HEADER
  9
$ACADVER
  1
AC1015
  9
$ACADMAINTVER
 70
    13
  9
$DWGCODEPAGE
  3
ANSI_1252
  9
$INSBASE
 10
0.0
 20
0.0
 30
0.0
  9
$EXTMIN
 10
-0.0000000000000072
 20
0.206949999999992
 30
0.0
  9
$EXTMAX
 10
260.0
 20
212.79305
 30
0.0
  9
$LIMMIN
 10
0.0
 20
0.0
  9
$LIMMAX
 10
12.0
 20
9.0
  9
$ORTHOMODE
 70
     0
  9
$REGENMODE
 70
     1
  9
$FILLMODE
 70
     1
  9
$QTEXTMODE
 70
     0
  9
$MIRRTEXT
 70
     1
  9
$LTSCALE
 40
1.0
  9
$ATTMODE
 70
     1
  9
$TEXTSIZE
 40
0.2
  9
$TRACEWID
 40
0.05
  9
$TEXTSTYLE
  7
Standard
  9
$CLAYER
  8
0
  9
$CELTYPE
  6
Continuous
  9
$CECOLOR
 62
   256
  9
$CELTSCALE
 40
1.0
  9
$DISPSILH
 70
     0
  9
$DIMSCALE
 40
1.0
  9
$DIMASZ
 40
0.18
  9
$DIMEXO
 40
0.0625
  9
$DIMDLI
 40
0.38
  9
$DIMRND
 40
0.0
  9
$DIMDLE
 40
0.0
  9
$DIMEXE
 40
0.18
  9
$DIMTP
 40
0.0
  9
$DIMTM
 40
0.0
  9
$DIMTXT
 40
0.18
  9
$DIMCEN
 40
0.09
  9
$DIMTSZ
 40
0.0
  9
$DIMTOL
 70
     0
  9
$DIMLIM
 70
     0
  9
$DIMTIH
 70
     1
  9
$DIMTOH
 70
     1
  9
$DIMSE1
 70
     0
  9
$DIMSE2
 70
     0
  9
$DIMTAD
 70
     0
  9
$DIMZIN
 70
     0
  9
$DIMBLK
  1

  9
$DIMASO
 70
     1
  9
$DIMSHO
 70
     1
  9
$DIMPOST
  1

  9
$DIMAPOST
  1

  9
$DIMALT
 70
     0
  9
$DIMALTD
 70
     2
  9
$DIMALTF
 40
25.4
  9
$DIMLFAC
 40
1.0
  9
$DIMTOFL
 70
     0
  9
$DIMTVP
 40
0.0
  9
$DIMTIX
 70
     0
  9
$DIMSOXD
 70
     0
  9
$DIMSAH
 70
     0
  9
$DIMBLK1
  1

  9
$DIMBLK2
  1

  9
$DIMSTYLE
  2
Standard
  9
$DIMCLRD
 70
     0
  9
$DIMCLRE
 70
     0
  9
$DIMCLRT
 70
     0
  9
$DIMTFAC
 40
1.0
  9
$DIMGAP
 40
0.09
  9
$DIMJUST
 70
     0
  9
$DIMSD1
 70
     0
  9
$DIMSD2
 70
     0
  9
$DIMTOLJ
 70
     1
  9
$DIMTZIN
 70
     0
  9
$DIMALTZ
 70
     0
  9
$DIMALTTZ
 70
     0
  9
$DIMUPT
 70
     0
  9
$DIMDEC
 70
     4
  9
$DIMTDEC
 70
     4
  9
$DIMALTU
 70
     2
  9
$DIMALTTD
 70
     2
  9
$DIMTXSTY
  7
Standard
  9
$DIMAUNIT
 70
     0
  9
$DIMADEC
 70
     0
  9
$DIMALTRND
 40
0.0
  9
$DIMAZIN
 70
     0
  9
$DIMDSEP
 70
    46
  9
$DIMATFIT
 70
     3
  9
$DIMFRAC
 70
     0
  9
$DIMLDRBLK
  1

  9
$DIMLUNIT
 70
     2
  9
$DIMLWD
 70
    -2
  9
$DIMLWE
 70
    -2
  9
$DIMTMOVE
 70
     0
  9
$LUNITS
 70
     2
  9
$LUPREC
 70
     4
  9
$SKETCHINC
 40
0.1
  9
$FILLETRAD
 40
0.0
  9
$AUNITS
 70
     0
  9
$AUPREC
 70
     0
  9
$MENU
  1
.
  9
$ELEVATION
 40
0.0
  9
$PELEVATION
 40
0.0
  9
$THICKNESS
 40
0.0
  9
$LIMCHECK
 70
     0
  9
$CHAMFERA
 40
0.0
  9
$CHAMFERB
 40
0.0
  9
$CHAMFERC
 40
0.0
  9
$CHAMFERD
 40
0.0
  9
$SKPOLY
 70
     0
  9
$TDCREATE
 40
2454751.617550636
  9
$TDUCREATE
 40
2454751.534217303
  9
$TDUPDATE
 40
2454751.644947373
  9
$TDUUPDATE
 40
2454751.561614039
  9
$TDINDWG
 40
0.0273967361
  9
$TDUSRTIMER
 40
0.0273967361
  9
$USRTIMER
 70
     1
  9
$ANGBASE
 50
0.0
  9
$ANGDIR
 70
     0
  9
$PDMODE
 70
     0
  9
$PDSIZE
 40
0.0
  9
$PLINEWID
 40
0.0
  9
$SPLFRAME
 70
     0
  9
$SPLINETYPE
 70
     6
  9
$SPLINESEGS
 70
     8
  9
$HANDSEED
  5
751
  9
$SURFTAB1
 70
     6
  9
$SURFTAB2
 70
     6
  9
$SURFTYPE
 70
     6
  9
$SURFU
 70
     6
  9
$SURFV
 70
     6
  9
$UCSBASE
  2

  9
$UCSNAME
  2

  9
$UCSORG
 10
0.0
 20
0.0
 30
0.0
  9
$UCSXDIR
 10
1.0
 20
0.0
 30
0.0
  9
$UCSYDIR
 10
0.0
 20
1.0
 30
0.0
  9
$UCSORTHOREF
  2

  9
$UCSORTHOVIEW
 70
     1
  9
$UCSORGTOP
 10
0.0
 20
0.0
 30
0.0
  9
$UCSORGBOTTOM
 10
0.0
 20
0.0
 30
0.0
  9
$UCSORGLEFT
 10
0.0
 20
0.0
 30
0.0
  9
$UCSORGRIGHT
 10
0.0
 20
0.0
 30
0.0
  9
$UCSORGFRONT
 10
0.0
 20
0.0
 30
0.0
  9
$UCSORGBACK
 10
0.0
 20
0.0
 30
0.0
  9
$PUCSBASE
  2

  9
$PUCSNAME
  2

  9
$PUCSORG
 10
0.0
 20
0.0
 30
0.0
  9
$PUCSXDIR
 10
1.0
 20
0.0
 30
0.0
  9
$PUCSYDIR
 10
0.0
 20
1.0
 30
0.0
  9
$PUCSORTHOREF
  2

  9
$PUCSORTHOVIEW
 70
     0
  9
$PUCSORGTOP
 10
0.0
 20
0.0
 30
0.0
  9
$PUCSORGBOTTOM
 10
0.0
 20
0.0
 30
0.0
  9
$PUCSORGLEFT
 10
0.0
 20
0.0
 30
0.0
  9
$PUCSORGRIGHT
 10
0.0
 20
0.0
 30
0.0
  9
$PUCSORGFRONT
 10
0.0
 20
0.0
 30
0.0
  9
$PUCSORGBACK
 10
0.0
 20
0.0
 30
0.0
  9
$USERI1
 70
     0
  9
$USERI2
 70
     0
  9
$USERI3
 70
     0
  9
$USERI4
 70
     0
  9
$USERI5
 70
     0
  9
$USERR1
 40
0.0
  9
$USERR2
 40
0.0
  9
$USERR3
 40
0.0
  9
$USERR4
 40
0.0
  9
$USERR5
 40
0.0
  9
$WORLDVIEW
 70
     1
  9
$SHADEDGE
 70
     3
  9
$SHADEDIF
 70
    70
  9
$TILEMODE
 70
     1
  9
$MAXACTVP
 70
    64
  9
$PINSBASE
 10
0.0
 20
0.0
 30
0.0
  9
$PLIMCHECK
 70
     0
  9
$PEXTMIN
 10
1.000000000000000E+20
 20
1.000000000000000E+20
 30
1.000000000000000E+20
  9
$PEXTMAX
 10
-1.000000000000000E+20
 20
-1.000000000000000E+20
 30
-1.000000000000000E+20
  9
$PLIMMIN
 10
0.0
 20
0.0
  9
$PLIMMAX
 10
12.0
 20
9.0
  9
$UNITMODE
 70
     0
  9
$VISRETAIN
 70
     1
  9
$PLINEGEN
 70
     0
  9
$PSLTSCALE
 70
     1
  9
$TREEDEPTH
 70
  3020
  9
$CMLSTYLE
  2
Standard
  9
$CMLJUST
 70
     0
  9
$CMLSCALE
 40
1.0
  9
$PROXYGRAPHICS
 70
     1
  9
$MEASUREMENT
 70
     0
  9
$CELWEIGHT
370
    -1
  9
$ENDCAPS
280
     0
  9
$JOINSTYLE
280
     0
  9
$LWDISPLAY
290
     0
  9
$INSUNITS
 70
     0
  9
$HYPERLINKBASE
  1

  9
$STYLESHEET
  1

  9
$XEDIT
290
     1
  9
$CEPSNTYPE
380
     0
  9
$PSTYLEMODE
290
     1
  9
$FINGERPRINTGUID
  2
{333C6B80-300A-4BC4-A246-DBD8A60473F4}
  9
$VERSIONGUID
  2
{E618421F-666D-46BB-9D0E-01EBF0F761E8}
  9
$EXTNAMES
290
     1
  9
$PSVPSCALE
 40
0.0
  9
$OLESTARTUP
290
     0
  0
ENDSEC
  0
SECTION
  2
CLASSES
  0
CLASS
  1
ACDBDICTIONARYWDFLT
  2
AcDbDictionaryWithDefault
  3
AutoCAD 2000
 90
        0
280
     0
281
     0
  0
CLASS
  1
ACDBPLACEHOLDER
  2
AcDbPlaceHolder
  3
AutoCAD 2000
 90
        0
280
     0
281
     0
  0
CLASS
  1
LAYOUT
  2
AcDbLayout
  3
AutoCAD 2000
 90
        0
280
     0
281
     0
  0
CLASS
  1
DICTIONARYVAR
  2
AcDbDictionaryVar
  3
AutoCAD 2000
 90
        0
280
     0
281
     0
  0
ENDSEC
  0
SECTION
  2
TABLES
  0
TABLE
  2
VPORT
  5
8
330
0
100
AcDbSymbolTable
 70
     2
  0
VPORT
  5
750
330
8
100
AcDbSymbolTableRecord
100
AcDbViewportTableRecord
  2
*Active
 70
     0
 10
0.0
 20
0.0
 11
1.0
 21
1.0
 12
130.0
 22
106.4999999999999
 13
0.0
 23
0.0
 14
1.0
 24
1.0
 15
0.0
 25
0.0
 16
0.0
 26
0.0
 36
1.0
 17
0.0
 27
0.0
 37
0.0
 40
214.2171953964194
 41
2.078104993597951
 42
50.0
 43
0.0
 44
0.0
 50
0.0
 51
0.0
 71
     0
 72
   100
 73
     1
 74
     3
 75
     0
 76
     0
 77
     0
 78
     0
281
     0
 65
     1
110
0.0
120
0.0
130
0.0
111
1.0
121
0.0
131
0.0
112
0.0
122
1.0
132
0.0
 79
     1
146
0.0
  0
ENDTAB
  0
TABLE
  2
LTYPE
  5
5
330
0
100
AcDbSymbolTable
 70
     1
  0
LTYPE
  5
13
330
5
100
AcDbSymbolTableRecord
100
AcDbLinetypeTableRecord
  2
ByBlock
 70
     0
  3

 72
    65
 73
     0
 40
0.0
  0
LTYPE
  5
14
330
5
100
AcDbSymbolTableRecord
100
AcDbLinetypeTableRecord
  2
ByLayer
 70
     0
  3

 72
    65
 73
     0
 40
0.0
  0
LTYPE
  5
15
330
5
100
AcDbSymbolTableRecord
100
AcDbLinetypeTableRecord
  2
Continuous
 70
     0
  3
Solid line
 72
    65
 73
     0
 40
0.0
  0
ENDTAB
  0
TABLE
  2
LAYER
  5
2
330
0
100
AcDbSymbolTable
 70
     1
  0
LAYER
  5
10
330
2
100
AcDbSymbolTableRecord
100
AcDbLayerTableRecord
  2
0
 70
     0
 62
     7
  6
Continuous
370
    -3
390
F
  0
ENDTAB
  0
TABLE
  2
STYLE
  5
3
330
0
100
AcDbSymbolTable
 70
     1
  0
STYLE
  5
11
330
3
100
AcDbSymbolTableRecord
100
AcDbTextStyleTableRecord
  2
Standard
 70
     0
 40
0.0
 41
1.0
 50
0.0
 71
     0
 42
0.2
  3
txt
  4

  0
ENDTAB
  0
TABLE
  2
VIEW
  5
6
330
0
100
AcDbSymbolTable
 70
     0
  0
ENDTAB
  0
TABLE
  2
UCS
  5
7
330
0
100
AcDbSymbolTable
 70
     0
  0
ENDTAB
  0
TABLE
  2
APPID
  5
9
330
0
100
AcDbSymbolTable
 70
     1
  0
APPID
  5
12
330
9
100
AcDbSymbolTableRecord
100
AcDbRegAppTableRecord
  2
ACAD
 70
     0
  0
ENDTAB
  0
TABLE
  2
DIMSTYLE
  5
A
330
0
100
AcDbSymbolTable
 70
     1
100
AcDbDimStyleTable
 71
     0
  0
DIMSTYLE
105
567
330
A
100
AcDbSymbolTableRecord
100
AcDbDimStyleTableRecord
  2
Standard
 70
     0
340
11
  0
ENDTAB
  0
TABLE
  2
BLOCK_RECORD
  5
1
330
0
100
AcDbSymbolTable
 70
     0
  0
BLOCK_RECORD
  5
1E
330
1
100
AcDbSymbolTableRecord
100
AcDbBlockTableRecord
  2
*Model_Space
340
21
  0
BLOCK_RECORD
  5
1A
330
1
100
AcDbSymbolTableRecord
100
AcDbBlockTableRecord
  2
*Paper_Space
340
1D
  0
ENDTAB
  0
ENDSEC
  0
SECTION
  2
BLOCKS
  0
BLOCK
  5
1F
330
1E
100
AcDbEntity
  8
0
100
AcDbBlockBegin
  2
*Model_Space
 70
     0
 10
0.0
 20
0.0
 30
0.0
  3
*Model_Space
  1

  0
ENDBLK
  5
20
330
1E
100
AcDbEntity
  8
0
100
AcDbBlockEnd
  0
BLOCK
  5
1B
330
1A
100
AcDbEntity
 67
     1
  8
0
100
AcDbBlockBegin
  2
*Paper_Space
 70
     0
 10
0.0
 20
0.0
 30
0.0
  3
*Paper_Space
  1

  0
ENDBLK
  5
1C
330
1A
100
AcDbEntity
 67
     1
  8
0
100
AcDbBlockEnd
  0
ENDSEC
  0
SECTION
  2
ENTITIES
  0
LINE
  5
22
330
1E
100
AcDbEntity
  8
0
100
AcDbLine
 10
1.356199999999989
 20
102.86405
 30
0.0
 11
1.87539999999999
 21
101.74905
 31
0.0
  0
LINE
  5
24
330
1E
100
AcDbEntity
  8
0
100
AcDbLine
 10
3.62529999999999
 20
100.2690499999999
 30
0.0
 11
5.12519999999999
 21
99.88505000000001
 31
0.0
  0
LINE
  5
25
330
1E
100
AcDbEntity
  8
0
100
AcDbLine
 10
5.12519999999999
 20
99.88505000000001
 30
0.0
 11
7.02289999999999
 21
100.0050499999999
 31
0.0
  0
LINE
  5
26
330
1E
100
AcDbEntity
  8
0
100
AcDbLine
 10
6.89639999999999
 20
99.98605000000001
 30
0.0
 11
7.536167870492389
 21
100.0667697157539
 31
0.0
  0
LINE
  5
27
330
1E
100
AcDbEntity
  8
0
100
AcDbLine
 10
12.7999927139084
 20
100.7510024167569
 30
0.0
 11
14.8618
 21
101.0360499999999
 31
0.0
  0
LINE
  5
28
330
1E
100
AcDbEntity
  8
0
100
AcDbLine
 10
10.99799999999999
 20
100.48305
 30
0.0
 11
14.54209999999999
 21
101.01005
 31
0.0
  0
LINE
  5
29
330
1E
100
AcDbEntity
  8
0
100
AcDbLine
 10
7.02289999999999
 20
100.0050499999999
 30
0.0
 11
10.99799999999999
 21
100.48305
 31
0.0
  0
LINE
  5
2A
330
1E
100
AcDbEntity
  8
0
100
AcDbLine
 10
6.33995900373832
 20
99.9618646073924
 30
0.0
 11
6.89639999999999
 21
99.98605000000001
 31
0.0
  0
LINE
  5
2B
330
1E
100
AcDbEntity
  8
0
100
AcDbLine
 10
4.73711896551723
 20
99.9844053685188
 30
0.0
 11
5.00979999999999
 21
99.90405
 31
0.0
  0
LINE
  5
2C
330
1E
100
AcDbEntity
  8
0
100
AcDbLine
 10
4.73711896551723
 20
99.9844053685188
 30
0.0
 11
5.045008751068789
 21
99.90558032841491
 31
0.0
  0
LINE
  5
2D
330
1E
100
AcDbEntity
  8
0
100
AcDbLine
 10
2.52919999999999
 20
100.98005
 30
0.0
 11
3.62529999999999
 21
100.2690499999999
 31
0.0
  0
LINE
  5
30
330
1E
100
AcDbEntity
  8
0
100
AcDbLine
 10
1.87539999999999
 20
101.74905
 30
0.0
 11
2.52919999999999
 21
100.98005
 31
0.0
  0
LINE
  5
31
330
1E
100
AcDbEntity
  8
0
100
AcDbLine
 10
2.282360525835399
 20
101.270382755633
 30
0.0
 11
2.43299999999999
 21
101.0760499999999
 31
0.0
  0
LINE
  5
32
330
1E
100
AcDbEntity
  8
0
100
AcDbLine
 10
1.356199999999989
 20
102.86405
 30
0.0
 11
1.87539999999999
 21
101.74905
 31
0.0
  0
LINE
  5
34
330
1E
100
AcDbEntity
  8
0
100
AcDbLine
 10
1.87539999999999
 20
109.83705
 30
0.0
 11
2.52919999999999
 21
110.6060499999999
 31
0.0
  0
LINE
  5
37
330
1E
100
AcDbEntity
  8
0
100
AcDbLine
 10
3.62529999999999
 20
111.31705
 30
0.0
 11
5.12519999999999
 21
111.7010499999999
 31
0.0
  0
LINE
  5
38
330
1E
100
AcDbEntity
  8
0
100
AcDbLine
 10
5.12519999999999
 20
111.7010499999999
 30
0.0
 11
7.02289999999999
 21
111.58105
 31
0.0
  0
LINE
  5
39
330
1E
100
AcDbEntity
  8
0
100
AcDbLine
 10
6.33995900373875
 20
111.6242353926079
 30
0.0
 11
6.89639999999999
 21
111.6000499999999
 31
0.0
  0
LINE
  5
3A
330
1E
100
AcDbEntity
  8
0
100
AcDbLine
 10
6.33995900373875
 20
111.6242353926079
 30
0.0
 11
6.89639999999999
 21
111.6000499999999
 31
0.0
  0
LINE
  5
3B
330
1E
100
AcDbEntity
  8
0
100
AcDbLine
 10
4.737118965517709
 20
111.6016946314809
 30
0.0
 11
5.00979999999999
 21
111.6820499999999
 31
0.0
  0
LINE
  5
3C
330
1E
100
AcDbEntity
  8
0
100
AcDbLine
 10
2.52919999999999
 20
110.6060499999999
 30
0.0
 11
3.62529999999999
 21
111.31705
 31
0.0
  0
LINE
  5
3D
330
1E
100
AcDbEntity
  8
0
100
AcDbLine
 10
2.282360525835359
 20
110.315717244367
 30
0.0
 11
2.43299999999999
 21
110.51005
 31
0.0
  0
LINE
  5
3E
330
1E
100
AcDbEntity
  8
0
100
AcDbLine
 10
2.282360525835359
 20
110.315717244367
 30
0.0
 11
2.467345136348999
 21
110.5332962677459
 31
0.0
  0
LINE
  5
3F
330
1E
100
AcDbEntity
  8
0
100
AcDbLine
 10
1.356199999999989
 20
108.7220499999999
 30
0.0
 11
1.87539999999999
 21
109.83705
 31
0.0
  0
LINE
  5
40
330
1E
100
AcDbEntity
  8
0
100
AcDbLine
 10
10.99799999999999
 20
111.10305
 30
0.0
 11
14.54209999999999
 21
110.5760499999999
 31
0.0
  0
LINE
  5
41
330
1E
100
AcDbEntity
  8
0
100
AcDbLine
 10
12.799992713908
 20
110.835097583243
 30
0.0
 11
14.8618
 21
110.5500499999999
 31
0.0
  0
LINE
  5
42
330
1E
100
AcDbEntity
  8
0
100
AcDbLine
 10
7.02289999999999
 20
111.58105
 30
0.0
 11
10.99799999999999
 21
111.10305
 31
0.0
  0
LINE
  5
43
330
1E
100
AcDbEntity
  8
0
100
AcDbLine
 10
6.89639999999999
 20
111.6000499999999
 30
0.0
 11
7.536167870492389
 21
111.519330284246
 31
0.0
  0
LINE
  5
44
330
1E
100
AcDbEntity
  8
0
100
AcDbLine
 10
0.9999999999999928
 20
105.7930499999999
 30
0.0
 11
1.356199999999989
 21
102.86405
 31
0.0
  0
LINE
  5
45
330
1E
100
AcDbEntity
  8
0
100
AcDbLine
 10
0.9999999999999928
 20
105.7930499999999
 30
0.0
 11
1.356199999999989
 21
108.7220499999999
 31
0.0
  0
LINE
  5
46
330
1E
100
AcDbEntity
  8
0
100
AcDbLine
 10
0.9999999999999928
 20
105.7930499999999
 30
0.0
 11
1.356199999999989
 21
102.86405
 31
0.0
  0
LINE
  5
47
330
1E
100
AcDbEntity
  8
0
100
AcDbLine
 10
13.5
 20
153.2930499999999
 30
0.0
 11
15.0
 21
152.79305
 31
0.0
  0
LINE
  5
48
330
1E
100
AcDbEntity
  8
0
100
AcDbLine
 10
13.5
 20
153.2930499999999
 30
0.0
 11
14.1
 21
153.2930499999999
 31
0.0
  0
LINE
  5
49
330
1E
100
AcDbEntity
  8
0
100
AcDbLine
 10
13.0
 20
154.7930499999999
 30
0.0
 11
13.5
 21
156.29305
 31
0.0
  0
LINE
  5
4A
330
1E
100
AcDbEntity
  8
0
100
AcDbLine
 10
13.0
 20
154.7930499999999
 30
0.0
 11
13.5
 21
153.2930499999999
 31
0.0
  0
LINE
  5
4C
330
1E
100
AcDbEntity
  8
0
100
AcDbLine
 10
14.5
 20
152.79305
 30
0.0
 11
14.5
 21
146.79305
 31
0.0
  0
LINE
  5
4D
330
1E
100
AcDbEntity
  8
0
100
AcDbLine
 10
14.5
 20
152.79305
 30
0.0
 11
25.8415
 21
152.79305
 31
0.0
  0
LINE
  5
4E
330
1E
100
AcDbEntity
  8
0
100
AcDbLine
 10
14.54209999999999
 20
110.5760499999999
 30
0.0
 11
17.296
 21
110.2410499999999
 31
0.0
  0
LINE
  5
4F
330
1E
100
AcDbEntity
  8
0
100
AcDbLine
 10
14.54209999999999
 20
110.5760499999999
 30
0.0
 11
14.8618
 21
110.5500499999999
 31
0.0
  0
LINE
  5
50
330
1E
100
AcDbEntity
  8
0
100
AcDbLine
 10
14.8618
 20
101.0360499999999
 30
0.0
 11
15.61380501845369
 21
101.140418270882
 31
0.0
  0
LINE
  5
51
330
1E
100
AcDbEntity
  8
0
100
AcDbLine
 10
14.54209999999999
 20
101.01005
 30
0.0
 11
17.296
 21
101.34505
 31
0.0
  0
LINE
  5
52
330
1E
100
AcDbEntity
  8
0
100
AcDbLine
 10
14.54209999999999
 20
101.01005
 30
0.0
 11
14.8618
 21
101.0360499999999
 31
0.0
  0
LINE
  5
53
330
1E
100
AcDbEntity
  8
0
100
AcDbLine
 10
14.5
 20
146.79305
 30
0.0
 11
25.8415
 21
146.79305
 31
0.0
  0
LINE
  5
54
330
1E
100
AcDbEntity
  8
0
100
AcDbLine
 10
14.5
 20
146.79305
 30
0.0
 11
14.5
 21
152.79305
 31
0.0
  0
LINE
  5
55
330
1E
100
AcDbEntity
  8
0
100
AcDbLine
 10
14.5
 20
146.79305
 30
0.0
 11
18.0
 21
146.79305
 31
0.0
  0
LINE
  5
56
330
1E
100
AcDbEntity
  8
0
100
AcDbLine
 10
14.1
 20
153.2930499999999
 30
0.0
 11
15.7
 21
153.2930499999999
 31
0.0
  0
LINE
  5
58
330
1E
100
AcDbEntity
  8
0
100
AcDbLine
 10
14.1
 20
156.29305
 30
0.0
 11
15.7
 21
156.29305
 31
0.0
  0
LINE
  5
59
330
1E
100
AcDbEntity
  8
0
100
AcDbLine
 10
13.5
 20
156.29305
 30
0.0
 11
14.5
 21
156.7930499999999
 31
0.0
  0
LINE
  5
5A
330
1E
100
AcDbEntity
  8
0
100
AcDbLine
 10
13.5
 20
156.29305
 30
0.0
 11
14.1
 21
156.29305
 31
0.0
  0
LINE
  5
5B
330
1E
100
AcDbEntity
  8
0
100
AcDbLine
 10
12.5
 20
198.2930499999999
 30
0.0
 11
12.5
 21
198.79305
 31
0.0
  0
LINE
  5
5C
330
1E
100
AcDbEntity
  8
0
100
AcDbLine
 10
12.5
 20
198.2930499999999
 30
0.0
 11
13.0
 21
197.29305
 31
0.0
  0
LINE
  5
5D
330
1E
100
AcDbEntity
  8
0
100
AcDbLine
 10
13.6
 20
197.29305
 30
0.0
 11
15.3
 21
197.29305
 31
0.0
  0
LINE
  5
5E
330
1E
100
AcDbEntity
  8
0
100
AcDbLine
 10
15.0
 20
194.79305
 30
0.0
 11
15.0
 21
158.2930499999999
 31
0.0
  0
LINE
  5
5F
330
1E
100
AcDbEntity
  8
0
100
AcDbLine
 10
14.59999999999999
 20
196.7930499999999
 30
0.0
 11
16.1
 21
196.7930499999999
 31
0.0
  0
LINE
  5
60
330
1E
100
AcDbEntity
  8
0
100
AcDbLine
 10
14.0
 20
196.7930499999999
 30
0.0
 11
15.0
 21
194.79305
 31
0.0
  0
LINE
  5
61
330
1E
100
AcDbEntity
  8
0
100
AcDbLine
 10
14.0
 20
196.7930499999999
 30
0.0
 11
14.59999999999999
 21
196.7930499999999
 31
0.0
  0
LINE
  5
62
330
1E
100
AcDbEntity
  8
0
100
AcDbLine
 10
13.0
 20
197.29305
 30
0.0
 11
14.0
 21
196.7930499999999
 31
0.0
  0
LINE
  5
63
330
1E
100
AcDbEntity
  8
0
100
AcDbLine
 10
13.0
 20
197.29305
 30
0.0
 11
13.6
 21
197.29305
 31
0.0
  0
LINE
  5
64
330
1E
100
AcDbEntity
  8
0
100
AcDbLine
 10
12.5
 20
198.79305
 30
0.0
 11
13.0
 21
199.79305
 31
0.0
  0
LINE
  5
65
330
1E
100
AcDbEntity
  8
0
100
AcDbLine
 10
12.5
 20
198.79305
 30
0.0
 11
12.5
 21
198.2930499999999
 31
0.0
  0
LINE
  5
66
330
1E
100
AcDbEntity
  8
0
100
AcDbLine
 10
13.0
 20
200.79305
 30
0.0
 11
13.0
 21
199.79305
 31
0.0
  0
LINE
  5
67
330
1E
100
AcDbEntity
  8
0
100
AcDbLine
 10
13.0
 20
199.79305
 30
0.0
 11
13.0
 21
200.79305
 31
0.0
  0
LINE
  5
68
330
1E
100
AcDbEntity
  8
0
100
AcDbLine
 10
11.5
 20
203.2930499999999
 30
0.0
 11
13.0
 21
200.79305
 31
0.0
  0
LINE
  5
69
330
1E
100
AcDbEntity
  8
0
100
AcDbLine
 10
6.99999999999999
 20
207.7930499999999
 30
0.0
 11
11.3
 21
207.7930499999999
 31
0.0
  0
LINE
  5
6A
330
1E
100
AcDbEntity
  8
0
100
AcDbLine
 10
4.49999999999999
 20
207.7930499999999
 30
0.0
 11
6.99999999999999
 21
207.7930499999999
 31
0.0
  0
LINE
  5
6B
330
1E
100
AcDbEntity
  8
0
100
AcDbLine
 10
11.3
 20
207.7930499999999
 30
0.0
 11
16.8
 21
207.7930499999999
 31
0.0
  0
LINE
  5
6C
330
1E
100
AcDbEntity
  8
0
100
AcDbLine
 10
8.499999999999991
 20
205.7930499999999
 30
0.0
 11
11.5
 21
203.2930499999999
 31
0.0
  0
LINE
  5
6D
330
1E
100
AcDbEntity
  8
0
100
AcDbLine
 10
3.49999999999999
 20
207.7930499999999
 30
0.0
 11
8.499999999999991
 21
205.7930499999999
 31
0.0
  0
LINE
  5
6E
330
1E
100
AcDbEntity
  8
0
100
AcDbLine
 10
3.49999999999999
 20
207.7930499999999
 30
0.0
 11
4.49999999999999
 21
207.7930499999999
 31
0.0
  0
LINE
  5
6F
330
1E
100
AcDbEntity
  8
0
100
AcDbLine
 10
6.59999999999999
 20
209.7930499999999
 30
0.0
 11
11.0
 21
209.7930499999999
 31
0.0
  0
LINE
  5
70
330
1E
100
AcDbEntity
  8
0
100
AcDbLine
 10
3.99999999999999
 20
209.7930499999999
 30
0.0
 11
6.59999999999999
 21
209.7930499999999
 31
0.0
  0
LINE
  5
71
330
1E
100
AcDbEntity
  8
0
100
AcDbLine
 10
2.99999999999999
 20
209.7930499999999
 30
0.0
 11
3.99999999999999
 21
209.7930499999999
 31
0.0
  0
LINE
  5
72
330
1E
100
AcDbEntity
  8
0
100
AcDbLine
 10
2.99999999999999
 20
209.7930499999999
 30
0.0
 11
2.99999999999999
 21
208.79305
 31
0.0
  0
LINE
  5
73
330
1E
100
AcDbEntity
  8
0
100
AcDbLine
 10
11.0
 20
209.7930499999999
 30
0.0
 11
16.6
 21
209.7930499999999
 31
0.0
  0
LINE
  5
74
330
1E
100
AcDbEntity
  8
0
100
AcDbLine
 10
2.99999999999999
 20
208.79305
 30
0.0
 11
2.99999999999999
 21
209.7930499999999
 31
0.0
  0
LINE
  5
75
330
1E
100
AcDbEntity
  8
0
100
AcDbLine
 10
2.99999999999999
 20
208.79305
 30
0.0
 11
3.49999999999999
 21
207.7930499999999
 31
0.0
  0
LINE
  5
76
330
1E
100
AcDbEntity
  8
0
100
AcDbLine
 10
1.499999999999989
 20
210.2930499999999
 30
0.0
 11
2.99999999999999
 21
209.7930499999999
 31
0.0
  0
LINE
  5
77
330
1E
100
AcDbEntity
  8
0
100
AcDbLine
 10
1.09999999999999
 20
212.79305
 30
0.0
 11
3.99999999999999
 21
212.79305
 31
0.0
  0
LINE
  5
78
330
1E
100
AcDbEntity
  8
0
100
AcDbLine
 10
3.99999999999999
 20
212.79305
 30
0.0
 11
8.79999999999999
 21
212.79305
 31
0.0
  0
LINE
  5
79
330
1E
100
AcDbEntity
  8
0
100
AcDbLine
 10
1.09999999999999
 20
212.79305
 30
0.0
 11
3.99999999999999
 21
212.79305
 31
0.0
  0
LINE
  5
7A
330
1E
100
AcDbEntity
  8
0
100
AcDbLine
 10
8.79999999999999
 20
212.79305
 30
0.0
 11
15.09999999999999
 21
212.79305
 31
0.0
  0
LINE
  5
7B
330
1E
100
AcDbEntity
  8
0
100
AcDbLine
 10
0.499999999999993
 20
211.29305
 30
0.0
 11
1.499999999999989
 21
210.2930499999999
 31
0.0
  0
LINE
  5
7C
330
1E
100
AcDbEntity
  8
0
100
AcDbLine
 10
-0.0000000000000072
 20
212.79305
 30
0.0
 11
0.499999999999993
 21
211.29305
 31
0.0
  0
LINE
  5
7D
330
1E
100
AcDbEntity
  8
0
100
AcDbLine
 10
-0.0000000000000072
 20
212.79305
 30
0.0
 11
1.09999999999999
 21
212.79305
 31
0.0
  0
LINE
  5
7E
330
1E
100
AcDbEntity
  8
0
100
AcDbLine
 10
14.5
 20
156.7930499999999
 30
0.0
 11
15.0
 21
158.2930499999999
 31
0.0
  0
LINE
  5
7F
330
1E
100
AcDbEntity
  8
0
100
AcDbLine
 10
14.5
 20
156.7930499999999
 30
0.0
 11
15.09999999999999
 21
156.7930499999999
 31
0.0
  0
LINE
  5
80
330
1E
100
AcDbEntity
  8
0
100
AcDbLine
 10
17.296
 20
101.34505
 30
0.0
 11
19.5777
 21
101.65005
 31
0.0
  0
LINE
  5
81
330
1E
100
AcDbEntity
  8
0
100
AcDbLine
 10
17.296
 20
110.2410499999999
 30
0.0
 11
19.5777
 21
109.9360499999999
 31
0.0
  0
LINE
  5
82
330
1E
100
AcDbEntity
  8
0
100
AcDbLine
 10
15.61380501845369
 20
101.140418270882
 30
0.0
 11
17.296
 21
101.34505
 31
0.0
  0
LINE
  5
83
330
1E
100
AcDbEntity
  8
0
100
AcDbLine
 10
18.0
 20
132.29305
 30
0.0
 11
18.0
 21
133.7930499999999
 31
0.0
  0
LINE
  5
84
330
1E
100
AcDbEntity
  8
0
100
AcDbLine
 10
18.0
 20
132.29305
 30
0.0
 11
18.5
 21
131.7930499999999
 31
0.0
  0
LINE
  5
85
330
1E
100
AcDbEntity
  8
0
100
AcDbLine
 10
18.0
 20
132.29305
 30
0.0
 11
18.39999999999999
 21
132.29305
 31
0.0
  0
LINE
  5
86
330
1E
100
AcDbEntity
  8
0
100
AcDbLine
 10
18.8642485884796
 20
101.554681336059
 30
0.0
 11
19.96219571140639
 21
101.6718487101969
 31
0.0
  0
LINE
  5
87
330
1E
100
AcDbEntity
  8
0
100
AcDbLine
 10
21.3
 20
99.79305
 30
0.0
 11
22.2
 21
99.79305
 31
0.0
  0
LINE
  5
88
330
1E
100
AcDbEntity
  8
0
100
AcDbLine
 10
20.89999999999999
 20
100.2930499999999
 30
0.0
 11
22.6
 21
100.2930499999999
 31
0.0
  0
LINE
  5
89
330
1E
100
AcDbEntity
  8
0
100
AcDbLine
 10
19.9
 20
100.2930499999999
 30
0.0
 11
20.89999999999999
 21
100.2930499999999
 31
0.0
  0
LINE
  5
8A
330
1E
100
AcDbEntity
  8
0
100
AcDbLine
 10
21.0
 20
99.79305
 30
0.0
 11
21.3
 21
99.79305
 31
0.0
  0
LINE
  5
8B
330
1E
100
AcDbEntity
  8
0
100
AcDbLine
 10
19.5
 20
100.2930499999999
 30
0.0
 11
21.0
 21
99.79305
 31
0.0
  0
LINE
  5
8C
330
1E
100
AcDbEntity
  8
0
100
AcDbLine
 10
19.5
 20
100.2930499999999
 30
0.0
 11
19.9
 21
100.2930499999999
 31
0.0
  0
LINE
  5
8D
330
1E
100
AcDbEntity
  8
0
100
AcDbLine
 10
21.49999999999999
 20
101.7930499999999
 30
0.0
 11
24.0
 21
101.65005
 31
0.0
  0
LINE
  5
8E
330
1E
100
AcDbEntity
  8
0
100
AcDbLine
 10
19.5777
 20
101.65005
 30
0.0
 11
21.49999999999999
 21
101.7930499999999
 31
0.0
  0
LINE
  5
8F
330
1E
100
AcDbEntity
  8
0
100
AcDbLine
 10
19.53353540469469
 20
109.9708951348979
 30
0.0
 11
22.0
 21
110.7930499999999
 31
0.0
  0
LINE
  5
90
330
1E
100
AcDbEntity
  8
0
100
AcDbLine
 10
19.5777
 20
109.9360499999999
 30
0.0
 11
21.49999999999999
 21
109.7930499999999
 31
0.0
  0
LINE
  5
91
330
1E
100
AcDbEntity
  8
0
100
AcDbLine
 10
21.49999999999999
 20
109.7930499999999
 30
0.0
 11
24.0
 21
109.9360499999999
 31
0.0
  0
LINE
  5
92
330
1E
100
AcDbEntity
  8
0
100
AcDbLine
 10
19.0776300327367
 20
101.56015990179
 30
0.0
 11
19.5
 21
100.2930499999999
 31
0.0
  0
LINE
  5
93
330
1E
100
AcDbEntity
  8
0
100
AcDbLine
 10
23.6
 20
99.79305
 30
0.0
 11
25.5
 21
99.79305
 31
0.0
  0
LINE
  5
94
330
1E
100
AcDbEntity
  8
0
100
AcDbLine
 10
22.6
 20
100.2930499999999
 30
0.0
 11
24.8
 21
100.2930499999999
 31
0.0
  0
LINE
  5
95
330
1E
100
AcDbEntity
  8
0
100
AcDbLine
 10
23.1
 20
110.7930499999999
 30
0.0
 11
24.39999999999999
 21
110.7930499999999
 31
0.0
  0
LINE
  5
96
330
1E
100
AcDbEntity
  8
0
100
AcDbLine
 10
22.29999999999999
 20
110.7930499999999
 30
0.0
 11
23.1
 21
110.7930499999999
 31
0.0
  0
LINE
  5
97
330
1E
100
AcDbEntity
  8
0
100
AcDbLine
 10
23.7
 20
112.7930499999999
 30
0.0
 11
24.39999999999999
 21
112.7930499999999
 31
0.0
  0
LINE
  5
98
330
1E
100
AcDbEntity
  8
0
100
AcDbLine
 10
22.0
 20
110.7930499999999
 30
0.0
 11
23.5
 21
112.7930499999999
 31
0.0
  0
LINE
  5
99
330
1E
100
AcDbEntity
  8
0
100
AcDbLine
 10
22.0
 20
110.7930499999999
 30
0.0
 11
22.29999999999999
 21
110.7930499999999
 31
0.0
  0
LINE
  5
9A
330
1E
100
AcDbEntity
  8
0
100
AcDbLine
 10
23.7
 20
120.79305
 30
0.0
 11
24.39999999999999
 21
120.79305
 31
0.0
  0
LINE
  5
9B
330
1E
100
AcDbEntity
  8
0
100
AcDbLine
 10
23.5
 20
120.79305
 30
0.0
 11
23.7
 21
120.79305
 31
0.0
  0
LINE
  5
9C
330
1E
100
AcDbEntity
  8
0
100
AcDbLine
 10
23.5
 20
120.79305
 30
0.0
 11
23.5
 21
112.7930499999999
 31
0.0
  0
LINE
  5
9D
330
1E
100
AcDbEntity
  8
0
100
AcDbLine
 10
24.0
 20
131.7930499999999
 30
0.0
 11
24.0
 21
120.79305
 31
0.0
  0
LINE
  5
9E
330
1E
100
AcDbEntity
  8
0
100
AcDbLine
 10
24.0
 20
131.7930499999999
 30
0.0
 11
24.19999999999999
 21
131.7930499999999
 31
0.0
  0
LINE
  5
9F
330
1E
100
AcDbEntity
  8
0
100
AcDbLine
 10
23.5
 20
112.7930499999999
 30
0.0
 11
23.5
 21
120.79305
 31
0.0
  0
LINE
  5
A0
330
1E
100
AcDbEntity
  8
0
100
AcDbLine
 10
23.5
 20
112.7930499999999
 30
0.0
 11
23.7
 21
112.7930499999999
 31
0.0
  0
LINE
  5
A1
330
1E
100
AcDbEntity
  8
0
100
AcDbLine
 10
24.0
 20
120.79305
 30
0.0
 11
24.0
 21
131.7930499999999
 31
0.0
  0
LINE
  5
A2
330
1E
100
AcDbEntity
  8
0
100
AcDbLine
 10
24.0
 20
109.9360499999999
 30
0.0
 11
26.00979999999999
 21
110.2410499999999
 31
0.0
  0
LINE
  5
A3
330
1E
100
AcDbEntity
  8
0
100
AcDbLine
 10
24.19999999999999
 20
131.7930499999999
 30
0.0
 11
24.8
 21
131.7930499999999
 31
0.0
  0
LINE
  5
A4
330
1E
100
AcDbEntity
  8
0
100
AcDbLine
 10
24.0
 20
101.65005
 30
0.0
 11
26.00979999999999
 21
101.34505
 31
0.0
  0
LINE
  5
A5
330
1E
100
AcDbEntity
  8
0
100
AcDbLine
 10
22.2
 20
99.79305
 30
0.0
 11
23.6
 21
99.79305
 31
0.0
  0
LINE
  5
A6
330
1E
100
AcDbEntity
  8
0
100
AcDbLine
 10
32.29999999999999
 20
99.79305
 30
0.0
 11
34.5
 21
99.79305
 31
0.0
  0
LINE
  5
A7
330
1E
100
AcDbEntity
  8
0
100
AcDbLine
 10
30.0
 20
99.79305
 30
0.0
 11
32.29999999999999
 21
99.79305
 31
0.0
  0
LINE
  5
A8
330
1E
100
AcDbEntity
  8
0
100
AcDbLine
 10
25.5
 20
99.79305
 30
0.0
 11
27.7
 21
99.79305
 31
0.0
  0
LINE
  5
A9
330
1E
100
AcDbEntity
  8
0
100
AcDbLine
 10
24.8
 20
100.2930499999999
 30
0.0
 11
27.3
 21
100.2930499999999
 31
0.0
  0
LINE
  5
AA
330
1E
100
AcDbEntity
  8
0
100
AcDbLine
 10
26.00979999999999
 20
101.34505
 30
0.0
 11
27.8536
 21
101.01005
 31
0.0
  0
LINE
  5
AB
330
1E
100
AcDbEntity
  8
0
100
AcDbLine
 10
27.3
 20
100.2930499999999
 30
0.0
 11
28.7911823647295
 21
100.2930499999999
 31
0.0
  0
LINE
  5
AC
330
1E
100
AcDbEntity
  8
0
100
AcDbLine
 10
28.7
 20
100.38405
 30
0.0
 11
29.19999999999999
 21
99.88505000000001
 31
0.0
  0
LINE
  5
B0
330
1E
100
AcDbEntity
  8
0
100
AcDbLine
 10
29.19999999999999
 20
99.88505000000001
 30
0.0
 11
29.19999999999999
 21
100.2690499999999
 31
0.0
  0
LINE
  5
B1
330
1E
100
AcDbEntity
  8
0
100
AcDbLine
 10
29.19999999999999
 20
99.88505000000001
 30
0.0
 11
30.0
 21
99.90405
 31
0.0
  0
LINE
  5
B2
330
1E
100
AcDbEntity
  8
0
100
AcDbLine
 10
29.19999999999999
 20
100.2690499999999
 30
0.0
 11
29.19999999999999
 21
100.98005
 31
0.0
  0
LINE
  5
B3
330
1E
100
AcDbEntity
  8
0
100
AcDbLine
 10
29.19999999999999
 20
100.2690499999999
 30
0.0
 11
29.19999999999999
 21
99.88505000000001
 31
0.0
  0
LINE
  5
B4
330
1E
100
AcDbEntity
  8
0
100
AcDbLine
 10
29.19999999999999
 20
100.98005
 30
0.0
 11
29.19999999999999
 21
101.74905
 31
0.0
  0
LINE
  5
B5
330
1E
100
AcDbEntity
  8
0
100
AcDbLine
 10
29.19999999999999
 20
100.98005
 30
0.0
 11
29.19999999999999
 21
100.2690499999999
 31
0.0
  0
LINE
  5
B6
330
1E
100
AcDbEntity
  8
0
100
AcDbLine
 10
30.8
 20
99.88505000000001
 30
0.0
 11
30.8
 21
100.2690499999999
 31
0.0
  0
LINE
  5
B7
330
1E
100
AcDbEntity
  8
0
100
AcDbLine
 10
30.8
 20
99.88505000000001
 30
0.0
 11
31.3
 21
100.38405
 31
0.0
  0
LINE
  5
B8
330
1E
100
AcDbEntity
  8
0
100
AcDbLine
 10
31.2088176352705
 20
100.2930499999999
 30
0.0
 11
32.7
 21
100.2930499999999
 31
0.0
  0
LINE
  5
BA
330
1E
100
AcDbEntity
  8
0
100
AcDbLine
 10
31.3
 20
100.38405
 30
0.0
 11
31.8
 21
102.8440499999999
 31
0.0
  0
LINE
  5
BD
330
1E
100
AcDbEntity
  8
0
100
AcDbLine
 10
30.8
 20
100.2690499999999
 30
0.0
 11
30.8
 21
99.88505000000001
 31
0.0
  0
LINE
  5
BE
330
1E
100
AcDbEntity
  8
0
100
AcDbLine
 10
30.8
 20
100.2690499999999
 30
0.0
 11
30.8
 21
100.98005
 31
0.0
  0
LINE
  5
BF
330
1E
100
AcDbEntity
  8
0
100
AcDbLine
 10
30.0
 20
99.90405
 30
0.0
 11
30.8
 21
99.88505000000001
 31
0.0
  0
LINE
  5
C0
330
1E
100
AcDbEntity
  8
0
100
AcDbLine
 10
30.8
 20
100.98005
 30
0.0
 11
30.8
 21
100.2690499999999
 31
0.0
  0
LINE
  5
C1
330
1E
100
AcDbEntity
  8
0
100
AcDbLine
 10
30.8
 20
100.98005
 30
0.0
 11
30.8
 21
101.74905
 31
0.0
  0
LINE
  5
C2
330
1E
100
AcDbEntity
  8
0
100
AcDbLine
 10
27.8536
 20
101.01005
 30
0.0
 11
28.6248143899836
 21
100.62164214113
 31
0.0
  0
LINE
  5
C3
330
1E
100
AcDbEntity
  8
0
100
AcDbLine
 10
28.2
 20
102.8440499999999
 30
0.0
 11
28.7
 21
100.38405
 31
0.0
  0
LINE
  5
C7
330
1E
100
AcDbEntity
  8
0
100
AcDbLine
 10
29.19999999999999
 20
101.74905
 30
0.0
 11
29.19999999999999
 21
102.86405
 31
0.0
  0
LINE
  5
C8
330
1E
100
AcDbEntity
  8
0
100
AcDbLine
 10
29.19999999999999
 20
101.74905
 30
0.0
 11
29.19999999999999
 21
100.98005
 31
0.0
  0
LINE
  5
C9
330
1E
100
AcDbEntity
  8
0
100
AcDbLine
 10
29.19999999999999
 20
102.86405
 30
0.0
 11
29.19999999999999
 21
105.7930499999999
 31
0.0
  0
LINE
  5
CA
330
1E
100
AcDbEntity
  8
0
100
AcDbLine
 10
29.19999999999999
 20
102.86405
 30
0.0
 11
29.19999999999999
 21
101.74905
 31
0.0
  0
LINE
  5
CB
330
1E
100
AcDbEntity
  8
0
100
AcDbLine
 10
30.8
 20
101.74905
 30
0.0
 11
30.8
 21
100.98005
 31
0.0
  0
LINE
  5
CC
330
1E
100
AcDbEntity
  8
0
100
AcDbLine
 10
30.8
 20
101.74905
 30
0.0
 11
30.8
 21
102.86405
 31
0.0
  0
LINE
  5
CD
330
1E
100
AcDbEntity
  8
0
100
AcDbLine
 10
28.2
 20
108.74205
 30
0.0
 11
28.7
 21
111.20205
 31
0.0
  0
LINE
  5
CF
330
1E
100
AcDbEntity
  8
0
100
AcDbLine
 10
29.19999999999999
 20
109.83705
 30
0.0
 11
29.19999999999999
 21
110.6060499999999
 31
0.0
  0
LINE
  5
D0
330
1E
100
AcDbEntity
  8
0
100
AcDbLine
 10
29.19999999999999
 20
109.83705
 30
0.0
 11
29.19999999999999
 21
108.7220499999999
 31
0.0
  0
LINE
  5
D1
330
1E
100
AcDbEntity
  8
0
100
AcDbLine
 10
29.19999999999999
 20
108.7220499999999
 30
0.0
 11
29.19999999999999
 21
109.83705
 31
0.0
  0
LINE
  5
D2
330
1E
100
AcDbEntity
  8
0
100
AcDbLine
 10
29.19999999999999
 20
108.7220499999999
 30
0.0
 11
29.19999999999999
 21
105.7930499999999
 31
0.0
  0
LINE
  5
D3
330
1E
100
AcDbEntity
  8
0
100
AcDbLine
 10
28.0
 20
105.7930499999999
 30
0.0
 11
28.2
 21
102.8440499999999
 31
0.0
  0
LINE
  5
D4
330
1E
100
AcDbEntity
  8
0
100
AcDbLine
 10
28.0
 20
105.7930499999999
 30
0.0
 11
28.2
 21
108.74205
 31
0.0
  0
LINE
  5
D5
330
1E
100
AcDbEntity
  8
0
100
AcDbLine
 10
29.19999999999999
 20
105.7930499999999
 30
0.0
 11
29.19999999999999
 21
102.86405
 31
0.0
  0
LINE
  5
D6
330
1E
100
AcDbEntity
  8
0
100
AcDbLine
 10
29.19999999999999
 20
105.7930499999999
 30
0.0
 11
29.19999999999999
 21
108.7220499999999
 31
0.0
  0
LINE
  5
D7
330
1E
100
AcDbEntity
  8
0
100
AcDbLine
 10
30.8
 20
102.86405
 30
0.0
 11
30.8
 21
101.74905
 31
0.0
  0
LINE
  5
D8
330
1E
100
AcDbEntity
  8
0
100
AcDbLine
 10
30.8
 20
102.86405
 30
0.0
 11
30.8
 21
105.7930499999999
 31
0.0
  0
LINE
  5
D9
330
1E
100
AcDbEntity
  8
0
100
AcDbLine
 10
30.8
 20
105.7930499999999
 30
0.0
 11
30.8
 21
108.7220499999999
 31
0.0
  0
LINE
  5
DA
330
1E
100
AcDbEntity
  8
0
100
AcDbLine
 10
30.8
 20
105.7930499999999
 30
0.0
 11
30.8
 21
102.86405
 31
0.0
  0
LINE
  5
DD
330
1E
100
AcDbEntity
  8
0
100
AcDbLine
 10
30.8
 20
109.83705
 30
0.0
 11
30.8
 21
108.7220499999999
 31
0.0
  0
LINE
  5
DE
330
1E
100
AcDbEntity
  8
0
100
AcDbLine
 10
30.8
 20
109.83705
 30
0.0
 11
30.8
 21
110.6060499999999
 31
0.0
  0
LINE
  5
E5
330
1E
100
AcDbEntity
  8
0
100
AcDbLine
 10
30.8
 20
108.7220499999999
 30
0.0
 11
30.8
 21
105.7930499999999
 31
0.0
  0
LINE
  5
E6
330
1E
100
AcDbEntity
  8
0
100
AcDbLine
 10
30.8
 20
108.7220499999999
 30
0.0
 11
30.8
 21
109.83705
 31
0.0
  0
LINE
  5
E8
330
1E
100
AcDbEntity
  8
0
100
AcDbLine
 10
26.00979999999999
 20
110.2410499999999
 30
0.0
 11
27.8536
 21
110.5760499999999
 31
0.0
  0
LINE
  5
E9
330
1E
100
AcDbEntity
  8
0
100
AcDbLine
 10
24.39999999999999
 20
112.7930499999999
 30
0.0
 11
25.4
 21
112.7930499999999
 31
0.0
  0
LINE
  5
EA
330
1E
100
AcDbEntity
  8
0
100
AcDbLine
 10
24.39999999999999
 20
110.7930499999999
 30
0.0
 11
26.0
 21
110.7930499999999
 31
0.0
  0
LINE
  5
EB
330
1E
100
AcDbEntity
  8
0
100
AcDbLine
 10
26.0
 20
110.7930499999999
 30
0.0
 11
27.9
 21
110.7930499999999
 31
0.0
  0
LINE
  5
EC
330
1E
100
AcDbEntity
  8
0
100
AcDbLine
 10
24.39999999999999
 20
120.79305
 30
0.0
 11
25.4
 21
120.79305
 31
0.0
  0
LINE
  5
ED
330
1E
100
AcDbEntity
  8
0
100
AcDbLine
 10
25.4
 20
112.7930499999999
 30
0.0
 11
26.8
 21
112.7930499999999
 31
0.0
  0
LINE
  5
EE
330
1E
100
AcDbEntity
  8
0
100
AcDbLine
 10
26.8
 20
112.7930499999999
 30
0.0
 11
28.3
 21
112.7930499999999
 31
0.0
  0
LINE
  5
EF
330
1E
100
AcDbEntity
  8
0
100
AcDbLine
 10
24.8
 20
131.7930499999999
 30
0.0
 11
25.8
 21
131.7930499999999
 31
0.0
  0
LINE
  5
F0
330
1E
100
AcDbEntity
  8
0
100
AcDbLine
 10
25.4
 20
120.79305
 30
0.0
 11
26.8
 21
120.79305
 31
0.0
  0
LINE
  5
F1
330
1E
100
AcDbEntity
  8
0
100
AcDbLine
 10
26.8
 20
120.79305
 30
0.0
 11
28.3
 21
120.79305
 31
0.0
  0
LINE
  5
F2
330
1E
100
AcDbEntity
  8
0
100
AcDbLine
 10
25.8
 20
131.7930499999999
 30
0.0
 11
27.0
 21
131.7930499999999
 31
0.0
  0
LINE
  5
F3
330
1E
100
AcDbEntity
  8
0
100
AcDbLine
 10
29.19999999999999
 20
110.6060499999999
 30
0.0
 11
29.19999999999999
 21
111.31705
 31
0.0
  0
LINE
  5
F4
330
1E
100
AcDbEntity
  8
0
100
AcDbLine
 10
29.19999999999999
 20
110.6060499999999
 30
0.0
 11
29.19999999999999
 21
109.83705
 31
0.0
  0
LINE
  5
F5
330
1E
100
AcDbEntity
  8
0
100
AcDbLine
 10
27.9
 20
110.7930499999999
 30
0.0
 11
28.2844705882353
 21
110.7930499999999
 31
0.0
  0
LINE
  5
F6
330
1E
100
AcDbEntity
  8
0
100
AcDbLine
 10
28.7
 20
111.20205
 30
0.0
 11
29.19999999999999
 21
111.7010499999999
 31
0.0
  0
LINE
  5
FA
330
1E
100
AcDbEntity
  8
0
100
AcDbLine
 10
29.19999999999999
 20
111.31705
 30
0.0
 11
29.19999999999999
 21
111.7010499999999
 31
0.0
  0
LINE
  5
FB
330
1E
100
AcDbEntity
  8
0
100
AcDbLine
 10
29.19999999999999
 20
111.31705
 30
0.0
 11
29.19999999999999
 21
110.6060499999999
 31
0.0
  0
LINE
  5
FC
330
1E
100
AcDbEntity
  8
0
100
AcDbLine
 10
29.19999999999999
 20
111.7010499999999
 30
0.0
 11
30.0
 21
111.6820499999999
 31
0.0
  0
LINE
  5
FD
330
1E
100
AcDbEntity
  8
0
100
AcDbLine
 10
29.19999999999999
 20
111.7010499999999
 30
0.0
 11
29.19999999999999
 21
111.31705
 31
0.0
  0
LINE
  5
FE
330
1E
100
AcDbEntity
  8
0
100
AcDbLine
 10
30.0
 20
111.6820499999999
 30
0.0
 11
30.8
 21
111.7010499999999
 31
0.0
  0
LINE
  5
FF
330
1E
100
AcDbEntity
  8
0
100
AcDbLine
 10
28.3
 20
112.7930499999999
 30
0.0
 11
30.0
 21
112.7930499999999
 31
0.0
  0
LINE
  5
100
330
1E
100
AcDbEntity
  8
0
100
AcDbLine
 10
28.3
 20
120.79305
 30
0.0
 11
30.0
 21
120.79305
 31
0.0
  0
LINE
  5
101
330
1E
100
AcDbEntity
  8
0
100
AcDbLine
 10
28.5
 20
131.7930499999999
 30
0.0
 11
30.0
 21
131.7930499999999
 31
0.0
  0
LINE
  5
102
330
1E
100
AcDbEntity
  8
0
100
AcDbLine
 10
30.0
 20
112.7930499999999
 30
0.0
 11
31.69999999999999
 21
112.7930499999999
 31
0.0
  0
LINE
  5
103
330
1E
100
AcDbEntity
  8
0
100
AcDbLine
 10
30.0
 20
120.79305
 30
0.0
 11
31.69999999999999
 21
120.79305
 31
0.0
  0
LINE
  5
104
330
1E
100
AcDbEntity
  8
0
100
AcDbLine
 10
30.8
 20
111.7010499999999
 30
0.0
 11
30.8
 21
111.31705
 31
0.0
  0
LINE
  5
105
330
1E
100
AcDbEntity
  8
0
100
AcDbLine
 10
30.8
 20
111.7010499999999
 30
0.0
 11
31.3
 21
111.20205
 31
0.0
  0
LINE
  5
107
330
1E
100
AcDbEntity
  8
0
100
AcDbLine
 10
31.3
 20
111.20205
 30
0.0
 11
31.8
 21
108.74205
 31
0.0
  0
LINE
  5
10A
330
1E
100
AcDbEntity
  8
0
100
AcDbLine
 10
30.8
 20
111.31705
 30
0.0
 11
30.8
 21
110.6060499999999
 31
0.0
  0
LINE
  5
10B
330
1E
100
AcDbEntity
  8
0
100
AcDbLine
 10
30.8
 20
111.31705
 30
0.0
 11
30.8
 21
111.7010499999999
 31
0.0
  0
LINE
  5
10C
330
1E
100
AcDbEntity
  8
0
100
AcDbLine
 10
30.8
 20
110.6060499999999
 30
0.0
 11
30.8
 21
109.83705
 31
0.0
  0
LINE
  5
10D
330
1E
100
AcDbEntity
  8
0
100
AcDbLine
 10
30.8
 20
110.6060499999999
 30
0.0
 11
30.8
 21
111.31705
 31
0.0
  0
LINE
  5
10E
330
1E
100
AcDbEntity
  8
0
100
AcDbLine
 10
27.8536
 20
110.5760499999999
 30
0.0
 11
28.6248143899836
 21
110.9644578588699
 31
0.0
  0
LINE
  5
110
330
1E
100
AcDbEntity
  8
0
100
AcDbLine
 10
32.7
 20
100.2930499999999
 30
0.0
 11
35.2
 21
100.2930499999999
 31
0.0
  0
LINE
  5
111
330
1E
100
AcDbEntity
  8
0
100
AcDbLine
 10
31.8
 20
102.8440499999999
 30
0.0
 11
32.0
 21
105.7930499999999
 31
0.0
  0
LINE
  5
112
330
1E
100
AcDbEntity
  8
0
100
AcDbLine
 10
31.8
 20
108.74205
 30
0.0
 11
32.0
 21
105.7930499999999
 31
0.0
  0
LINE
  5
113
330
1E
100
AcDbEntity
  8
0
100
AcDbLine
 10
32.1
 20
110.7930499999999
 30
0.0
 11
34.0
 21
110.7930499999999
 31
0.0
  0
LINE
  5
114
330
1E
100
AcDbEntity
  8
0
100
AcDbLine
 10
31.7155294117647
 20
110.7930499999999
 30
0.0
 11
32.1
 21
110.7930499999999
 31
0.0
  0
LINE
  5
115
330
1E
100
AcDbEntity
  8
0
100
AcDbLine
 10
32.1464
 20
110.5760499999999
 30
0.0
 11
33.9902
 21
110.2410499999999
 31
0.0
  0
LINE
  5
116
330
1E
100
AcDbEntity
  8
0
100
AcDbLine
 10
31.37518561001639
 20
110.9644578588699
 30
0.0
 11
32.1464
 21
110.5760499999999
 31
0.0
  0
LINE
  5
117
330
1E
100
AcDbEntity
  8
0
100
AcDbLine
 10
31.69999999999999
 20
112.7930499999999
 30
0.0
 11
33.2
 21
112.7930499999999
 31
0.0
  0
LINE
  5
118
330
1E
100
AcDbEntity
  8
0
100
AcDbLine
 10
31.69999999999999
 20
120.79305
 30
0.0
 11
33.2
 21
120.79305
 31
0.0
  0
LINE
  5
119
330
1E
100
AcDbEntity
  8
0
100
AcDbLine
 10
31.5
 20
131.7930499999999
 30
0.0
 11
33.0
 21
131.7930499999999
 31
0.0
  0
LINE
  5
11B
330
1E
100
AcDbEntity
  8
0
100
AcDbLine
 10
32.1464
 20
101.01005
 30
0.0
 11
33.9902
 21
101.34505
 31
0.0
  0
LINE
  5
11C
330
1E
100
AcDbEntity
  8
0
100
AcDbLine
 10
31.37518561001639
 20
100.62164214113
 30
0.0
 11
32.1464
 21
101.01005
 31
0.0
  0
LINE
  5
11E
330
1E
100
AcDbEntity
  8
0
100
AcDbLine
 10
27.7
 20
99.79305
 30
0.0
 11
30.0
 21
99.79305
 31
0.0
  0
LINE
  5
11F
330
1E
100
AcDbEntity
  8
0
100
AcDbLine
 10
24.3
 20
131.7930499999999
 30
0.0
 11
27.0
 21
131.7930499999999
 31
0.0
  0
LINE
  5
120
330
1E
100
AcDbEntity
  8
0
100
AcDbLine
 10
27.0
 20
131.7930499999999
 30
0.0
 11
30.0
 21
131.7930499999999
 31
0.0
  0
LINE
  5
121
330
1E
100
AcDbEntity
  8
0
100
AcDbLine
 10
27.0
 20
131.7930499999999
 30
0.0
 11
28.5
 21
131.7930499999999
 31
0.0
  0
LINE
  5
122
330
1E
100
AcDbEntity
  8
0
100
AcDbLine
 10
33.9902
 20
101.34505
 30
0.0
 11
36.0
 21
101.65005
 31
0.0
  0
LINE
  5
123
330
1E
100
AcDbEntity
  8
0
100
AcDbLine
 10
33.2
 20
112.7930499999999
 30
0.0
 11
34.6
 21
112.7930499999999
 31
0.0
  0
LINE
  5
124
330
1E
100
AcDbEntity
  8
0
100
AcDbLine
 10
34.2
 20
131.7930499999999
 30
0.0
 11
35.2
 21
131.7930499999999
 31
0.0
  0
LINE
  5
125
330
1E
100
AcDbEntity
  8
0
100
AcDbLine
 10
34.0
 20
110.7930499999999
 30
0.0
 11
35.6
 21
110.7930499999999
 31
0.0
  0
LINE
  5
126
330
1E
100
AcDbEntity
  8
0
100
AcDbLine
 10
33.2
 20
120.79305
 30
0.0
 11
34.6
 21
120.79305
 31
0.0
  0
LINE
  5
127
330
1E
100
AcDbEntity
  8
0
100
AcDbLine
 10
33.9902
 20
110.2410499999999
 30
0.0
 11
36.0
 21
109.9360499999999
 31
0.0
  0
LINE
  5
128
330
1E
100
AcDbEntity
  8
0
100
AcDbLine
 10
36.4
 20
99.79305
 30
0.0
 11
37.79999999999999
 21
99.79305
 31
0.0
  0
LINE
  5
129
330
1E
100
AcDbEntity
  8
0
100
AcDbLine
 10
34.6
 20
112.7930499999999
 30
0.0
 11
35.6
 21
112.7930499999999
 31
0.0
  0
LINE
  5
12A
330
1E
100
AcDbEntity
  8
0
100
AcDbLine
 10
34.6
 20
120.79305
 30
0.0
 11
35.6
 21
120.79305
 31
0.0
  0
LINE
  5
12B
330
1E
100
AcDbEntity
  8
0
100
AcDbLine
 10
35.6
 20
110.7930499999999
 30
0.0
 11
36.89999999999999
 21
110.7930499999999
 31
0.0
  0
LINE
  5
12C
330
1E
100
AcDbEntity
  8
0
100
AcDbLine
 10
35.6
 20
112.7930499999999
 30
0.0
 11
36.29999999999999
 21
112.7930499999999
 31
0.0
  0
LINE
  5
12D
330
1E
100
AcDbEntity
  8
0
100
AcDbLine
 10
35.6
 20
120.79305
 30
0.0
 11
36.29999999999999
 21
120.79305
 31
0.0
  0
LINE
  5
12E
330
1E
100
AcDbEntity
  8
0
100
AcDbLine
 10
35.2
 20
131.7930499999999
 30
0.0
 11
35.8
 21
131.7930499999999
 31
0.0
  0
LINE
  5
12F
330
1E
100
AcDbEntity
  8
0
100
AcDbLine
 10
35.8
 20
131.7930499999999
 30
0.0
 11
36.0
 21
131.7930499999999
 31
0.0
  0
LINE
  5
130
330
1E
100
AcDbEntity
  8
0
100
AcDbLine
 10
36.0
 20
120.79305
 30
0.0
 11
36.0
 21
131.7930499999999
 31
0.0
  0
LINE
  5
131
330
1E
100
AcDbEntity
  8
0
100
AcDbLine
 10
36.0
 20
101.65005
 30
0.0
 11
38.5
 21
101.7930499999999
 31
0.0
  0
LINE
  5
132
330
1E
100
AcDbEntity
  8
0
100
AcDbLine
 10
36.29999999999999
 20
112.7930499999999
 30
0.0
 11
36.5
 21
112.7930499999999
 31
0.0
  0
LINE
  5
133
330
1E
100
AcDbEntity
  8
0
100
AcDbLine
 10
36.29999999999999
 20
120.79305
 30
0.0
 11
36.5
 21
120.79305
 31
0.0
  0
LINE
  5
134
330
1E
100
AcDbEntity
  8
0
100
AcDbLine
 10
36.89999999999999
 20
110.7930499999999
 30
0.0
 11
37.7
 21
110.7930499999999
 31
0.0
  0
LINE
  5
135
330
1E
100
AcDbEntity
  8
0
100
AcDbLine
 10
36.5
 20
112.7930499999999
 30
0.0
 11
38.0
 21
110.7930499999999
 31
0.0
  0
LINE
  5
136
330
1E
100
AcDbEntity
  8
0
100
AcDbLine
 10
36.5
 20
112.7930499999999
 30
0.0
 11
36.5
 21
120.79305
 31
0.0
  0
LINE
  5
137
330
1E
100
AcDbEntity
  8
0
100
AcDbLine
 10
36.5
 20
120.79305
 30
0.0
 11
36.5
 21
112.7930499999999
 31
0.0
  0
LINE
  5
138
330
1E
100
AcDbEntity
  8
0
100
AcDbLine
 10
36.0
 20
109.9360499999999
 30
0.0
 11
38.5
 21
109.7930499999999
 31
0.0
  0
LINE
  5
139
330
1E
100
AcDbEntity
  8
0
100
AcDbLine
 10
35.2
 20
100.2930499999999
 30
0.0
 11
37.4
 21
100.2930499999999
 31
0.0
  0
LINE
  5
13A
330
1E
100
AcDbEntity
  8
0
100
AcDbLine
 10
37.7
 20
110.7930499999999
 30
0.0
 11
38.0
 21
110.7930499999999
 31
0.0
  0
LINE
  5
13B
330
1E
100
AcDbEntity
  8
0
100
AcDbLine
 10
38.0
 20
110.7930499999999
 30
0.0
 11
40.4664645953053
 21
109.9708951348979
 31
0.0
  0
LINE
  5
13C
330
1E
100
AcDbEntity
  8
0
100
AcDbLine
 10
37.4
 20
100.2930499999999
 30
0.0
 11
39.1
 21
100.2930499999999
 31
0.0
  0
LINE
  5
13D
330
1E
100
AcDbEntity
  8
0
100
AcDbLine
 10
37.79999999999999
 20
99.79305
 30
0.0
 11
38.7
 21
99.79305
 31
0.0
  0
LINE
  5
13E
330
1E
100
AcDbEntity
  8
0
100
AcDbLine
 10
34.5
 20
99.79305
 30
0.0
 11
36.4
 21
99.79305
 31
0.0
  0
LINE
  5
13F
330
1E
100
AcDbEntity
  8
0
100
AcDbLine
 10
35.7
 20
131.7930499999999
 30
0.0
 11
38.1
 21
131.7930499999999
 31
0.0
  0
LINE
  5
140
330
1E
100
AcDbEntity
  8
0
100
AcDbLine
 10
33.0
 20
131.7930499999999
 30
0.0
 11
35.7
 21
131.7930499999999
 31
0.0
  0
LINE
  5
141
330
1E
100
AcDbEntity
  8
0
100
AcDbLine
 10
33.0
 20
131.7930499999999
 30
0.0
 11
34.2
 21
131.7930499999999
 31
0.0
  0
LINE
  5
142
330
1E
100
AcDbEntity
  8
0
100
AcDbLine
 10
30.0
 20
131.7930499999999
 30
0.0
 11
33.0
 21
131.7930499999999
 31
0.0
  0
LINE
  5
143
330
1E
100
AcDbEntity
  8
0
100
AcDbLine
 10
30.0
 20
131.7930499999999
 30
0.0
 11
31.5
 21
131.7930499999999
 31
0.0
  0
LINE
  5
144
330
1E
100
AcDbEntity
  8
0
100
AcDbLine
 10
39.1
 20
100.2930499999999
 30
0.0
 11
40.1
 21
100.2930499999999
 31
0.0
  0
LINE
  5
145
330
1E
100
AcDbEntity
  8
0
100
AcDbLine
 10
40.1
 20
100.2930499999999
 30
0.0
 11
40.49999999999999
 21
100.2930499999999
 31
0.0
  0
LINE
  5
146
330
1E
100
AcDbEntity
  8
0
100
AcDbLine
 10
39.0
 20
99.79305
 30
0.0
 11
40.49999999999999
 21
100.2930499999999
 31
0.0
  0
LINE
  5
147
330
1E
100
AcDbEntity
  8
0
100
AcDbLine
 10
38.7
 20
99.79305
 30
0.0
 11
39.0
 21
99.79305
 31
0.0
  0
LINE
  5
148
330
1E
100
AcDbEntity
  8
0
100
AcDbLine
 10
38.5
 20
101.7930499999999
 30
0.0
 11
40.42229999999999
 21
101.65005
 31
0.0
  0
LINE
  5
149
330
1E
100
AcDbEntity
  8
0
100
AcDbLine
 10
38.5
 20
109.7930499999999
 30
0.0
 11
40.42229999999999
 21
109.9360499999999
 31
0.0
  0
LINE
  5
14A
330
1E
100
AcDbEntity
  8
0
100
AcDbLine
 10
40.42229999999999
 20
109.9360499999999
 30
0.0
 11
42.70399999999999
 21
110.2410499999999
 31
0.0
  0
LINE
  5
14B
330
1E
100
AcDbEntity
  8
0
100
AcDbLine
 10
40.42229999999999
 20
101.65005
 30
0.0
 11
42.70399999999999
 21
101.34505
 31
0.0
  0
LINE
  5
14C
330
1E
100
AcDbEntity
  8
0
100
AcDbLine
 10
40.0378042885936
 20
101.6718487101969
 30
0.0
 11
41.1357514115204
 21
101.554681336059
 31
0.0
  0
LINE
  5
14D
330
1E
100
AcDbEntity
  8
0
100
AcDbLine
 10
40.49999999999999
 20
100.2930499999999
 30
0.0
 11
40.9223699672633
 21
101.56015990179
 31
0.0
  0
LINE
  5
14E
330
1E
100
AcDbEntity
  8
0
100
AcDbLine
 10
38.1
 20
131.7930499999999
 30
0.0
 11
40.0
 21
131.7930499999999
 31
0.0
  0
LINE
  5
14F
330
1E
100
AcDbEntity
  8
0
100
AcDbLine
 10
40.0
 20
131.7930499999999
 30
0.0
 11
41.1
 21
131.7930499999999
 31
0.0
  0
LINE
  5
150
330
1E
100
AcDbEntity
  8
0
100
AcDbLine
 10
44.3861949815464
 20
101.140418270882
 30
0.0
 11
45.13819999999999
 21
101.0360499999999
 31
0.0
  0
LINE
  5
151
330
1E
100
AcDbEntity
  8
0
100
AcDbLine
 10
45.4579
 20
101.01005
 30
0.0
 11
49.00199999999999
 21
100.48305
 31
0.0
  0
LINE
  5
152
330
1E
100
AcDbEntity
  8
0
100
AcDbLine
 10
45.13819999999999
 20
101.0360499999999
 30
0.0
 11
47.2000072860916
 21
100.7510024167569
 31
0.0
  0
LINE
  5
153
330
1E
100
AcDbEntity
  8
0
100
AcDbLine
 10
45.13819999999999
 20
101.0360499999999
 30
0.0
 11
45.4579
 21
101.01005
 31
0.0
  0
LINE
  5
154
330
1E
100
AcDbEntity
  8
0
100
AcDbLine
 10
45.13819999999999
 20
110.5500499999999
 30
0.0
 11
45.4579
 21
110.5760499999999
 31
0.0
  0
LINE
  5
155
330
1E
100
AcDbEntity
  8
0
100
AcDbLine
 10
45.13819999999999
 20
110.5500499999999
 30
0.0
 11
47.2000072860919
 21
110.835097583243
 31
0.0
  0
LINE
  5
156
330
1E
100
AcDbEntity
  8
0
100
AcDbLine
 10
42.70399999999999
 20
110.2410499999999
 30
0.0
 11
45.4579
 21
110.5760499999999
 31
0.0
  0
LINE
  5
157
330
1E
100
AcDbEntity
  8
0
100
AcDbLine
 10
45.4579
 20
110.5760499999999
 30
0.0
 11
49.00199999999999
 21
111.10305
 31
0.0
  0
LINE
  5
158
330
1E
100
AcDbEntity
  8
0
100
AcDbLine
 10
49.00199999999999
 20
111.10305
 30
0.0
 11
52.9771
 21
111.58105
 31
0.0
  0
LINE
  5
159
330
1E
100
AcDbEntity
  8
0
100
AcDbLine
 10
42.70399999999999
 20
101.34505
 30
0.0
 11
44.3861949815464
 21
101.140418270882
 31
0.0
  0
LINE
  5
15A
330
1E
100
AcDbEntity
  8
0
100
AcDbLine
 10
42.70399999999999
 20
101.34505
 30
0.0
 11
45.4579
 21
101.01005
 31
0.0
  0
LINE
  5
15B
330
1E
100
AcDbEntity
  8
0
100
AcDbLine
 10
54.8748
 20
99.88505000000001
 30
0.0
 11
56.3747
 21
100.2690499999999
 31
0.0
  0
LINE
  5
15C
330
1E
100
AcDbEntity
  8
0
100
AcDbLine
 10
52.9771
 20
100.0050499999999
 30
0.0
 11
54.8748
 21
99.88505000000001
 31
0.0
  0
LINE
  5
15D
330
1E
100
AcDbEntity
  8
0
100
AcDbLine
 10
53.1036
 20
99.98605000000001
 30
0.0
 11
53.6600409962617
 21
99.9618646073924
 31
0.0
  0
LINE
  5
15E
330
1E
100
AcDbEntity
  8
0
100
AcDbLine
 10
54.9557624835388
 20
99.90577777763782
 30
0.0
 11
56.3747
 21
100.2690499999999
 31
0.0
  0
LINE
  5
15F
330
1E
100
AcDbEntity
  8
0
100
AcDbLine
 10
119.3846
 20
5.20449999999999
 30
0.0
 11
122.5
 21
2.81823999999999
 31
0.0
  0
LINE
  5
160
330
1E
100
AcDbEntity
  8
0
100
AcDbLine
 10
119.1999999999999
 20
10.46948999999999
 30
0.0
 11
121.1999999999999
 21
7.85682999999999
 31
0.0
  0
LINE
  5
161
330
1E
100
AcDbEntity
  8
0
100
AcDbLine
 10
118.0
 20
13.44593599999999
 30
0.0
 11
119.1999999999999
 21
10.46948999999999
 31
0.0
  0
LINE
  5
162
330
1E
100
AcDbEntity
  8
0
100
AcDbLine
 10
116.9615
 20
8.272559999999989
 30
0.0
 11
119.3846
 21
5.20449999999999
 31
0.0
  0
LINE
  5
163
330
1E
100
AcDbEntity
  8
0
100
AcDbLine
 10
115.5769
 20
11.90877
 30
0.0
 11
116.9615
 21
8.272559999999989
 31
0.0
  0
LINE
  5
164
330
1E
100
AcDbEntity
  8
0
100
AcDbLine
 10
117.5
 20
19.34819
 30
0.0
 11
117.5
 21
21.81904
 31
0.0
  0
LINE
  5
165
330
1E
100
AcDbEntity
  8
0
100
AcDbLine
 10
117.5
 20
19.34819
 30
0.0
 11
117.5
 21
17.38115
 31
0.0
  0
LINE
  5
166
330
1E
100
AcDbEntity
  8
0
100
AcDbLine
 10
117.5
 20
21.81904
 30
0.0
 11
117.5
 21
19.34819
 31
0.0
  0
LINE
  5
167
330
1E
100
AcDbEntity
  8
0
100
AcDbLine
 10
117.5
 20
21.81904
 30
0.0
 11
117.5
 21
24.75144999999999
 31
0.0
  0
LINE
  5
168
330
1E
100
AcDbEntity
  8
0
100
AcDbLine
 10
117.5
 20
17.38115
 30
0.0
 11
117.5
 21
19.34819
 31
0.0
  0
LINE
  5
169
330
1E
100
AcDbEntity
  8
0
100
AcDbLine
 10
117.5
 20
17.38115
 30
0.0
 11
117.5
 21
16.59590999999999
 31
0.0
  0
LINE
  5
16A
330
1E
100
AcDbEntity
  8
0
100
AcDbLine
 10
117.5
 20
35.78184999999999
 30
0.0
 11
117.5
 21
39.99325
 31
0.0
  0
LINE
  5
16B
330
1E
100
AcDbEntity
  8
0
100
AcDbLine
 10
117.5
 20
35.78184999999999
 30
0.0
 11
117.5
 21
31.79305
 31
0.0
  0
LINE
  5
16C
330
1E
100
AcDbEntity
  8
0
100
AcDbLine
 10
117.5
 20
44.35515
 30
0.0
 11
117.5
 21
48.79305
 31
0.0
  0
LINE
  5
16D
330
1E
100
AcDbEntity
  8
0
100
AcDbLine
 10
117.5
 20
44.35515
 30
0.0
 11
117.5
 21
39.99325
 31
0.0
  0
LINE
  5
16E
330
1E
100
AcDbEntity
  8
0
100
AcDbLine
 10
117.5
 20
39.99325
 30
0.0
 11
117.5
 21
44.35515
 31
0.0
  0
LINE
  5
16F
330
1E
100
AcDbEntity
  8
0
100
AcDbLine
 10
117.5
 20
39.99325
 30
0.0
 11
117.5
 21
35.78184999999999
 31
0.0
  0
LINE
  5
170
330
1E
100
AcDbEntity
  8
0
100
AcDbLine
 10
117.5
 20
31.79305
 30
0.0
 11
117.5
 21
28.09515
 31
0.0
  0
LINE
  5
171
330
1E
100
AcDbEntity
  8
0
100
AcDbLine
 10
117.5
 20
31.79305
 30
0.0
 11
117.5
 21
35.78184999999999
 31
0.0
  0
LINE
  5
172
330
1E
100
AcDbEntity
  8
0
100
AcDbLine
 10
117.5
 20
24.75144999999999
 30
0.0
 11
117.5
 21
28.09515
 31
0.0
  0
LINE
  5
173
330
1E
100
AcDbEntity
  8
0
100
AcDbLine
 10
117.5
 20
24.75144999999999
 30
0.0
 11
117.5
 21
21.81904
 31
0.0
  0
LINE
  5
174
330
1E
100
AcDbEntity
  8
0
100
AcDbLine
 10
117.5
 20
28.09515
 30
0.0
 11
117.5
 21
31.79305
 31
0.0
  0
LINE
  5
175
330
1E
100
AcDbEntity
  8
0
100
AcDbLine
 10
117.5
 20
28.09515
 30
0.0
 11
117.5
 21
24.75144999999999
 31
0.0
  0
LINE
  5
176
330
1E
100
AcDbEntity
  8
0
100
AcDbLine
 10
116.9615
 20
23.13125
 30
0.0
 11
117.5
 21
23.8130922062647
 31
0.0
  0
LINE
  5
177
330
1E
100
AcDbEntity
  8
0
100
AcDbLine
 10
115.5769
 20
19.49506
 30
0.0
 11
116.9615
 21
23.13125
 31
0.0
  0
LINE
  5
178
330
1E
100
AcDbEntity
  8
0
100
AcDbLine
 10
117.5
 20
16.59590999999999
 30
0.0
 11
118.0
 21
13.44593599999999
 31
0.0
  0
LINE
  5
179
330
1E
100
AcDbEntity
  8
0
100
AcDbLine
 10
117.5
 20
16.59590999999999
 30
0.0
 11
117.5
 21
17.38115
 31
0.0
  0
LINE
  5
17A
330
1E
100
AcDbEntity
  8
0
100
AcDbLine
 10
115.0
 20
15.74521
 30
0.0
 11
115.0
 21
15.65861
 31
0.0
  0
LINE
  5
17B
330
1E
100
AcDbEntity
  8
0
100
AcDbLine
 10
115.0
 20
15.74521
 30
0.0
 11
115.5769
 21
19.49506
 31
0.0
  0
LINE
  5
17C
330
1E
100
AcDbEntity
  8
0
100
AcDbLine
 10
115.0
 20
15.65861
 30
0.0
 11
115.5769
 21
11.90877
 31
0.0
  0
LINE
  5
17D
330
1E
100
AcDbEntity
  8
0
100
AcDbLine
 10
115.0
 20
15.65861
 30
0.0
 11
115.0
 21
15.74521
 31
0.0
  0
LINE
  5
17E
330
1E
100
AcDbEntity
  8
0
100
AcDbLine
 10
122.5
 20
2.81823999999999
 30
0.0
 11
126.1923
 21
1.454649999999989
 31
0.0
  0
LINE
  5
17F
330
1E
100
AcDbEntity
  8
0
100
AcDbLine
 10
130.0
 20
0.206949999999992
 30
0.0
 11
133.5769999999999
 21
0.661449999999994
 31
0.0
  0
LINE
  5
180
330
1E
100
AcDbEntity
  8
0
100
AcDbLine
 10
133.5769999999999
 20
0.6614499999999929
 30
0.0
 11
136.9229999999999
 21
2.02504999999999
 31
0.0
  0
LINE
  5
181
330
1E
100
AcDbEntity
  8
0
100
AcDbLine
 10
130.0
 20
0.206949999999992
 30
0.0
 11
133.5769999999999
 21
0.6614499999999929
 31
0.0
  0
LINE
  5
182
330
1E
100
AcDbEntity
  8
0
100
AcDbLine
 10
133.5769999999999
 20
0.661449999999994
 30
0.0
 11
136.9229999999999
 21
2.02504999999999
 31
0.0
  0
LINE
  5
183
330
1E
100
AcDbEntity
  8
0
100
AcDbLine
 10
126.4231
 20
0.6614499999999929
 30
0.0
 11
130.0
 21
0.206949999999992
 31
0.0
  0
LINE
  5
184
330
1E
100
AcDbEntity
  8
0
100
AcDbLine
 10
130.0
 20
0.8864499999999921
 30
0.0
 11
133.8079999999999
 21
1.454649999999989
 31
0.0
  0
LINE
  5
186
330
1E
100
AcDbEntity
  8
0
100
AcDbLine
 10
133.8079999999999
 20
1.454649999999989
 30
0.0
 11
137.5
 21
2.81823999999999
 31
0.0
  0
LINE
  5
187
330
1E
100
AcDbEntity
  8
0
100
AcDbLine
 10
136.9229999999999
 20
2.02504999999999
 30
0.0
 11
139.8079999999999
 21
4.18407999999999
 31
0.0
  0
LINE
  5
188
330
1E
100
AcDbEntity
  8
0
100
AcDbLine
 10
137.5
 20
2.81823999999999
 30
0.0
 11
140.615
 21
5.20449999999999
 31
0.0
  0
LINE
  5
189
330
1E
100
AcDbEntity
  8
0
100
AcDbLine
 10
139.8079999999999
 20
4.18407999999999
 30
0.0
 11
140.566999855264
 21
5.167729269541589
 31
0.0
  0
LINE
  5
18B
330
1E
100
AcDbEntity
  8
0
100
AcDbLine
 10
126.1923
 20
1.454649999999989
 30
0.0
 11
130.0
 21
0.8864499999999921
 31
0.0
  0
LINE
  5
18C
330
1E
100
AcDbEntity
  8
0
100
AcDbLine
 10
126.4231
 20
0.661449999999994
 30
0.0
 11
130.0
 21
0.206949999999992
 31
0.0
  0
LINE
  5
18D
330
1E
100
AcDbEntity
  8
0
100
AcDbLine
 10
123.0769
 20
2.02504999999999
 30
0.0
 11
126.4231
 21
0.6614499999999929
 31
0.0
  0
LINE
  5
18E
330
1E
100
AcDbEntity
  8
0
100
AcDbLine
 10
123.0769
 20
2.02504999999999
 30
0.0
 11
126.4231
 21
0.661449999999994
 31
0.0
  0
LINE
  5
18F
330
1E
100
AcDbEntity
  8
0
100
AcDbLine
 10
130.0
 20
4.33355999999999
 30
0.0
 11
133.1999999999999
 21
4.74809999999999
 31
0.0
  0
LINE
  5
190
330
1E
100
AcDbEntity
  8
0
100
AcDbLine
 10
133.1999999999999
 20
4.74809999999999
 30
0.0
 11
136.1999999999999
 21
5.87353999999999
 31
0.0
  0
LINE
  5
191
330
1E
100
AcDbEntity
  8
0
100
AcDbLine
 10
136.1999999999999
 20
5.87353999999999
 30
0.0
 11
138.8
 21
7.85682999999999
 31
0.0
  0
LINE
  5
192
330
1E
100
AcDbEntity
  8
0
100
AcDbLine
 10
140.615
 20
5.20449999999999
 30
0.0
 11
143.0379999999999
 21
8.272559999999989
 31
0.0
  0
LINE
  5
193
330
1E
100
AcDbEntity
  8
0
100
AcDbLine
 10
126.8
 20
4.74809999999999
 30
0.0
 11
130.0
 21
4.33355999999999
 31
0.0
  0
LINE
  5
194
330
1E
100
AcDbEntity
  8
0
100
AcDbLine
 10
138.8
 20
7.85682999999999
 30
0.0
 11
140.8
 21
10.46948999999999
 31
0.0
  0
LINE
  5
195
330
1E
100
AcDbEntity
  8
0
100
AcDbLine
 10
140.8
 20
10.46948999999999
 30
0.0
 11
142.0
 21
13.44593599999999
 31
0.0
  0
LINE
  5
196
330
1E
100
AcDbEntity
  8
0
100
AcDbLine
 10
142.5
 20
16.59590999999999
 30
0.0
 11
142.5
 21
17.38115
 31
0.0
  0
LINE
  5
197
330
1E
100
AcDbEntity
  8
0
100
AcDbLine
 10
142.5
 20
19.34819
 30
0.0
 11
142.5
 21
17.38115
 31
0.0
  0
LINE
  5
198
330
1E
100
AcDbEntity
  8
0
100
AcDbLine
 10
142.5
 20
19.34819
 30
0.0
 11
142.5
 21
21.81904
 31
0.0
  0
LINE
  5
199
330
1E
100
AcDbEntity
  8
0
100
AcDbLine
 10
142.5
 20
17.38115
 30
0.0
 11
142.5
 21
16.59590999999999
 31
0.0
  0
LINE
  5
19A
330
1E
100
AcDbEntity
  8
0
100
AcDbLine
 10
142.5
 20
17.38115
 30
0.0
 11
142.5
 21
19.34819
 31
0.0
  0
LINE
  5
19B
330
1E
100
AcDbEntity
  8
0
100
AcDbLine
 10
142.5
 20
23.8124872265786
 30
0.0
 11
143.0379999999999
 21
23.13125
 31
0.0
  0
LINE
  5
19C
330
1E
100
AcDbEntity
  8
0
100
AcDbLine
 10
142.0
 20
13.44593599999999
 30
0.0
 11
142.5
 21
16.59590999999999
 31
0.0
  0
LINE
  5
19D
330
1E
100
AcDbEntity
  8
0
100
AcDbLine
 10
142.5
 20
35.78184999999999
 30
0.0
 11
142.5
 21
31.79305
 31
0.0
  0
LINE
  5
19E
330
1E
100
AcDbEntity
  8
0
100
AcDbLine
 10
142.5
 20
35.78184999999999
 30
0.0
 11
142.5
 21
39.99325
 31
0.0
  0
LINE
  5
19F
330
1E
100
AcDbEntity
  8
0
100
AcDbLine
 10
142.5
 20
39.99325
 30
0.0
 11
142.5
 21
35.78184999999999
 31
0.0
  0
LINE
  5
1A0
330
1E
100
AcDbEntity
  8
0
100
AcDbLine
 10
142.5
 20
39.99325
 30
0.0
 11
142.5
 21
44.35515
 31
0.0
  0
LINE
  5
1A1
330
1E
100
AcDbEntity
  8
0
100
AcDbLine
 10
142.5
 20
31.79305
 30
0.0
 11
142.5
 21
28.09515
 31
0.0
  0
LINE
  5
1A2
330
1E
100
AcDbEntity
  8
0
100
AcDbLine
 10
142.5
 20
31.79305
 30
0.0
 11
142.5
 21
35.78184999999999
 31
0.0
  0
LINE
  5
1A3
330
1E
100
AcDbEntity
  8
0
100
AcDbLine
 10
142.5
 20
28.09515
 30
0.0
 11
142.5
 21
31.79305
 31
0.0
  0
LINE
  5
1A4
330
1E
100
AcDbEntity
  8
0
100
AcDbLine
 10
142.5
 20
28.09515
 30
0.0
 11
142.5
 21
24.75144999999999
 31
0.0
  0
LINE
  5
1A5
330
1E
100
AcDbEntity
  8
0
100
AcDbLine
 10
142.5
 20
24.75144999999999
 30
0.0
 11
142.5
 21
28.09515
 31
0.0
  0
LINE
  5
1A6
330
1E
100
AcDbEntity
  8
0
100
AcDbLine
 10
142.5
 20
24.75144999999999
 30
0.0
 11
142.5
 21
21.81904
 31
0.0
  0
LINE
  5
1A7
330
1E
100
AcDbEntity
  8
0
100
AcDbLine
 10
142.5
 20
21.81904
 30
0.0
 11
142.5
 21
24.75144999999999
 31
0.0
  0
LINE
  5
1A8
330
1E
100
AcDbEntity
  8
0
100
AcDbLine
 10
142.5
 20
21.81904
 30
0.0
 11
142.5
 21
19.34819
 31
0.0
  0
LINE
  5
1A9
330
1E
100
AcDbEntity
  8
0
100
AcDbLine
 10
142.5
 20
44.35515
 30
0.0
 11
142.5
 21
39.99325
 31
0.0
  0
LINE
  5
1AA
330
1E
100
AcDbEntity
  8
0
100
AcDbLine
 10
142.5
 20
44.35515
 30
0.0
 11
142.5
 21
48.79305
 31
0.0
  0
LINE
  5
1AB
330
1E
100
AcDbEntity
  8
0
100
AcDbLine
 10
143.0379999999999
 20
8.272559999999989
 30
0.0
 11
144.423
 21
11.90877
 31
0.0
  0
LINE
  5
1AC
330
1E
100
AcDbEntity
  8
0
100
AcDbLine
 10
143.0379999999999
 20
23.13125
 30
0.0
 11
144.423
 21
19.49506
 31
0.0
  0
LINE
  5
1AD
330
1E
100
AcDbEntity
  8
0
100
AcDbLine
 10
144.423
 20
19.49506
 30
0.0
 11
145.0
 21
15.74521
 31
0.0
  0
LINE
  5
1AE
330
1E
100
AcDbEntity
  8
0
100
AcDbLine
 10
145.0
 20
15.74521
 30
0.0
 11
145.0
 21
15.65861
 31
0.0
  0
LINE
  5
1AF
330
1E
100
AcDbEntity
  8
0
100
AcDbLine
 10
145.0
 20
15.65861
 30
0.0
 11
145.0
 21
15.74521
 31
0.0
  0
LINE
  5
1B0
330
1E
100
AcDbEntity
  8
0
100
AcDbLine
 10
144.423
 20
11.90877
 30
0.0
 11
145.0
 21
15.65861
 31
0.0
  0
LINE
  5
1B1
330
1E
100
AcDbEntity
  8
0
100
AcDbLine
 10
142.5
 20
48.79305
 30
0.0
 11
142.5
 21
44.35515
 31
0.0
  0
LINE
  5
1B2
330
1E
100
AcDbEntity
  8
0
100
AcDbLine
 10
142.5
 20
48.79305
 30
0.0
 11
142.5
 21
135.7930499999999
 31
0.0
  0
LINE
  5
1B3
330
1E
100
AcDbEntity
  8
0
100
AcDbLine
 10
123.7999999999999
 20
5.87353999999999
 30
0.0
 11
126.8
 21
4.74809999999999
 31
0.0
  0
LINE
  5
1B4
330
1E
100
AcDbEntity
  8
0
100
AcDbLine
 10
121.1999999999999
 20
7.85682999999999
 30
0.0
 11
123.7999999999999
 21
5.87353999999999
 31
0.0
  0
LINE
  5
1B5
330
1E
100
AcDbEntity
  8
0
100
AcDbLine
 10
120.1923
 20
4.18407999999999
 30
0.0
 11
123.0769
 21
2.02504999999999
 31
0.0
  0
LINE
  5
1B6
330
1E
100
AcDbEntity
  8
0
100
AcDbLine
 10
119.434049121099
 20
5.166624138244189
 30
0.0
 11
120.1923
 21
4.18407999999999
 31
0.0
  0
LINE
  5
1D4
330
1E
100
AcDbEntity
  8
0
100
AcDbLine
 10
117.5
 20
48.79305
 30
0.0
 11
117.5
 21
135.7930499999999
 31
0.0
  0
LINE
  5
1D5
330
1E
100
AcDbEntity
  8
0
100
AcDbLine
 10
117.5
 20
48.79305
 30
0.0
 11
117.5
 21
44.35515
 31
0.0
  0
LINE
  5
1D6
330
1E
100
AcDbEntity
  8
0
100
AcDbLine
 10
54.9902
 20
99.90405
 30
0.0
 11
55.2628810344828
 21
99.9844053685188
 31
0.0
  0
LINE
  5
1D9
330
1E
100
AcDbEntity
  8
0
100
AcDbLine
 10
56.3747
 20
100.2690499999999
 30
0.0
 11
57.4708
 21
100.98005
 31
0.0
  0
LINE
  5
1DA
330
1E
100
AcDbEntity
  8
0
100
AcDbLine
 10
57.4708
 20
100.98005
 30
0.0
 11
58.1246
 21
101.74905
 31
0.0
  0
LINE
  5
1DD
330
1E
100
AcDbEntity
  8
0
100
AcDbLine
 10
58.1246
 20
101.74905
 30
0.0
 11
58.6438
 21
102.86405
 31
0.0
  0
LINE
  5
1DE
330
1E
100
AcDbEntity
  8
0
100
AcDbLine
 10
57.567
 20
101.0760499999999
 30
0.0
 11
57.71763947416459
 21
101.270382755633
 31
0.0
  0
LINE
  5
1E0
330
1E
100
AcDbEntity
  8
0
100
AcDbLine
 10
52.9771
 20
111.58105
 30
0.0
 11
54.8748
 21
111.7010499999999
 31
0.0
  0
LINE
  5
1E1
330
1E
100
AcDbEntity
  8
0
100
AcDbLine
 10
52.4638321295076
 20
111.519330284246
 30
0.0
 11
53.1036
 21
111.6000499999999
 31
0.0
  0
LINE
  5
1E2
330
1E
100
AcDbEntity
  8
0
100
AcDbLine
 10
53.1036
 20
111.6000499999999
 30
0.0
 11
53.6600409962612
 21
111.6242353926079
 31
0.0
  0
LINE
  5
1E4
330
1E
100
AcDbEntity
  8
0
100
AcDbLine
 10
56.3747
 20
111.31705
 30
0.0
 11
57.4708
 21
110.6060499999999
 31
0.0
  0
LINE
  5
1E5
330
1E
100
AcDbEntity
  8
0
100
AcDbLine
 10
57.4708
 20
110.6060499999999
 30
0.0
 11
58.1246
 21
109.83705
 31
0.0
  0
LINE
  5
1E6
330
1E
100
AcDbEntity
  8
0
100
AcDbLine
 10
54.8748
 20
111.7010499999999
 30
0.0
 11
56.3747
 21
111.31705
 31
0.0
  0
LINE
  5
1E7
330
1E
100
AcDbEntity
  8
0
100
AcDbLine
 10
54.9902
 20
111.6820499999999
 30
0.0
 11
55.2628810344823
 21
111.6016946314809
 31
0.0
  0
LINE
  5
1E8
330
1E
100
AcDbEntity
  8
0
100
AcDbLine
 10
57.5325839724496
 20
110.533379650025
 30
0.0
 11
57.71763947416459
 21
110.315717244367
 31
0.0
  0
LINE
  5
1E9
330
1E
100
AcDbEntity
  8
0
100
AcDbLine
 10
57.567
 20
110.51005
 30
0.0
 11
57.71763947416459
 21
110.315717244367
 31
0.0
  0
LINE
  5
241
330
1E
100
AcDbEntity
  8
0
100
AcDbLine
 10
58.6438
 20
102.86405
 30
0.0
 11
59.0
 21
105.7930499999999
 31
0.0
  0
LINE
  5
2F5
330
1E
100
AcDbEntity
  8
0
100
AcDbLine
 10
58.6438
 20
108.7220499999999
 30
0.0
 11
59.0
 21
105.7930499999999
 31
0.0
  0
LINE
  5
2F6
330
1E
100
AcDbEntity
  8
0
100
AcDbLine
 10
58.6438
 20
102.86405
 30
0.0
 11
59.0
 21
105.7930499999999
 31
0.0
  0
LINE
  5
2F7
330
1E
100
AcDbEntity
  8
0
100
AcDbLine
 10
58.1246
 20
109.83705
 30
0.0
 11
58.6438
 21
108.7220499999999
 31
0.0
  0
LINE
  5
2F8
330
1E
100
AcDbEntity
  8
0
100
AcDbLine
 10
52.4638321295076
 20
100.0667697157539
 30
0.0
 11
53.1036
 21
99.98605000000001
 31
0.0
  0
LINE
  5
2F9
330
1E
100
AcDbEntity
  8
0
100
AcDbLine
 10
49.00199999999999
 20
100.48305
 30
0.0
 11
52.9771
 21
100.0050499999999
 31
0.0
  0
LINE
  5
2FA
330
1E
100
AcDbEntity
  8
0
100
AcDbLine
 10
41.5
 20
131.7930499999999
 30
0.0
 11
42.0
 21
132.29305
 31
0.0
  0
LINE
  5
2FB
330
1E
100
AcDbEntity
  8
0
100
AcDbLine
 10
41.1
 20
131.7930499999999
 30
0.0
 11
41.5
 21
131.7930499999999
 31
0.0
  0
LINE
  5
2FC
330
1E
100
AcDbEntity
  8
0
100
AcDbLine
 10
36.0
 20
131.7930499999999
 30
0.0
 11
38.1
 21
131.7930499999999
 31
0.0
  0
LINE
  5
2FD
330
1E
100
AcDbEntity
  8
0
100
AcDbLine
 10
36.0
 20
131.7930499999999
 30
0.0
 11
36.0
 21
120.79305
 31
0.0
  0
LINE
  5
2FE
330
1E
100
AcDbEntity
  8
0
100
AcDbLine
 10
21.89999999999999
 20
131.7930499999999
 30
0.0
 11
24.0
 21
131.7930499999999
 31
0.0
  0
LINE
  5
2FF
330
1E
100
AcDbEntity
  8
0
100
AcDbLine
 10
21.89999999999999
 20
131.7930499999999
 30
0.0
 11
24.3
 21
131.7930499999999
 31
0.0
  0
LINE
  5
300
330
1E
100
AcDbEntity
  8
0
100
AcDbLine
 10
20.0
 20
131.7930499999999
 30
0.0
 11
21.89999999999999
 21
131.7930499999999
 31
0.0
  0
LINE
  5
301
330
1E
100
AcDbEntity
  8
0
100
AcDbLine
 10
18.89999999999999
 20
131.7930499999999
 30
0.0
 11
20.0
 21
131.7930499999999
 31
0.0
  0
LINE
  5
302
330
1E
100
AcDbEntity
  8
0
100
AcDbLine
 10
19.6
 20
132.29305
 30
0.0
 11
21.49999999999999
 21
132.29305
 31
0.0
  0
LINE
  5
303
330
1E
100
AcDbEntity
  8
0
100
AcDbLine
 10
18.39999999999999
 20
132.29305
 30
0.0
 11
19.6
 21
132.29305
 31
0.0
  0
LINE
  5
304
330
1E
100
AcDbEntity
  8
0
100
AcDbLine
 10
21.49999999999999
 20
132.29305
 30
0.0
 11
24.0
 21
132.29305
 31
0.0
  0
LINE
  5
305
330
1E
100
AcDbEntity
  8
0
100
AcDbLine
 10
24.0
 20
132.29305
 30
0.0
 11
26.89999999999999
 21
132.29305
 31
0.0
  0
LINE
  5
306
330
1E
100
AcDbEntity
  8
0
100
AcDbLine
 10
26.89999999999999
 20
132.29305
 30
0.0
 11
30.0
 21
132.29305
 31
0.0
  0
LINE
  5
307
330
1E
100
AcDbEntity
  8
0
100
AcDbLine
 10
36.0
 20
132.29305
 30
0.0
 11
38.5
 21
132.29305
 31
0.0
  0
LINE
  5
308
330
1E
100
AcDbEntity
  8
0
100
AcDbLine
 10
33.1
 20
132.29305
 30
0.0
 11
36.0
 21
132.29305
 31
0.0
  0
LINE
  5
309
330
1E
100
AcDbEntity
  8
0
100
AcDbLine
 10
30.0
 20
132.29305
 30
0.0
 11
33.1
 21
132.29305
 31
0.0
  0
LINE
  5
30A
330
1E
100
AcDbEntity
  8
0
100
AcDbLine
 10
19.6
 20
133.7930499999999
 30
0.0
 11
21.49999999999999
 21
133.7930499999999
 31
0.0
  0
LINE
  5
30B
330
1E
100
AcDbEntity
  8
0
100
AcDbLine
 10
18.39999999999999
 20
133.7930499999999
 30
0.0
 11
19.6
 21
133.7930499999999
 31
0.0
  0
LINE
  5
30C
330
1E
100
AcDbEntity
  8
0
100
AcDbLine
 10
21.49999999999999
 20
133.7930499999999
 30
0.0
 11
24.0
 21
133.7930499999999
 31
0.0
  0
LINE
  5
30D
330
1E
100
AcDbEntity
  8
0
100
AcDbLine
 10
24.0
 20
133.7930499999999
 30
0.0
 11
26.89999999999999
 21
133.7930499999999
 31
0.0
  0
LINE
  5
30E
330
1E
100
AcDbEntity
  8
0
100
AcDbLine
 10
26.89999999999999
 20
133.7930499999999
 30
0.0
 11
30.0
 21
133.7930499999999
 31
0.0
  0
LINE
  5
30F
330
1E
100
AcDbEntity
  8
0
100
AcDbLine
 10
20.0
 20
134.29305
 30
0.0
 11
21.89999999999999
 21
134.29305
 31
0.0
  0
LINE
  5
310
330
1E
100
AcDbEntity
  8
0
100
AcDbLine
 10
18.89999999999999
 20
134.29305
 30
0.0
 11
20.0
 21
134.29305
 31
0.0
  0
LINE
  5
311
330
1E
100
AcDbEntity
  8
0
100
AcDbLine
 10
18.5
 20
134.29305
 30
0.0
 11
18.89999999999999
 21
134.29305
 31
0.0
  0
LINE
  5
312
330
1E
100
AcDbEntity
  8
0
100
AcDbLine
 10
21.89999999999999
 20
134.29305
 30
0.0
 11
24.3
 21
134.29305
 31
0.0
  0
LINE
  5
313
330
1E
100
AcDbEntity
  8
0
100
AcDbLine
 10
24.3
 20
134.29305
 30
0.0
 11
27.0
 21
134.29305
 31
0.0
  0
LINE
  5
314
330
1E
100
AcDbEntity
  8
0
100
AcDbLine
 10
27.0
 20
134.29305
 30
0.0
 11
30.0
 21
134.29305
 31
0.0
  0
LINE
  5
315
330
1E
100
AcDbEntity
  8
0
100
AcDbLine
 10
30.0
 20
133.7930499999999
 30
0.0
 11
33.1
 21
133.7930499999999
 31
0.0
  0
LINE
  5
316
330
1E
100
AcDbEntity
  8
0
100
AcDbLine
 10
33.1
 20
133.7930499999999
 30
0.0
 11
36.0
 21
133.7930499999999
 31
0.0
  0
LINE
  5
317
330
1E
100
AcDbEntity
  8
0
100
AcDbLine
 10
36.0
 20
133.7930499999999
 30
0.0
 11
38.5
 21
133.7930499999999
 31
0.0
  0
LINE
  5
318
330
1E
100
AcDbEntity
  8
0
100
AcDbLine
 10
35.7
 20
134.29305
 30
0.0
 11
38.1
 21
134.29305
 31
0.0
  0
LINE
  5
319
330
1E
100
AcDbEntity
  8
0
100
AcDbLine
 10
33.0
 20
134.29305
 30
0.0
 11
35.7
 21
134.29305
 31
0.0
  0
LINE
  5
31A
330
1E
100
AcDbEntity
  8
0
100
AcDbLine
 10
30.0
 20
134.29305
 30
0.0
 11
33.0
 21
134.29305
 31
0.0
  0
LINE
  5
31B
330
1E
100
AcDbEntity
  8
0
100
AcDbLine
 10
38.5
 20
132.29305
 30
0.0
 11
40.4
 21
132.29305
 31
0.0
  0
LINE
  5
31C
330
1E
100
AcDbEntity
  8
0
100
AcDbLine
 10
38.5
 20
133.7930499999999
 30
0.0
 11
40.4
 21
133.7930499999999
 31
0.0
  0
LINE
  5
31D
330
1E
100
AcDbEntity
  8
0
100
AcDbLine
 10
19.6
 20
134.7930499999999
 30
0.0
 11
21.49999999999999
 21
134.7930499999999
 31
0.0
  0
LINE
  5
31E
330
1E
100
AcDbEntity
  8
0
100
AcDbLine
 10
18.39999999999999
 20
134.7930499999999
 30
0.0
 11
19.6
 21
134.7930499999999
 31
0.0
  0
LINE
  5
31F
330
1E
100
AcDbEntity
  8
0
100
AcDbLine
 10
21.49999999999999
 20
134.7930499999999
 30
0.0
 11
24.0
 21
134.7930499999999
 31
0.0
  0
LINE
  5
320
330
1E
100
AcDbEntity
  8
0
100
AcDbLine
 10
24.0
 20
134.7930499999999
 30
0.0
 11
26.89999999999999
 21
134.7930499999999
 31
0.0
  0
LINE
  5
321
330
1E
100
AcDbEntity
  8
0
100
AcDbLine
 10
26.89999999999999
 20
134.7930499999999
 30
0.0
 11
30.0
 21
134.7930499999999
 31
0.0
  0
LINE
  5
322
330
1E
100
AcDbEntity
  8
0
100
AcDbLine
 10
36.0
 20
134.7930499999999
 30
0.0
 11
38.5
 21
134.7930499999999
 31
0.0
  0
LINE
  5
323
330
1E
100
AcDbEntity
  8
0
100
AcDbLine
 10
33.1
 20
134.7930499999999
 30
0.0
 11
36.0
 21
134.7930499999999
 31
0.0
  0
LINE
  5
324
330
1E
100
AcDbEntity
  8
0
100
AcDbLine
 10
30.0
 20
134.7930499999999
 30
0.0
 11
33.1
 21
134.7930499999999
 31
0.0
  0
LINE
  5
325
330
1E
100
AcDbEntity
  8
0
100
AcDbLine
 10
38.1
 20
134.29305
 30
0.0
 11
40.0
 21
134.29305
 31
0.0
  0
LINE
  5
326
330
1E
100
AcDbEntity
  8
0
100
AcDbLine
 10
40.4
 20
132.29305
 30
0.0
 11
41.6
 21
132.29305
 31
0.0
  0
LINE
  5
327
330
1E
100
AcDbEntity
  8
0
100
AcDbLine
 10
40.4
 20
133.7930499999999
 30
0.0
 11
41.6
 21
133.7930499999999
 31
0.0
  0
LINE
  5
328
330
1E
100
AcDbEntity
  8
0
100
AcDbLine
 10
40.0
 20
134.29305
 30
0.0
 11
41.1
 21
134.29305
 31
0.0
  0
LINE
  5
329
330
1E
100
AcDbEntity
  8
0
100
AcDbLine
 10
41.1
 20
134.29305
 30
0.0
 11
41.5
 21
134.29305
 31
0.0
  0
LINE
  5
32A
330
1E
100
AcDbEntity
  8
0
100
AcDbLine
 10
38.5
 20
134.7930499999999
 30
0.0
 11
40.4
 21
134.7930499999999
 31
0.0
  0
LINE
  5
32B
330
1E
100
AcDbEntity
  8
0
100
AcDbLine
 10
40.4
 20
134.7930499999999
 30
0.0
 11
41.6
 21
134.7930499999999
 31
0.0
  0
LINE
  5
32C
330
1E
100
AcDbEntity
  8
0
100
AcDbLine
 10
41.6
 20
132.29305
 30
0.0
 11
42.0
 21
132.29305
 31
0.0
  0
LINE
  5
34B
330
1E
100
AcDbEntity
  8
0
100
AcDbLine
 10
42.0
 20
132.29305
 30
0.0
 11
42.0
 21
133.7930499999999
 31
0.0
  0
LINE
  5
34C
330
1E
100
AcDbEntity
  8
0
100
AcDbLine
 10
41.6
 20
133.7930499999999
 30
0.0
 11
42.0
 21
133.7930499999999
 31
0.0
  0
LINE
  5
34D
330
1E
100
AcDbEntity
  8
0
100
AcDbLine
 10
41.6
 20
134.7930499999999
 30
0.0
 11
42.0
 21
134.7930499999999
 31
0.0
  0
LINE
  5
36B
330
1E
100
AcDbEntity
  8
0
100
AcDbLine
 10
42.0
 20
134.7930499999999
 30
0.0
 11
42.0
 21
146.79305
 31
0.0
  0
LINE
  5
36C
330
1E
100
AcDbEntity
  8
0
100
AcDbLine
 10
42.0
 20
133.7930499999999
 30
0.0
 11
42.0
 21
132.29305
 31
0.0
  0
LINE
  5
36D
330
1E
100
AcDbEntity
  8
0
100
AcDbLine
 10
41.5
 20
134.29305
 30
0.0
 11
42.0
 21
134.7930499999999
 31
0.0
  0
LINE
  5
36E
330
1E
100
AcDbEntity
  8
0
100
AcDbLine
 10
41.5
 20
134.29305
 30
0.0
 11
42.0
 21
133.7930499999999
 31
0.0
  0
LINE
  5
36F
330
1E
100
AcDbEntity
  8
0
100
AcDbLine
 10
18.5
 20
131.7930499999999
 30
0.0
 11
18.89999999999999
 21
131.7930499999999
 31
0.0
  0
LINE
  5
370
330
1E
100
AcDbEntity
  8
0
100
AcDbLine
 10
18.0
 20
133.7930499999999
 30
0.0
 11
18.5
 21
134.29305
 31
0.0
  0
LINE
  5
371
330
1E
100
AcDbEntity
  8
0
100
AcDbLine
 10
18.0
 20
133.7930499999999
 30
0.0
 11
18.39999999999999
 21
133.7930499999999
 31
0.0
  0
LINE
  5
372
330
1E
100
AcDbEntity
  8
0
100
AcDbLine
 10
18.0
 20
133.7930499999999
 30
0.0
 11
18.0
 21
132.29305
 31
0.0
  0
LINE
  5
373
330
1E
100
AcDbEntity
  8
0
100
AcDbLine
 10
19.6
 20
146.79305
 30
0.0
 11
21.49999999999999
 21
146.79305
 31
0.0
  0
LINE
  5
374
330
1E
100
AcDbEntity
  8
0
100
AcDbLine
 10
18.39999999999999
 20
146.79305
 30
0.0
 11
19.6
 21
146.79305
 31
0.0
  0
LINE
  5
375
330
1E
100
AcDbEntity
  8
0
100
AcDbLine
 10
18.0
 20
146.79305
 30
0.0
 11
18.0
 21
134.7930499999999
 31
0.0
  0
LINE
  5
376
330
1E
100
AcDbEntity
  8
0
100
AcDbLine
 10
18.0
 20
146.79305
 30
0.0
 11
18.39999999999999
 21
146.79305
 31
0.0
  0
LINE
  5
377
330
1E
100
AcDbEntity
  8
0
100
AcDbLine
 10
21.49999999999999
 20
146.79305
 30
0.0
 11
24.0
 21
146.79305
 31
0.0
  0
LINE
  5
379
330
1E
100
AcDbEntity
  8
0
100
AcDbLine
 10
25.8415
 20
146.79305
 30
0.0
 11
41.3415
 21
146.79305
 31
0.0
  0
LINE
  5
37A
330
1E
100
AcDbEntity
  8
0
100
AcDbLine
 10
24.0
 20
146.79305
 30
0.0
 11
26.89999999999999
 21
146.79305
 31
0.0
  0
LINE
  5
37B
330
1E
100
AcDbEntity
  8
0
100
AcDbLine
 10
26.89999999999999
 20
146.79305
 30
0.0
 11
30.0
 21
146.79305
 31
0.0
  0
LINE
  5
37C
330
1E
100
AcDbEntity
  8
0
100
AcDbLine
 10
36.0
 20
146.79305
 30
0.0
 11
38.5
 21
146.79305
 31
0.0
  0
LINE
  5
37D
330
1E
100
AcDbEntity
  8
0
100
AcDbLine
 10
33.1
 20
146.79305
 30
0.0
 11
36.0
 21
146.79305
 31
0.0
  0
LINE
  5
37E
330
1E
100
AcDbEntity
  8
0
100
AcDbLine
 10
30.0
 20
146.79305
 30
0.0
 11
33.1
 21
146.79305
 31
0.0
  0
LINE
  5
37F
330
1E
100
AcDbEntity
  8
0
100
AcDbLine
 10
38.5
 20
146.79305
 30
0.0
 11
40.4
 21
146.79305
 31
0.0
  0
LINE
  5
380
330
1E
100
AcDbEntity
  8
0
100
AcDbLine
 10
41.3415
 20
146.79305
 30
0.0
 11
45.49999999999999
 21
146.79305
 31
0.0
  0
LINE
  5
382
330
1E
100
AcDbEntity
  8
0
100
AcDbLine
 10
40.4
 20
146.79305
 30
0.0
 11
41.6
 21
146.79305
 31
0.0
  0
LINE
  5
384
330
1E
100
AcDbEntity
  8
0
100
AcDbLine
 10
25.8415
 20
152.79305
 30
0.0
 11
41.3415
 21
152.79305
 31
0.0
  0
LINE
  5
386
330
1E
100
AcDbEntity
  8
0
100
AcDbLine
 10
41.3415
 20
152.79305
 30
0.0
 11
45.49999999999999
 21
152.79305
 31
0.0
  0
LINE
  5
387
330
1E
100
AcDbEntity
  8
0
100
AcDbLine
 10
41.6
 20
146.79305
 30
0.0
 11
42.0
 21
146.79305
 31
0.0
  0
LINE
  5
388
330
1E
100
AcDbEntity
  8
0
100
AcDbLine
 10
42.0
 20
146.79305
 30
0.0
 11
42.0
 21
134.7930499999999
 31
0.0
  0
LINE
  5
389
330
1E
100
AcDbEntity
  8
0
100
AcDbLine
 10
42.0
 20
146.79305
 30
0.0
 11
45.49999999999999
 21
146.79305
 31
0.0
  0
LINE
  5
38A
330
1E
100
AcDbEntity
  8
0
100
AcDbLine
 10
15.7
 20
153.2930499999999
 30
0.0
 11
18.3
 21
153.2930499999999
 31
0.0
  0
LINE
  5
38B
330
1E
100
AcDbEntity
  8
0
100
AcDbLine
 10
18.3
 20
153.2930499999999
 30
0.0
 11
21.8
 21
153.2930499999999
 31
0.0
  0
LINE
  5
38C
330
1E
100
AcDbEntity
  8
0
100
AcDbLine
 10
21.8
 20
153.2930499999999
 30
0.0
 11
25.8
 21
153.2930499999999
 31
0.0
  0
LINE
  5
38D
330
1E
100
AcDbEntity
  8
0
100
AcDbLine
 10
25.8
 20
153.2930499999999
 30
0.0
 11
30.0
 21
153.2930499999999
 31
0.0
  0
LINE
  5
38E
330
1E
100
AcDbEntity
  8
0
100
AcDbLine
 10
15.7
 20
156.29305
 30
0.0
 11
18.3
 21
156.29305
 31
0.0
  0
LINE
  5
391
330
1E
100
AcDbEntity
  8
0
100
AcDbLine
 10
18.3
 20
156.29305
 30
0.0
 11
21.8
 21
156.29305
 31
0.0
  0
LINE
  5
392
330
1E
100
AcDbEntity
  8
0
100
AcDbLine
 10
21.8
 20
156.29305
 30
0.0
 11
25.8
 21
156.29305
 31
0.0
  0
LINE
  5
393
330
1E
100
AcDbEntity
  8
0
100
AcDbLine
 10
25.8
 20
156.29305
 30
0.0
 11
30.0
 21
156.29305
 31
0.0
  0
LINE
  5
394
330
1E
100
AcDbEntity
  8
0
100
AcDbLine
 10
30.0
 20
153.2930499999999
 30
0.0
 11
34.2
 21
153.2930499999999
 31
0.0
  0
LINE
  5
396
330
1E
100
AcDbEntity
  8
0
100
AcDbLine
 10
16.6
 20
156.7930499999999
 30
0.0
 11
19.1
 21
156.7930499999999
 31
0.0
  0
LINE
  5
397
330
1E
100
AcDbEntity
  8
0
100
AcDbLine
 10
15.09999999999999
 20
156.7930499999999
 30
0.0
 11
16.6
 21
156.7930499999999
 31
0.0
  0
LINE
  5
398
330
1E
100
AcDbEntity
  8
0
100
AcDbLine
 10
19.1
 20
156.7930499999999
 30
0.0
 11
22.29999999999999
 21
156.7930499999999
 31
0.0
  0
LINE
  5
399
330
1E
100
AcDbEntity
  8
0
100
AcDbLine
 10
22.29999999999999
 20
156.7930499999999
 30
0.0
 11
26.0
 21
156.7930499999999
 31
0.0
  0
LINE
  5
39A
330
1E
100
AcDbEntity
  8
0
100
AcDbLine
 10
26.0
 20
156.7930499999999
 30
0.0
 11
30.0
 21
156.7930499999999
 31
0.0
  0
LINE
  5
39B
330
1E
100
AcDbEntity
  8
0
100
AcDbLine
 10
30.0
 20
156.29305
 30
0.0
 11
34.2
 21
156.29305
 31
0.0
  0
LINE
  5
39C
330
1E
100
AcDbEntity
  8
0
100
AcDbLine
 10
34.2
 20
153.2930499999999
 30
0.0
 11
38.2
 21
153.2930499999999
 31
0.0
  0
LINE
  5
39D
330
1E
100
AcDbEntity
  8
0
100
AcDbLine
 10
38.2
 20
153.2930499999999
 30
0.0
 11
41.7
 21
153.2930499999999
 31
0.0
  0
LINE
  5
39F
330
1E
100
AcDbEntity
  8
0
100
AcDbLine
 10
38.2
 20
156.29305
 30
0.0
 11
41.7
 21
156.29305
 31
0.0
  0
LINE
  5
3A0
330
1E
100
AcDbEntity
  8
0
100
AcDbLine
 10
34.2
 20
156.29305
 30
0.0
 11
38.2
 21
156.29305
 31
0.0
  0
LINE
  5
3A1
330
1E
100
AcDbEntity
  8
0
100
AcDbLine
 10
37.7
 20
156.7930499999999
 30
0.0
 11
40.89999999999999
 21
156.7930499999999
 31
0.0
  0
LINE
  5
3A2
330
1E
100
AcDbEntity
  8
0
100
AcDbLine
 10
34.0
 20
156.7930499999999
 30
0.0
 11
37.7
 21
156.7930499999999
 31
0.0
  0
LINE
  5
3A3
330
1E
100
AcDbEntity
  8
0
100
AcDbLine
 10
30.0
 20
156.7930499999999
 30
0.0
 11
34.0
 21
156.7930499999999
 31
0.0
  0
LINE
  5
3A4
330
1E
100
AcDbEntity
  8
0
100
AcDbLine
 10
41.7
 20
153.2930499999999
 30
0.0
 11
44.29999999999999
 21
153.2930499999999
 31
0.0
  0
LINE
  5
3A5
330
1E
100
AcDbEntity
  8
0
100
AcDbLine
 10
44.29999999999999
 20
153.2930499999999
 30
0.0
 11
45.89999999999999
 21
153.2930499999999
 31
0.0
  0
LINE
  5
3A7
330
1E
100
AcDbEntity
  8
0
100
AcDbLine
 10
41.7
 20
156.29305
 30
0.0
 11
44.29999999999999
 21
156.29305
 31
0.0
  0
LINE
  5
3A8
330
1E
100
AcDbEntity
  8
0
100
AcDbLine
 10
44.29999999999999
 20
156.29305
 30
0.0
 11
45.89999999999999
 21
156.29305
 31
0.0
  0
LINE
  5
3A9
330
1E
100
AcDbEntity
  8
0
100
AcDbLine
 10
40.89999999999999
 20
156.7930499999999
 30
0.0
 11
43.39999999999999
 21
156.7930499999999
 31
0.0
  0
LINE
  5
3AA
330
1E
100
AcDbEntity
  8
0
100
AcDbLine
 10
16.1
 20
196.7930499999999
 30
0.0
 11
18.7
 21
196.7930499999999
 31
0.0
  0
LINE
  5
3AB
330
1E
100
AcDbEntity
  8
0
100
AcDbLine
 10
18.7
 20
196.7930499999999
 30
0.0
 11
22.0
 21
196.7930499999999
 31
0.0
  0
LINE
  5
3AC
330
1E
100
AcDbEntity
  8
0
100
AcDbLine
 10
22.0
 20
196.7930499999999
 30
0.0
 11
25.89999999999999
 21
196.7930499999999
 31
0.0
  0
LINE
  5
3AD
330
1E
100
AcDbEntity
  8
0
100
AcDbLine
 10
15.3
 20
197.29305
 30
0.0
 11
25.6
 21
197.29305
 31
0.0
  0
LINE
  5
3AE
330
1E
100
AcDbEntity
  8
0
100
AcDbLine
 10
16.8
 20
207.7930499999999
 30
0.0
 11
23.19999999999999
 21
207.7930499999999
 31
0.0
  0
LINE
  5
3AF
330
1E
100
AcDbEntity
  8
0
100
AcDbLine
 10
16.6
 20
209.7930499999999
 30
0.0
 11
23.1
 21
209.7930499999999
 31
0.0
  0
LINE
  5
3B0
330
1E
100
AcDbEntity
  8
0
100
AcDbLine
 10
15.09999999999999
 20
212.79305
 30
0.0
 11
22.29999999999999
 21
212.79305
 31
0.0
  0
LINE
  5
3B1
330
1E
100
AcDbEntity
  8
0
100
AcDbLine
 10
38.0
 20
196.7930499999999
 30
0.0
 11
41.29999999999999
 21
196.7930499999999
 31
0.0
  0
LINE
  5
3B2
330
1E
100
AcDbEntity
  8
0
100
AcDbLine
 10
34.1
 20
196.7930499999999
 30
0.0
 11
38.0
 21
196.7930499999999
 31
0.0
  0
LINE
  5
3B3
330
1E
100
AcDbEntity
  8
0
100
AcDbLine
 10
30.0
 20
196.7930499999999
 30
0.0
 11
34.1
 21
196.7930499999999
 31
0.0
  0
LINE
  5
3B4
330
1E
100
AcDbEntity
  8
0
100
AcDbLine
 10
34.39999999999999
 20
197.29305
 30
0.0
 11
44.7
 21
197.29305
 31
0.0
  0
LINE
  5
3B5
330
1E
100
AcDbEntity
  8
0
100
AcDbLine
 10
30.0
 20
197.29305
 30
0.0
 11
34.39999999999999
 21
197.29305
 31
0.0
  0
LINE
  5
3B6
330
1E
100
AcDbEntity
  8
0
100
AcDbLine
 10
41.29999999999999
 20
196.7930499999999
 30
0.0
 11
43.89999999999999
 21
196.7930499999999
 31
0.0
  0
LINE
  5
3B7
330
1E
100
AcDbEntity
  8
0
100
AcDbLine
 10
43.89999999999999
 20
196.7930499999999
 30
0.0
 11
45.4
 21
196.7930499999999
 31
0.0
  0
LINE
  5
3B8
330
1E
100
AcDbEntity
  8
0
100
AcDbLine
 10
44.7
 20
197.29305
 30
0.0
 11
46.39999999999999
 21
197.29305
 31
0.0
  0
LINE
  5
3B9
330
1E
100
AcDbEntity
  8
0
100
AcDbLine
 10
25.89999999999999
 20
196.7930499999999
 30
0.0
 11
30.0
 21
196.7930499999999
 31
0.0
  0
LINE
  5
3BA
330
1E
100
AcDbEntity
  8
0
100
AcDbLine
 10
30.0
 20
207.7930499999999
 30
0.0
 11
36.79999999999999
 21
207.7930499999999
 31
0.0
  0
LINE
  5
3BB
330
1E
100
AcDbEntity
  8
0
100
AcDbLine
 10
43.2
 20
207.7930499999999
 30
0.0
 11
48.7
 21
207.7930499999999
 31
0.0
  0
LINE
  5
3BC
330
1E
100
AcDbEntity
  8
0
100
AcDbLine
 10
36.79999999999999
 20
207.7930499999999
 30
0.0
 11
43.2
 21
207.7930499999999
 31
0.0
  0
LINE
  5
3BD
330
1E
100
AcDbEntity
  8
0
100
AcDbLine
 10
43.39999999999999
 20
209.7930499999999
 30
0.0
 11
49.0
 21
209.7930499999999
 31
0.0
  0
LINE
  5
3BE
330
1E
100
AcDbEntity
  8
0
100
AcDbLine
 10
36.89999999999999
 20
209.7930499999999
 30
0.0
 11
43.39999999999999
 21
209.7930499999999
 31
0.0
  0
LINE
  5
3BF
330
1E
100
AcDbEntity
  8
0
100
AcDbLine
 10
30.0
 20
209.7930499999999
 30
0.0
 11
36.89999999999999
 21
209.7930499999999
 31
0.0
  0
LINE
  5
3C0
330
1E
100
AcDbEntity
  8
0
100
AcDbLine
 10
25.6
 20
197.29305
 30
0.0
 11
30.0
 21
197.29305
 31
0.0
  0
LINE
  5
3C1
330
1E
100
AcDbEntity
  8
0
100
AcDbLine
 10
23.19999999999999
 20
207.7930499999999
 30
0.0
 11
30.0
 21
207.7930499999999
 31
0.0
  0
LINE
  5
3C2
330
1E
100
AcDbEntity
  8
0
100
AcDbLine
 10
44.9
 20
212.79305
 30
0.0
 11
51.2
 21
212.79305
 31
0.0
  0
LINE
  5
3C3
330
1E
100
AcDbEntity
  8
0
100
AcDbLine
 10
37.7
 20
212.79305
 30
0.0
 11
44.9
 21
212.79305
 31
0.0
  0
LINE
  5
3C4
330
1E
100
AcDbEntity
  8
0
100
AcDbLine
 10
30.0
 20
212.79305
 30
0.0
 11
37.7
 21
212.79305
 31
0.0
  0
LINE
  5
3C5
330
1E
100
AcDbEntity
  8
0
100
AcDbLine
 10
23.1
 20
209.7930499999999
 30
0.0
 11
30.0
 21
209.7930499999999
 31
0.0
  0
LINE
  5
3C6
330
1E
100
AcDbEntity
  8
0
100
AcDbLine
 10
22.29999999999999
 20
212.79305
 30
0.0
 11
30.0
 21
212.79305
 31
0.0
  0
LINE
  5
3C7
330
1E
100
AcDbEntity
  8
0
100
AcDbLine
 10
43.39999999999999
 20
156.7930499999999
 30
0.0
 11
44.9
 21
156.7930499999999
 31
0.0
  0
LINE
  5
3C8
330
1E
100
AcDbEntity
  8
0
100
AcDbLine
 10
45.0
 20
194.79305
 30
0.0
 11
46.0
 21
196.7930499999999
 31
0.0
  0
LINE
  5
3C9
330
1E
100
AcDbEntity
  8
0
100
AcDbLine
 10
45.0
 20
194.79305
 30
0.0
 11
45.0
 21
158.2930499999999
 31
0.0
  0
LINE
  5
3CA
330
1E
100
AcDbEntity
  8
0
100
AcDbLine
 10
44.9
 20
156.7930499999999
 30
0.0
 11
45.49999999999999
 21
156.7930499999999
 31
0.0
  0
LINE
  5
3CB
330
1E
100
AcDbEntity
  8
0
100
AcDbLine
 10
45.0
 20
152.79305
 30
0.0
 11
46.5
 21
153.2930499999999
 31
0.0
  0
LINE
  5
3CC
330
1E
100
AcDbEntity
  8
0
100
AcDbLine
 10
45.49999999999999
 20
146.79305
 30
0.0
 11
45.49999999999999
 21
152.79305
 31
0.0
  0
LINE
  5
3CD
330
1E
100
AcDbEntity
  8
0
100
AcDbLine
 10
45.49999999999999
 20
152.79305
 30
0.0
 11
45.49999999999999
 21
146.79305
 31
0.0
  0
LINE
  5
3CE
330
1E
100
AcDbEntity
  8
0
100
AcDbLine
 10
45.89999999999999
 20
153.2930499999999
 30
0.0
 11
46.5
 21
153.2930499999999
 31
0.0
  0
LINE
  5
3D0
330
1E
100
AcDbEntity
  8
0
100
AcDbLine
 10
45.89999999999999
 20
156.29305
 30
0.0
 11
46.5
 21
156.29305
 31
0.0
  0
LINE
  5
3D1
330
1E
100
AcDbEntity
  8
0
100
AcDbLine
 10
46.5
 20
153.2930499999999
 30
0.0
 11
47.0
 21
154.7930499999999
 31
0.0
  0
LINE
  5
3D2
330
1E
100
AcDbEntity
  8
0
100
AcDbLine
 10
115.5
 20
137.7930499999999
 30
0.0
 11
116.0
 21
136.29305
 31
0.0
  0
LINE
  5
3D3
330
1E
100
AcDbEntity
  8
0
100
AcDbLine
 10
115.5
 20
137.7930499999999
 30
0.0
 11
116.0
 21
137.7930499999999
 31
0.0
  0
LINE
  5
3D4
330
1E
100
AcDbEntity
  8
0
100
AcDbLine
 10
115.0
 20
137.7930499999999
 30
0.0
 11
115.5
 21
137.7930499999999
 31
0.0
  0
LINE
  5
3D5
330
1E
100
AcDbEntity
  8
0
100
AcDbLine
 10
117.5
 20
135.7930499999999
 30
0.0
 11
117.5
 21
48.79305
 31
0.0
  0
LINE
  5
3D6
330
1E
100
AcDbEntity
  8
0
100
AcDbLine
 10
117.5
 20
135.7930499999999
 30
0.0
 11
118.0
 21
135.7930499999999
 31
0.0
  0
LINE
  5
3D7
330
1E
100
AcDbEntity
  8
0
100
AcDbLine
 10
118.0
 20
135.7930499999999
 30
0.0
 11
119.1999999999999
 21
135.7930499999999
 31
0.0
  0
LINE
  5
3D8
330
1E
100
AcDbEntity
  8
0
100
AcDbLine
 10
116.0
 20
137.7930499999999
 30
0.0
 11
117.4
 21
137.7930499999999
 31
0.0
  0
LINE
  5
3D9
330
1E
100
AcDbEntity
  8
0
100
AcDbLine
 10
117.9
 20
136.29305
 30
0.0
 11
120.1
 21
136.29305
 31
0.0
  0
LINE
  5
3DA
330
1E
100
AcDbEntity
  8
0
100
AcDbLine
 10
117.4
 20
137.7930499999999
 30
0.0
 11
119.7999999999999
 21
137.7930499999999
 31
0.0
  0
LINE
  5
3DB
330
1E
100
AcDbEntity
  8
0
100
AcDbLine
 10
116.5
 20
136.29305
 30
0.0
 11
117.9
 21
136.29305
 31
0.0
  0
LINE
  5
3DC
330
1E
100
AcDbEntity
  8
0
100
AcDbLine
 10
116.0
 20
136.29305
 30
0.0
 11
116.5
 21
136.29305
 31
0.0
  0
LINE
  5
3DD
330
1E
100
AcDbEntity
  8
0
100
AcDbLine
 10
116.0
 20
136.29305
 30
0.0
 11
117.5
 21
135.7930499999999
 31
0.0
  0
LINE
  5
3DE
330
1E
100
AcDbEntity
  8
0
100
AcDbLine
 10
119.7999999999999
 20
137.7930499999999
 30
0.0
 11
122.7999999999999
 21
137.7930499999999
 31
0.0
  0
LINE
  5
3DF
330
1E
100
AcDbEntity
  8
0
100
AcDbLine
 10
120.1
 20
136.29305
 30
0.0
 11
123.0
 21
136.29305
 31
0.0
  0
LINE
  5
3E0
330
1E
100
AcDbEntity
  8
0
100
AcDbLine
 10
119.1999999999999
 20
135.7930499999999
 30
0.0
 11
121.1999999999999
 21
135.7930499999999
 31
0.0
  0
LINE
  5
3E1
330
1E
100
AcDbEntity
  8
0
100
AcDbLine
 10
121.1999999999999
 20
135.7930499999999
 30
0.0
 11
123.7999999999999
 21
135.7930499999999
 31
0.0
  0
LINE
  5
3E2
330
1E
100
AcDbEntity
  8
0
100
AcDbLine
 10
118.3
 20
138.29305
 30
0.0
 11
121.7999999999999
 21
138.29305
 31
0.0
  0
LINE
  5
3E3
330
1E
100
AcDbEntity
  8
0
100
AcDbLine
 10
130.0
 20
135.7930499999999
 30
0.0
 11
133.1999999999999
 21
135.7930499999999
 31
0.0
  0
LINE
  5
3E4
330
1E
100
AcDbEntity
  8
0
100
AcDbLine
 10
123.7999999999999
 20
135.7930499999999
 30
0.0
 11
126.8
 21
135.7930499999999
 31
0.0
  0
LINE
  5
3E5
330
1E
100
AcDbEntity
  8
0
100
AcDbLine
 10
123.0
 20
136.29305
 30
0.0
 11
126.4
 21
136.29305
 31
0.0
  0
LINE
  5
3E6
330
1E
100
AcDbEntity
  8
0
100
AcDbLine
 10
126.4
 20
136.29305
 30
0.0
 11
130.0
 21
136.29305
 31
0.0
  0
LINE
  5
3E7
330
1E
100
AcDbEntity
  8
0
100
AcDbLine
 10
122.7999999999999
 20
137.7930499999999
 30
0.0
 11
126.2999999999999
 21
137.7930499999999
 31
0.0
  0
LINE
  5
3E8
330
1E
100
AcDbEntity
  8
0
100
AcDbLine
 10
126.2999999999999
 20
137.7930499999999
 30
0.0
 11
130.0
 21
137.7930499999999
 31
0.0
  0
LINE
  5
3E9
330
1E
100
AcDbEntity
  8
0
100
AcDbLine
 10
130.0
 20
136.29305
 30
0.0
 11
133.6
 21
136.29305
 31
0.0
  0
LINE
  5
3EA
330
1E
100
AcDbEntity
  8
0
100
AcDbLine
 10
130.0
 20
137.7930499999999
 30
0.0
 11
133.6999999999999
 21
137.7930499999999
 31
0.0
  0
LINE
  5
3EB
330
1E
100
AcDbEntity
  8
0
100
AcDbLine
 10
126.8
 20
135.7930499999999
 30
0.0
 11
130.0
 21
135.7930499999999
 31
0.0
  0
LINE
  5
3EC
330
1E
100
AcDbEntity
  8
0
100
AcDbLine
 10
121.7999999999999
 20
138.29305
 30
0.0
 11
125.8
 21
138.29305
 31
0.0
  0
LINE
  5
3ED
330
1E
100
AcDbEntity
  8
0
100
AcDbLine
 10
125.8
 20
138.29305
 30
0.0
 11
130.0
 21
138.29305
 31
0.0
  0
LINE
  5
3EE
330
1E
100
AcDbEntity
  8
0
100
AcDbLine
 10
115.7
 20
138.29305
 30
0.0
 11
118.3
 21
138.29305
 31
0.0
  0
LINE
  5
3EF
330
1E
100
AcDbEntity
  8
0
100
AcDbLine
 10
114.1
 20
138.29305
 30
0.0
 11
115.7
 21
138.29305
 31
0.0
  0
LINE
  5
3F0
330
1E
100
AcDbEntity
  8
0
100
AcDbLine
 10
113.5
 20
138.29305
 30
0.0
 11
114.1
 21
138.29305
 31
0.0
  0
LINE
  5
3F1
330
1E
100
AcDbEntity
  8
0
100
AcDbLine
 10
113.5
 20
138.29305
 30
0.0
 11
115.0
 21
137.7930499999999
 31
0.0
  0
LINE
  5
3F3
330
1E
100
AcDbEntity
  8
0
100
AcDbLine
 10
113.0
 20
139.7930499999999
 30
0.0
 11
113.5
 21
141.2930499999999
 31
0.0
  0
LINE
  5
3F4
330
1E
100
AcDbEntity
  8
0
100
AcDbLine
 10
113.0
 20
139.7930499999999
 30
0.0
 11
113.5
 21
138.29305
 31
0.0
  0
LINE
  5
3F7
330
1E
100
AcDbEntity
  8
0
100
AcDbLine
 10
118.3
 20
141.2930499999999
 30
0.0
 11
121.7999999999999
 21
141.2930499999999
 31
0.0
  0
LINE
  5
3F9
330
1E
100
AcDbEntity
  8
0
100
AcDbLine
 10
121.7999999999999
 20
141.2930499999999
 30
0.0
 11
125.8
 21
141.2930499999999
 31
0.0
  0
LINE
  5
3FA
330
1E
100
AcDbEntity
  8
0
100
AcDbLine
 10
125.8
 20
141.2930499999999
 30
0.0
 11
130.0
 21
141.2930499999999
 31
0.0
  0
LINE
  5
3FB
330
1E
100
AcDbEntity
  8
0
100
AcDbLine
 10
115.7
 20
141.2930499999999
 30
0.0
 11
118.3
 21
141.2930499999999
 31
0.0
  0
LINE
  5
3FC
330
1E
100
AcDbEntity
  8
0
100
AcDbLine
 10
114.1
 20
141.2930499999999
 30
0.0
 11
115.7
 21
141.2930499999999
 31
0.0
  0
LINE
  5
3FD
330
1E
100
AcDbEntity
  8
0
100
AcDbLine
 10
113.5
 20
141.2930499999999
 30
0.0
 11
114.1
 21
141.2930499999999
 31
0.0
  0
LINE
  5
3FE
330
1E
100
AcDbEntity
  8
0
100
AcDbLine
 10
113.5
 20
141.2930499999999
 30
0.0
 11
114.5
 21
141.7930499999999
 31
0.0
  0
LINE
  5
3FF
330
1E
100
AcDbEntity
  8
0
100
AcDbLine
 10
130.0
 20
138.29305
 30
0.0
 11
134.1999999999999
 21
138.29305
 31
0.0
  0
LINE
  5
400
330
1E
100
AcDbEntity
  8
0
100
AcDbLine
 10
133.1999999999999
 20
135.7930499999999
 30
0.0
 11
136.1999999999999
 21
135.7930499999999
 31
0.0
  0
LINE
  5
401
330
1E
100
AcDbEntity
  8
0
100
AcDbLine
 10
133.6999999999999
 20
137.7930499999999
 30
0.0
 11
137.1999999999999
 21
137.7930499999999
 31
0.0
  0
LINE
  5
402
330
1E
100
AcDbEntity
  8
0
100
AcDbLine
 10
133.6
 20
136.29305
 30
0.0
 11
137.0
 21
136.29305
 31
0.0
  0
LINE
  5
404
330
1E
100
AcDbEntity
  8
0
100
AcDbLine
 10
119.1
 20
141.7930499999999
 30
0.0
 11
122.3
 21
141.7930499999999
 31
0.0
  0
LINE
  5
405
330
1E
100
AcDbEntity
  8
0
100
AcDbLine
 10
122.3
 20
141.7930499999999
 30
0.0
 11
126.0
 21
141.7930499999999
 31
0.0
  0
LINE
  5
406
330
1E
100
AcDbEntity
  8
0
100
AcDbLine
 10
126.0
 20
141.7930499999999
 30
0.0
 11
130.0
 21
141.7930499999999
 31
0.0
  0
LINE
  5
407
330
1E
100
AcDbEntity
  8
0
100
AcDbLine
 10
116.5999999999999
 20
141.7930499999999
 30
0.0
 11
119.1
 21
141.7930499999999
 31
0.0
  0
LINE
  5
408
330
1E
100
AcDbEntity
  8
0
100
AcDbLine
 10
115.1
 20
141.7930499999999
 30
0.0
 11
116.5999999999999
 21
141.7930499999999
 31
0.0
  0
LINE
  5
409
330
1E
100
AcDbEntity
  8
0
100
AcDbLine
 10
114.5
 20
141.7930499999999
 30
0.0
 11
115.1
 21
141.7930499999999
 31
0.0
  0
LINE
  5
40A
330
1E
100
AcDbEntity
  8
0
100
AcDbLine
 10
114.5
 20
141.7930499999999
 30
0.0
 11
115.0
 21
143.2930499999999
 31
0.0
  0
LINE
  5
40B
330
1E
100
AcDbEntity
  8
0
100
AcDbLine
 10
130.0
 20
141.2930499999999
 30
0.0
 11
134.1999999999999
 21
141.2930499999999
 31
0.0
  0
LINE
  5
40C
330
1E
100
AcDbEntity
  8
0
100
AcDbLine
 10
134.1999999999999
 20
138.29305
 30
0.0
 11
138.1999999999999
 21
138.29305
 31
0.0
  0
LINE
  5
40D
330
1E
100
AcDbEntity
  8
0
100
AcDbLine
 10
136.1999999999999
 20
135.7930499999999
 30
0.0
 11
138.8
 21
135.7930499999999
 31
0.0
  0
LINE
  5
40E
330
1E
100
AcDbEntity
  8
0
100
AcDbLine
 10
137.0
 20
136.29305
 30
0.0
 11
139.9
 21
136.29305
 31
0.0
  0
LINE
  5
40F
330
1E
100
AcDbEntity
  8
0
100
AcDbLine
 10
138.8
 20
135.7930499999999
 30
0.0
 11
140.8
 21
135.7930499999999
 31
0.0
  0
LINE
  5
410
330
1E
100
AcDbEntity
  8
0
100
AcDbLine
 10
140.8
 20
135.7930499999999
 30
0.0
 11
142.0
 21
135.7930499999999
 31
0.0
  0
LINE
  5
411
330
1E
100
AcDbEntity
  8
0
100
AcDbLine
 10
142.0
 20
135.7930499999999
 30
0.0
 11
142.5
 21
135.7930499999999
 31
0.0
  0
LINE
  5
412
330
1E
100
AcDbEntity
  8
0
100
AcDbLine
 10
139.9
 20
136.29305
 30
0.0
 11
142.1
 21
136.29305
 31
0.0
  0
LINE
  5
413
330
1E
100
AcDbEntity
  8
0
100
AcDbLine
 10
142.1
 20
136.29305
 30
0.0
 11
143.5
 21
136.29305
 31
0.0
  0
LINE
  5
414
330
1E
100
AcDbEntity
  8
0
100
AcDbLine
 10
143.5
 20
136.29305
 30
0.0
 11
144.0
 21
136.29305
 31
0.0
  0
LINE
  5
415
330
1E
100
AcDbEntity
  8
0
100
AcDbLine
 10
142.5
 20
135.7930499999999
 30
0.0
 11
144.0
 21
136.29305
 31
0.0
  0
LINE
  5
416
330
1E
100
AcDbEntity
  8
0
100
AcDbLine
 10
142.5
 20
135.7930499999999
 30
0.0
 11
142.5
 21
48.79305
 31
0.0
  0
LINE
  5
417
330
1E
100
AcDbEntity
  8
0
100
AcDbLine
 10
137.1999999999999
 20
137.7930499999999
 30
0.0
 11
140.1999999999999
 21
137.7930499999999
 31
0.0
  0
LINE
  5
418
330
1E
100
AcDbEntity
  8
0
100
AcDbLine
 10
140.1999999999999
 20
137.7930499999999
 30
0.0
 11
142.5999999999999
 21
137.7930499999999
 31
0.0
  0
LINE
  5
419
330
1E
100
AcDbEntity
  8
0
100
AcDbLine
 10
142.5999999999999
 20
137.7930499999999
 30
0.0
 11
144.0
 21
137.7930499999999
 31
0.0
  0
LINE
  5
41A
330
1E
100
AcDbEntity
  8
0
100
AcDbLine
 10
144.0
 20
137.7930499999999
 30
0.0
 11
144.5
 21
137.7930499999999
 31
0.0
  0
LINE
  5
41B
330
1E
100
AcDbEntity
  8
0
100
AcDbLine
 10
144.0
 20
136.29305
 30
0.0
 11
144.5
 21
137.7930499999999
 31
0.0
  0
LINE
  5
41C
330
1E
100
AcDbEntity
  8
0
100
AcDbLine
 10
145.0
 20
137.7930499999999
 30
0.0
 11
146.5
 21
138.29305
 31
0.0
  0
LINE
  5
41D
330
1E
100
AcDbEntity
  8
0
100
AcDbLine
 10
141.6999999999999
 20
138.29305
 30
0.0
 11
144.3
 21
138.29305
 31
0.0
  0
LINE
  5
41E
330
1E
100
AcDbEntity
  8
0
100
AcDbLine
 10
144.3
 20
138.29305
 30
0.0
 11
145.9
 21
138.29305
 31
0.0
  0
LINE
  5
41F
330
1E
100
AcDbEntity
  8
0
100
AcDbLine
 10
145.9
 20
138.29305
 30
0.0
 11
146.5
 21
138.29305
 31
0.0
  0
LINE
  5
420
330
1E
100
AcDbEntity
  8
0
100
AcDbLine
 10
144.5
 20
137.7930499999999
 30
0.0
 11
145.0
 21
137.7930499999999
 31
0.0
  0
LINE
  5
421
330
1E
100
AcDbEntity
  8
0
100
AcDbLine
 10
146.5
 20
138.29305
 30
0.0
 11
147.0
 21
139.7930499999999
 31
0.0
  0
LINE
  5
422
330
1E
100
AcDbEntity
  8
0
100
AcDbLine
 10
141.6999999999999
 20
141.2930499999999
 30
0.0
 11
144.3
 21
141.2930499999999
 31
0.0
  0
LINE
  5
425
330
1E
100
AcDbEntity
  8
0
100
AcDbLine
 10
144.3
 20
141.2930499999999
 30
0.0
 11
145.9
 21
141.2930499999999
 31
0.0
  0
LINE
  5
426
330
1E
100
AcDbEntity
  8
0
100
AcDbLine
 10
145.9
 20
141.2930499999999
 30
0.0
 11
146.5
 21
141.2930499999999
 31
0.0
  0
LINE
  5
427
330
1E
100
AcDbEntity
  8
0
100
AcDbLine
 10
146.5
 20
141.2930499999999
 30
0.0
 11
147.0
 21
139.7930499999999
 31
0.0
  0
LINE
  5
428
330
1E
100
AcDbEntity
  8
0
100
AcDbLine
 10
138.1999999999999
 20
138.29305
 30
0.0
 11
141.6999999999999
 21
138.29305
 31
0.0
  0
LINE
  5
42A
330
1E
100
AcDbEntity
  8
0
100
AcDbLine
 10
140.8999999999999
 20
141.7930499999999
 30
0.0
 11
143.4
 21
141.7930499999999
 31
0.0
  0
LINE
  5
42B
330
1E
100
AcDbEntity
  8
0
100
AcDbLine
 10
143.4
 20
141.7930499999999
 30
0.0
 11
144.9
 21
141.7930499999999
 31
0.0
  0
LINE
  5
42C
330
1E
100
AcDbEntity
  8
0
100
AcDbLine
 10
144.9
 20
141.7930499999999
 30
0.0
 11
145.5
 21
141.7930499999999
 31
0.0
  0
LINE
  5
42D
330
1E
100
AcDbEntity
  8
0
100
AcDbLine
 10
145.5
 20
141.7930499999999
 30
0.0
 11
146.5
 21
141.2930499999999
 31
0.0
  0
LINE
  5
42E
330
1E
100
AcDbEntity
  8
0
100
AcDbLine
 10
138.1999999999999
 20
141.2930499999999
 30
0.0
 11
141.6999999999999
 21
141.2930499999999
 31
0.0
  0
LINE
  5
42F
330
1E
100
AcDbEntity
  8
0
100
AcDbLine
 10
134.1999999999999
 20
141.2930499999999
 30
0.0
 11
138.1999999999999
 21
141.2930499999999
 31
0.0
  0
LINE
  5
430
330
1E
100
AcDbEntity
  8
0
100
AcDbLine
 10
137.7
 20
141.7930499999999
 30
0.0
 11
140.8999999999999
 21
141.7930499999999
 31
0.0
  0
LINE
  5
431
330
1E
100
AcDbEntity
  8
0
100
AcDbLine
 10
134.0
 20
141.7930499999999
 30
0.0
 11
137.7
 21
141.7930499999999
 31
0.0
  0
LINE
  5
432
330
1E
100
AcDbEntity
  8
0
100
AcDbLine
 10
115.0
 20
143.2930499999999
 30
0.0
 11
115.0
 21
194.79305
 31
0.0
  0
LINE
  5
486
330
1E
100
AcDbEntity
  8
0
100
AcDbLine
 10
145.0
 20
143.2930499999999
 30
0.0
 11
145.5
 21
141.7930499999999
 31
0.0
  0
LINE
  5
487
330
1E
100
AcDbEntity
  8
0
100
AcDbLine
 10
145.0
 20
143.2930499999999
 30
0.0
 11
145.0
 21
194.79305
 31
0.0
  0
LINE
  5
488
330
1E
100
AcDbEntity
  8
0
100
AcDbLine
 10
130.0
 20
141.7930499999999
 30
0.0
 11
134.0
 21
141.7930499999999
 31
0.0
  0
LINE
  5
489
330
1E
100
AcDbEntity
  8
0
100
AcDbLine
 10
46.5
 20
156.29305
 30
0.0
 11
47.0
 21
154.7930499999999
 31
0.0
  0
LINE
  5
48A
330
1E
100
AcDbEntity
  8
0
100
AcDbLine
 10
45.4
 20
196.7930499999999
 30
0.0
 11
46.0
 21
196.7930499999999
 31
0.0
  0
LINE
  5
48B
330
1E
100
AcDbEntity
  8
0
100
AcDbLine
 10
46.0
 20
196.7930499999999
 30
0.0
 11
47.0
 21
197.29305
 31
0.0
  0
LINE
  5
48C
330
1E
100
AcDbEntity
  8
0
100
AcDbLine
 10
46.39999999999999
 20
197.29305
 30
0.0
 11
47.0
 21
197.29305
 31
0.0
  0
LINE
  5
48D
330
1E
100
AcDbEntity
  8
0
100
AcDbLine
 10
47.0
 20
197.29305
 30
0.0
 11
47.5
 21
198.2930499999999
 31
0.0
  0
LINE
  5
48E
330
1E
100
AcDbEntity
  8
0
100
AcDbLine
 10
47.0
 20
199.79305
 30
0.0
 11
47.0
 21
200.79305
 31
0.0
  0
LINE
  5
48F
330
1E
100
AcDbEntity
  8
0
100
AcDbLine
 10
47.0
 20
199.79305
 30
0.0
 11
47.5
 21
198.79305
 31
0.0
  0
LINE
  5
490
330
1E
100
AcDbEntity
  8
0
100
AcDbLine
 10
47.5
 20
198.79305
 30
0.0
 11
47.5
 21
198.2930499999999
 31
0.0
  0
LINE
  5
491
330
1E
100
AcDbEntity
  8
0
100
AcDbLine
 10
47.5
 20
198.2930499999999
 30
0.0
 11
47.5
 21
198.79305
 31
0.0
  0
LINE
  5
492
330
1E
100
AcDbEntity
  8
0
100
AcDbLine
 10
47.0
 20
200.79305
 30
0.0
 11
48.5
 21
203.2930499999999
 31
0.0
  0
LINE
  5
493
330
1E
100
AcDbEntity
  8
0
100
AcDbLine
 10
47.0
 20
200.79305
 30
0.0
 11
47.0
 21
199.79305
 31
0.0
  0
LINE
  5
494
330
1E
100
AcDbEntity
  8
0
100
AcDbLine
 10
48.5
 20
203.2930499999999
 30
0.0
 11
51.5
 21
205.7930499999999
 31
0.0
  0
LINE
  5
495
330
1E
100
AcDbEntity
  8
0
100
AcDbLine
 10
48.7
 20
207.7930499999999
 30
0.0
 11
53.0
 21
207.7930499999999
 31
0.0
  0
LINE
  5
496
330
1E
100
AcDbEntity
  8
0
100
AcDbLine
 10
49.0
 20
209.7930499999999
 30
0.0
 11
53.39999999999999
 21
209.7930499999999
 31
0.0
  0
LINE
  5
497
330
1E
100
AcDbEntity
  8
0
100
AcDbLine
 10
51.5
 20
205.7930499999999
 30
0.0
 11
56.5
 21
207.7930499999999
 31
0.0
  0
LINE
  5
498
330
1E
100
AcDbEntity
  8
0
100
AcDbLine
 10
53.0
 20
207.7930499999999
 30
0.0
 11
55.5
 21
207.7930499999999
 31
0.0
  0
LINE
  5
499
330
1E
100
AcDbEntity
  8
0
100
AcDbLine
 10
55.5
 20
207.7930499999999
 30
0.0
 11
56.5
 21
207.7930499999999
 31
0.0
  0
LINE
  5
49A
330
1E
100
AcDbEntity
  8
0
100
AcDbLine
 10
56.5
 20
207.7930499999999
 30
0.0
 11
57.0
 21
208.79305
 31
0.0
  0
LINE
  5
49B
330
1E
100
AcDbEntity
  8
0
100
AcDbLine
 10
57.0
 20
208.79305
 30
0.0
 11
57.0
 21
209.7930499999999
 31
0.0
  0
LINE
  5
49C
330
1E
100
AcDbEntity
  8
0
100
AcDbLine
 10
53.39999999999999
 20
209.7930499999999
 30
0.0
 11
56.0
 21
209.7930499999999
 31
0.0
  0
LINE
  5
49D
330
1E
100
AcDbEntity
  8
0
100
AcDbLine
 10
56.0
 20
209.7930499999999
 30
0.0
 11
57.0
 21
209.7930499999999
 31
0.0
  0
LINE
  5
49E
330
1E
100
AcDbEntity
  8
0
100
AcDbLine
 10
57.0
 20
209.7930499999999
 30
0.0
 11
58.5
 21
210.2930499999999
 31
0.0
  0
LINE
  5
49F
330
1E
100
AcDbEntity
  8
0
100
AcDbLine
 10
57.0
 20
209.7930499999999
 30
0.0
 11
57.0
 21
208.79305
 31
0.0
  0
LINE
  5
4A0
330
1E
100
AcDbEntity
  8
0
100
AcDbLine
 10
58.5
 20
210.2930499999999
 30
0.0
 11
59.5
 21
211.29305
 31
0.0
  0
LINE
  5
4A1
330
1E
100
AcDbEntity
  8
0
100
AcDbLine
 10
51.2
 20
212.79305
 30
0.0
 11
56.0
 21
212.79305
 31
0.0
  0
LINE
  5
4A2
330
1E
100
AcDbEntity
  8
0
100
AcDbLine
 10
56.0
 20
212.79305
 30
0.0
 11
58.9
 21
212.79305
 31
0.0
  0
LINE
  5
4A3
330
1E
100
AcDbEntity
  8
0
100
AcDbLine
 10
115.0
 20
194.79305
 30
0.0
 11
115.0
 21
143.2930499999999
 31
0.0
  0
LINE
  5
4A4
330
1E
100
AcDbEntity
  8
0
100
AcDbLine
 10
118.7
 20
196.7930499999999
 30
0.0
 11
122.0
 21
196.7930499999999
 31
0.0
  0
LINE
  5
4A5
330
1E
100
AcDbEntity
  8
0
100
AcDbLine
 10
122.0
 20
196.7930499999999
 30
0.0
 11
125.9
 21
196.7930499999999
 31
0.0
  0
LINE
  5
4A6
330
1E
100
AcDbEntity
  8
0
100
AcDbLine
 10
125.9
 20
196.7930499999999
 30
0.0
 11
130.0
 21
196.7930499999999
 31
0.0
  0
LINE
  5
4A7
330
1E
100
AcDbEntity
  8
0
100
AcDbLine
 10
116.1
 20
196.7930499999999
 30
0.0
 11
118.7
 21
196.7930499999999
 31
0.0
  0
LINE
  5
4A8
330
1E
100
AcDbEntity
  8
0
100
AcDbLine
 10
114.5999999999999
 20
196.7930499999999
 30
0.0
 11
116.1
 21
196.7930499999999
 31
0.0
  0
LINE
  5
4A9
330
1E
100
AcDbEntity
  8
0
100
AcDbLine
 10
114.0
 20
196.7930499999999
 30
0.0
 11
114.5999999999999
 21
196.7930499999999
 31
0.0
  0
LINE
  5
4AA
330
1E
100
AcDbEntity
  8
0
100
AcDbLine
 10
114.0
 20
196.7930499999999
 30
0.0
 11
115.0
 21
194.79305
 31
0.0
  0
LINE
  5
4AB
330
1E
100
AcDbEntity
  8
0
100
AcDbLine
 10
112.5
 20
198.2930499999999
 30
0.0
 11
113.0
 21
197.29305
 31
0.0
  0
LINE
  5
4AC
330
1E
100
AcDbEntity
  8
0
100
AcDbLine
 10
112.5
 20
198.2930499999999
 30
0.0
 11
112.5
 21
198.79305
 31
0.0
  0
LINE
  5
4AD
330
1E
100
AcDbEntity
  8
0
100
AcDbLine
 10
115.3
 20
197.29305
 30
0.0
 11
125.6
 21
197.29305
 31
0.0
  0
LINE
  5
4AE
330
1E
100
AcDbEntity
  8
0
100
AcDbLine
 10
125.6
 20
197.29305
 30
0.0
 11
130.0
 21
197.29305
 31
0.0
  0
LINE
  5
4AF
330
1E
100
AcDbEntity
  8
0
100
AcDbLine
 10
113.5999999999999
 20
197.29305
 30
0.0
 11
115.3
 21
197.29305
 31
0.0
  0
LINE
  5
4B0
330
1E
100
AcDbEntity
  8
0
100
AcDbLine
 10
113.0
 20
199.79305
 30
0.0
 11
113.0
 21
200.79305
 31
0.0
  0
LINE
  5
4B1
330
1E
100
AcDbEntity
  8
0
100
AcDbLine
 10
113.0
 20
197.29305
 30
0.0
 11
113.5999999999999
 21
197.29305
 31
0.0
  0
LINE
  5
4B2
330
1E
100
AcDbEntity
  8
0
100
AcDbLine
 10
113.0
 20
197.29305
 30
0.0
 11
114.0
 21
196.7930499999999
 31
0.0
  0
LINE
  5
4B3
330
1E
100
AcDbEntity
  8
0
100
AcDbLine
 10
112.5
 20
198.79305
 30
0.0
 11
113.0
 21
199.79305
 31
0.0
  0
LINE
  5
4B4
330
1E
100
AcDbEntity
  8
0
100
AcDbLine
 10
112.5
 20
198.79305
 30
0.0
 11
112.5
 21
198.2930499999999
 31
0.0
  0
LINE
  5
4B5
330
1E
100
AcDbEntity
  8
0
100
AcDbLine
 10
113.0
 20
200.79305
 30
0.0
 11
113.0
 21
199.79305
 31
0.0
  0
LINE
  5
4B6
330
1E
100
AcDbEntity
  8
0
100
AcDbLine
 10
111.4999999999999
 20
203.2930499999999
 30
0.0
 11
113.0
 21
200.79305
 31
0.0
  0
LINE
  5
4B7
330
1E
100
AcDbEntity
  8
0
100
AcDbLine
 10
111.2999999999999
 20
207.7930499999999
 30
0.0
 11
116.7999999999999
 21
207.7930499999999
 31
0.0
  0
LINE
  5
4B8
330
1E
100
AcDbEntity
  8
0
100
AcDbLine
 10
116.7999999999999
 20
207.7930499999999
 30
0.0
 11
123.1999999999999
 21
207.7930499999999
 31
0.0
  0
LINE
  5
4B9
330
1E
100
AcDbEntity
  8
0
100
AcDbLine
 10
123.1999999999999
 20
207.7930499999999
 30
0.0
 11
130.0
 21
207.7930499999999
 31
0.0
  0
LINE
  5
4BA
330
1E
100
AcDbEntity
  8
0
100
AcDbLine
 10
108.4999999999999
 20
205.7930499999999
 30
0.0
 11
111.4999999999999
 21
203.2930499999999
 31
0.0
  0
LINE
  5
4BB
330
1E
100
AcDbEntity
  8
0
100
AcDbLine
 10
107.0
 20
207.7930499999999
 30
0.0
 11
111.2999999999999
 21
207.7930499999999
 31
0.0
  0
LINE
  5
4BC
330
1E
100
AcDbEntity
  8
0
100
AcDbLine
 10
104.4999999999999
 20
207.7930499999999
 30
0.0
 11
107.0
 21
207.7930499999999
 31
0.0
  0
LINE
  5
4BD
330
1E
100
AcDbEntity
  8
0
100
AcDbLine
 10
103.4999999999999
 20
207.7930499999999
 30
0.0
 11
104.4999999999999
 21
207.7930499999999
 31
0.0
  0
LINE
  5
4BE
330
1E
100
AcDbEntity
  8
0
100
AcDbLine
 10
103.4999999999999
 20
207.7930499999999
 30
0.0
 11
108.4999999999999
 21
205.7930499999999
 31
0.0
  0
LINE
  5
4BF
330
1E
100
AcDbEntity
  8
0
100
AcDbLine
 10
130.0
 20
196.7930499999999
 30
0.0
 11
134.0999999999999
 21
196.7930499999999
 31
0.0
  0
LINE
  5
4C0
330
1E
100
AcDbEntity
  8
0
100
AcDbLine
 10
130.0
 20
197.29305
 30
0.0
 11
134.4
 21
197.29305
 31
0.0
  0
LINE
  5
4C1
330
1E
100
AcDbEntity
  8
0
100
AcDbLine
 10
103.0
 20
208.79305
 30
0.0
 11
103.4999999999999
 21
207.7930499999999
 31
0.0
  0
LINE
  5
4C2
330
1E
100
AcDbEntity
  8
0
100
AcDbLine
 10
103.0
 20
208.79305
 30
0.0
 11
103.0
 21
209.7930499999999
 31
0.0
  0
LINE
  5
4C3
330
1E
100
AcDbEntity
  8
0
100
AcDbLine
 10
111.0
 20
209.7930499999999
 30
0.0
 11
116.5999999999999
 21
209.7930499999999
 31
0.0
  0
LINE
  5
4C4
330
1E
100
AcDbEntity
  8
0
100
AcDbLine
 10
116.5999999999999
 20
209.7930499999999
 30
0.0
 11
123.0999999999999
 21
209.7930499999999
 31
0.0
  0
LINE
  5
4C5
330
1E
100
AcDbEntity
  8
0
100
AcDbLine
 10
123.0999999999999
 20
209.7930499999999
 30
0.0
 11
130.0
 21
209.7930499999999
 31
0.0
  0
LINE
  5
4C6
330
1E
100
AcDbEntity
  8
0
100
AcDbLine
 10
106.6
 20
209.7930499999999
 30
0.0
 11
111.0
 21
209.7930499999999
 31
0.0
  0
LINE
  5
4C7
330
1E
100
AcDbEntity
  8
0
100
AcDbLine
 10
104.0
 20
209.7930499999999
 30
0.0
 11
106.6
 21
209.7930499999999
 31
0.0
  0
LINE
  5
4C8
330
1E
100
AcDbEntity
  8
0
100
AcDbLine
 10
101.5
 20
210.2930499999999
 30
0.0
 11
103.0
 21
209.7930499999999
 31
0.0
  0
LINE
  5
4C9
330
1E
100
AcDbEntity
  8
0
100
AcDbLine
 10
103.0
 20
209.7930499999999
 30
0.0
 11
104.0
 21
209.7930499999999
 31
0.0
  0
LINE
  5
4CA
330
1E
100
AcDbEntity
  8
0
100
AcDbLine
 10
103.0
 20
209.7930499999999
 30
0.0
 11
103.0
 21
208.79305
 31
0.0
  0
LINE
  5
4CB
330
1E
100
AcDbEntity
  8
0
100
AcDbLine
 10
100.5
 20
211.29305
 30
0.0
 11
101.5
 21
210.2930499999999
 31
0.0
  0
LINE
  5
4CC
330
1E
100
AcDbEntity
  8
0
100
AcDbLine
 10
130.0
 20
207.7930499999999
 30
0.0
 11
136.8
 21
207.7930499999999
 31
0.0
  0
LINE
  5
4CD
330
1E
100
AcDbEntity
  8
0
100
AcDbLine
 10
141.3
 20
196.7930499999999
 30
0.0
 11
143.9
 21
196.7930499999999
 31
0.0
  0
LINE
  5
4CE
330
1E
100
AcDbEntity
  8
0
100
AcDbLine
 10
138.0
 20
196.7930499999999
 30
0.0
 11
141.3
 21
196.7930499999999
 31
0.0
  0
LINE
  5
4CF
330
1E
100
AcDbEntity
  8
0
100
AcDbLine
 10
134.0999999999999
 20
196.7930499999999
 30
0.0
 11
138.0
 21
196.7930499999999
 31
0.0
  0
LINE
  5
4D0
330
1E
100
AcDbEntity
  8
0
100
AcDbLine
 10
134.4
 20
197.29305
 30
0.0
 11
138.5
 21
197.29305
 31
0.0
  0
LINE
  5
4D1
330
1E
100
AcDbEntity
  8
0
100
AcDbLine
 10
143.1999999999999
 20
207.7930499999999
 30
0.0
 11
148.6999999999999
 21
207.7930499999999
 31
0.0
  0
LINE
  5
4D2
330
1E
100
AcDbEntity
  8
0
100
AcDbLine
 10
136.8
 20
207.7930499999999
 30
0.0
 11
143.1999999999999
 21
207.7930499999999
 31
0.0
  0
LINE
  5
4D3
330
1E
100
AcDbEntity
  8
0
100
AcDbLine
 10
143.9
 20
196.7930499999999
 30
0.0
 11
145.4
 21
196.7930499999999
 31
0.0
  0
LINE
  5
4D4
330
1E
100
AcDbEntity
  8
0
100
AcDbLine
 10
145.4
 20
196.7930499999999
 30
0.0
 11
146.0
 21
196.7930499999999
 31
0.0
  0
LINE
  5
4D5
330
1E
100
AcDbEntity
  8
0
100
AcDbLine
 10
138.5
 20
197.29305
 30
0.0
 11
146.4
 21
197.29305
 31
0.0
  0
LINE
  5
4D6
330
1E
100
AcDbEntity
  8
0
100
AcDbLine
 10
145.0
 20
194.79305
 30
0.0
 11
146.0
 21
196.7930499999999
 31
0.0
  0
LINE
  5
4D7
330
1E
100
AcDbEntity
  8
0
100
AcDbLine
 10
145.0
 20
194.79305
 30
0.0
 11
145.0
 21
143.2930499999999
 31
0.0
  0
LINE
  5
4D8
330
1E
100
AcDbEntity
  8
0
100
AcDbLine
 10
146.4
 20
197.29305
 30
0.0
 11
147.0
 21
197.29305
 31
0.0
  0
LINE
  5
4D9
330
1E
100
AcDbEntity
  8
0
100
AcDbLine
 10
146.0
 20
196.7930499999999
 30
0.0
 11
147.0
 21
197.29305
 31
0.0
  0
LINE
  5
4DA
330
1E
100
AcDbEntity
  8
0
100
AcDbLine
 10
147.0
 20
197.29305
 30
0.0
 11
147.5
 21
198.2930499999999
 31
0.0
  0
LINE
  5
4DB
330
1E
100
AcDbEntity
  8
0
100
AcDbLine
 10
147.5
 20
198.2930499999999
 30
0.0
 11
147.5
 21
198.79305
 31
0.0
  0
LINE
  5
4DC
330
1E
100
AcDbEntity
  8
0
100
AcDbLine
 10
147.5
 20
198.79305
 30
0.0
 11
147.5
 21
198.2930499999999
 31
0.0
  0
LINE
  5
4DD
330
1E
100
AcDbEntity
  8
0
100
AcDbLine
 10
147.0
 20
199.79305
 30
0.0
 11
147.5
 21
198.79305
 31
0.0
  0
LINE
  5
4DE
330
1E
100
AcDbEntity
  8
0
100
AcDbLine
 10
147.0
 20
199.79305
 30
0.0
 11
147.0
 21
200.79305
 31
0.0
  0
LINE
  5
4DF
330
1E
100
AcDbEntity
  8
0
100
AcDbLine
 10
147.0
 20
200.79305
 30
0.0
 11
148.5
 21
203.2930499999999
 31
0.0
  0
LINE
  5
4E0
330
1E
100
AcDbEntity
  8
0
100
AcDbLine
 10
147.0
 20
200.79305
 30
0.0
 11
147.0
 21
199.79305
 31
0.0
  0
LINE
  5
4E1
330
1E
100
AcDbEntity
  8
0
100
AcDbLine
 10
148.5
 20
203.2930499999999
 30
0.0
 11
151.5
 21
205.7930499999999
 31
0.0
  0
LINE
  5
4E2
330
1E
100
AcDbEntity
  8
0
100
AcDbLine
 10
148.6999999999999
 20
207.7930499999999
 30
0.0
 11
153.0
 21
207.7930499999999
 31
0.0
  0
LINE
  5
4E3
330
1E
100
AcDbEntity
  8
0
100
AcDbLine
 10
153.0
 20
207.7930499999999
 30
0.0
 11
155.4999999999999
 21
207.7930499999999
 31
0.0
  0
LINE
  5
4E4
330
1E
100
AcDbEntity
  8
0
100
AcDbLine
 10
155.4999999999999
 20
207.7930499999999
 30
0.0
 11
156.4999999999999
 21
207.7930499999999
 31
0.0
  0
LINE
  5
4E5
330
1E
100
AcDbEntity
  8
0
100
AcDbLine
 10
149.0
 20
209.7930499999999
 30
0.0
 11
153.3999999999999
 21
209.7930499999999
 31
0.0
  0
LINE
  5
4E6
330
1E
100
AcDbEntity
  8
0
100
AcDbLine
 10
153.3999999999999
 20
209.7930499999999
 30
0.0
 11
156.0
 21
209.7930499999999
 31
0.0
  0
LINE
  5
4E7
330
1E
100
AcDbEntity
  8
0
100
AcDbLine
 10
156.0
 20
209.7930499999999
 30
0.0
 11
157.0
 21
209.7930499999999
 31
0.0
  0
LINE
  5
4E8
330
1E
100
AcDbEntity
  8
0
100
AcDbLine
 10
151.5
 20
205.7930499999999
 30
0.0
 11
156.4999999999999
 21
207.7930499999999
 31
0.0
  0
LINE
  5
537
330
1E
100
AcDbEntity
  8
0
100
AcDbLine
 10
157.0
 20
208.79305
 30
0.0
 11
157.0
 21
209.7930499999999
 31
0.0
  0
LINE
  5
538
330
1E
100
AcDbEntity
  8
0
100
AcDbLine
 10
156.4999999999999
 20
207.7930499999999
 30
0.0
 11
157.0
 21
208.79305
 31
0.0
  0
LINE
  5
539
330
1E
100
AcDbEntity
  8
0
100
AcDbLine
 10
157.0
 20
209.7930499999999
 30
0.0
 11
158.4999999999999
 21
210.2930499999999
 31
0.0
  0
LINE
  5
53A
330
1E
100
AcDbEntity
  8
0
100
AcDbLine
 10
157.0
 20
209.7930499999999
 30
0.0
 11
157.0
 21
208.79305
 31
0.0
  0
LINE
  5
53B
330
1E
100
AcDbEntity
  8
0
100
AcDbLine
 10
143.4
 20
209.7930499999999
 30
0.0
 11
149.0
 21
209.7930499999999
 31
0.0
  0
LINE
  5
53C
330
1E
100
AcDbEntity
  8
0
100
AcDbLine
 10
158.4999999999999
 20
210.2930499999999
 30
0.0
 11
159.4999999999999
 21
211.29305
 31
0.0
  0
LINE
  5
541
330
1E
100
AcDbEntity
  8
0
100
AcDbLine
 10
159.4999999999999
 20
211.29305
 30
0.0
 11
160.0
 21
212.79305
 31
0.0
  0
LINE
  5
542
330
1E
100
AcDbEntity
  8
0
100
AcDbLine
 10
136.8999999999999
 20
209.7930499999999
 30
0.0
 11
143.4
 21
209.7930499999999
 31
0.0
  0
LINE
  5
543
330
1E
100
AcDbEntity
  8
0
100
AcDbLine
 10
130.0
 20
209.7930499999999
 30
0.0
 11
136.8999999999999
 21
209.7930499999999
 31
0.0
  0
LINE
  5
544
330
1E
100
AcDbEntity
  8
0
100
AcDbLine
 10
108.8
 20
212.79305
 30
0.0
 11
115.1
 21
212.79305
 31
0.0
  0
LINE
  5
545
330
1E
100
AcDbEntity
  8
0
100
AcDbLine
 10
115.1
 20
212.79305
 30
0.0
 11
122.3
 21
212.79305
 31
0.0
  0
LINE
  5
546
330
1E
100
AcDbEntity
  8
0
100
AcDbLine
 10
122.3
 20
212.79305
 30
0.0
 11
130.0
 21
212.79305
 31
0.0
  0
LINE
  5
547
330
1E
100
AcDbEntity
  8
0
100
AcDbLine
 10
104.0
 20
212.79305
 30
0.0
 11
108.8
 21
212.79305
 31
0.0
  0
LINE
  5
548
330
1E
100
AcDbEntity
  8
0
100
AcDbLine
 10
101.0999999999999
 20
212.79305
 30
0.0
 11
104.0
 21
212.79305
 31
0.0
  0
LINE
  5
549
330
1E
100
AcDbEntity
  8
0
100
AcDbLine
 10
100.0
 20
212.79305
 30
0.0
 11
101.0999999999999
 21
212.79305
 31
0.0
  0
LINE
  5
54A
330
1E
100
AcDbEntity
  8
0
100
AcDbLine
 10
100.0
 20
212.79305
 30
0.0
 11
100.5
 21
211.29305
 31
0.0
  0
LINE
  5
54B
330
1E
100
AcDbEntity
  8
0
100
AcDbLine
 10
151.2
 20
212.79305
 30
0.0
 11
156.0
 21
212.79305
 31
0.0
  0
LINE
  5
559
330
1E
100
AcDbEntity
  8
0
100
AcDbLine
 10
156.0
 20
212.79305
 30
0.0
 11
158.9
 21
212.79305
 31
0.0
  0
LINE
  5
55A
330
1E
100
AcDbEntity
  8
0
100
AcDbLine
 10
158.9
 20
212.79305
 30
0.0
 11
160.0
 21
212.79305
 31
0.0
  0
LINE
  5
55B
330
1E
100
AcDbEntity
  8
0
100
AcDbLine
 10
144.9
 20
212.79305
 30
0.0
 11
151.2
 21
212.79305
 31
0.0
  0
LINE
  5
55C
330
1E
100
AcDbEntity
  8
0
100
AcDbLine
 10
137.7
 20
212.79305
 30
0.0
 11
144.9
 21
212.79305
 31
0.0
  0
LINE
  5
55D
330
1E
100
AcDbEntity
  8
0
100
AcDbLine
 10
130.0
 20
212.79305
 30
0.0
 11
137.7
 21
212.79305
 31
0.0
  0
LINE
  5
55E
330
1E
100
AcDbEntity
  8
0
100
AcDbLine
 10
59.5
 20
211.29305
 30
0.0
 11
60.0
 21
212.79305
 31
0.0
  0
LINE
  5
55F
330
1E
100
AcDbEntity
  8
0
100
AcDbLine
 10
58.9
 20
212.79305
 30
0.0
 11
60.0
 21
212.79305
 31
0.0
  0
LINE
  5
560
330
1E
100
AcDbEntity
  8
0
100
AcDbLine
 10
45.49999999999999
 20
156.7930499999999
 30
0.0
 11
46.5
 21
156.29305
 31
0.0
  0
LINE
  5
561
330
1E
100
AcDbEntity
  8
0
100
AcDbLine
 10
45.0
 20
158.2930499999999
 30
0.0
 11
45.49999999999999
 21
156.7930499999999
 31
0.0
  0
LINE
  5
562
330
1E
100
AcDbEntity
  8
0
100
AcDbLine
 10
45.0
 20
158.2930499999999
 30
0.0
 11
45.0
 21
194.79305
 31
0.0
  0
LINE
  5
563
330
1E
100
AcDbEntity
  8
0
100
AcDbLine
 10
18.0
 20
134.7930499999999
 30
0.0
 11
18.0
 21
146.79305
 31
0.0
  0
LINE
  5
564
330
1E
100
AcDbEntity
  8
0
100
AcDbLine
 10
18.0
 20
134.7930499999999
 30
0.0
 11
18.5
 21
134.29305
 31
0.0
  0
LINE
  5
565
330
1E
100
AcDbEntity
  8
0
100
AcDbLine
 10
18.0
 20
134.7930499999999
 30
0.0
 11
18.39999999999999
 21
134.7930499999999
 31
0.0
  0
LINE
  5
566
330
1E
100
AcDbEntity
  8
0
100
AcDbLine
 10
15.0
 20
158.2930499999999
 30
0.0
 11
15.0
 21
194.79305
 31
0.0
  0
LINE
  5
56B
330
1E
100
AcDbEntity
  8
0
100
AcDbLine
 10
201.3561999999999
 20
108.7220499999999
 30
0.0
 11
201.0
 21
105.7930499999999
 31
0.0
  0
LINE
  5
56C
330
1E
100
AcDbEntity
  8
0
100
AcDbLine
 10
228.2
 20
108.74205
 30
0.0
 11
228.0
 21
105.7930499999999
 31
0.0
  0
LINE
  5
56D
330
1E
100
AcDbEntity
  8
0
100
AcDbLine
 10
229.1999999999999
 20
108.7220499999999
 30
0.0
 11
229.1999999999999
 21
105.7930499999999
 31
0.0
  0
LINE
  5
56E
330
1E
100
AcDbEntity
  8
0
100
AcDbLine
 10
229.1999999999999
 20
105.7930499999999
 30
0.0
 11
229.1999999999999
 21
108.7220499999999
 31
0.0
  0
LINE
  5
56F
330
1E
100
AcDbEntity
  8
0
100
AcDbLine
 10
230.8
 20
105.7930499999999
 30
0.0
 11
230.8
 21
108.7220499999999
 31
0.0
  0
LINE
  5
570
330
1E
100
AcDbEntity
  8
0
100
AcDbLine
 10
232.0
 20
105.7930499999999
 30
0.0
 11
231.8
 21
108.74205
 31
0.0
  0
LINE
  5
571
330
1E
100
AcDbEntity
  8
0
100
AcDbLine
 10
230.8
 20
108.7220499999999
 30
0.0
 11
230.8
 21
105.7930499999999
 31
0.0
  0
LINE
  5
572
330
1E
100
AcDbEntity
  8
0
100
AcDbLine
 10
259.0
 20
105.7930499999999
 30
0.0
 11
258.6438
 21
108.7220499999999
 31
0.0
  0
LINE
  5
573
330
1E
100
AcDbEntity
  8
0
100
AcDbLine
 10
214.5421
 20
101.01005
 30
0.0
 11
210.9979999999999
 21
100.48305
 31
0.0
  0
LINE
  5
574
330
1E
100
AcDbEntity
  8
0
100
AcDbLine
 10
252.9771
 20
100.0050499999999
 30
0.0
 11
249.002
 21
100.48305
 31
0.0
  0
LINE
  5
575
330
1E
100
AcDbEntity
  8
0
100
AcDbLine
 10
257.4708
 20
100.98005
 30
0.0
 11
256.3747
 21
100.2690499999999
 31
0.0
  0
LINE
  5
576
330
1E
100
AcDbEntity
  8
0
100
AcDbLine
 10
258.6438
 20
102.86405
 30
0.0
 11
258.1245999999999
 21
101.74905
 31
0.0
  0
LINE
  5
577
330
1E
100
AcDbEntity
  8
0
100
AcDbLine
 10
258.6438
 20
102.86405
 30
0.0
 11
258.1245999999999
 21
101.74905
 31
0.0
  0
LINE
  5
578
330
1E
100
AcDbEntity
  8
0
100
AcDbLine
 10
257.7176394741646
 20
101.270382755633
 30
0.0
 11
257.567
 21
101.0760499999999
 31
0.0
  0
LINE
  5
579
330
1E
100
AcDbEntity
  8
0
100
AcDbLine
 10
258.1245999999999
 20
101.74905
 30
0.0
 11
257.4708
 21
100.98005
 31
0.0
  0
LINE
  5
57A
330
1E
100
AcDbEntity
  8
0
100
AcDbLine
 10
259.0
 20
105.7930499999999
 30
0.0
 11
258.6438
 21
102.86405
 31
0.0
  0
LINE
  5
57B
330
1E
100
AcDbEntity
  8
0
100
AcDbLine
 10
259.0
 20
105.7930499999999
 30
0.0
 11
258.6438
 21
102.86405
 31
0.0
  0
LINE
  5
57C
330
1E
100
AcDbEntity
  8
0
100
AcDbLine
 10
254.8748
 20
99.88505000000001
 30
0.0
 11
252.9771
 21
100.0050499999999
 31
0.0
  0
LINE
  5
57D
330
1E
100
AcDbEntity
  8
0
100
AcDbLine
 10
255.2628810344827
 20
99.9844053685188
 30
0.0
 11
254.9549912489311
 21
99.90558032841491
 31
0.0
  0
LINE
  5
57E
330
1E
100
AcDbEntity
  8
0
100
AcDbLine
 10
255.2628810344827
 20
99.9844053685188
 30
0.0
 11
254.9902
 21
99.90405
 31
0.0
  0
LINE
  5
57F
330
1E
100
AcDbEntity
  8
0
100
AcDbLine
 10
256.3747
 20
100.2690499999999
 30
0.0
 11
254.8748
 21
99.88505000000001
 31
0.0
  0
LINE
  5
580
330
1E
100
AcDbEntity
  8
0
100
AcDbLine
 10
253.6600409962616
 20
99.9618646073924
 30
0.0
 11
253.1035999999999
 21
99.98605000000001
 31
0.0
  0
LINE
  5
581
330
1E
100
AcDbEntity
  8
0
100
AcDbLine
 10
253.1035999999999
 20
99.98605000000001
 30
0.0
 11
252.4638321295076
 21
100.0667697157539
 31
0.0
  0
LINE
  5
582
330
1E
100
AcDbEntity
  8
0
100
AcDbLine
 10
232.2999999999999
 20
99.79305
 30
0.0
 11
230.0
 21
99.79305
 31
0.0
  0
LINE
  5
583
330
1E
100
AcDbEntity
  8
0
100
AcDbLine
 10
231.8
 20
102.8440499999999
 30
0.0
 11
231.3
 21
100.38405
 31
0.0
  0
LINE
  5
584
330
1E
100
AcDbEntity
  8
0
100
AcDbLine
 10
232.1464
 20
101.01005
 30
0.0
 11
231.3751856100163
 21
100.62164214113
 31
0.0
  0
LINE
  5
585
330
1E
100
AcDbEntity
  8
0
100
AcDbLine
 10
232.6999999999999
 20
100.2930499999999
 30
0.0
 11
231.2088176352705
 21
100.2930499999999
 31
0.0
  0
LINE
  5
586
330
1E
100
AcDbEntity
  8
0
100
AcDbLine
 10
242.704
 20
101.34505
 30
0.0
 11
240.4222999999999
 21
101.65005
 31
0.0
  0
LINE
  5
587
330
1E
100
AcDbEntity
  8
0
100
AcDbLine
 10
249.002
 20
100.48305
 30
0.0
 11
245.4578999999999
 21
101.01005
 31
0.0
  0
LINE
  5
588
330
1E
100
AcDbEntity
  8
0
100
AcDbLine
 10
247.2000072860915
 20
100.7510024167569
 30
0.0
 11
245.1382
 21
101.0360499999999
 31
0.0
  0
LINE
  5
589
330
1E
100
AcDbEntity
  8
0
100
AcDbLine
 10
244.3861949815463
 20
101.140418270882
 30
0.0
 11
242.704
 21
101.34505
 31
0.0
  0
LINE
  5
58A
330
1E
100
AcDbEntity
  8
0
100
AcDbLine
 10
245.4578999999999
 20
101.01005
 30
0.0
 11
242.704
 21
101.34505
 31
0.0
  0
LINE
  5
58B
330
1E
100
AcDbEntity
  8
0
100
AcDbLine
 10
245.4578999999999
 20
101.01005
 30
0.0
 11
245.1382
 21
101.0360499999999
 31
0.0
  0
LINE
  5
58C
330
1E
100
AcDbEntity
  8
0
100
AcDbLine
 10
245.1382
 20
101.0360499999999
 30
0.0
 11
244.3861949815463
 21
101.140418270882
 31
0.0
  0
LINE
  5
58D
330
1E
100
AcDbEntity
  8
0
100
AcDbLine
 10
237.8
 20
99.79305
 30
0.0
 11
236.4
 21
99.79305
 31
0.0
  0
LINE
  5
58E
330
1E
100
AcDbEntity
  8
0
100
AcDbLine
 10
237.4
 20
100.2930499999999
 30
0.0
 11
235.1999999999999
 21
100.2930499999999
 31
0.0
  0
LINE
  5
58F
330
1E
100
AcDbEntity
  8
0
100
AcDbLine
 10
238.5
 20
101.7930499999999
 30
0.0
 11
236.0
 21
101.65005
 31
0.0
  0
LINE
  5
590
330
1E
100
AcDbEntity
  8
0
100
AcDbLine
 10
240.4222999999999
 20
101.65005
 30
0.0
 11
238.5
 21
101.7930499999999
 31
0.0
  0
LINE
  5
591
330
1E
100
AcDbEntity
  8
0
100
AcDbLine
 10
240.5
 20
100.2930499999999
 30
0.0
 11
239.0
 21
99.79305
 31
0.0
  0
LINE
  5
592
330
1E
100
AcDbEntity
  8
0
100
AcDbLine
 10
240.0999999999999
 20
100.2930499999999
 30
0.0
 11
239.1
 21
100.2930499999999
 31
0.0
  0
LINE
  5
593
330
1E
100
AcDbEntity
  8
0
100
AcDbLine
 10
240.9223699672633
 20
101.56015990179
 30
0.0
 11
240.5
 21
100.2930499999999
 31
0.0
  0
LINE
  5
594
330
1E
100
AcDbEntity
  8
0
100
AcDbLine
 10
240.5
 20
100.2930499999999
 30
0.0
 11
240.0999999999999
 21
100.2930499999999
 31
0.0
  0
LINE
  5
595
330
1E
100
AcDbEntity
  8
0
100
AcDbLine
 10
241.1357514115203
 20
101.554681336059
 30
0.0
 11
240.0378042885936
 21
101.6718487101969
 31
0.0
  0
LINE
  5
596
330
1E
100
AcDbEntity
  8
0
100
AcDbLine
 10
239.0
 20
99.79305
 30
0.0
 11
238.7
 21
99.79305
 31
0.0
  0
LINE
  5
597
330
1E
100
AcDbEntity
  8
0
100
AcDbLine
 10
239.1
 20
100.2930499999999
 30
0.0
 11
237.4
 21
100.2930499999999
 31
0.0
  0
LINE
  5
598
330
1E
100
AcDbEntity
  8
0
100
AcDbLine
 10
238.7
 20
99.79305
 30
0.0
 11
237.8
 21
99.79305
 31
0.0
  0
LINE
  5
599
330
1E
100
AcDbEntity
  8
0
100
AcDbLine
 10
235.1999999999999
 20
100.2930499999999
 30
0.0
 11
232.6999999999999
 21
100.2930499999999
 31
0.0
  0
LINE
  5
59A
330
1E
100
AcDbEntity
  8
0
100
AcDbLine
 10
234.5
 20
99.79305
 30
0.0
 11
232.2999999999999
 21
99.79305
 31
0.0
  0
LINE
  5
59B
330
1E
100
AcDbEntity
  8
0
100
AcDbLine
 10
236.0
 20
101.65005
 30
0.0
 11
233.9902
 21
101.34505
 31
0.0
  0
LINE
  5
59C
330
1E
100
AcDbEntity
  8
0
100
AcDbLine
 10
236.4
 20
99.79305
 30
0.0
 11
234.5
 21
99.79305
 31
0.0
  0
LINE
  5
59D
330
1E
100
AcDbEntity
  8
0
100
AcDbLine
 10
233.9902
 20
101.34505
 30
0.0
 11
232.1464
 21
101.01005
 31
0.0
  0
LINE
  5
59E
330
1E
100
AcDbEntity
  8
0
100
AcDbLine
 10
232.0
 20
105.7930499999999
 30
0.0
 11
231.8
 21
102.8440499999999
 31
0.0
  0
LINE
  5
59F
330
1E
100
AcDbEntity
  8
0
100
AcDbLine
 10
221.4999999999999
 20
101.7930499999999
 30
0.0
 11
219.5777
 21
101.65005
 31
0.0
  0
LINE
  5
5A0
330
1E
100
AcDbEntity
  8
0
100
AcDbLine
 10
222.1999999999999
 20
99.79305
 30
0.0
 11
221.3
 21
99.79305
 31
0.0
  0
LINE
  5
5A1
330
1E
100
AcDbEntity
  8
0
100
AcDbLine
 10
222.5999999999999
 20
100.2930499999999
 30
0.0
 11
220.9
 21
100.2930499999999
 31
0.0
  0
LINE
  5
5A2
330
1E
100
AcDbEntity
  8
0
100
AcDbLine
 10
227.8535999999999
 20
101.01005
 30
0.0
 11
226.0097999999999
 21
101.34505
 31
0.0
  0
LINE
  5
5A3
330
1E
100
AcDbEntity
  8
0
100
AcDbLine
 10
227.3
 20
100.2930499999999
 30
0.0
 11
224.8
 21
100.2930499999999
 31
0.0
  0
LINE
  5
5A4
330
1E
100
AcDbEntity
  8
0
100
AcDbLine
 10
227.7
 20
99.79305
 30
0.0
 11
225.4999999999999
 21
99.79305
 31
0.0
  0
LINE
  5
5A5
330
1E
100
AcDbEntity
  8
0
100
AcDbLine
 10
229.1999999999999
 20
102.86405
 30
0.0
 11
229.1999999999999
 21
101.74905
 31
0.0
  0
LINE
  5
5A6
330
1E
100
AcDbEntity
  8
0
100
AcDbLine
 10
229.1999999999999
 20
101.74905
 30
0.0
 11
229.1999999999999
 21
102.86405
 31
0.0
  0
LINE
  5
5A7
330
1E
100
AcDbEntity
  8
0
100
AcDbLine
 10
230.8
 20
102.86405
 30
0.0
 11
230.8
 21
101.74905
 31
0.0
  0
LINE
  5
5A8
330
1E
100
AcDbEntity
  8
0
100
AcDbLine
 10
230.8
 20
101.74905
 30
0.0
 11
230.8
 21
102.86405
 31
0.0
  0
LINE
  5
5A9
330
1E
100
AcDbEntity
  8
0
100
AcDbLine
 10
228.6999999999999
 20
100.38405
 30
0.0
 11
228.2
 21
102.8440499999999
 31
0.0
  0
LINE
  5
5AA
330
1E
100
AcDbEntity
  8
0
100
AcDbLine
 10
229.1999999999999
 20
99.88505000000001
 30
0.0
 11
228.6999999999999
 21
100.38405
 31
0.0
  0
LINE
  5
5AB
330
1E
100
AcDbEntity
  8
0
100
AcDbLine
 10
230.0
 20
99.79305
 30
0.0
 11
227.7
 21
99.79305
 31
0.0
  0
LINE
  5
5AC
330
1E
100
AcDbEntity
  8
0
100
AcDbLine
 10
229.1999999999999
 20
101.74905
 30
0.0
 11
229.1999999999999
 21
100.98005
 31
0.0
  0
LINE
  5
5AD
330
1E
100
AcDbEntity
  8
0
100
AcDbLine
 10
230.8
 20
101.74905
 30
0.0
 11
230.8
 21
100.98005
 31
0.0
  0
LINE
  5
5AE
330
1E
100
AcDbEntity
  8
0
100
AcDbLine
 10
229.1999999999999
 20
100.98005
 30
0.0
 11
229.1999999999999
 21
101.74905
 31
0.0
  0
LINE
  5
5AF
330
1E
100
AcDbEntity
  8
0
100
AcDbLine
 10
229.1999999999999
 20
100.98005
 30
0.0
 11
229.1999999999999
 21
100.2690499999999
 31
0.0
  0
LINE
  5
5B0
330
1E
100
AcDbEntity
  8
0
100
AcDbLine
 10
230.0
 20
99.90405
 30
0.0
 11
229.1999999999999
 21
99.88505000000001
 31
0.0
  0
LINE
  5
5B1
330
1E
100
AcDbEntity
  8
0
100
AcDbLine
 10
229.1999999999999
 20
100.2690499999999
 30
0.0
 11
229.1999999999999
 21
100.98005
 31
0.0
  0
LINE
  5
5B2
330
1E
100
AcDbEntity
  8
0
100
AcDbLine
 10
229.1999999999999
 20
100.2690499999999
 30
0.0
 11
229.1999999999999
 21
99.88505000000001
 31
0.0
  0
LINE
  5
5B3
330
1E
100
AcDbEntity
  8
0
100
AcDbLine
 10
229.1999999999999
 20
99.88505000000001
 30
0.0
 11
229.1999999999999
 21
100.2690499999999
 31
0.0
  0
LINE
  5
5B4
330
1E
100
AcDbEntity
  8
0
100
AcDbLine
 10
230.8
 20
100.98005
 30
0.0
 11
230.8
 21
100.2690499999999
 31
0.0
  0
LINE
  5
5B5
330
1E
100
AcDbEntity
  8
0
100
AcDbLine
 10
230.8
 20
100.98005
 30
0.0
 11
230.8
 21
101.74905
 31
0.0
  0
LINE
  5
5B6
330
1E
100
AcDbEntity
  8
0
100
AcDbLine
 10
230.8
 20
100.2690499999999
 30
0.0
 11
230.8
 21
99.88505000000001
 31
0.0
  0
LINE
  5
5B7
330
1E
100
AcDbEntity
  8
0
100
AcDbLine
 10
230.8
 20
100.2690499999999
 30
0.0
 11
230.8
 21
100.98005
 31
0.0
  0
LINE
  5
5B8
330
1E
100
AcDbEntity
  8
0
100
AcDbLine
 10
230.8
 20
99.88505000000001
 30
0.0
 11
230.0
 21
99.90405
 31
0.0
  0
LINE
  5
5B9
330
1E
100
AcDbEntity
  8
0
100
AcDbLine
 10
230.8
 20
99.88505000000001
 30
0.0
 11
230.8
 21
100.2690499999999
 31
0.0
  0
LINE
  5
5BA
330
1E
100
AcDbEntity
  8
0
100
AcDbLine
 10
231.3
 20
100.38405
 30
0.0
 11
230.8
 21
99.88505000000001
 31
0.0
  0
LINE
  5
5BB
330
1E
100
AcDbEntity
  8
0
100
AcDbLine
 10
228.6248143899836
 20
100.62164214113
 30
0.0
 11
227.8535999999999
 21
101.01005
 31
0.0
  0
LINE
  5
5BC
330
1E
100
AcDbEntity
  8
0
100
AcDbLine
 10
228.7911823647295
 20
100.2930499999999
 30
0.0
 11
227.3
 21
100.2930499999999
 31
0.0
  0
LINE
  5
5BD
330
1E
100
AcDbEntity
  8
0
100
AcDbLine
 10
229.1999999999999
 20
105.7930499999999
 30
0.0
 11
229.1999999999999
 21
102.86405
 31
0.0
  0
LINE
  5
5BE
330
1E
100
AcDbEntity
  8
0
100
AcDbLine
 10
229.1999999999999
 20
102.86405
 30
0.0
 11
229.1999999999999
 21
105.7930499999999
 31
0.0
  0
LINE
  5
5BF
330
1E
100
AcDbEntity
  8
0
100
AcDbLine
 10
230.8
 20
105.7930499999999
 30
0.0
 11
230.8
 21
102.86405
 31
0.0
  0
LINE
  5
5C0
330
1E
100
AcDbEntity
  8
0
100
AcDbLine
 10
230.8
 20
102.86405
 30
0.0
 11
230.8
 21
105.7930499999999
 31
0.0
  0
LINE
  5
5C1
330
1E
100
AcDbEntity
  8
0
100
AcDbLine
 10
228.2
 20
102.8440499999999
 30
0.0
 11
228.0
 21
105.7930499999999
 31
0.0
  0
LINE
  5
5C2
330
1E
100
AcDbEntity
  8
0
100
AcDbLine
 10
225.4999999999999
 20
99.79305
 30
0.0
 11
223.6
 21
99.79305
 31
0.0
  0
LINE
  5
5C3
330
1E
100
AcDbEntity
  8
0
100
AcDbLine
 10
224.8
 20
100.2930499999999
 30
0.0
 11
222.5999999999999
 21
100.2930499999999
 31
0.0
  0
LINE
  5
5C4
330
1E
100
AcDbEntity
  8
0
100
AcDbLine
 10
224.0
 20
101.65005
 30
0.0
 11
221.4999999999999
 21
101.7930499999999
 31
0.0
  0
LINE
  5
5C5
330
1E
100
AcDbEntity
  8
0
100
AcDbLine
 10
226.0097999999999
 20
101.34505
 30
0.0
 11
224.0
 21
101.65005
 31
0.0
  0
LINE
  5
5C6
330
1E
100
AcDbEntity
  8
0
100
AcDbLine
 10
223.6
 20
99.79305
 30
0.0
 11
222.1999999999999
 21
99.79305
 31
0.0
  0
LINE
  5
5C7
330
1E
100
AcDbEntity
  8
0
100
AcDbLine
 10
217.2959999999999
 20
101.34505
 30
0.0
 11
214.5421
 21
101.01005
 31
0.0
  0
LINE
  5
5C8
330
1E
100
AcDbEntity
  8
0
100
AcDbLine
 10
217.2959999999999
 20
101.34505
 30
0.0
 11
215.6138050184535
 21
101.140418270882
 31
0.0
  0
LINE
  5
5C9
330
1E
100
AcDbEntity
  8
0
100
AcDbLine
 10
219.9621957114064
 20
101.6718487101969
 30
0.0
 11
218.8642485884796
 21
101.554681336059
 31
0.0
  0
LINE
  5
5CA
330
1E
100
AcDbEntity
  8
0
100
AcDbLine
 10
219.5777
 20
101.65005
 30
0.0
 11
217.2959999999999
 21
101.34505
 31
0.0
  0
LINE
  5
5CB
330
1E
100
AcDbEntity
  8
0
100
AcDbLine
 10
219.4999999999999
 20
100.2930499999999
 30
0.0
 11
219.0776300327367
 21
101.56015990179
 31
0.0
  0
LINE
  5
5CC
330
1E
100
AcDbEntity
  8
0
100
AcDbLine
 10
221.3
 20
99.79305
 30
0.0
 11
221.0
 21
99.79305
 31
0.0
  0
LINE
  5
5CD
330
1E
100
AcDbEntity
  8
0
100
AcDbLine
 10
221.0
 20
99.79305
 30
0.0
 11
219.4999999999999
 21
100.2930499999999
 31
0.0
  0
LINE
  5
5CE
330
1E
100
AcDbEntity
  8
0
100
AcDbLine
 10
219.9
 20
100.2930499999999
 30
0.0
 11
219.4999999999999
 21
100.2930499999999
 31
0.0
  0
LINE
  5
5CF
330
1E
100
AcDbEntity
  8
0
100
AcDbLine
 10
220.9
 20
100.2930499999999
 30
0.0
 11
219.9
 21
100.2930499999999
 31
0.0
  0
LINE
  5
5D0
330
1E
100
AcDbEntity
  8
0
100
AcDbLine
 10
214.8618
 20
101.0360499999999
 30
0.0
 11
212.7999927139084
 21
100.7510024167569
 31
0.0
  0
LINE
  5
5D1
330
1E
100
AcDbEntity
  8
0
100
AcDbLine
 10
214.8618
 20
101.0360499999999
 30
0.0
 11
214.5421
 21
101.01005
 31
0.0
  0
LINE
  5
5D2
330
1E
100
AcDbEntity
  8
0
100
AcDbLine
 10
215.6138050184535
 20
101.140418270882
 30
0.0
 11
214.8618
 21
101.0360499999999
 31
0.0
  0
LINE
  5
5D3
330
1E
100
AcDbEntity
  8
0
100
AcDbLine
 10
201.3561999999999
 20
102.86405
 30
0.0
 11
201.0
 21
105.7930499999999
 31
0.0
  0
LINE
  5
5D4
330
1E
100
AcDbEntity
  8
0
100
AcDbLine
 10
201.3561999999999
 20
102.86405
 30
0.0
 11
201.0
 21
105.7930499999999
 31
0.0
  0
LINE
  5
5D5
330
1E
100
AcDbEntity
  8
0
100
AcDbLine
 10
207.0228999999999
 20
100.0050499999999
 30
0.0
 11
205.1252
 21
99.88505000000001
 31
0.0
  0
LINE
  5
5D6
330
1E
100
AcDbEntity
  8
0
100
AcDbLine
 10
210.9979999999999
 20
100.48305
 30
0.0
 11
207.0228999999999
 21
100.0050499999999
 31
0.0
  0
LINE
  5
5D7
330
1E
100
AcDbEntity
  8
0
100
AcDbLine
 10
207.5361678704923
 20
100.0667697157539
 30
0.0
 11
206.8964
 21
99.98605000000001
 31
0.0
  0
LINE
  5
5D8
330
1E
100
AcDbEntity
  8
0
100
AcDbLine
 10
206.8964
 20
99.98605000000001
 30
0.0
 11
206.3399590037382
 21
99.9618646073924
 31
0.0
  0
LINE
  5
5D9
330
1E
100
AcDbEntity
  8
0
100
AcDbLine
 10
201.8754
 20
101.74905
 30
0.0
 11
201.3561999999999
 21
102.86405
 31
0.0
  0
LINE
  5
5DA
330
1E
100
AcDbEntity
  8
0
100
AcDbLine
 10
205.0442375164612
 20
99.90577777763782
 30
0.0
 11
203.6253
 21
100.2690499999999
 31
0.0
  0
LINE
  5
5DB
330
1E
100
AcDbEntity
  8
0
100
AcDbLine
 10
205.1252
 20
99.88505000000001
 30
0.0
 11
203.6253
 21
100.2690499999999
 31
0.0
  0
LINE
  5
5DC
330
1E
100
AcDbEntity
  8
0
100
AcDbLine
 10
205.0097999999999
 20
99.90405
 30
0.0
 11
204.7371189655172
 21
99.9844053685188
 31
0.0
  0
LINE
  5
5DD
330
1E
100
AcDbEntity
  8
0
100
AcDbLine
 10
202.4329999999999
 20
101.0760499999999
 30
0.0
 11
202.2823605258353
 21
101.270382755633
 31
0.0
  0
LINE
  5
5DE
330
1E
100
AcDbEntity
  8
0
100
AcDbLine
 10
202.5291999999999
 20
100.98005
 30
0.0
 11
201.8754
 21
101.74905
 31
0.0
  0
LINE
  5
5DF
330
1E
100
AcDbEntity
  8
0
100
AcDbLine
 10
203.6253
 20
100.2690499999999
 30
0.0
 11
202.5291999999999
 21
100.98005
 31
0.0
  0
LINE
  5
5E0
330
1E
100
AcDbEntity
  8
0
100
AcDbLine
 10
211.2999999999999
 20
207.7930499999999
 30
0.0
 11
207.0
 21
207.7930499999999
 31
0.0
  0
LINE
  5
5E1
330
1E
100
AcDbEntity
  8
0
100
AcDbLine
 10
211.5
 20
203.2930499999999
 30
0.0
 11
208.4999999999999
 21
205.7930499999999
 31
0.0
  0
LINE
  5
5E2
330
1E
100
AcDbEntity
  8
0
100
AcDbLine
 10
215.0999999999999
 20
212.79305
 30
0.0
 11
208.8
 21
212.79305
 31
0.0
  0
LINE
  5
5E3
330
1E
100
AcDbEntity
  8
0
100
AcDbLine
 10
216.5999999999999
 20
209.7930499999999
 30
0.0
 11
211.0
 21
209.7930499999999
 31
0.0
  0
LINE
  5
5E4
330
1E
100
AcDbEntity
  8
0
100
AcDbLine
 10
214.5421
 20
110.5760499999999
 30
0.0
 11
210.9979999999999
 21
111.10305
 31
0.0
  0
LINE
  5
5E5
330
1E
100
AcDbEntity
  8
0
100
AcDbLine
 10
245.0
 20
158.2930499999999
 30
0.0
 11
245.0
 21
194.79305
 31
0.0
  0
LINE
  5
5E6
330
1E
100
AcDbEntity
  8
0
100
AcDbLine
 10
215.0
 20
158.2930499999999
 30
0.0
 11
215.0
 21
194.79305
 31
0.0
  0
LINE
  5
5E7
330
1E
100
AcDbEntity
  8
0
100
AcDbLine
 10
215.0
 20
194.79305
 30
0.0
 11
215.0
 21
158.2930499999999
 31
0.0
  0
LINE
  5
5E8
330
1E
100
AcDbEntity
  8
0
100
AcDbLine
 10
245.0
 20
194.79305
 30
0.0
 11
245.0
 21
158.2930499999999
 31
0.0
  0
LINE
  5
5E9
330
1E
100
AcDbEntity
  8
0
100
AcDbLine
 10
252.9771
 20
111.58105
 30
0.0
 11
249.002
 21
111.10305
 31
0.0
  0
LINE
  5
5EA
330
1E
100
AcDbEntity
  8
0
100
AcDbLine
 10
257.4708
 20
110.6060499999999
 30
0.0
 11
256.3747
 21
111.31705
 31
0.0
  0
LINE
  5
5EB
330
1E
100
AcDbEntity
  8
0
100
AcDbLine
 10
258.1245999999999
 20
109.83705
 30
0.0
 11
257.4708
 21
110.6060499999999
 31
0.0
  0
LINE
  5
5EC
330
1E
100
AcDbEntity
  8
0
100
AcDbLine
 10
258.6438
 20
108.7220499999999
 30
0.0
 11
258.1245999999999
 21
109.83705
 31
0.0
  0
LINE
  5
5ED
330
1E
100
AcDbEntity
  8
0
100
AcDbLine
 10
257.7176394741646
 20
110.315717244367
 30
0.0
 11
257.532654863651
 21
110.5332962677459
 31
0.0
  0
LINE
  5
5EE
330
1E
100
AcDbEntity
  8
0
100
AcDbLine
 10
257.7176394741646
 20
110.315717244367
 30
0.0
 11
257.567
 21
110.51005
 31
0.0
  0
LINE
  5
5EF
330
1E
100
AcDbEntity
  8
0
100
AcDbLine
 10
254.8748
 20
111.7010499999999
 30
0.0
 11
252.9771
 21
111.58105
 31
0.0
  0
LINE
  5
5F0
330
1E
100
AcDbEntity
  8
0
100
AcDbLine
 10
255.2628810344823
 20
111.6016946314809
 30
0.0
 11
254.9902
 21
111.6820499999999
 31
0.0
  0
LINE
  5
5F1
330
1E
100
AcDbEntity
  8
0
100
AcDbLine
 10
256.3747
 20
111.31705
 30
0.0
 11
254.8748
 21
111.7010499999999
 31
0.0
  0
LINE
  5
5F2
330
1E
100
AcDbEntity
  8
0
100
AcDbLine
 10
253.1035999999999
 20
111.6000499999999
 30
0.0
 11
252.4638321295076
 21
111.519330284246
 31
0.0
  0
LINE
  5
5F3
330
1E
100
AcDbEntity
  8
0
100
AcDbLine
 10
253.6600409962612
 20
111.6242353926079
 30
0.0
 11
253.1035999999999
 21
111.6000499999999
 31
0.0
  0
LINE
  5
5F4
330
1E
100
AcDbEntity
  8
0
100
AcDbLine
 10
253.6600409962612
 20
111.6242353926079
 30
0.0
 11
253.1035999999999
 21
111.6000499999999
 31
0.0
  0
LINE
  5
5F5
330
1E
100
AcDbEntity
  8
0
100
AcDbLine
 10
242.0
 20
134.7930499999999
 30
0.0
 11
242.0
 21
146.79305
 31
0.0
  0
LINE
  5
5F6
330
1E
100
AcDbEntity
  8
0
100
AcDbLine
 10
218.0
 20
146.79305
 30
0.0
 11
218.0
 21
134.7930499999999
 31
0.0
  0
LINE
  5
5F7
330
1E
100
AcDbEntity
  8
0
100
AcDbLine
 10
242.0
 20
146.79305
 30
0.0
 11
242.0
 21
134.7930499999999
 31
0.0
  0
LINE
  5
5F8
330
1E
100
AcDbEntity
  8
0
100
AcDbLine
 10
218.0
 20
134.7930499999999
 30
0.0
 11
218.0
 21
146.79305
 31
0.0
  0
LINE
  5
5F9
330
1E
100
AcDbEntity
  8
0
100
AcDbLine
 10
233.0999999999999
 20
134.7930499999999
 30
0.0
 11
230.0
 21
134.7930499999999
 31
0.0
  0
LINE
  5
5FA
330
1E
100
AcDbEntity
  8
0
100
AcDbLine
 10
233.0
 20
134.29305
 30
0.0
 11
230.0
 21
134.29305
 31
0.0
  0
LINE
  5
5FB
330
1E
100
AcDbEntity
  8
0
100
AcDbLine
 10
233.0999999999999
 20
133.7930499999999
 30
0.0
 11
230.0
 21
133.7930499999999
 31
0.0
  0
LINE
  5
5FC
330
1E
100
AcDbEntity
  8
0
100
AcDbLine
 10
233.0999999999999
 20
132.29305
 30
0.0
 11
230.0
 21
132.29305
 31
0.0
  0
LINE
  5
5FD
330
1E
100
AcDbEntity
  8
0
100
AcDbLine
 10
233.0
 20
131.7930499999999
 30
0.0
 11
231.4999999999999
 21
131.7930499999999
 31
0.0
  0
LINE
  5
5FE
330
1E
100
AcDbEntity
  8
0
100
AcDbLine
 10
233.0
 20
131.7930499999999
 30
0.0
 11
230.0
 21
131.7930499999999
 31
0.0
  0
LINE
  5
5FF
330
1E
100
AcDbEntity
  8
0
100
AcDbLine
 10
232.1464
 20
110.5760499999999
 30
0.0
 11
231.3751856100163
 21
110.9644578588699
 31
0.0
  0
LINE
  5
600
330
1E
100
AcDbEntity
  8
0
100
AcDbLine
 10
231.6999999999999
 20
120.79305
 30
0.0
 11
230.0
 21
120.79305
 31
0.0
  0
LINE
  5
601
330
1E
100
AcDbEntity
  8
0
100
AcDbLine
 10
231.6999999999999
 20
112.7930499999999
 30
0.0
 11
230.0
 21
112.7930499999999
 31
0.0
  0
LINE
  5
602
330
1E
100
AcDbEntity
  8
0
100
AcDbLine
 10
231.8
 20
108.74205
 30
0.0
 11
231.3
 21
111.20205
 31
0.0
  0
LINE
  5
603
330
1E
100
AcDbEntity
  8
0
100
AcDbLine
 10
236.0
 20
120.79305
 30
0.0
 11
236.0
 21
131.7930499999999
 31
0.0
  0
LINE
  5
604
330
1E
100
AcDbEntity
  8
0
100
AcDbLine
 10
236.0
 20
131.7930499999999
 30
0.0
 11
236.0
 21
120.79305
 31
0.0
  0
LINE
  5
605
330
1E
100
AcDbEntity
  8
0
100
AcDbLine
 10
242.704
 20
110.2410499999999
 30
0.0
 11
240.4222999999999
 21
109.9360499999999
 31
0.0
  0
LINE
  5
606
330
1E
100
AcDbEntity
  8
0
100
AcDbLine
 10
247.2000072860919
 20
110.835097583243
 30
0.0
 11
245.1382
 21
110.5500499999999
 31
0.0
  0
LINE
  5
607
330
1E
100
AcDbEntity
  8
0
100
AcDbLine
 10
249.002
 20
111.10305
 30
0.0
 11
245.4578999999999
 21
110.5760499999999
 31
0.0
  0
LINE
  5
608
330
1E
100
AcDbEntity
  8
0
100
AcDbLine
 10
245.4578999999999
 20
110.5760499999999
 30
0.0
 11
245.1382
 21
110.5500499999999
 31
0.0
  0
LINE
  5
609
330
1E
100
AcDbEntity
  8
0
100
AcDbLine
 10
245.4578999999999
 20
110.5760499999999
 30
0.0
 11
242.704
 21
110.2410499999999
 31
0.0
  0
LINE
  5
60A
330
1E
100
AcDbEntity
  8
0
100
AcDbLine
 10
236.5
 20
112.7930499999999
 30
0.0
 11
236.5
 21
120.79305
 31
0.0
  0
LINE
  5
60B
330
1E
100
AcDbEntity
  8
0
100
AcDbLine
 10
236.5
 20
120.79305
 30
0.0
 11
236.5
 21
112.7930499999999
 31
0.0
  0
LINE
  5
60C
330
1E
100
AcDbEntity
  8
0
100
AcDbLine
 10
238.0
 20
110.7930499999999
 30
0.0
 11
236.5
 21
112.7930499999999
 31
0.0
  0
LINE
  5
60D
330
1E
100
AcDbEntity
  8
0
100
AcDbLine
 10
236.9
 20
110.7930499999999
 30
0.0
 11
235.5999999999999
 21
110.7930499999999
 31
0.0
  0
LINE
  5
60E
330
1E
100
AcDbEntity
  8
0
100
AcDbLine
 10
238.5
 20
109.7930499999999
 30
0.0
 11
236.0
 21
109.9360499999999
 31
0.0
  0
LINE
  5
60F
330
1E
100
AcDbEntity
  8
0
100
AcDbLine
 10
240.4664645953053
 20
109.9708951348979
 30
0.0
 11
238.0
 21
110.7930499999999
 31
0.0
  0
LINE
  5
610
330
1E
100
AcDbEntity
  8
0
100
AcDbLine
 10
240.4222999999999
 20
109.9360499999999
 30
0.0
 11
238.5
 21
109.7930499999999
 31
0.0
  0
LINE
  5
611
330
1E
100
AcDbEntity
  8
0
100
AcDbLine
 10
238.0
 20
110.7930499999999
 30
0.0
 11
237.6999999999999
 21
110.7930499999999
 31
0.0
  0
LINE
  5
612
330
1E
100
AcDbEntity
  8
0
100
AcDbLine
 10
237.6999999999999
 20
110.7930499999999
 30
0.0
 11
236.9
 21
110.7930499999999
 31
0.0
  0
LINE
  5
613
330
1E
100
AcDbEntity
  8
0
100
AcDbLine
 10
233.9902
 20
110.2410499999999
 30
0.0
 11
232.1464
 21
110.5760499999999
 31
0.0
  0
LINE
  5
614
330
1E
100
AcDbEntity
  8
0
100
AcDbLine
 10
236.0
 20
109.9360499999999
 30
0.0
 11
233.9902
 21
110.2410499999999
 31
0.0
  0
LINE
  5
615
330
1E
100
AcDbEntity
  8
0
100
AcDbLine
 10
234.6
 20
112.7930499999999
 30
0.0
 11
233.1999999999999
 21
112.7930499999999
 31
0.0
  0
LINE
  5
616
330
1E
100
AcDbEntity
  8
0
100
AcDbLine
 10
235.5999999999999
 20
110.7930499999999
 30
0.0
 11
234.0
 21
110.7930499999999
 31
0.0
  0
LINE
  5
617
330
1E
100
AcDbEntity
  8
0
100
AcDbLine
 10
235.5999999999999
 20
112.7930499999999
 30
0.0
 11
234.6
 21
112.7930499999999
 31
0.0
  0
LINE
  5
618
330
1E
100
AcDbEntity
  8
0
100
AcDbLine
 10
236.5
 20
112.7930499999999
 30
0.0
 11
236.2999999999999
 21
112.7930499999999
 31
0.0
  0
LINE
  5
619
330
1E
100
AcDbEntity
  8
0
100
AcDbLine
 10
236.2999999999999
 20
112.7930499999999
 30
0.0
 11
235.5999999999999
 21
112.7930499999999
 31
0.0
  0
LINE
  5
61A
330
1E
100
AcDbEntity
  8
0
100
AcDbLine
 10
232.1
 20
110.7930499999999
 30
0.0
 11
231.7155294117646
 21
110.7930499999999
 31
0.0
  0
LINE
  5
61B
330
1E
100
AcDbEntity
  8
0
100
AcDbLine
 10
233.1999999999999
 20
112.7930499999999
 30
0.0
 11
231.6999999999999
 21
112.7930499999999
 31
0.0
  0
LINE
  5
61C
330
1E
100
AcDbEntity
  8
0
100
AcDbLine
 10
234.0
 20
110.7930499999999
 30
0.0
 11
232.1
 21
110.7930499999999
 31
0.0
  0
LINE
  5
61D
330
1E
100
AcDbEntity
  8
0
100
AcDbLine
 10
234.6
 20
120.79305
 30
0.0
 11
233.1999999999999
 21
120.79305
 31
0.0
  0
LINE
  5
61E
330
1E
100
AcDbEntity
  8
0
100
AcDbLine
 10
235.5999999999999
 20
120.79305
 30
0.0
 11
234.6
 21
120.79305
 31
0.0
  0
LINE
  5
61F
330
1E
100
AcDbEntity
  8
0
100
AcDbLine
 10
236.5
 20
120.79305
 30
0.0
 11
236.2999999999999
 21
120.79305
 31
0.0
  0
LINE
  5
620
330
1E
100
AcDbEntity
  8
0
100
AcDbLine
 10
236.2999999999999
 20
120.79305
 30
0.0
 11
235.5999999999999
 21
120.79305
 31
0.0
  0
LINE
  5
621
330
1E
100
AcDbEntity
  8
0
100
AcDbLine
 10
233.1999999999999
 20
120.79305
 30
0.0
 11
231.6999999999999
 21
120.79305
 31
0.0
  0
LINE
  5
622
330
1E
100
AcDbEntity
  8
0
100
AcDbLine
 10
242.0
 20
134.7930499999999
 30
0.0
 11
241.5999999999999
 21
134.7930499999999
 31
0.0
  0
LINE
  5
623
330
1E
100
AcDbEntity
  8
0
100
AcDbLine
 10
242.0
 20
134.7930499999999
 30
0.0
 11
241.5
 21
134.29305
 31
0.0
  0
LINE
  5
624
330
1E
100
AcDbEntity
  8
0
100
AcDbLine
 10
242.0
 20
133.7930499999999
 30
0.0
 11
241.5999999999999
 21
133.7930499999999
 31
0.0
  0
LINE
  5
625
330
1E
100
AcDbEntity
  8
0
100
AcDbLine
 10
242.0
 20
133.7930499999999
 30
0.0
 11
241.5
 21
134.29305
 31
0.0
  0
LINE
  5
626
330
1E
100
AcDbEntity
  8
0
100
AcDbLine
 10
242.0
 20
132.29305
 30
0.0
 11
241.5999999999999
 21
132.29305
 31
0.0
  0
LINE
  5
627
330
1E
100
AcDbEntity
  8
0
100
AcDbLine
 10
242.0
 20
132.29305
 30
0.0
 11
241.5
 21
131.7930499999999
 31
0.0
  0
LINE
  5
628
330
1E
100
AcDbEntity
  8
0
100
AcDbLine
 10
242.0
 20
133.7930499999999
 30
0.0
 11
242.0
 21
132.29305
 31
0.0
  0
LINE
  5
629
330
1E
100
AcDbEntity
  8
0
100
AcDbLine
 10
242.0
 20
132.29305
 30
0.0
 11
242.0
 21
133.7930499999999
 31
0.0
  0
LINE
  5
62A
330
1E
100
AcDbEntity
  8
0
100
AcDbLine
 10
238.5
 20
134.7930499999999
 30
0.0
 11
236.0
 21
134.7930499999999
 31
0.0
  0
LINE
  5
62B
330
1E
100
AcDbEntity
  8
0
100
AcDbLine
 10
238.0999999999999
 20
134.29305
 30
0.0
 11
235.6999999999999
 21
134.29305
 31
0.0
  0
LINE
  5
62C
330
1E
100
AcDbEntity
  8
0
100
AcDbLine
 10
238.5
 20
133.7930499999999
 30
0.0
 11
236.0
 21
133.7930499999999
 31
0.0
  0
LINE
  5
62D
330
1E
100
AcDbEntity
  8
0
100
AcDbLine
 10
238.5
 20
132.29305
 30
0.0
 11
236.0
 21
132.29305
 31
0.0
  0
LINE
  5
62E
330
1E
100
AcDbEntity
  8
0
100
AcDbLine
 10
238.0999999999999
 20
131.7930499999999
 30
0.0
 11
235.6999999999999
 21
131.7930499999999
 31
0.0
  0
LINE
  5
62F
330
1E
100
AcDbEntity
  8
0
100
AcDbLine
 10
238.0999999999999
 20
131.7930499999999
 30
0.0
 11
236.0
 21
131.7930499999999
 31
0.0
  0
LINE
  5
630
330
1E
100
AcDbEntity
  8
0
100
AcDbLine
 10
240.3999999999999
 20
134.7930499999999
 30
0.0
 11
238.5
 21
134.7930499999999
 31
0.0
  0
LINE
  5
631
330
1E
100
AcDbEntity
  8
0
100
AcDbLine
 10
240.0
 20
134.29305
 30
0.0
 11
238.0999999999999
 21
134.29305
 31
0.0
  0
LINE
  5
632
330
1E
100
AcDbEntity
  8
0
100
AcDbLine
 10
240.3999999999999
 20
133.7930499999999
 30
0.0
 11
238.5
 21
133.7930499999999
 31
0.0
  0
LINE
  5
633
330
1E
100
AcDbEntity
  8
0
100
AcDbLine
 10
240.3999999999999
 20
132.29305
 30
0.0
 11
238.5
 21
132.29305
 31
0.0
  0
LINE
  5
634
330
1E
100
AcDbEntity
  8
0
100
AcDbLine
 10
240.0
 20
131.7930499999999
 30
0.0
 11
238.0999999999999
 21
131.7930499999999
 31
0.0
  0
LINE
  5
635
330
1E
100
AcDbEntity
  8
0
100
AcDbLine
 10
241.5
 20
131.7930499999999
 30
0.0
 11
241.1
 21
131.7930499999999
 31
0.0
  0
LINE
  5
636
330
1E
100
AcDbEntity
  8
0
100
AcDbLine
 10
241.5999999999999
 20
134.7930499999999
 30
0.0
 11
240.3999999999999
 21
134.7930499999999
 31
0.0
  0
LINE
  5
637
330
1E
100
AcDbEntity
  8
0
100
AcDbLine
 10
241.5
 20
134.29305
 30
0.0
 11
241.1
 21
134.29305
 31
0.0
  0
LINE
  5
638
330
1E
100
AcDbEntity
  8
0
100
AcDbLine
 10
241.1
 20
134.29305
 30
0.0
 11
240.0
 21
134.29305
 31
0.0
  0
LINE
  5
639
330
1E
100
AcDbEntity
  8
0
100
AcDbLine
 10
241.5999999999999
 20
133.7930499999999
 30
0.0
 11
240.3999999999999
 21
133.7930499999999
 31
0.0
  0
LINE
  5
63A
330
1E
100
AcDbEntity
  8
0
100
AcDbLine
 10
241.5999999999999
 20
132.29305
 30
0.0
 11
240.3999999999999
 21
132.29305
 31
0.0
  0
LINE
  5
63B
330
1E
100
AcDbEntity
  8
0
100
AcDbLine
 10
241.1
 20
131.7930499999999
 30
0.0
 11
240.0
 21
131.7930499999999
 31
0.0
  0
LINE
  5
63C
330
1E
100
AcDbEntity
  8
0
100
AcDbLine
 10
236.0
 20
134.7930499999999
 30
0.0
 11
233.0999999999999
 21
134.7930499999999
 31
0.0
  0
LINE
  5
63D
330
1E
100
AcDbEntity
  8
0
100
AcDbLine
 10
235.6999999999999
 20
134.29305
 30
0.0
 11
233.0
 21
134.29305
 31
0.0
  0
LINE
  5
63E
330
1E
100
AcDbEntity
  8
0
100
AcDbLine
 10
236.0
 20
133.7930499999999
 30
0.0
 11
233.0999999999999
 21
133.7930499999999
 31
0.0
  0
LINE
  5
63F
330
1E
100
AcDbEntity
  8
0
100
AcDbLine
 10
236.0
 20
132.29305
 30
0.0
 11
233.0999999999999
 21
132.29305
 31
0.0
  0
LINE
  5
640
330
1E
100
AcDbEntity
  8
0
100
AcDbLine
 10
235.6999999999999
 20
131.7930499999999
 30
0.0
 11
233.0
 21
131.7930499999999
 31
0.0
  0
LINE
  5
641
330
1E
100
AcDbEntity
  8
0
100
AcDbLine
 10
234.2
 20
131.7930499999999
 30
0.0
 11
233.0
 21
131.7930499999999
 31
0.0
  0
LINE
  5
642
330
1E
100
AcDbEntity
  8
0
100
AcDbLine
 10
235.1999999999999
 20
131.7930499999999
 30
0.0
 11
234.2
 21
131.7930499999999
 31
0.0
  0
LINE
  5
643
330
1E
100
AcDbEntity
  8
0
100
AcDbLine
 10
235.8
 20
131.7930499999999
 30
0.0
 11
235.1999999999999
 21
131.7930499999999
 31
0.0
  0
LINE
  5
644
330
1E
100
AcDbEntity
  8
0
100
AcDbLine
 10
236.0
 20
131.7930499999999
 30
0.0
 11
235.8
 21
131.7930499999999
 31
0.0
  0
LINE
  5
645
330
1E
100
AcDbEntity
  8
0
100
AcDbLine
 10
224.0
 20
131.7930499999999
 30
0.0
 11
224.0
 21
120.79305
 31
0.0
  0
LINE
  5
646
330
1E
100
AcDbEntity
  8
0
100
AcDbLine
 10
224.0
 20
120.79305
 30
0.0
 11
224.0
 21
131.7930499999999
 31
0.0
  0
LINE
  5
647
330
1E
100
AcDbEntity
  8
0
100
AcDbLine
 10
221.4999999999999
 20
109.7930499999999
 30
0.0
 11
219.5777
 21
109.9360499999999
 31
0.0
  0
LINE
  5
648
330
1E
100
AcDbEntity
  8
0
100
AcDbLine
 10
222.0
 20
110.7930499999999
 30
0.0
 11
219.5335354046946
 21
109.9708951348979
 31
0.0
  0
LINE
  5
649
330
1E
100
AcDbEntity
  8
0
100
AcDbLine
 10
223.4999999999999
 20
120.79305
 30
0.0
 11
223.4999999999999
 21
112.7930499999999
 31
0.0
  0
LINE
  5
64A
330
1E
100
AcDbEntity
  8
0
100
AcDbLine
 10
223.4999999999999
 20
112.7930499999999
 30
0.0
 11
223.4999999999999
 21
120.79305
 31
0.0
  0
LINE
  5
64B
330
1E
100
AcDbEntity
  8
0
100
AcDbLine
 10
226.8
 20
112.7930499999999
 30
0.0
 11
225.4
 21
112.7930499999999
 31
0.0
  0
LINE
  5
64C
330
1E
100
AcDbEntity
  8
0
100
AcDbLine
 10
227.8535999999999
 20
110.5760499999999
 30
0.0
 11
226.0097999999999
 21
110.2410499999999
 31
0.0
  0
LINE
  5
64D
330
1E
100
AcDbEntity
  8
0
100
AcDbLine
 10
227.8999999999999
 20
110.7930499999999
 30
0.0
 11
226.0
 21
110.7930499999999
 31
0.0
  0
LINE
  5
64E
330
1E
100
AcDbEntity
  8
0
100
AcDbLine
 10
229.1999999999999
 20
110.6060499999999
 30
0.0
 11
229.1999999999999
 21
109.83705
 31
0.0
  0
LINE
  5
64F
330
1E
100
AcDbEntity
  8
0
100
AcDbLine
 10
228.6999999999999
 20
111.20205
 30
0.0
 11
228.2
 21
108.74205
 31
0.0
  0
LINE
  5
650
330
1E
100
AcDbEntity
  8
0
100
AcDbLine
 10
230.8
 20
110.6060499999999
 30
0.0
 11
230.8
 21
109.83705
 31
0.0
  0
LINE
  5
651
330
1E
100
AcDbEntity
  8
0
100
AcDbLine
 10
229.1999999999999
 20
109.83705
 30
0.0
 11
229.1999999999999
 21
110.6060499999999
 31
0.0
  0
LINE
  5
652
330
1E
100
AcDbEntity
  8
0
100
AcDbLine
 10
230.8
 20
109.83705
 30
0.0
 11
230.8
 21
110.6060499999999
 31
0.0
  0
LINE
  5
653
330
1E
100
AcDbEntity
  8
0
100
AcDbLine
 10
229.1999999999999
 20
108.7220499999999
 30
0.0
 11
229.1999999999999
 21
109.83705
 31
0.0
  0
LINE
  5
654
330
1E
100
AcDbEntity
  8
0
100
AcDbLine
 10
229.1999999999999
 20
109.83705
 30
0.0
 11
229.1999999999999
 21
108.7220499999999
 31
0.0
  0
LINE
  5
655
330
1E
100
AcDbEntity
  8
0
100
AcDbLine
 10
230.8
 20
108.7220499999999
 30
0.0
 11
230.8
 21
109.83705
 31
0.0
  0
LINE
  5
656
330
1E
100
AcDbEntity
  8
0
100
AcDbLine
 10
230.8
 20
109.83705
 30
0.0
 11
230.8
 21
108.7220499999999
 31
0.0
  0
LINE
  5
657
330
1E
100
AcDbEntity
  8
0
100
AcDbLine
 10
229.1999999999999
 20
111.7010499999999
 30
0.0
 11
228.6999999999999
 21
111.20205
 31
0.0
  0
LINE
  5
658
330
1E
100
AcDbEntity
  8
0
100
AcDbLine
 10
230.0
 20
112.7930499999999
 30
0.0
 11
228.3
 21
112.7930499999999
 31
0.0
  0
LINE
  5
659
330
1E
100
AcDbEntity
  8
0
100
AcDbLine
 10
229.1999999999999
 20
110.6060499999999
 30
0.0
 11
229.1999999999999
 21
111.31705
 31
0.0
  0
LINE
  5
65A
330
1E
100
AcDbEntity
  8
0
100
AcDbLine
 10
229.1999999999999
 20
111.31705
 30
0.0
 11
229.1999999999999
 21
111.7010499999999
 31
0.0
  0
LINE
  5
65B
330
1E
100
AcDbEntity
  8
0
100
AcDbLine
 10
229.1999999999999
 20
111.31705
 30
0.0
 11
229.1999999999999
 21
110.6060499999999
 31
0.0
  0
LINE
  5
65C
330
1E
100
AcDbEntity
  8
0
100
AcDbLine
 10
229.1999999999999
 20
111.7010499999999
 30
0.0
 11
229.1999999999999
 21
111.31705
 31
0.0
  0
LINE
  5
65D
330
1E
100
AcDbEntity
  8
0
100
AcDbLine
 10
230.0
 20
111.6820499999999
 30
0.0
 11
229.1999999999999
 21
111.7010499999999
 31
0.0
  0
LINE
  5
65E
330
1E
100
AcDbEntity
  8
0
100
AcDbLine
 10
230.8
 20
111.7010499999999
 30
0.0
 11
230.8
 21
111.31705
 31
0.0
  0
LINE
  5
65F
330
1E
100
AcDbEntity
  8
0
100
AcDbLine
 10
230.8
 20
111.7010499999999
 30
0.0
 11
230.0
 21
111.6820499999999
 31
0.0
  0
LINE
  5
660
330
1E
100
AcDbEntity
  8
0
100
AcDbLine
 10
230.8
 20
111.31705
 30
0.0
 11
230.8
 21
110.6060499999999
 31
0.0
  0
LINE
  5
661
330
1E
100
AcDbEntity
  8
0
100
AcDbLine
 10
230.8
 20
111.31705
 30
0.0
 11
230.8
 21
111.7010499999999
 31
0.0
  0
LINE
  5
662
330
1E
100
AcDbEntity
  8
0
100
AcDbLine
 10
231.3
 20
111.20205
 30
0.0
 11
230.8
 21
111.7010499999999
 31
0.0
  0
LINE
  5
663
330
1E
100
AcDbEntity
  8
0
100
AcDbLine
 10
230.8
 20
110.6060499999999
 30
0.0
 11
230.8
 21
111.31705
 31
0.0
  0
LINE
  5
664
330
1E
100
AcDbEntity
  8
0
100
AcDbLine
 10
228.3
 20
112.7930499999999
 30
0.0
 11
226.8
 21
112.7930499999999
 31
0.0
  0
LINE
  5
665
330
1E
100
AcDbEntity
  8
0
100
AcDbLine
 10
228.6248143899836
 20
110.9644578588699
 30
0.0
 11
227.8535999999999
 21
110.5760499999999
 31
0.0
  0
LINE
  5
666
330
1E
100
AcDbEntity
  8
0
100
AcDbLine
 10
228.2844705882353
 20
110.7930499999999
 30
0.0
 11
227.8999999999999
 21
110.7930499999999
 31
0.0
  0
LINE
  5
667
330
1E
100
AcDbEntity
  8
0
100
AcDbLine
 10
224.0
 20
109.9360499999999
 30
0.0
 11
221.4999999999999
 21
109.7930499999999
 31
0.0
  0
LINE
  5
668
330
1E
100
AcDbEntity
  8
0
100
AcDbLine
 10
226.0097999999999
 20
110.2410499999999
 30
0.0
 11
224.0
 21
109.9360499999999
 31
0.0
  0
LINE
  5
669
330
1E
100
AcDbEntity
  8
0
100
AcDbLine
 10
224.4
 20
112.7930499999999
 30
0.0
 11
223.7
 21
112.7930499999999
 31
0.0
  0
LINE
  5
66A
330
1E
100
AcDbEntity
  8
0
100
AcDbLine
 10
224.4
 20
110.7930499999999
 30
0.0
 11
223.0999999999999
 21
110.7930499999999
 31
0.0
  0
LINE
  5
66B
330
1E
100
AcDbEntity
  8
0
100
AcDbLine
 10
225.4
 20
112.7930499999999
 30
0.0
 11
224.4
 21
112.7930499999999
 31
0.0
  0
LINE
  5
66C
330
1E
100
AcDbEntity
  8
0
100
AcDbLine
 10
226.0
 20
110.7930499999999
 30
0.0
 11
224.4
 21
110.7930499999999
 31
0.0
  0
LINE
  5
66D
330
1E
100
AcDbEntity
  8
0
100
AcDbLine
 10
222.3
 20
110.7930499999999
 30
0.0
 11
222.0
 21
110.7930499999999
 31
0.0
  0
LINE
  5
66E
330
1E
100
AcDbEntity
  8
0
100
AcDbLine
 10
223.4999999999999
 20
112.7930499999999
 30
0.0
 11
222.0
 21
110.7930499999999
 31
0.0
  0
LINE
  5
66F
330
1E
100
AcDbEntity
  8
0
100
AcDbLine
 10
223.0999999999999
 20
110.7930499999999
 30
0.0
 11
222.3
 21
110.7930499999999
 31
0.0
  0
LINE
  5
670
330
1E
100
AcDbEntity
  8
0
100
AcDbLine
 10
223.7
 20
112.7930499999999
 30
0.0
 11
223.4999999999999
 21
112.7930499999999
 31
0.0
  0
LINE
  5
671
330
1E
100
AcDbEntity
  8
0
100
AcDbLine
 10
226.8
 20
120.79305
 30
0.0
 11
225.4
 21
120.79305
 31
0.0
  0
LINE
  5
672
330
1E
100
AcDbEntity
  8
0
100
AcDbLine
 10
230.0
 20
120.79305
 30
0.0
 11
228.3
 21
120.79305
 31
0.0
  0
LINE
  5
673
330
1E
100
AcDbEntity
  8
0
100
AcDbLine
 10
228.3
 20
120.79305
 30
0.0
 11
226.8
 21
120.79305
 31
0.0
  0
LINE
  5
674
330
1E
100
AcDbEntity
  8
0
100
AcDbLine
 10
224.4
 20
120.79305
 30
0.0
 11
223.7
 21
120.79305
 31
0.0
  0
LINE
  5
675
330
1E
100
AcDbEntity
  8
0
100
AcDbLine
 10
225.4
 20
120.79305
 30
0.0
 11
224.4
 21
120.79305
 31
0.0
  0
LINE
  5
676
330
1E
100
AcDbEntity
  8
0
100
AcDbLine
 10
223.7
 20
120.79305
 30
0.0
 11
223.4999999999999
 21
120.79305
 31
0.0
  0
LINE
  5
677
330
1E
100
AcDbEntity
  8
0
100
AcDbLine
 10
217.2959999999999
 20
110.2410499999999
 30
0.0
 11
214.5421
 21
110.5760499999999
 31
0.0
  0
LINE
  5
678
330
1E
100
AcDbEntity
  8
0
100
AcDbLine
 10
219.5777
 20
109.9360499999999
 30
0.0
 11
217.2959999999999
 21
110.2410499999999
 31
0.0
  0
LINE
  5
679
330
1E
100
AcDbEntity
  8
0
100
AcDbLine
 10
214.8618
 20
110.5500499999999
 30
0.0
 11
212.7999927139081
 21
110.835097583243
 31
0.0
  0
LINE
  5
67A
330
1E
100
AcDbEntity
  8
0
100
AcDbLine
 10
214.8618
 20
110.5500499999999
 30
0.0
 11
214.5421
 21
110.5760499999999
 31
0.0
  0
LINE
  5
67B
330
1E
100
AcDbEntity
  8
0
100
AcDbLine
 10
221.4999999999999
 20
134.7930499999999
 30
0.0
 11
219.6
 21
134.7930499999999
 31
0.0
  0
LINE
  5
67C
330
1E
100
AcDbEntity
  8
0
100
AcDbLine
 10
221.9
 20
134.29305
 30
0.0
 11
220.0
 21
134.29305
 31
0.0
  0
LINE
  5
67D
330
1E
100
AcDbEntity
  8
0
100
AcDbLine
 10
221.4999999999999
 20
133.7930499999999
 30
0.0
 11
219.6
 21
133.7930499999999
 31
0.0
  0
LINE
  5
67E
330
1E
100
AcDbEntity
  8
0
100
AcDbLine
 10
221.4999999999999
 20
132.29305
 30
0.0
 11
219.6
 21
132.29305
 31
0.0
  0
LINE
  5
67F
330
1E
100
AcDbEntity
  8
0
100
AcDbLine
 10
221.9
 20
131.7930499999999
 30
0.0
 11
220.0
 21
131.7930499999999
 31
0.0
  0
LINE
  5
680
330
1E
100
AcDbEntity
  8
0
100
AcDbLine
 10
226.9
 20
134.7930499999999
 30
0.0
 11
224.0
 21
134.7930499999999
 31
0.0
  0
LINE
  5
681
330
1E
100
AcDbEntity
  8
0
100
AcDbLine
 10
227.0
 20
134.29305
 30
0.0
 11
224.3
 21
134.29305
 31
0.0
  0
LINE
  5
682
330
1E
100
AcDbEntity
  8
0
100
AcDbLine
 10
226.9
 20
133.7930499999999
 30
0.0
 11
224.0
 21
133.7930499999999
 31
0.0
  0
LINE
  5
683
330
1E
100
AcDbEntity
  8
0
100
AcDbLine
 10
226.9
 20
132.29305
 30
0.0
 11
224.0
 21
132.29305
 31
0.0
  0
LINE
  5
684
330
1E
100
AcDbEntity
  8
0
100
AcDbLine
 10
227.0
 20
131.7930499999999
 30
0.0
 11
225.8
 21
131.7930499999999
 31
0.0
  0
LINE
  5
685
330
1E
100
AcDbEntity
  8
0
100
AcDbLine
 10
227.0
 20
131.7930499999999
 30
0.0
 11
224.3
 21
131.7930499999999
 31
0.0
  0
LINE
  5
686
330
1E
100
AcDbEntity
  8
0
100
AcDbLine
 10
230.0
 20
134.7930499999999
 30
0.0
 11
226.9
 21
134.7930499999999
 31
0.0
  0
LINE
  5
687
330
1E
100
AcDbEntity
  8
0
100
AcDbLine
 10
230.0
 20
134.29305
 30
0.0
 11
227.0
 21
134.29305
 31
0.0
  0
LINE
  5
688
330
1E
100
AcDbEntity
  8
0
100
AcDbLine
 10
230.0
 20
133.7930499999999
 30
0.0
 11
226.9
 21
133.7930499999999
 31
0.0
  0
LINE
  5
689
330
1E
100
AcDbEntity
  8
0
100
AcDbLine
 10
230.0
 20
132.29305
 30
0.0
 11
226.9
 21
132.29305
 31
0.0
  0
LINE
  5
68A
330
1E
100
AcDbEntity
  8
0
100
AcDbLine
 10
230.0
 20
131.7930499999999
 30
0.0
 11
228.5
 21
131.7930499999999
 31
0.0
  0
LINE
  5
68B
330
1E
100
AcDbEntity
  8
0
100
AcDbLine
 10
230.0
 20
131.7930499999999
 30
0.0
 11
227.0
 21
131.7930499999999
 31
0.0
  0
LINE
  5
68C
330
1E
100
AcDbEntity
  8
0
100
AcDbLine
 10
231.4999999999999
 20
131.7930499999999
 30
0.0
 11
230.0
 21
131.7930499999999
 31
0.0
  0
LINE
  5
68D
330
1E
100
AcDbEntity
  8
0
100
AcDbLine
 10
228.5
 20
131.7930499999999
 30
0.0
 11
227.0
 21
131.7930499999999
 31
0.0
  0
LINE
  5
68E
330
1E
100
AcDbEntity
  8
0
100
AcDbLine
 10
224.0
 20
134.7930499999999
 30
0.0
 11
221.4999999999999
 21
134.7930499999999
 31
0.0
  0
LINE
  5
68F
330
1E
100
AcDbEntity
  8
0
100
AcDbLine
 10
224.3
 20
134.29305
 30
0.0
 11
221.9
 21
134.29305
 31
0.0
  0
LINE
  5
690
330
1E
100
AcDbEntity
  8
0
100
AcDbLine
 10
224.0
 20
133.7930499999999
 30
0.0
 11
221.4999999999999
 21
133.7930499999999
 31
0.0
  0
LINE
  5
691
330
1E
100
AcDbEntity
  8
0
100
AcDbLine
 10
224.0
 20
132.29305
 30
0.0
 11
221.4999999999999
 21
132.29305
 31
0.0
  0
LINE
  5
692
330
1E
100
AcDbEntity
  8
0
100
AcDbLine
 10
224.0
 20
131.7930499999999
 30
0.0
 11
221.9
 21
131.7930499999999
 31
0.0
  0
LINE
  5
693
330
1E
100
AcDbEntity
  8
0
100
AcDbLine
 10
224.3
 20
131.7930499999999
 30
0.0
 11
221.9
 21
131.7930499999999
 31
0.0
  0
LINE
  5
694
330
1E
100
AcDbEntity
  8
0
100
AcDbLine
 10
224.1999999999999
 20
131.7930499999999
 30
0.0
 11
224.0
 21
131.7930499999999
 31
0.0
  0
LINE
  5
695
330
1E
100
AcDbEntity
  8
0
100
AcDbLine
 10
224.8
 20
131.7930499999999
 30
0.0
 11
224.1999999999999
 21
131.7930499999999
 31
0.0
  0
LINE
  5
696
330
1E
100
AcDbEntity
  8
0
100
AcDbLine
 10
225.8
 20
131.7930499999999
 30
0.0
 11
224.8
 21
131.7930499999999
 31
0.0
  0
LINE
  5
697
330
1E
100
AcDbEntity
  8
0
100
AcDbLine
 10
219.6
 20
134.7930499999999
 30
0.0
 11
218.4
 21
134.7930499999999
 31
0.0
  0
LINE
  5
698
330
1E
100
AcDbEntity
  8
0
100
AcDbLine
 10
218.9
 20
134.29305
 30
0.0
 11
218.5
 21
134.29305
 31
0.0
  0
LINE
  5
699
330
1E
100
AcDbEntity
  8
0
100
AcDbLine
 10
219.6
 20
133.7930499999999
 30
0.0
 11
218.4
 21
133.7930499999999
 31
0.0
  0
LINE
  5
69A
330
1E
100
AcDbEntity
  8
0
100
AcDbLine
 10
219.6
 20
132.29305
 30
0.0
 11
218.4
 21
132.29305
 31
0.0
  0
LINE
  5
69B
330
1E
100
AcDbEntity
  8
0
100
AcDbLine
 10
218.9
 20
131.7930499999999
 30
0.0
 11
218.5
 21
131.7930499999999
 31
0.0
  0
LINE
  5
69C
330
1E
100
AcDbEntity
  8
0
100
AcDbLine
 10
220.0
 20
134.29305
 30
0.0
 11
218.9
 21
134.29305
 31
0.0
  0
LINE
  5
69D
330
1E
100
AcDbEntity
  8
0
100
AcDbLine
 10
220.0
 20
131.7930499999999
 30
0.0
 11
218.9
 21
131.7930499999999
 31
0.0
  0
LINE
  5
69E
330
1E
100
AcDbEntity
  8
0
100
AcDbLine
 10
218.5
 20
134.29305
 30
0.0
 11
218.0
 21
133.7930499999999
 31
0.0
  0
LINE
  5
69F
330
1E
100
AcDbEntity
  8
0
100
AcDbLine
 10
218.5
 20
134.29305
 30
0.0
 11
218.0
 21
134.7930499999999
 31
0.0
  0
LINE
  5
6A0
330
1E
100
AcDbEntity
  8
0
100
AcDbLine
 10
218.0
 20
133.7930499999999
 30
0.0
 11
218.0
 21
132.29305
 31
0.0
  0
LINE
  5
6A1
330
1E
100
AcDbEntity
  8
0
100
AcDbLine
 10
218.4
 20
134.7930499999999
 30
0.0
 11
218.0
 21
134.7930499999999
 31
0.0
  0
LINE
  5
6A2
330
1E
100
AcDbEntity
  8
0
100
AcDbLine
 10
218.4
 20
133.7930499999999
 30
0.0
 11
218.0
 21
133.7930499999999
 31
0.0
  0
LINE
  5
6A3
330
1E
100
AcDbEntity
  8
0
100
AcDbLine
 10
218.0
 20
132.29305
 30
0.0
 11
218.0
 21
133.7930499999999
 31
0.0
  0
LINE
  5
6A4
330
1E
100
AcDbEntity
  8
0
100
AcDbLine
 10
218.4
 20
132.29305
 30
0.0
 11
218.0
 21
132.29305
 31
0.0
  0
LINE
  5
6A5
330
1E
100
AcDbEntity
  8
0
100
AcDbLine
 10
218.5
 20
131.7930499999999
 30
0.0
 11
218.0
 21
132.29305
 31
0.0
  0
LINE
  5
6A6
330
1E
100
AcDbEntity
  8
0
100
AcDbLine
 10
234.0
 20
156.7930499999999
 30
0.0
 11
230.0
 21
156.7930499999999
 31
0.0
  0
LINE
  5
6A7
330
1E
100
AcDbEntity
  8
0
100
AcDbLine
 10
234.2
 20
156.29305
 30
0.0
 11
230.0
 21
156.29305
 31
0.0
  0
LINE
  5
6A8
330
1E
100
AcDbEntity
  8
0
100
AcDbLine
 10
234.2
 20
153.2930499999999
 30
0.0
 11
230.0
 21
153.2930499999999
 31
0.0
  0
LINE
  5
6A9
330
1E
100
AcDbEntity
  8
0
100
AcDbLine
 10
234.1585
 20
152.79305
 30
0.0
 11
218.6585
 21
152.79305
 31
0.0
  0
LINE
  5
6AA
330
1E
100
AcDbEntity
  8
0
100
AcDbLine
 10
233.0999999999999
 20
146.79305
 30
0.0
 11
230.0
 21
146.79305
 31
0.0
  0
LINE
  5
6AB
330
1E
100
AcDbEntity
  8
0
100
AcDbLine
 10
234.1585
 20
146.79305
 30
0.0
 11
218.6585
 21
146.79305
 31
0.0
  0
LINE
  5
6AC
330
1E
100
AcDbEntity
  8
0
100
AcDbLine
 10
247.0
 20
154.7930499999999
 30
0.0
 11
246.4999999999999
 21
156.29305
 31
0.0
  0
LINE
  5
6AD
330
1E
100
AcDbEntity
  8
0
100
AcDbLine
 10
244.3
 20
153.2930499999999
 30
0.0
 11
241.6999999999999
 21
153.2930499999999
 31
0.0
  0
LINE
  5
6AE
330
1E
100
AcDbEntity
  8
0
100
AcDbLine
 10
242.0
 20
146.79305
 30
0.0
 11
241.5999999999999
 21
146.79305
 31
0.0
  0
LINE
  5
6AF
330
1E
100
AcDbEntity
  8
0
100
AcDbLine
 10
245.5
 20
146.79305
 30
0.0
 11
234.1585
 21
146.79305
 31
0.0
  0
LINE
  5
6B0
330
1E
100
AcDbEntity
  8
0
100
AcDbLine
 10
245.5
 20
152.79305
 30
0.0
 11
234.1585
 21
152.79305
 31
0.0
  0
LINE
  5
6B1
330
1E
100
AcDbEntity
  8
0
100
AcDbLine
 10
245.5
 20
146.79305
 30
0.0
 11
245.5
 21
152.79305
 31
0.0
  0
LINE
  5
6B2
330
1E
100
AcDbEntity
  8
0
100
AcDbLine
 10
245.5
 20
152.79305
 30
0.0
 11
245.5
 21
146.79305
 31
0.0
  0
LINE
  5
6B3
330
1E
100
AcDbEntity
  8
0
100
AcDbLine
 10
245.5
 20
146.79305
 30
0.0
 11
242.0
 21
146.79305
 31
0.0
  0
LINE
  5
6B4
330
1E
100
AcDbEntity
  8
0
100
AcDbLine
 10
247.0
 20
154.7930499999999
 30
0.0
 11
246.4999999999999
 21
153.2930499999999
 31
0.0
  0
LINE
  5
6B5
330
1E
100
AcDbEntity
  8
0
100
AcDbLine
 10
245.9
 20
153.2930499999999
 30
0.0
 11
244.3
 21
153.2930499999999
 31
0.0
  0
LINE
  5
6B6
330
1E
100
AcDbEntity
  8
0
100
AcDbLine
 10
246.4999999999999
 20
153.2930499999999
 30
0.0
 11
245.9
 21
153.2930499999999
 31
0.0
  0
LINE
  5
6B7
330
1E
100
AcDbEntity
  8
0
100
AcDbLine
 10
246.4999999999999
 20
153.2930499999999
 30
0.0
 11
245.0
 21
152.79305
 31
0.0
  0
LINE
  5
6B8
330
1E
100
AcDbEntity
  8
0
100
AcDbLine
 10
238.5
 20
146.79305
 30
0.0
 11
236.0
 21
146.79305
 31
0.0
  0
LINE
  5
6B9
330
1E
100
AcDbEntity
  8
0
100
AcDbLine
 10
240.3999999999999
 20
146.79305
 30
0.0
 11
238.5
 21
146.79305
 31
0.0
  0
LINE
  5
6BA
330
1E
100
AcDbEntity
  8
0
100
AcDbLine
 10
241.5999999999999
 20
146.79305
 30
0.0
 11
240.3999999999999
 21
146.79305
 31
0.0
  0
LINE
  5
6BB
330
1E
100
AcDbEntity
  8
0
100
AcDbLine
 10
236.0
 20
146.79305
 30
0.0
 11
233.0999999999999
 21
146.79305
 31
0.0
  0
LINE
  5
6BC
330
1E
100
AcDbEntity
  8
0
100
AcDbLine
 10
238.2
 20
153.2930499999999
 30
0.0
 11
234.2
 21
153.2930499999999
 31
0.0
  0
LINE
  5
6BD
330
1E
100
AcDbEntity
  8
0
100
AcDbLine
 10
241.6999999999999
 20
153.2930499999999
 30
0.0
 11
238.2
 21
153.2930499999999
 31
0.0
  0
LINE
  5
6BE
330
1E
100
AcDbEntity
  8
0
100
AcDbLine
 10
243.4
 20
156.7930499999999
 30
0.0
 11
240.9
 21
156.7930499999999
 31
0.0
  0
LINE
  5
6BF
330
1E
100
AcDbEntity
  8
0
100
AcDbLine
 10
244.3
 20
156.29305
 30
0.0
 11
241.6999999999999
 21
156.29305
 31
0.0
  0
LINE
  5
6C0
330
1E
100
AcDbEntity
  8
0
100
AcDbLine
 10
244.9
 20
156.7930499999999
 30
0.0
 11
243.4
 21
156.7930499999999
 31
0.0
  0
LINE
  5
6C1
330
1E
100
AcDbEntity
  8
0
100
AcDbLine
 10
245.5
 20
156.7930499999999
 30
0.0
 11
244.9
 21
156.7930499999999
 31
0.0
  0
LINE
  5
6C2
330
1E
100
AcDbEntity
  8
0
100
AcDbLine
 10
245.5
 20
156.7930499999999
 30
0.0
 11
245.0
 21
158.2930499999999
 31
0.0
  0
LINE
  5
6C3
330
1E
100
AcDbEntity
  8
0
100
AcDbLine
 10
246.4999999999999
 20
156.29305
 30
0.0
 11
245.9
 21
156.29305
 31
0.0
  0
LINE
  5
6C4
330
1E
100
AcDbEntity
  8
0
100
AcDbLine
 10
246.4999999999999
 20
156.29305
 30
0.0
 11
245.5
 21
156.7930499999999
 31
0.0
  0
LINE
  5
6C5
330
1E
100
AcDbEntity
  8
0
100
AcDbLine
 10
245.9
 20
156.29305
 30
0.0
 11
244.3
 21
156.29305
 31
0.0
  0
LINE
  5
6C6
330
1E
100
AcDbEntity
  8
0
100
AcDbLine
 10
237.6999999999999
 20
156.7930499999999
 30
0.0
 11
234.0
 21
156.7930499999999
 31
0.0
  0
LINE
  5
6C7
330
1E
100
AcDbEntity
  8
0
100
AcDbLine
 10
238.2
 20
156.29305
 30
0.0
 11
234.2
 21
156.29305
 31
0.0
  0
LINE
  5
6C8
330
1E
100
AcDbEntity
  8
0
100
AcDbLine
 10
240.9
 20
156.7930499999999
 30
0.0
 11
237.6999999999999
 21
156.7930499999999
 31
0.0
  0
LINE
  5
6C9
330
1E
100
AcDbEntity
  8
0
100
AcDbLine
 10
241.6999999999999
 20
156.29305
 30
0.0
 11
238.2
 21
156.29305
 31
0.0
  0
LINE
  5
6CA
330
1E
100
AcDbEntity
  8
0
100
AcDbLine
 10
213.5
 20
156.29305
 30
0.0
 11
213.0
 21
154.7930499999999
 31
0.0
  0
LINE
  5
6CB
330
1E
100
AcDbEntity
  8
0
100
AcDbLine
 10
221.7999999999999
 20
153.2930499999999
 30
0.0
 11
218.3
 21
153.2930499999999
 31
0.0
  0
LINE
  5
6CC
330
1E
100
AcDbEntity
  8
0
100
AcDbLine
 10
221.4999999999999
 20
146.79305
 30
0.0
 11
219.6
 21
146.79305
 31
0.0
  0
LINE
  5
6CD
330
1E
100
AcDbEntity
  8
0
100
AcDbLine
 10
226.9
 20
146.79305
 30
0.0
 11
224.0
 21
146.79305
 31
0.0
  0
LINE
  5
6CE
330
1E
100
AcDbEntity
  8
0
100
AcDbLine
 10
230.0
 20
146.79305
 30
0.0
 11
226.9
 21
146.79305
 31
0.0
  0
LINE
  5
6CF
330
1E
100
AcDbEntity
  8
0
100
AcDbLine
 10
224.0
 20
146.79305
 30
0.0
 11
221.4999999999999
 21
146.79305
 31
0.0
  0
LINE
  5
6D0
330
1E
100
AcDbEntity
  8
0
100
AcDbLine
 10
230.0
 20
153.2930499999999
 30
0.0
 11
225.8
 21
153.2930499999999
 31
0.0
  0
LINE
  5
6D1
330
1E
100
AcDbEntity
  8
0
100
AcDbLine
 10
225.8
 20
153.2930499999999
 30
0.0
 11
221.7999999999999
 21
153.2930499999999
 31
0.0
  0
LINE
  5
6D2
330
1E
100
AcDbEntity
  8
0
100
AcDbLine
 10
214.5
 20
152.79305
 30
0.0
 11
214.5
 21
146.79305
 31
0.0
  0
LINE
  5
6D3
330
1E
100
AcDbEntity
  8
0
100
AcDbLine
 10
214.5
 20
146.79305
 30
0.0
 11
214.5
 21
152.79305
 31
0.0
  0
LINE
  5
6D4
330
1E
100
AcDbEntity
  8
0
100
AcDbLine
 10
218.0
 20
146.79305
 30
0.0
 11
214.5
 21
146.79305
 31
0.0
  0
LINE
  5
6D5
330
1E
100
AcDbEntity
  8
0
100
AcDbLine
 10
218.6585
 20
146.79305
 30
0.0
 11
214.5
 21
146.79305
 31
0.0
  0
LINE
  5
6D6
330
1E
100
AcDbEntity
  8
0
100
AcDbLine
 10
219.6
 20
146.79305
 30
0.0
 11
218.4
 21
146.79305
 31
0.0
  0
LINE
  5
6D7
330
1E
100
AcDbEntity
  8
0
100
AcDbLine
 10
218.4
 20
146.79305
 30
0.0
 11
218.0
 21
146.79305
 31
0.0
  0
LINE
  5
6D8
330
1E
100
AcDbEntity
  8
0
100
AcDbLine
 10
218.3
 20
153.2930499999999
 30
0.0
 11
215.7
 21
153.2930499999999
 31
0.0
  0
LINE
  5
6D9
330
1E
100
AcDbEntity
  8
0
100
AcDbLine
 10
218.6585
 20
152.79305
 30
0.0
 11
214.5
 21
152.79305
 31
0.0
  0
LINE
  5
6DA
330
1E
100
AcDbEntity
  8
0
100
AcDbLine
 10
214.1
 20
153.2930499999999
 30
0.0
 11
213.5
 21
153.2930499999999
 31
0.0
  0
LINE
  5
6DB
330
1E
100
AcDbEntity
  8
0
100
AcDbLine
 10
215.0
 20
152.79305
 30
0.0
 11
213.5
 21
153.2930499999999
 31
0.0
  0
LINE
  5
6DC
330
1E
100
AcDbEntity
  8
0
100
AcDbLine
 10
215.7
 20
153.2930499999999
 30
0.0
 11
214.1
 21
153.2930499999999
 31
0.0
  0
LINE
  5
6DD
330
1E
100
AcDbEntity
  8
0
100
AcDbLine
 10
213.5
 20
153.2930499999999
 30
0.0
 11
213.0
 21
154.7930499999999
 31
0.0
  0
LINE
  5
6DE
330
1E
100
AcDbEntity
  8
0
100
AcDbLine
 10
222.3
 20
156.7930499999999
 30
0.0
 11
219.0999999999999
 21
156.7930499999999
 31
0.0
  0
LINE
  5
6DF
330
1E
100
AcDbEntity
  8
0
100
AcDbLine
 10
221.7999999999999
 20
156.29305
 30
0.0
 11
218.3
 21
156.29305
 31
0.0
  0
LINE
  5
6E0
330
1E
100
AcDbEntity
  8
0
100
AcDbLine
 10
230.0
 20
156.7930499999999
 30
0.0
 11
226.0
 21
156.7930499999999
 31
0.0
  0
LINE
  5
6E1
330
1E
100
AcDbEntity
  8
0
100
AcDbLine
 10
230.0
 20
156.29305
 30
0.0
 11
225.8
 21
156.29305
 31
0.0
  0
LINE
  5
6E2
330
1E
100
AcDbEntity
  8
0
100
AcDbLine
 10
226.0
 20
156.7930499999999
 30
0.0
 11
222.3
 21
156.7930499999999
 31
0.0
  0
LINE
  5
6E3
330
1E
100
AcDbEntity
  8
0
100
AcDbLine
 10
225.8
 20
156.29305
 30
0.0
 11
221.7999999999999
 21
156.29305
 31
0.0
  0
LINE
  5
6E4
330
1E
100
AcDbEntity
  8
0
100
AcDbLine
 10
216.5999999999999
 20
156.7930499999999
 30
0.0
 11
215.0999999999999
 21
156.7930499999999
 31
0.0
  0
LINE
  5
6E5
330
1E
100
AcDbEntity
  8
0
100
AcDbLine
 10
218.3
 20
156.29305
 30
0.0
 11
215.7
 21
156.29305
 31
0.0
  0
LINE
  5
6E6
330
1E
100
AcDbEntity
  8
0
100
AcDbLine
 10
219.0999999999999
 20
156.7930499999999
 30
0.0
 11
216.5999999999999
 21
156.7930499999999
 31
0.0
  0
LINE
  5
6E7
330
1E
100
AcDbEntity
  8
0
100
AcDbLine
 10
214.5
 20
156.7930499999999
 30
0.0
 11
213.5
 21
156.29305
 31
0.0
  0
LINE
  5
6E8
330
1E
100
AcDbEntity
  8
0
100
AcDbLine
 10
214.1
 20
156.29305
 30
0.0
 11
213.5
 21
156.29305
 31
0.0
  0
LINE
  5
6E9
330
1E
100
AcDbEntity
  8
0
100
AcDbLine
 10
215.0
 20
158.2930499999999
 30
0.0
 11
214.5
 21
156.7930499999999
 31
0.0
  0
LINE
  5
6EA
330
1E
100
AcDbEntity
  8
0
100
AcDbLine
 10
215.0999999999999
 20
156.7930499999999
 30
0.0
 11
214.5
 21
156.7930499999999
 31
0.0
  0
LINE
  5
6EB
330
1E
100
AcDbEntity
  8
0
100
AcDbLine
 10
215.7
 20
156.29305
 30
0.0
 11
214.1
 21
156.29305
 31
0.0
  0
LINE
  5
6EC
330
1E
100
AcDbEntity
  8
0
100
AcDbLine
 10
256.0
 20
212.79305
 30
0.0
 11
251.2
 21
212.79305
 31
0.0
  0
LINE
  5
6ED
330
1E
100
AcDbEntity
  8
0
100
AcDbLine
 10
253.4
 20
209.7930499999999
 30
0.0
 11
249.0
 21
209.7930499999999
 31
0.0
  0
LINE
  5
6EE
330
1E
100
AcDbEntity
  8
0
100
AcDbLine
 10
256.4999999999999
 20
207.7930499999999
 30
0.0
 11
251.5
 21
205.7930499999999
 31
0.0
  0
LINE
  5
6EF
330
1E
100
AcDbEntity
  8
0
100
AcDbLine
 10
253.0
 20
207.7930499999999
 30
0.0
 11
248.7
 21
207.7930499999999
 31
0.0
  0
LINE
  5
6F0
330
1E
100
AcDbEntity
  8
0
100
AcDbLine
 10
258.9
 20
212.79305
 30
0.0
 11
256.0
 21
212.79305
 31
0.0
  0
LINE
  5
6F1
330
1E
100
AcDbEntity
  8
0
100
AcDbLine
 10
258.9
 20
212.79305
 30
0.0
 11
256.0
 21
212.79305
 31
0.0
  0
LINE
  5
6F2
330
1E
100
AcDbEntity
  8
0
100
AcDbLine
 10
257.0
 20
208.79305
 30
0.0
 11
256.4999999999999
 21
207.7930499999999
 31
0.0
  0
LINE
  5
6F3
330
1E
100
AcDbEntity
  8
0
100
AcDbLine
 10
257.0
 20
209.7930499999999
 30
0.0
 11
256.0
 21
209.7930499999999
 31
0.0
  0
LINE
  5
6F4
330
1E
100
AcDbEntity
  8
0
100
AcDbLine
 10
259.5
 20
211.29305
 30
0.0
 11
258.4999999999999
 21
210.2930499999999
 31
0.0
  0
LINE
  5
6F5
330
1E
100
AcDbEntity
  8
0
100
AcDbLine
 10
258.4999999999999
 20
210.2930499999999
 30
0.0
 11
257.0
 21
209.7930499999999
 31
0.0
  0
LINE
  5
6F6
330
1E
100
AcDbEntity
  8
0
100
AcDbLine
 10
257.0
 20
208.79305
 30
0.0
 11
257.0
 21
209.7930499999999
 31
0.0
  0
LINE
  5
6F7
330
1E
100
AcDbEntity
  8
0
100
AcDbLine
 10
257.0
 20
209.7930499999999
 30
0.0
 11
257.0
 21
208.79305
 31
0.0
  0
LINE
  5
6F8
330
1E
100
AcDbEntity
  8
0
100
AcDbLine
 10
260.0
 20
212.79305
 30
0.0
 11
258.9
 21
212.79305
 31
0.0
  0
LINE
  5
6F9
330
1E
100
AcDbEntity
  8
0
100
AcDbLine
 10
260.0
 20
212.79305
 30
0.0
 11
259.5
 21
211.29305
 31
0.0
  0
LINE
  5
6FA
330
1E
100
AcDbEntity
  8
0
100
AcDbLine
 10
256.0
 20
209.7930499999999
 30
0.0
 11
253.4
 21
209.7930499999999
 31
0.0
  0
LINE
  5
6FB
330
1E
100
AcDbEntity
  8
0
100
AcDbLine
 10
255.5
 20
207.7930499999999
 30
0.0
 11
253.0
 21
207.7930499999999
 31
0.0
  0
LINE
  5
6FC
330
1E
100
AcDbEntity
  8
0
100
AcDbLine
 10
256.4999999999999
 20
207.7930499999999
 30
0.0
 11
255.5
 21
207.7930499999999
 31
0.0
  0
LINE
  5
6FD
330
1E
100
AcDbEntity
  8
0
100
AcDbLine
 10
234.4
 20
197.29305
 30
0.0
 11
230.0
 21
197.29305
 31
0.0
  0
LINE
  5
6FE
330
1E
100
AcDbEntity
  8
0
100
AcDbLine
 10
234.1
 20
196.7930499999999
 30
0.0
 11
230.0
 21
196.7930499999999
 31
0.0
  0
LINE
  5
6FF
330
1E
100
AcDbEntity
  8
0
100
AcDbLine
 10
244.7
 20
197.29305
 30
0.0
 11
234.4
 21
197.29305
 31
0.0
  0
LINE
  5
700
330
1E
100
AcDbEntity
  8
0
100
AcDbLine
 10
243.9
 20
196.7930499999999
 30
0.0
 11
241.3
 21
196.7930499999999
 31
0.0
  0
LINE
  5
701
330
1E
100
AcDbEntity
  8
0
100
AcDbLine
 10
247.5
 20
198.2930499999999
 30
0.0
 11
247.0
 21
197.29305
 31
0.0
  0
LINE
  5
702
330
1E
100
AcDbEntity
  8
0
100
AcDbLine
 10
247.0
 20
197.29305
 30
0.0
 11
246.3999999999999
 21
197.29305
 31
0.0
  0
LINE
  5
703
330
1E
100
AcDbEntity
  8
0
100
AcDbLine
 10
247.0
 20
197.29305
 30
0.0
 11
246.0
 21
196.7930499999999
 31
0.0
  0
LINE
  5
704
330
1E
100
AcDbEntity
  8
0
100
AcDbLine
 10
245.4
 20
196.7930499999999
 30
0.0
 11
243.9
 21
196.7930499999999
 31
0.0
  0
LINE
  5
705
330
1E
100
AcDbEntity
  8
0
100
AcDbLine
 10
246.0
 20
196.7930499999999
 30
0.0
 11
245.4
 21
196.7930499999999
 31
0.0
  0
LINE
  5
706
330
1E
100
AcDbEntity
  8
0
100
AcDbLine
 10
246.0
 20
196.7930499999999
 30
0.0
 11
245.0
 21
194.79305
 31
0.0
  0
LINE
  5
707
330
1E
100
AcDbEntity
  8
0
100
AcDbLine
 10
246.3999999999999
 20
197.29305
 30
0.0
 11
244.7
 21
197.29305
 31
0.0
  0
LINE
  5
708
330
1E
100
AcDbEntity
  8
0
100
AcDbLine
 10
248.4999999999999
 20
203.2930499999999
 30
0.0
 11
247.0
 21
200.79305
 31
0.0
  0
LINE
  5
709
330
1E
100
AcDbEntity
  8
0
100
AcDbLine
 10
247.0
 20
199.79305
 30
0.0
 11
247.0
 21
200.79305
 31
0.0
  0
LINE
  5
70A
330
1E
100
AcDbEntity
  8
0
100
AcDbLine
 10
247.0
 20
200.79305
 30
0.0
 11
247.0
 21
199.79305
 31
0.0
  0
LINE
  5
70B
330
1E
100
AcDbEntity
  8
0
100
AcDbLine
 10
247.5
 20
198.79305
 30
0.0
 11
247.5
 21
198.2930499999999
 31
0.0
  0
LINE
  5
70C
330
1E
100
AcDbEntity
  8
0
100
AcDbLine
 10
247.5
 20
198.79305
 30
0.0
 11
247.0
 21
199.79305
 31
0.0
  0
LINE
  5
70D
330
1E
100
AcDbEntity
  8
0
100
AcDbLine
 10
247.5
 20
198.2930499999999
 30
0.0
 11
247.5
 21
198.79305
 31
0.0
  0
LINE
  5
70E
330
1E
100
AcDbEntity
  8
0
100
AcDbLine
 10
251.5
 20
205.7930499999999
 30
0.0
 11
248.4999999999999
 21
203.2930499999999
 31
0.0
  0
LINE
  5
70F
330
1E
100
AcDbEntity
  8
0
100
AcDbLine
 10
238.0
 20
196.7930499999999
 30
0.0
 11
234.1
 21
196.7930499999999
 31
0.0
  0
LINE
  5
710
330
1E
100
AcDbEntity
  8
0
100
AcDbLine
 10
241.3
 20
196.7930499999999
 30
0.0
 11
238.0
 21
196.7930499999999
 31
0.0
  0
LINE
  5
711
330
1E
100
AcDbEntity
  8
0
100
AcDbLine
 10
225.5999999999999
 20
197.29305
 30
0.0
 11
215.3
 21
197.29305
 31
0.0
  0
LINE
  5
712
330
1E
100
AcDbEntity
  8
0
100
AcDbLine
 10
222.0
 20
196.7930499999999
 30
0.0
 11
218.6999999999999
 21
196.7930499999999
 31
0.0
  0
LINE
  5
713
330
1E
100
AcDbEntity
  8
0
100
AcDbLine
 10
230.0
 20
197.29305
 30
0.0
 11
225.5999999999999
 21
197.29305
 31
0.0
  0
LINE
  5
714
330
1E
100
AcDbEntity
  8
0
100
AcDbLine
 10
230.0
 20
196.7930499999999
 30
0.0
 11
225.8999999999999
 21
196.7930499999999
 31
0.0
  0
LINE
  5
715
330
1E
100
AcDbEntity
  8
0
100
AcDbLine
 10
225.8999999999999
 20
196.7930499999999
 30
0.0
 11
222.0
 21
196.7930499999999
 31
0.0
  0
LINE
  5
716
330
1E
100
AcDbEntity
  8
0
100
AcDbLine
 10
213.0
 20
197.29305
 30
0.0
 11
212.5
 21
198.2930499999999
 31
0.0
  0
LINE
  5
717
330
1E
100
AcDbEntity
  8
0
100
AcDbLine
 10
218.6999999999999
 20
196.7930499999999
 30
0.0
 11
216.1
 21
196.7930499999999
 31
0.0
  0
LINE
  5
718
330
1E
100
AcDbEntity
  8
0
100
AcDbLine
 10
214.0
 20
196.7930499999999
 30
0.0
 11
213.0
 21
197.29305
 31
0.0
  0
LINE
  5
719
330
1E
100
AcDbEntity
  8
0
100
AcDbLine
 10
215.3
 20
197.29305
 30
0.0
 11
213.6
 21
197.29305
 31
0.0
  0
LINE
  5
71A
330
1E
100
AcDbEntity
  8
0
100
AcDbLine
 10
214.5999999999999
 20
196.7930499999999
 30
0.0
 11
214.0
 21
196.7930499999999
 31
0.0
  0
LINE
  5
71B
330
1E
100
AcDbEntity
  8
0
100
AcDbLine
 10
215.0
 20
194.79305
 30
0.0
 11
214.0
 21
196.7930499999999
 31
0.0
  0
LINE
  5
71C
330
1E
100
AcDbEntity
  8
0
100
AcDbLine
 10
216.1
 20
196.7930499999999
 30
0.0
 11
214.5999999999999
 21
196.7930499999999
 31
0.0
  0
LINE
  5
71D
330
1E
100
AcDbEntity
  8
0
100
AcDbLine
 10
213.6
 20
197.29305
 30
0.0
 11
213.0
 21
197.29305
 31
0.0
  0
LINE
  5
71E
330
1E
100
AcDbEntity
  8
0
100
AcDbLine
 10
213.0
 20
200.79305
 30
0.0
 11
211.5
 21
203.2930499999999
 31
0.0
  0
LINE
  5
71F
330
1E
100
AcDbEntity
  8
0
100
AcDbLine
 10
213.0
 20
200.79305
 30
0.0
 11
213.0
 21
199.79305
 31
0.0
  0
LINE
  5
720
330
1E
100
AcDbEntity
  8
0
100
AcDbLine
 10
212.5
 20
198.2930499999999
 30
0.0
 11
212.5
 21
198.79305
 31
0.0
  0
LINE
  5
721
330
1E
100
AcDbEntity
  8
0
100
AcDbLine
 10
212.5
 20
198.79305
 30
0.0
 11
212.5
 21
198.2930499999999
 31
0.0
  0
LINE
  5
722
330
1E
100
AcDbEntity
  8
0
100
AcDbLine
 10
213.0
 20
199.79305
 30
0.0
 11
212.5
 21
198.79305
 31
0.0
  0
LINE
  5
723
330
1E
100
AcDbEntity
  8
0
100
AcDbLine
 10
213.0
 20
199.79305
 30
0.0
 11
213.0
 21
200.79305
 31
0.0
  0
LINE
  5
724
330
1E
100
AcDbEntity
  8
0
100
AcDbLine
 10
237.6999999999999
 20
212.79305
 30
0.0
 11
230.0
 21
212.79305
 31
0.0
  0
LINE
  5
725
330
1E
100
AcDbEntity
  8
0
100
AcDbLine
 10
236.9
 20
209.7930499999999
 30
0.0
 11
230.0
 21
209.7930499999999
 31
0.0
  0
LINE
  5
726
330
1E
100
AcDbEntity
  8
0
100
AcDbLine
 10
236.8
 20
207.7930499999999
 30
0.0
 11
230.0
 21
207.7930499999999
 31
0.0
  0
LINE
  5
727
330
1E
100
AcDbEntity
  8
0
100
AcDbLine
 10
244.9
 20
212.79305
 30
0.0
 11
237.6999999999999
 21
212.79305
 31
0.0
  0
LINE
  5
728
330
1E
100
AcDbEntity
  8
0
100
AcDbLine
 10
243.4
 20
209.7930499999999
 30
0.0
 11
236.9
 21
209.7930499999999
 31
0.0
  0
LINE
  5
729
330
1E
100
AcDbEntity
  8
0
100
AcDbLine
 10
243.1999999999999
 20
207.7930499999999
 30
0.0
 11
236.8
 21
207.7930499999999
 31
0.0
  0
LINE
  5
72A
330
1E
100
AcDbEntity
  8
0
100
AcDbLine
 10
251.2
 20
212.79305
 30
0.0
 11
244.9
 21
212.79305
 31
0.0
  0
LINE
  5
72B
330
1E
100
AcDbEntity
  8
0
100
AcDbLine
 10
249.0
 20
209.7930499999999
 30
0.0
 11
243.4
 21
209.7930499999999
 31
0.0
  0
LINE
  5
72C
330
1E
100
AcDbEntity
  8
0
100
AcDbLine
 10
248.7
 20
207.7930499999999
 30
0.0
 11
243.1999999999999
 21
207.7930499999999
 31
0.0
  0
LINE
  5
72D
330
1E
100
AcDbEntity
  8
0
100
AcDbLine
 10
222.3
 20
212.79305
 30
0.0
 11
215.0999999999999
 21
212.79305
 31
0.0
  0
LINE
  5
72E
330
1E
100
AcDbEntity
  8
0
100
AcDbLine
 10
223.0999999999999
 20
209.7930499999999
 30
0.0
 11
216.5999999999999
 21
209.7930499999999
 31
0.0
  0
LINE
  5
72F
330
1E
100
AcDbEntity
  8
0
100
AcDbLine
 10
223.1999999999999
 20
207.7930499999999
 30
0.0
 11
216.8
 21
207.7930499999999
 31
0.0
  0
LINE
  5
730
330
1E
100
AcDbEntity
  8
0
100
AcDbLine
 10
230.0
 20
212.79305
 30
0.0
 11
222.3
 21
212.79305
 31
0.0
  0
LINE
  5
731
330
1E
100
AcDbEntity
  8
0
100
AcDbLine
 10
230.0
 20
209.7930499999999
 30
0.0
 11
223.0999999999999
 21
209.7930499999999
 31
0.0
  0
LINE
  5
732
330
1E
100
AcDbEntity
  8
0
100
AcDbLine
 10
230.0
 20
207.7930499999999
 30
0.0
 11
223.1999999999999
 21
207.7930499999999
 31
0.0
  0
LINE
  5
733
330
1E
100
AcDbEntity
  8
0
100
AcDbLine
 10
216.8
 20
207.7930499999999
 30
0.0
 11
211.2999999999999
 21
207.7930499999999
 31
0.0
  0
LINE
  5
734
330
1E
100
AcDbEntity
  8
0
100
AcDbLine
 10
207.0228999999999
 20
111.58105
 30
0.0
 11
205.1252
 21
111.7010499999999
 31
0.0
  0
LINE
  5
735
330
1E
100
AcDbEntity
  8
0
100
AcDbLine
 10
210.9979999999999
 20
111.10305
 30
0.0
 11
207.0228999999999
 21
111.58105
 31
0.0
  0
LINE
  5
736
330
1E
100
AcDbEntity
  8
0
100
AcDbLine
 10
206.8964
 20
111.6000499999999
 30
0.0
 11
206.3399590037387
 21
111.6242353926079
 31
0.0
  0
LINE
  5
737
330
1E
100
AcDbEntity
  8
0
100
AcDbLine
 10
207.5361678704923
 20
111.519330284246
 30
0.0
 11
206.8964
 21
111.6000499999999
 31
0.0
  0
LINE
  5
738
330
1E
100
AcDbEntity
  8
0
100
AcDbLine
 10
202.5291999999999
 20
110.6060499999999
 30
0.0
 11
201.8754
 21
109.83705
 31
0.0
  0
LINE
  5
739
330
1E
100
AcDbEntity
  8
0
100
AcDbLine
 10
201.8754
 20
109.83705
 30
0.0
 11
201.3561999999999
 21
108.7220499999999
 31
0.0
  0
LINE
  5
73A
330
1E
100
AcDbEntity
  8
0
100
AcDbLine
 10
202.4329999999999
 20
110.51005
 30
0.0
 11
202.2823605258353
 21
110.315717244367
 31
0.0
  0
LINE
  5
73B
330
1E
100
AcDbEntity
  8
0
100
AcDbLine
 10
202.4674160275504
 20
110.533379650025
 30
0.0
 11
202.2823605258353
 21
110.315717244367
 31
0.0
  0
LINE
  5
73C
330
1E
100
AcDbEntity
  8
0
100
AcDbLine
 10
205.1252
 20
111.7010499999999
 30
0.0
 11
203.6253
 21
111.31705
 31
0.0
  0
LINE
  5
73D
330
1E
100
AcDbEntity
  8
0
100
AcDbLine
 10
205.0097999999999
 20
111.6820499999999
 30
0.0
 11
204.7371189655176
 21
111.6016946314809
 31
0.0
  0
LINE
  5
73E
330
1E
100
AcDbEntity
  8
0
100
AcDbLine
 10
203.6253
 20
111.31705
 30
0.0
 11
202.5291999999999
 21
110.6060499999999
 31
0.0
  0
LINE
  5
73F
330
1E
100
AcDbEntity
  8
0
100
AcDbLine
 10
208.4999999999999
 20
205.7930499999999
 30
0.0
 11
203.5
 21
207.7930499999999
 31
0.0
  0
LINE
  5
740
330
1E
100
AcDbEntity
  8
0
100
AcDbLine
 10
201.1
 20
212.79305
 30
0.0
 11
200.0
 21
212.79305
 31
0.0
  0
LINE
  5
741
330
1E
100
AcDbEntity
  8
0
100
AcDbLine
 10
201.5
 20
210.2930499999999
 30
0.0
 11
200.4999999999999
 21
211.29305
 31
0.0
  0
LINE
  5
742
330
1E
100
AcDbEntity
  8
0
100
AcDbLine
 10
208.8
 20
212.79305
 30
0.0
 11
204.0
 21
212.79305
 31
0.0
  0
LINE
  5
743
330
1E
100
AcDbEntity
  8
0
100
AcDbLine
 10
206.5999999999999
 20
209.7930499999999
 30
0.0
 11
204.0
 21
209.7930499999999
 31
0.0
  0
LINE
  5
744
330
1E
100
AcDbEntity
  8
0
100
AcDbLine
 10
207.0
 20
207.7930499999999
 30
0.0
 11
204.4999999999999
 21
207.7930499999999
 31
0.0
  0
LINE
  5
745
330
1E
100
AcDbEntity
  8
0
100
AcDbLine
 10
211.0
 20
209.7930499999999
 30
0.0
 11
206.5999999999999
 21
209.7930499999999
 31
0.0
  0
LINE
  5
746
330
1E
100
AcDbEntity
  8
0
100
AcDbLine
 10
204.0
 20
209.7930499999999
 30
0.0
 11
203.0
 21
209.7930499999999
 31
0.0
  0
LINE
  5
747
330
1E
100
AcDbEntity
  8
0
100
AcDbLine
 10
204.4999999999999
 20
207.7930499999999
 30
0.0
 11
203.5
 21
207.7930499999999
 31
0.0
  0
LINE
  5
748
330
1E
100
AcDbEntity
  8
0
100
AcDbLine
 10
203.0
 20
209.7930499999999
 30
0.0
 11
203.0
 21
208.79305
 31
0.0
  0
LINE
  5
749
330
1E
100
AcDbEntity
  8
0
100
AcDbLine
 10
203.0
 20
209.7930499999999
 30
0.0
 11
201.5
 21
210.2930499999999
 31
0.0
  0
LINE
  5
74A
330
1E
100
AcDbEntity
  8
0
100
AcDbLine
 10
203.0
 20
208.79305
 30
0.0
 11
203.0
 21
209.7930499999999
 31
0.0
  0
LINE
  5
74B
330
1E
100
AcDbEntity
  8
0
100
AcDbLine
 10
203.5
 20
207.7930499999999
 30
0.0
 11
203.0
 21
208.79305
 31
0.0
  0
LINE
  5
74C
330
1E
100
AcDbEntity
  8
0
100
AcDbLine
 10
204.0
 20
212.79305
 30
0.0
 11
201.1
 21
212.79305
 31
0.0
  0
LINE
  5
74D
330
1E
100
AcDbEntity
  8
0
100
AcDbLine
 10
200.4999999999999
 20
211.29305
 30
0.0
 11
200.0
 21
212.79305
 31
0.0
  0
ENDSEC
  0
SECTION
  2
OBJECTS
  0
DICTIONARY
  5
C
330
0
100
AcDbDictionary
281
     1
  3
ACAD_GROUP
350
D
  3
ACAD_LAYOUT
350
19
  3
ACAD_MLINESTYLE
350
16
  3
ACAD_PLOTSETTINGS
350
18
  3
ACAD_PLOTSTYLENAME
350
E
  3
AcDbVariableDictionary
350
74E
  0
DICTIONARY
  5
D
102
{ACAD_REACTORS
330
C
102
}
330
C
100
AcDbDictionary
281
     1
  0
DICTIONARY
  5
19
102
{ACAD_REACTORS
330
C
102
}
330
C
100
AcDbDictionary
281
     1
  3
Layout1
350
1D
  3
Model
350
21
  0
DICTIONARY
  5
16
102
{ACAD_REACTORS
330
C
102
}
330
C
100
AcDbDictionary
281
     1
  3
Standard
350
17
  0
DICTIONARY
  5
18
102
{ACAD_REACTORS
330
C
102
}
330
C
100
AcDbDictionary
281
     1
  0
ACDBDICTIONARYWDFLT
  5
E
102
{ACAD_REACTORS
330
C
102
}
330
C
100
AcDbDictionary
281
     1
  3
Normal
350
F
100
AcDbDictionaryWithDefault
340
F
  0
DICTIONARY
  5
74E
102
{ACAD_REACTORS
330
C
102
}
330
C
100
AcDbDictionary
281
     1
  3
DIMASSOC
350
74F
  0
LAYOUT
  5
1D
102
{ACAD_REACTORS
330
19
102
}
330
19
100
AcDbPlotSettings
  1

  2
hp deskjet 980c series
  4

  6

 40
0.0
 41
0.0
 42
0.0
 43
0.0
 44
0.0
 45
0.0
 46
0.0
 47
0.0
 48
0.0
 49
0.0
140
0.0
141
0.0
142
1.0
143
1.0
 70
   688
 72
     0
 73
     0
 74
     5
  7

 75
    16
147
1.0
148
0.0
149
0.0
100
AcDbLayout
  1
Layout1
 70
     1
 71
     1
 10
0.0
 20
0.0
 11
12.0
 21
9.0
 12
0.0
 22
0.0
 32
0.0
 14
1.000000000000000E+20
 24
1.000000000000000E+20
 34
1.000000000000000E+20
 15
-1.000000000000000E+20
 25
-1.000000000000000E+20
 35
-1.000000000000000E+20
146
0.0
 13
0.0
 23
0.0
 33
0.0
 16
1.0
 26
0.0
 36
0.0
 17
0.0
 27
1.0
 37
0.0
 76
     0
330
1A
  0
LAYOUT
  5
21
102
{ACAD_REACTORS
330
19
102
}
330
19
100
AcDbPlotSettings
  1

  2
hp deskjet 980c series
  4

  6

 40
0.0
 41
0.0
 42
0.0
 43
0.0
 44
0.0
 45
0.0
 46
0.0
 47
0.0
 48
0.0
 49
0.0
140
0.0
141
0.0
142
1.0
143
1.0
 70
  1712
 72
     0
 73
     0
 74
     0
  7

 75
     0
147
1.0
148
0.0
149
0.0
100
AcDbLayout
  1
Model
 70
     1
 71
     0
 10
0.0
 20
0.0
 11
12.0
 21
9.0
 12
0.0
 22
0.0
 32
0.0
 14
0.0
 24
0.0
 34
0.0
 15
0.0
 25
0.0
 35
0.0
146
0.0
 13
0.0
 23
0.0
 33
0.0
 16
1.0
 26
0.0
 36
0.0
 17
0.0
 27
1.0
 37
0.0
 76
     0
330
1E
  0
MLINESTYLE
  5
17
102
{ACAD_REACTORS
330
16
102
}
330
16
100
AcDbMlineStyle
  2
STANDARD
 70
     0
  3

 62
   256
 51
90.0
 52
90.0
 71
     2
 49
0.5
 62
   256
  6
BYLAYER
 49
-0.5
 62
   256
  6
BYLAYER
  0
ACDBPLACEHOLDER
  5
F
102
{ACAD_REACTORS
330
E
102
}
330
E
  0
DICTIONARYVAR
  5
74F
102
{ACAD_REACTORS
330
74E
102
}
330
74E
100
DictionaryVariables
280
     0
  1
1
  0
ENDSEC
  0
EOF
