  0
SECTION
  2
HEADER
  9
$ACADVER
  1
AC1015
  9
$ACADMAINTVER
 70
    13
  9
$DWGCODEPAGE
  3
ANSI_1252
  9
$INSBASE
 10
0.0
 20
0.0
 30
0.0
  9
$EXTMIN
 10
0.0299500000000084
 20
-0.0000000000000067
 30
0.0
  9
$EXTMAX
 10
145.9700499999999
 20
174.0
 30
0.0
  9
$LIMMIN
 10
0.0
 20
0.0
  9
$LIMMAX
 10
12.0
 20
9.0
  9
$ORTHOMODE
 70
     0
  9
$REGENMODE
 70
     1
  9
$FILLMODE
 70
     1
  9
$QTEXTMODE
 70
     0
  9
$MIRRTEXT
 70
     1
  9
$LTSCALE
 40
1.0
  9
$ATTMODE
 70
     1
  9
$TEXTSIZE
 40
0.2
  9
$TRACEWID
 40
0.05
  9
$TEXTSTYLE
  7
Standard
  9
$CLAYER
  8
0
  9
$CELTYPE
  6
Continuous
  9
$CECOLOR
 62
   256
  9
$CELTSCALE
 40
1.0
  9
$DISPSILH
 70
     0
  9
$DIMSCALE
 40
1.0
  9
$DIMASZ
 40
0.18
  9
$DIMEXO
 40
0.0625
  9
$DIMDLI
 40
0.38
  9
$DIMRND
 40
0.0
  9
$DIMDLE
 40
0.0
  9
$DIMEXE
 40
0.18
  9
$DIMTP
 40
0.0
  9
$DIMTM
 40
0.0
  9
$DIMTXT
 40
0.18
  9
$DIMCEN
 40
0.09
  9
$DIMTSZ
 40
0.0
  9
$DIMTOL
 70
     0
  9
$DIMLIM
 70
     0
  9
$DIMTIH
 70
     1
  9
$DIMTOH
 70
     1
  9
$DIMSE1
 70
     0
  9
$DIMSE2
 70
     0
  9
$DIMTAD
 70
     0
  9
$DIMZIN
 70
     0
  9
$DIMBLK
  1

  9
$DIMASO
 70
     1
  9
$DIMSHO
 70
     1
  9
$DIMPOST
  1

  9
$DIMAPOST
  1

  9
$DIMALT
 70
     0
  9
$DIMALTD
 70
     2
  9
$DIMALTF
 40
25.4
  9
$DIMLFAC
 40
1.0
  9
$DIMTOFL
 70
     0
  9
$DIMTVP
 40
0.0
  9
$DIMTIX
 70
     0
  9
$DIMSOXD
 70
     0
  9
$DIMSAH
 70
     0
  9
$DIMBLK1
  1

  9
$DIMBLK2
  1

  9
$DIMSTYLE
  2
Standard
  9
$DIMCLRD
 70
     0
  9
$DIMCLRE
 70
     0
  9
$DIMCLRT
 70
     0
  9
$DIMTFAC
 40
1.0
  9
$DIMGAP
 40
0.09
  9
$DIMJUST
 70
     0
  9
$DIMSD1
 70
     0
  9
$DIMSD2
 70
     0
  9
$DIMTOLJ
 70
     1
  9
$DIMTZIN
 70
     0
  9
$DIMALTZ
 70
     0
  9
$DIMALTTZ
 70
     0
  9
$DIMUPT
 70
     0
  9
$DIMDEC
 70
     4
  9
$DIMTDEC
 70
     4
  9
$DIMALTU
 70
     2
  9
$DIMALTTD
 70
     2
  9
$DIMTXSTY
  7
Standard
  9
$DIMAUNIT
 70
     0
  9
$DIMADEC
 70
     0
  9
$DIMALTRND
 40
0.0
  9
$DIMAZIN
 70
     0
  9
$DIMDSEP
 70
    46
  9
$DIMATFIT
 70
     3
  9
$DIMFRAC
 70
     0
  9
$DIMLDRBLK
  1

  9
$DIMLUNIT
 70
     2
  9
$DIMLWD
 70
    -2
  9
$DIMLWE
 70
    -2
  9
$DIMTMOVE
 70
     0
  9
$LUNITS
 70
     2
  9
$LUPREC
 70
     4
  9
$SKETCHINC
 40
0.1
  9
$FILLETRAD
 40
0.0
  9
$AUNITS
 70
     0
  9
$AUPREC
 70
     0
  9
$MENU
  1
.
  9
$ELEVATION
 40
0.0
  9
$PELEVATION
 40
0.0
  9
$THICKNESS
 40
0.0
  9
$LIMCHECK
 70
     0
  9
$CHAMFERA
 40
0.0
  9
$CHAMFERB
 40
0.0
  9
$CHAMFERC
 40
0.0
  9
$CHAMFERD
 40
0.0
  9
$SKPOLY
 70
     0
  9
$TDCREATE
 40
2454751.617573784
  9
$TDUCREATE
 40
2454751.534240451
  9
$TDUPDATE
 40
2454751.622450081
  9
$TDUUPDATE
 40
2454751.539116747
  9
$TDINDWG
 40
0.0048762963
  9
$TDUSRTIMER
 40
0.0048762963
  9
$USRTIMER
 70
     1
  9
$ANGBASE
 50
0.0
  9
$ANGDIR
 70
     0
  9
$PDMODE
 70
     0
  9
$PDSIZE
 40
0.0
  9
$PLINEWID
 40
0.0
  9
$SPLFRAME
 70
     0
  9
$SPLINETYPE
 70
     6
  9
$SPLINESEGS
 70
     8
  9
$HANDSEED
  5
33D
  9
$SURFTAB1
 70
     6
  9
$SURFTAB2
 70
     6
  9
$SURFTYPE
 70
     6
  9
$SURFU
 70
     6
  9
$SURFV
 70
     6
  9
$UCSBASE
  2

  9
$UCSNAME
  2

  9
$UCSORG
 10
0.0
 20
0.0
 30
0.0
  9
$UCSXDIR
 10
1.0
 20
0.0
 30
0.0
  9
$UCSYDIR
 10
0.0
 20
1.0
 30
0.0
  9
$UCSORTHOREF
  2

  9
$UCSORTHOVIEW
 70
     1
  9
$UCSORGTOP
 10
0.0
 20
0.0
 30
0.0
  9
$UCSORGBOTTOM
 10
0.0
 20
0.0
 30
0.0
  9
$UCSORGLEFT
 10
0.0
 20
0.0
 30
0.0
  9
$UCSORGRIGHT
 10
0.0
 20
0.0
 30
0.0
  9
$UCSORGFRONT
 10
0.0
 20
0.0
 30
0.0
  9
$UCSORGBACK
 10
0.0
 20
0.0
 30
0.0
  9
$PUCSBASE
  2

  9
$PUCSNAME
  2

  9
$PUCSORG
 10
0.0
 20
0.0
 30
0.0
  9
$PUCSXDIR
 10
1.0
 20
0.0
 30
0.0
  9
$PUCSYDIR
 10
0.0
 20
1.0
 30
0.0
  9
$PUCSORTHOREF
  2

  9
$PUCSORTHOVIEW
 70
     0
  9
$PUCSORGTOP
 10
0.0
 20
0.0
 30
0.0
  9
$PUCSORGBOTTOM
 10
0.0
 20
0.0
 30
0.0
  9
$PUCSORGLEFT
 10
0.0
 20
0.0
 30
0.0
  9
$PUCSORGRIGHT
 10
0.0
 20
0.0
 30
0.0
  9
$PUCSORGFRONT
 10
0.0
 20
0.0
 30
0.0
  9
$PUCSORGBACK
 10
0.0
 20
0.0
 30
0.0
  9
$USERI1
 70
     0
  9
$USERI2
 70
     0
  9
$USERI3
 70
     0
  9
$USERI4
 70
     0
  9
$USERI5
 70
     0
  9
$USERR1
 40
0.0
  9
$USERR2
 40
0.0
  9
$USERR3
 40
0.0
  9
$USERR4
 40
0.0
  9
$USERR5
 40
0.0
  9
$WORLDVIEW
 70
     1
  9
$SHADEDGE
 70
     3
  9
$SHADEDIF
 70
    70
  9
$TILEMODE
 70
     1
  9
$MAXACTVP
 70
    64
  9
$PINSBASE
 10
0.0
 20
0.0
 30
0.0
  9
$PLIMCHECK
 70
     0
  9
$PEXTMIN
 10
1.000000000000000E+20
 20
1.000000000000000E+20
 30
1.000000000000000E+20
  9
$PEXTMAX
 10
-1.000000000000000E+20
 20
-1.000000000000000E+20
 30
-1.000000000000000E+20
  9
$PLIMMIN
 10
0.0
 20
0.0
  9
$PLIMMAX
 10
12.0
 20
9.0
  9
$UNITMODE
 70
     0
  9
$VISRETAIN
 70
     1
  9
$PLINEGEN
 70
     0
  9
$PSLTSCALE
 70
     1
  9
$TREEDEPTH
 70
  3020
  9
$CMLSTYLE
  2
Standard
  9
$CMLJUST
 70
     0
  9
$CMLSCALE
 40
1.0
  9
$PROXYGRAPHICS
 70
     1
  9
$MEASUREMENT
 70
     0
  9
$CELWEIGHT
370
    -1
  9
$ENDCAPS
280
     0
  9
$JOINSTYLE
280
     0
  9
$LWDISPLAY
290
     0
  9
$INSUNITS
 70
     0
  9
$HYPERLINKBASE
  1

  9
$STYLESHEET
  1

  9
$XEDIT
290
     1
  9
$CEPSNTYPE
380
     0
  9
$PSTYLEMODE
290
     1
  9
$FINGERPRINTGUID
  2
{71ECF1AE-4AB1-45B9-BB5A-1453BC3A305F}
  9
$VERSIONGUID
  2
{A176D0B3-F36D-49DB-A346-24E0331B59E6}
  9
$EXTNAMES
290
     1
  9
$PSVPSCALE
 40
0.0
  9
$OLESTARTUP
290
     0
  0
ENDSEC
  0
SECTION
  2
CLASSES
  0
CLASS
  1
ACDBDICTIONARYWDFLT
  2
AcDbDictionaryWithDefault
  3
AutoCAD 2000
 90
        0
280
     0
281
     0
  0
CLASS
  1
ACDBPLACEHOLDER
  2
AcDbPlaceHolder
  3
AutoCAD 2000
 90
        0
280
     0
281
     0
  0
CLASS
  1
LAYOUT
  2
AcDbLayout
  3
AutoCAD 2000
 90
        0
280
     0
281
     0
  0
CLASS
  1
DICTIONARYVAR
  2
AcDbDictionaryVar
  3
AutoCAD 2000
 90
        0
280
     0
281
     0
  0
ENDSEC
  0
SECTION
  2
TABLES
  0
TABLE
  2
VPORT
  5
8
330
0
100
AcDbSymbolTable
 70
     2
  0
VPORT
  5
33C
330
8
100
AcDbSymbolTableRecord
100
AcDbViewportTableRecord
  2
*Active
 70
     0
 10
0.0
 20
0.0
 11
1.0
 21
1.0
 12
73.0
 22
87.0
 13
0.0
 23
0.0
 14
1.0
 24
1.0
 15
0.0
 25
0.0
 16
0.0
 26
0.0
 36
1.0
 17
0.0
 27
0.0
 37
0.0
 40
175.3350383631713
 41
2.078104993597951
 42
50.0
 43
0.0
 44
0.0
 50
0.0
 51
0.0
 71
     0
 72
   100
 73
     1
 74
     3
 75
     0
 76
     0
 77
     0
 78
     0
281
     0
 65
     1
110
0.0
120
0.0
130
0.0
111
1.0
121
0.0
131
0.0
112
0.0
122
1.0
132
0.0
 79
     1
146
0.0
  0
ENDTAB
  0
TABLE
  2
LTYPE
  5
5
330
0
100
AcDbSymbolTable
 70
     1
  0
LTYPE
  5
13
330
5
100
AcDbSymbolTableRecord
100
AcDbLinetypeTableRecord
  2
ByBlock
 70
     0
  3

 72
    65
 73
     0
 40
0.0
  0
LTYPE
  5
14
330
5
100
AcDbSymbolTableRecord
100
AcDbLinetypeTableRecord
  2
ByLayer
 70
     0
  3

 72
    65
 73
     0
 40
0.0
  0
LTYPE
  5
15
330
5
100
AcDbSymbolTableRecord
100
AcDbLinetypeTableRecord
  2
Continuous
 70
     0
  3
Solid line
 72
    65
 73
     0
 40
0.0
  0
ENDTAB
  0
TABLE
  2
LAYER
  5
2
330
0
100
AcDbSymbolTable
 70
     1
  0
LAYER
  5
10
330
2
100
AcDbSymbolTableRecord
100
AcDbLayerTableRecord
  2
0
 70
     0
 62
     7
  6
Continuous
370
    -3
390
F
  0
ENDTAB
  0
TABLE
  2
STYLE
  5
3
330
0
100
AcDbSymbolTable
 70
     1
  0
STYLE
  5
11
330
3
100
AcDbSymbolTableRecord
100
AcDbTextStyleTableRecord
  2
Standard
 70
     0
 40
0.0
 41
1.0
 50
0.0
 71
     0
 42
0.2
  3
txt
  4

  0
ENDTAB
  0
TABLE
  2
VIEW
  5
6
330
0
100
AcDbSymbolTable
 70
     0
  0
ENDTAB
  0
TABLE
  2
UCS
  5
7
330
0
100
AcDbSymbolTable
 70
     0
  0
ENDTAB
  0
TABLE
  2
APPID
  5
9
330
0
100
AcDbSymbolTable
 70
     1
  0
APPID
  5
12
330
9
100
AcDbSymbolTableRecord
100
AcDbRegAppTableRecord
  2
ACAD
 70
     0
  0
ENDTAB
  0
TABLE
  2
DIMSTYLE
  5
A
330
0
100
AcDbSymbolTable
 70
     1
100
AcDbDimStyleTable
 71
     0
  0
DIMSTYLE
105
336
330
A
100
AcDbSymbolTableRecord
100
AcDbDimStyleTableRecord
  2
Standard
 70
     0
340
11
  0
ENDTAB
  0
TABLE
  2
BLOCK_RECORD
  5
1
330
0
100
AcDbSymbolTable
 70
     0
  0
BLOCK_RECORD
  5
1E
330
1
100
AcDbSymbolTableRecord
100
AcDbBlockTableRecord
  2
*Model_Space
340
21
  0
BLOCK_RECORD
  5
1A
330
1
100
AcDbSymbolTableRecord
100
AcDbBlockTableRecord
  2
*Paper_Space
340
1D
  0
ENDTAB
  0
ENDSEC
  0
SECTION
  2
BLOCKS
  0
BLOCK
  5
1F
330
1E
100
AcDbEntity
  8
0
100
AcDbBlockBegin
  2
*Model_Space
 70
     0
 10
0.0
 20
0.0
 30
0.0
  3
*Model_Space
  1

  0
ENDBLK
  5
20
330
1E
100
AcDbEntity
  8
0
100
AcDbBlockEnd
  0
BLOCK
  5
1B
330
1A
100
AcDbEntity
 67
     1
  8
0
100
AcDbBlockBegin
  2
*Paper_Space
 70
     0
 10
0.0
 20
0.0
 30
0.0
  3
*Paper_Space
  1

  0
ENDBLK
  5
1C
330
1A
100
AcDbEntity
 67
     1
  8
0
100
AcDbBlockEnd
  0
ENDSEC
  0
SECTION
  2
ENTITIES
  0
LINE
  5
22
330
1E
100
AcDbEntity
  8
0
100
AcDbLine
 10
99.37005
 20
-0.0000000000000041
 30
0.0
 11
104.5700499999999
 21
-0.0000000000000044
 31
0.0
  0
LINE
  5
23
330
1E
100
AcDbEntity
  8
0
100
AcDbLine
 10
95.27005
 20
-0.0000000000000038
 30
0.0
 11
99.37005
 21
-0.0000000000000041
 31
0.0
  0
LINE
  5
24
330
1E
100
AcDbEntity
  8
0
100
AcDbLine
 10
92.87005
 20
-0.0000000000000037
 30
0.0
 11
95.27005
 21
-0.0000000000000038
 31
0.0
  0
LINE
  5
25
330
1E
100
AcDbEntity
  8
0
100
AcDbLine
 10
25.99204999999999
 20
50.7817
 30
0.0
 11
27.30164999999999
 21
51.56369999999999
 31
0.0
  0
LINE
  5
26
330
1E
100
AcDbEntity
  8
0
100
AcDbLine
 10
26.84705
 20
51.6439
 30
0.0
 11
27.30164999999999
 21
51.56369999999999
 31
0.0
  0
LINE
  5
27
330
1E
100
AcDbEntity
  8
0
100
AcDbLine
 10
24.28765
 20
51.0822
 30
0.0
 11
25.53755
 21
50.8618
 31
0.0
  0
LINE
  5
28
330
1E
100
AcDbEntity
  8
0
100
AcDbLine
 10
27.30164999999999
 20
51.56369999999999
 30
0.0
 11
28.85765
 21
60.4431
 31
0.0
  0
LINE
  5
29
330
1E
100
AcDbEntity
  8
0
100
AcDbLine
 10
25.53755
 20
50.8618
 30
0.0
 11
25.99204999999999
 21
50.7817
 31
0.0
  0
LINE
  5
2A
330
1E
100
AcDbEntity
  8
0
100
AcDbLine
 10
22.35582
 20
51.4229
 30
0.0
 11
24.28765
 21
51.0822
 31
0.0
  0
LINE
  5
2B
330
1E
100
AcDbEntity
  8
0
100
AcDbLine
 10
25.48345
 20
51.8843
 30
0.0
 11
26.84705
 21
51.6439
 31
0.0
  0
LINE
  5
2C
330
1E
100
AcDbEntity
  8
0
100
AcDbLine
 10
23.32444999999999
 20
52.265
 30
0.0
 11
25.48345
 21
51.8843
 31
0.0
  0
LINE
  5
2D
330
1E
100
AcDbEntity
  8
0
100
AcDbLine
 10
20.48369999999999
 20
52.7659
 30
0.0
 11
23.32444999999999
 21
52.265
 31
0.0
  0
LINE
  5
2E
330
1E
100
AcDbEntity
  8
0
100
AcDbLine
 10
17.18833
 20
53.347
 30
0.0
 11
20.48369999999999
 21
52.7659
 31
0.0
  0
LINE
  5
2F
330
1E
100
AcDbEntity
  8
0
100
AcDbLine
 10
16.61743999999999
 20
52.4347
 30
0.0
 11
19.74234
 21
51.88369999999999
 31
0.0
  0
LINE
  5
30
330
1E
100
AcDbEntity
  8
0
100
AcDbLine
 10
19.74234
 20
51.88369999999999
 30
0.0
 11
22.35582
 21
51.4229
 31
0.0
  0
LINE
  5
31
330
1E
100
AcDbEntity
  8
0
100
AcDbLine
 10
13.492549
 20
52.9857
 30
0.0
 11
16.61743999999999
 21
52.4347
 31
0.0
  0
LINE
  5
32
330
1E
100
AcDbEntity
  8
0
100
AcDbLine
 10
4.629310000000009
 20
54.5485
 30
0.0
 11
7.242830000000009
 21
54.0877
 31
0.0
  0
LINE
  5
33
330
1E
100
AcDbEntity
  8
0
100
AcDbLine
 10
0.484550000000006
 20
56.29229999999999
 30
0.0
 11
1.84815000000001
 21
56.0519
 31
0.0
  0
LINE
  5
34
330
1E
100
AcDbEntity
  8
0
100
AcDbLine
 10
0.7961500000000092
 20
67.4169
 30
0.0
 11
1.62415000000001
 21
68.7904
 31
0.0
  0
LINE
  5
35
330
1E
100
AcDbEntity
  8
0
100
AcDbLine
 10
0.709550000000008
 20
66.92579999999999
 30
0.0
 11
1.104450000000009
 21
65.84319999999999
 31
0.0
  0
LINE
  5
36
330
1E
100
AcDbEntity
  8
0
100
AcDbLine
 10
0.709550000000008
 20
66.92579999999999
 30
0.0
 11
0.7961500000000092
 21
67.4169
 31
0.0
  0
LINE
  5
37
330
1E
100
AcDbEntity
  8
0
100
AcDbLine
 10
1.104450000000009
 20
65.84319999999999
 30
0.0
 11
1.58595000000001
 21
65.2518
 31
0.0
  0
LINE
  5
38
330
1E
100
AcDbEntity
  8
0
100
AcDbLine
 10
0.0299500000000084
 20
56.3724
 30
0.0
 11
0.9930500000000071
 21
55.1897
 31
0.0
  0
LINE
  5
39
330
1E
100
AcDbEntity
  8
0
100
AcDbLine
 10
0.0299500000000084
 20
56.3724
 30
0.0
 11
1.58595000000001
 21
65.2518
 31
0.0
  0
LINE
  5
3A
330
1E
100
AcDbEntity
  8
0
100
AcDbLine
 10
0.0299500000000084
 20
56.3724
 30
0.0
 11
0.484550000000006
 21
56.29229999999999
 31
0.0
  0
LINE
  5
3B
330
1E
100
AcDbEntity
  8
0
100
AcDbLine
 10
0.9930500000000071
 20
55.1897
 30
0.0
 11
1.44765000000001
 21
55.1095
 31
0.0
  0
LINE
  5
3D
330
1E
100
AcDbEntity
  8
0
100
AcDbLine
 10
1.62415000000001
 20
68.7904
 30
0.0
 11
4.156590000000009
 21
69.86329999999999
 31
0.0
  0
LINE
  5
3E
330
1E
100
AcDbEntity
  8
0
100
AcDbLine
 10
1.58595000000001
 20
65.2518
 30
0.0
 11
2.04055000000001
 21
65.1716
 31
0.0
  0
LINE
  5
3F
330
1E
100
AcDbEntity
  8
0
100
AcDbLine
 10
2.04055000000001
 20
65.1716
 30
0.0
 11
3.404100000000009
 21
64.93120000000001
 31
0.0
  0
LINE
  5
40
330
1E
100
AcDbEntity
  8
0
100
AcDbLine
 10
3.404100000000009
 20
64.93120000000001
 30
0.0
 11
5.563100000000009
 21
64.55049999999999
 31
0.0
  0
LINE
  5
41
330
1E
100
AcDbEntity
  8
0
100
AcDbLine
 10
5.563100000000009
 20
64.55049999999999
 30
0.0
 11
8.403890000000009
 21
64.04959999999999
 31
0.0
  0
LINE
  5
42
330
1E
100
AcDbEntity
  8
0
100
AcDbLine
 10
1.84815000000001
 20
56.0519
 30
0.0
 11
4.007100000000009
 21
55.6712
 31
0.0
  0
LINE
  5
43
330
1E
100
AcDbEntity
  8
0
100
AcDbLine
 10
4.007100000000009
 20
55.6712
 30
0.0
 11
6.847900000000009
 21
55.1703
 31
0.0
  0
LINE
  5
44
330
1E
100
AcDbEntity
  8
0
100
AcDbLine
 10
6.847900000000009
 20
55.1703
 30
0.0
 11
10.14321
 21
54.58919999999999
 31
0.0
  0
LINE
  5
45
330
1E
100
AcDbEntity
  8
0
100
AcDbLine
 10
4.571130000000009
 20
69.82040000000001
 30
0.0
 11
5.696570000000009
 21
69.5951
 31
0.0
  0
LINE
  5
46
330
1E
100
AcDbEntity
  8
0
100
AcDbLine
 10
5.696570000000009
 20
69.5951
 30
0.0
 11
7.679860000000009
 21
69.24129999999999
 31
0.0
  0
LINE
  5
47
330
1E
100
AcDbEntity
  8
0
100
AcDbLine
 10
4.156590000000009
 20
69.86329999999999
 30
0.0
 11
6.009650000000009
 21
75.7948
 31
0.0
  0
LINE
  5
48
330
1E
100
AcDbEntity
  8
0
100
AcDbLine
 10
4.156590000000009
 20
69.86329999999999
 30
0.0
 11
4.571130000000009
 21
69.82040000000001
 31
0.0
  0
LINE
  5
49
330
1E
100
AcDbEntity
  8
0
100
AcDbLine
 10
6.009650000000009
 20
75.7948
 30
0.0
 11
8.699870000000009
 21
81.25
 31
0.0
  0
LINE
  5
4A
330
1E
100
AcDbEntity
  8
0
100
AcDbLine
 10
1.62415000000001
 20
68.7904
 30
0.0
 11
4.156590000000009
 21
69.86329999999999
 31
0.0
  0
LINE
  5
4B
330
1E
100
AcDbEntity
  8
0
100
AcDbLine
 10
1.44765000000001
 20
55.1095
 30
0.0
 11
2.697550000000009
 21
54.8891
 31
0.0
  0
LINE
  5
4C
330
1E
100
AcDbEntity
  8
0
100
AcDbLine
 10
2.697550000000009
 20
54.8891
 30
0.0
 11
4.629310000000009
 21
54.5485
 31
0.0
  0
LINE
  5
4D
330
1E
100
AcDbEntity
  8
0
100
AcDbLine
 10
13.665773
 20
53.9681
 30
0.0
 11
17.18833
 21
53.347
 31
0.0
  0
LINE
  5
4E
330
1E
100
AcDbEntity
  8
0
100
AcDbLine
 10
10.14321
 20
54.58919999999999
 30
0.0
 11
13.665773
 21
53.9681
 31
0.0
  0
LINE
  5
4F
330
1E
100
AcDbEntity
  8
0
100
AcDbLine
 10
28.40305
 20
60.5232
 30
0.0
 11
28.85765
 21
60.4431
 31
0.0
  0
LINE
  5
50
330
1E
100
AcDbEntity
  8
0
100
AcDbLine
 10
27.03945
 20
60.7637
 30
0.0
 11
28.40305
 21
60.5232
 31
0.0
  0
LINE
  5
51
330
1E
100
AcDbEntity
  8
0
100
AcDbLine
 10
24.88045
 20
61.1443
 30
0.0
 11
27.03945
 21
60.7637
 31
0.0
  0
LINE
  5
52
330
1E
100
AcDbEntity
  8
0
100
AcDbLine
 10
22.03972
 20
61.6452
 30
0.0
 11
24.88045
 21
61.1443
 31
0.0
  0
LINE
  5
53
330
1E
100
AcDbEntity
  8
0
100
AcDbLine
 10
18.74435
 20
62.2263
 30
0.0
 11
22.03972
 21
61.6452
 31
0.0
  0
LINE
  5
54
330
1E
100
AcDbEntity
  8
0
100
AcDbLine
 10
15.22178999999999
 20
62.8474
 30
0.0
 11
18.74435
 21
62.2263
 31
0.0
  0
LINE
  5
55
330
1E
100
AcDbEntity
  8
0
100
AcDbLine
 10
8.403890000000009
 20
64.04959999999999
 30
0.0
 11
11.69921
 21
63.4686
 31
0.0
  0
LINE
  5
56
330
1E
100
AcDbEntity
  8
0
100
AcDbLine
 10
11.69921
 20
63.4686
 30
0.0
 11
15.22178999999999
 21
62.8474
 31
0.0
  0
LINE
  5
57
330
1E
100
AcDbEntity
  8
0
100
AcDbLine
 10
28.71975
 20
65.10519999999999
 30
0.0
 11
29.10664999999999
 21
66.2277
 31
0.0
  0
LINE
  5
58
330
1E
100
AcDbEntity
  8
0
100
AcDbLine
 10
7.679860000000009
 20
69.24129999999999
 30
0.0
 11
10.29252
 21
68.7781
 31
0.0
  0
LINE
  5
59
330
1E
100
AcDbEntity
  8
0
100
AcDbLine
 10
10.29252
 20
68.7781
 30
0.0
 11
13.268964
 21
68.26519999999999
 31
0.0
  0
LINE
  5
5A
330
1E
100
AcDbEntity
  8
0
100
AcDbLine
 10
19.59381
 20
67.1236
 30
0.0
 11
22.56842
 21
66.6273
 31
0.0
  0
LINE
  5
5B
330
1E
100
AcDbEntity
  8
0
100
AcDbLine
 10
16.41893999999999
 20
67.6862
 30
0.0
 11
19.59381
 21
67.1236
 31
0.0
  0
LINE
  5
5C
330
1E
100
AcDbEntity
  8
0
100
AcDbLine
 10
13.268964
 20
68.26519999999999
 30
0.0
 11
16.41893999999999
 21
67.6862
 31
0.0
  0
LINE
  5
5D
330
1E
100
AcDbEntity
  8
0
100
AcDbLine
 10
12.07912
 20
86.30740000000001
 30
0.0
 11
16.08957999999999
 21
90.8805
 31
0.0
  0
LINE
  5
5E
330
1E
100
AcDbEntity
  8
0
100
AcDbLine
 10
8.699870000000009
 20
81.25
 30
0.0
 11
12.07912
 21
86.30740000000001
 31
0.0
  0
LINE
  5
5F
330
1E
100
AcDbEntity
  8
0
100
AcDbLine
 10
16.08957999999999
 20
90.8805
 30
0.0
 11
20.66263999999999
 21
94.8909
 31
0.0
  0
LINE
  5
60
330
1E
100
AcDbEntity
  8
0
100
AcDbLine
 10
28.30635
 20
65.4361
 30
0.0
 11
28.71975
 21
65.10519999999999
 31
0.0
  0
LINE
  5
61
330
1E
100
AcDbEntity
  8
0
100
AcDbLine
 10
27.13235
 20
65.7339
 30
0.0
 11
28.30635
 21
65.4361
 31
0.0
  0
LINE
  5
62
330
1E
100
AcDbEntity
  8
0
100
AcDbLine
 10
25.16455
 20
66.131
 30
0.0
 11
27.13235
 21
65.7339
 31
0.0
  0
LINE
  5
63
330
1E
100
AcDbEntity
  8
0
100
AcDbLine
 10
22.56842
 20
66.6273
 30
0.0
 11
25.16455
 21
66.131
 31
0.0
  0
LINE
  5
64
330
1E
100
AcDbEntity
  8
0
100
AcDbLine
 10
29.10664999999999
 20
66.2277
 30
0.0
 11
30.35054999999999
 21
68.75
 31
0.0
  0
LINE
  5
65
330
1E
100
AcDbEntity
  8
0
100
AcDbLine
 10
25.72005
 20
98.2702
 30
0.0
 11
31.17525
 21
100.96
 31
0.0
  0
LINE
  5
66
330
1E
100
AcDbEntity
  8
0
100
AcDbLine
 10
20.66263999999999
 20
94.8909
 30
0.0
 11
25.72005
 21
98.2702
 31
0.0
  0
LINE
  5
67
330
1E
100
AcDbEntity
  8
0
100
AcDbLine
 10
28.7280208332965
 20
65.1291958913811
 30
0.0
 11
30.03205
 21
63.7813
 31
0.0
  0
LINE
  5
68
330
1E
100
AcDbEntity
  8
0
100
AcDbLine
 10
31.91295
 20
71.08839999999999
 30
0.0
 11
33.76724999999999
 21
73.2028
 31
0.0
  0
LINE
  5
69
330
1E
100
AcDbEntity
  8
0
100
AcDbLine
 10
30.35054999999999
 20
68.75
 30
0.0
 11
31.91295
 21
71.08839999999999
 31
0.0
  0
LINE
  5
6A
330
1E
100
AcDbEntity
  8
0
100
AcDbLine
 10
33.76724999999999
 20
73.2028
 30
0.0
 11
35.88165
 21
75.0571
 31
0.0
  0
LINE
  5
6B
330
1E
100
AcDbEntity
  8
0
100
AcDbLine
 10
31.17525
 20
100.96
 30
0.0
 11
36.93495
 21
102.916
 31
0.0
  0
LINE
  5
6C
330
1E
100
AcDbEntity
  8
0
100
AcDbLine
 10
36.93495
 20
102.916
 30
0.0
 11
42.90055
 21
104.102
 31
0.0
  0
LINE
  5
6D
330
1E
100
AcDbEntity
  8
0
100
AcDbLine
 10
42.90055
 20
104.102
 30
0.0
 11
48.97005
 21
104.4999999999999
 31
0.0
  0
LINE
  5
6E
330
1E
100
AcDbEntity
  8
0
100
AcDbLine
 10
40.74235
 20
77.8634
 30
0.0
 11
43.40545
 21
78.76739999999999
 31
0.0
  0
LINE
  5
6F
330
1E
100
AcDbEntity
  8
0
100
AcDbLine
 10
38.22005
 20
76.6195
 30
0.0
 11
40.74235
 21
77.8634
 31
0.0
  0
LINE
  5
70
330
1E
100
AcDbEntity
  8
0
100
AcDbLine
 10
46.16375
 20
79.3161
 30
0.0
 11
48.97005
 21
79.5
 31
0.0
  0
LINE
  5
71
330
1E
100
AcDbEntity
  8
0
100
AcDbLine
 10
43.40545
 20
78.76739999999999
 30
0.0
 11
46.16375
 21
79.3161
 31
0.0
  0
LINE
  5
72
330
1E
100
AcDbEntity
  8
0
100
AcDbLine
 10
35.88165
 20
75.0571
 30
0.0
 11
38.22005
 21
76.6195
 31
0.0
  0
LINE
  5
73
330
1E
100
AcDbEntity
  8
0
100
AcDbLine
 10
30.03205
 20
63.7813
 30
0.0
 11
30.34035
 21
62.2075
 31
0.0
  0
LINE
  5
74
330
1E
100
AcDbEntity
  8
0
100
AcDbLine
 10
30.25375
 20
61.7164
 30
0.0
 11
30.34035
 21
62.2075
 31
0.0
  0
LINE
  5
75
330
1E
100
AcDbEntity
  8
0
100
AcDbLine
 10
29.51235
 20
60.8341
 30
0.0
 11
30.25375
 21
61.7164
 31
0.0
  0
LINE
  5
76
330
1E
100
AcDbEntity
  8
0
100
AcDbLine
 10
28.85765
 20
60.4431
 30
0.0
 11
29.51235
 21
60.8341
 31
0.0
  0
LINE
  5
77
330
1E
100
AcDbEntity
  8
0
100
AcDbLine
 10
7.242830000000009
 20
54.0877
 30
0.0
 11
10.36771
 21
53.53670000000001
 31
0.0
  0
LINE
  5
78
330
1E
100
AcDbEntity
  8
0
100
AcDbLine
 10
10.36771
 20
53.53670000000001
 30
0.0
 11
13.492549
 21
52.9857
 31
0.0
  0
LINE
  5
79
330
1E
100
AcDbEntity
  8
0
100
AcDbLine
 10
48.97005
 20
79.5
 30
0.0
 11
92.47004999999999
 21
79.5
 31
0.0
  0
LINE
  5
7A
330
1E
100
AcDbEntity
  8
0
100
AcDbLine
 10
48.97005
 20
104.4999999999999
 30
0.0
 11
92.47004999999999
 21
104.4999999999999
 31
0.0
  0
LINE
  5
7B
330
1E
100
AcDbEntity
  8
0
100
AcDbLine
 10
92.47004999999999
 20
79.5
 30
0.0
 11
93.47005000000001
 21
79.40000000000001
 31
0.0
  0
LINE
  5
7C
330
1E
100
AcDbEntity
  8
0
100
AcDbLine
 10
92.47004999999999
 20
104.4999999999999
 30
0.0
 11
93.47005000000001
 21
104.6
 31
0.0
  0
LINE
  5
7D
330
1E
100
AcDbEntity
  8
0
100
AcDbLine
 10
93.97005
 20
78.9333
 30
0.0
 11
93.97005
 21
80.23999999999999
 31
0.0
  0
LINE
  5
7E
330
1E
100
AcDbEntity
  8
0
100
AcDbLine
 10
93.97005
 20
78.9333
 30
0.0
 11
93.97005
 21
78.4667
 31
0.0
  0
LINE
  5
7F
330
1E
100
AcDbEntity
  8
0
100
AcDbLine
 10
93.47005000000001
 20
81.08
 30
0.0
 11
93.47005000000001
 21
83.1333
 31
0.0
  0
LINE
  5
80
330
1E
100
AcDbEntity
  8
0
100
AcDbLine
 10
93.47005000000001
 20
81.08
 30
0.0
 11
93.47005000000001
 21
79.8667
 31
0.0
  0
LINE
  5
81
330
1E
100
AcDbEntity
  8
0
100
AcDbLine
 10
93.47005000000001
 20
79.8667
 30
0.0
 11
93.47005000000001
 21
81.08
 31
0.0
  0
LINE
  5
82
330
1E
100
AcDbEntity
  8
0
100
AcDbLine
 10
93.47005000000001
 20
79.8667
 30
0.0
 11
93.47005000000001
 21
79.40000000000001
 31
0.0
  0
LINE
  5
83
330
1E
100
AcDbEntity
  8
0
100
AcDbLine
 10
93.47005000000001
 20
83.1333
 30
0.0
 11
93.47005000000001
 21
85.74670000000001
 31
0.0
  0
LINE
  5
84
330
1E
100
AcDbEntity
  8
0
100
AcDbLine
 10
93.47005000000001
 20
83.1333
 30
0.0
 11
93.47005000000001
 21
81.08
 31
0.0
  0
LINE
  5
85
330
1E
100
AcDbEntity
  8
0
100
AcDbLine
 10
93.47005000000001
 20
85.74670000000001
 30
0.0
 11
93.47005000000001
 21
88.73330000000001
 31
0.0
  0
LINE
  5
86
330
1E
100
AcDbEntity
  8
0
100
AcDbLine
 10
93.47005000000001
 20
85.74670000000001
 30
0.0
 11
93.47005000000001
 21
83.1333
 31
0.0
  0
LINE
  5
87
330
1E
100
AcDbEntity
  8
0
100
AcDbLine
 10
93.47005000000001
 20
88.73330000000001
 30
0.0
 11
93.47005000000001
 21
92.0
 31
0.0
  0
LINE
  5
88
330
1E
100
AcDbEntity
  8
0
100
AcDbLine
 10
93.47005000000001
 20
88.73330000000001
 30
0.0
 11
93.47005000000001
 21
85.74670000000001
 31
0.0
  0
LINE
  5
89
330
1E
100
AcDbEntity
  8
0
100
AcDbLine
 10
93.47005000000001
 20
98.25330000000001
 30
0.0
 11
93.47005000000001
 21
100.8669999999999
 31
0.0
  0
LINE
  5
8A
330
1E
100
AcDbEntity
  8
0
100
AcDbLine
 10
93.47005000000001
 20
98.25330000000001
 30
0.0
 11
93.47005000000001
 21
95.26670000000001
 31
0.0
  0
LINE
  5
8B
330
1E
100
AcDbEntity
  8
0
100
AcDbLine
 10
93.47005000000001
 20
95.26670000000001
 30
0.0
 11
93.47005000000001
 21
98.25330000000001
 31
0.0
  0
LINE
  5
8C
330
1E
100
AcDbEntity
  8
0
100
AcDbLine
 10
93.47005000000001
 20
95.26670000000001
 30
0.0
 11
93.47005000000001
 21
92.0
 31
0.0
  0
LINE
  5
8D
330
1E
100
AcDbEntity
  8
0
100
AcDbLine
 10
93.47005000000001
 20
92.0
 30
0.0
 11
93.47005000000001
 21
95.26670000000001
 31
0.0
  0
LINE
  5
8E
330
1E
100
AcDbEntity
  8
0
100
AcDbLine
 10
93.47005000000001
 20
92.0
 30
0.0
 11
93.47005000000001
 21
88.73330000000001
 31
0.0
  0
LINE
  5
8F
330
1E
100
AcDbEntity
  8
0
100
AcDbLine
 10
93.97005
 20
80.23999999999999
 30
0.0
 11
93.97005
 21
82.48000000000001
 31
0.0
  0
LINE
  5
90
330
1E
100
AcDbEntity
  8
0
100
AcDbLine
 10
93.97005
 20
80.23999999999999
 30
0.0
 11
93.97005
 21
78.9333
 31
0.0
  0
LINE
  5
91
330
1E
100
AcDbEntity
  8
0
100
AcDbLine
 10
93.97005
 20
82.48000000000001
 30
0.0
 11
93.97005
 21
85.28
 31
0.0
  0
LINE
  5
92
330
1E
100
AcDbEntity
  8
0
100
AcDbLine
 10
93.97005
 20
82.48000000000001
 30
0.0
 11
93.97005
 21
80.23999999999999
 31
0.0
  0
LINE
  5
93
330
1E
100
AcDbEntity
  8
0
100
AcDbLine
 10
93.97005
 20
85.28
 30
0.0
 11
93.97005
 21
88.5467
 31
0.0
  0
LINE
  5
94
330
1E
100
AcDbEntity
  8
0
100
AcDbLine
 10
93.97005
 20
85.28
 30
0.0
 11
93.97005
 21
82.48000000000001
 31
0.0
  0
LINE
  5
95
330
1E
100
AcDbEntity
  8
0
100
AcDbLine
 10
93.97005
 20
88.5467
 30
0.0
 11
93.97005
 21
92.0
 31
0.0
  0
LINE
  5
96
330
1E
100
AcDbEntity
  8
0
100
AcDbLine
 10
93.97005
 20
88.5467
 30
0.0
 11
93.97005
 21
85.28
 31
0.0
  0
LINE
  5
97
330
1E
100
AcDbEntity
  8
0
100
AcDbLine
 10
93.97005
 20
98.71999999999999
 30
0.0
 11
93.97005
 21
101.5199999999999
 31
0.0
  0
LINE
  5
98
330
1E
100
AcDbEntity
  8
0
100
AcDbLine
 10
93.97005
 20
98.71999999999999
 30
0.0
 11
93.97005
 21
95.45329999999999
 31
0.0
  0
LINE
  5
99
330
1E
100
AcDbEntity
  8
0
100
AcDbLine
 10
93.97005
 20
95.45329999999999
 30
0.0
 11
93.97005
 21
98.71999999999999
 31
0.0
  0
LINE
  5
9A
330
1E
100
AcDbEntity
  8
0
100
AcDbLine
 10
93.97005
 20
95.45329999999999
 30
0.0
 11
93.97005
 21
92.0
 31
0.0
  0
LINE
  5
9B
330
1E
100
AcDbEntity
  8
0
100
AcDbLine
 10
93.97005
 20
92.0
 30
0.0
 11
93.97005
 21
95.45329999999999
 31
0.0
  0
LINE
  5
9C
330
1E
100
AcDbEntity
  8
0
100
AcDbLine
 10
93.97005
 20
92.0
 30
0.0
 11
93.97005
 21
88.5467
 31
0.0
  0
LINE
  5
9D
330
1E
100
AcDbEntity
  8
0
100
AcDbLine
 10
93.47005000000001
 20
100.8669999999999
 30
0.0
 11
93.47005000000001
 21
102.92
 31
0.0
  0
LINE
  5
9E
330
1E
100
AcDbEntity
  8
0
100
AcDbLine
 10
93.47005000000001
 20
100.8669999999999
 30
0.0
 11
93.47005000000001
 21
98.25330000000001
 31
0.0
  0
LINE
  5
9F
330
1E
100
AcDbEntity
  8
0
100
AcDbLine
 10
93.47005000000001
 20
102.92
 30
0.0
 11
93.47005000000001
 21
104.1329999999999
 31
0.0
  0
LINE
  5
A0
330
1E
100
AcDbEntity
  8
0
100
AcDbLine
 10
93.47005000000001
 20
102.92
 30
0.0
 11
93.47005000000001
 21
100.8669999999999
 31
0.0
  0
LINE
  5
A1
330
1E
100
AcDbEntity
  8
0
100
AcDbLine
 10
93.47005000000001
 20
104.1329999999999
 30
0.0
 11
93.47005000000001
 21
104.6
 31
0.0
  0
LINE
  5
A2
330
1E
100
AcDbEntity
  8
0
100
AcDbLine
 10
93.47005000000001
 20
104.1329999999999
 30
0.0
 11
93.47005000000001
 21
102.92
 31
0.0
  0
LINE
  5
A3
330
1E
100
AcDbEntity
  8
0
100
AcDbLine
 10
93.97005
 20
101.5199999999999
 30
0.0
 11
93.97005
 21
103.76
 31
0.0
  0
LINE
  5
A4
330
1E
100
AcDbEntity
  8
0
100
AcDbLine
 10
93.97005
 20
101.5199999999999
 30
0.0
 11
93.97005
 21
98.71999999999999
 31
0.0
  0
LINE
  5
A5
330
1E
100
AcDbEntity
  8
0
100
AcDbLine
 10
93.97005
 20
103.76
 30
0.0
 11
93.97005
 21
105.0669999999999
 31
0.0
  0
LINE
  5
A6
330
1E
100
AcDbEntity
  8
0
100
AcDbLine
 10
93.97005
 20
103.76
 30
0.0
 11
93.97005
 21
101.5199999999999
 31
0.0
  0
LINE
  5
A7
330
1E
100
AcDbEntity
  8
0
100
AcDbLine
 10
93.47005000000001
 20
79.40000000000001
 30
0.0
 11
93.97005
 21
78.4667
 31
0.0
  0
LINE
  5
A8
330
1E
100
AcDbEntity
  8
0
100
AcDbLine
 10
93.47005000000001
 20
79.40000000000001
 30
0.0
 11
93.47005000000001
 21
79.8667
 31
0.0
  0
LINE
  5
A9
330
1E
100
AcDbEntity
  8
0
100
AcDbLine
 10
93.97005
 20
78.4667
 30
0.0
 11
95.47005
 21
78.0
 31
0.0
  0
LINE
  5
AA
330
1E
100
AcDbEntity
  8
0
100
AcDbLine
 10
93.97005
 20
78.4667
 30
0.0
 11
93.97005
 21
78.9333
 31
0.0
  0
LINE
  5
AB
330
1E
100
AcDbEntity
  8
0
100
AcDbLine
 10
93.97005
 20
105.0669999999999
 30
0.0
 11
93.97005
 21
105.5329999999999
 31
0.0
  0
LINE
  5
AC
330
1E
100
AcDbEntity
  8
0
100
AcDbLine
 10
93.97005
 20
105.0669999999999
 30
0.0
 11
93.97005
 21
103.76
 31
0.0
  0
LINE
  5
AD
330
1E
100
AcDbEntity
  8
0
100
AcDbLine
 10
93.47005000000001
 20
104.6
 30
0.0
 11
93.97005
 21
105.5329999999999
 31
0.0
  0
LINE
  5
AE
330
1E
100
AcDbEntity
  8
0
100
AcDbLine
 10
93.47005000000001
 20
104.6
 30
0.0
 11
93.47005000000001
 21
104.1329999999999
 31
0.0
  0
LINE
  5
B1
330
1E
100
AcDbEntity
  8
0
100
AcDbLine
 10
95.47005
 20
78.0
 30
0.0
 11
96.97005
 21
78.4667
 31
0.0
  0
LINE
  5
B3
330
1E
100
AcDbEntity
  8
0
100
AcDbLine
 10
96.97005
 20
78.9333
 30
0.0
 11
96.97005
 21
80.23999999999999
 31
0.0
  0
LINE
  5
B4
330
1E
100
AcDbEntity
  8
0
100
AcDbLine
 10
96.97005
 20
78.9333
 30
0.0
 11
96.97005
 21
78.4667
 31
0.0
  0
LINE
  5
BD
330
1E
100
AcDbEntity
  8
0
100
AcDbLine
 10
96.97005
 20
80.23999999999999
 30
0.0
 11
96.97005
 21
82.48000000000001
 31
0.0
  0
LINE
  5
BE
330
1E
100
AcDbEntity
  8
0
100
AcDbLine
 10
96.97005
 20
80.23999999999999
 30
0.0
 11
96.97005
 21
78.9333
 31
0.0
  0
LINE
  5
BF
330
1E
100
AcDbEntity
  8
0
100
AcDbLine
 10
96.97005
 20
82.48000000000001
 30
0.0
 11
96.97005
 21
85.28
 31
0.0
  0
LINE
  5
C0
330
1E
100
AcDbEntity
  8
0
100
AcDbLine
 10
96.97005
 20
82.48000000000001
 30
0.0
 11
96.97005
 21
80.23999999999999
 31
0.0
  0
LINE
  5
C1
330
1E
100
AcDbEntity
  8
0
100
AcDbLine
 10
96.97005
 20
85.28
 30
0.0
 11
96.97005
 21
88.5467
 31
0.0
  0
LINE
  5
C2
330
1E
100
AcDbEntity
  8
0
100
AcDbLine
 10
96.97005
 20
85.28
 30
0.0
 11
96.97005
 21
82.48000000000001
 31
0.0
  0
LINE
  5
C3
330
1E
100
AcDbEntity
  8
0
100
AcDbLine
 10
96.97005
 20
88.5467
 30
0.0
 11
96.97005
 21
92.0
 31
0.0
  0
LINE
  5
C4
330
1E
100
AcDbEntity
  8
0
100
AcDbLine
 10
96.97005
 20
88.5467
 30
0.0
 11
96.97005
 21
85.28
 31
0.0
  0
LINE
  5
CB
330
1E
100
AcDbEntity
  8
0
100
AcDbLine
 10
96.97005
 20
98.71999999999999
 30
0.0
 11
96.97005
 21
101.5199999999999
 31
0.0
  0
LINE
  5
CC
330
1E
100
AcDbEntity
  8
0
100
AcDbLine
 10
96.97005
 20
98.71999999999999
 30
0.0
 11
96.97005
 21
95.45329999999999
 31
0.0
  0
LINE
  5
CD
330
1E
100
AcDbEntity
  8
0
100
AcDbLine
 10
96.97005
 20
95.45329999999999
 30
0.0
 11
96.97005
 21
98.71999999999999
 31
0.0
  0
LINE
  5
CE
330
1E
100
AcDbEntity
  8
0
100
AcDbLine
 10
96.97005
 20
95.45329999999999
 30
0.0
 11
96.97005
 21
92.0
 31
0.0
  0
LINE
  5
CF
330
1E
100
AcDbEntity
  8
0
100
AcDbLine
 10
96.97005
 20
92.0
 30
0.0
 11
96.97005
 21
95.45329999999999
 31
0.0
  0
LINE
  5
D0
330
1E
100
AcDbEntity
  8
0
100
AcDbLine
 10
96.97005
 20
92.0
 30
0.0
 11
96.97005
 21
88.5467
 31
0.0
  0
LINE
  5
D3
330
1E
100
AcDbEntity
  8
0
100
AcDbLine
 10
96.97005
 20
101.5199999999999
 30
0.0
 11
96.97005
 21
103.76
 31
0.0
  0
LINE
  5
D4
330
1E
100
AcDbEntity
  8
0
100
AcDbLine
 10
96.97005
 20
101.5199999999999
 30
0.0
 11
96.97005
 21
98.71999999999999
 31
0.0
  0
LINE
  5
D9
330
1E
100
AcDbEntity
  8
0
100
AcDbLine
 10
96.97005
 20
103.76
 30
0.0
 11
96.97005
 21
105.0669999999999
 31
0.0
  0
LINE
  5
DA
330
1E
100
AcDbEntity
  8
0
100
AcDbLine
 10
96.97005
 20
103.76
 30
0.0
 11
96.97005
 21
101.5199999999999
 31
0.0
  0
LINE
  5
DB
330
1E
100
AcDbEntity
  8
0
100
AcDbLine
 10
97.47005000000001
 20
83.2
 30
0.0
 11
97.47005000000001
 21
81.2
 31
0.0
  0
LINE
  5
DC
330
1E
100
AcDbEntity
  8
0
100
AcDbLine
 10
97.47005000000001
 20
83.2
 30
0.0
 11
97.47005000000001
 21
85.8
 31
0.0
  0
LINE
  5
DD
330
1E
100
AcDbEntity
  8
0
100
AcDbLine
 10
97.47005000000001
 20
81.2
 30
0.0
 11
97.47005000000001
 21
80.0
 31
0.0
  0
LINE
  5
DE
330
1E
100
AcDbEntity
  8
0
100
AcDbLine
 10
97.47005000000001
 20
81.2
 30
0.0
 11
97.47005000000001
 21
83.2
 31
0.0
  0
LINE
  5
DF
330
1E
100
AcDbEntity
  8
0
100
AcDbLine
 10
97.47005000000001
 20
80.0
 30
0.0
 11
97.47005000000001
 21
79.5
 31
0.0
  0
LINE
  5
E0
330
1E
100
AcDbEntity
  8
0
100
AcDbLine
 10
97.47005000000001
 20
80.0
 30
0.0
 11
97.47005000000001
 21
81.2
 31
0.0
  0
LINE
  5
E1
330
1E
100
AcDbEntity
  8
0
100
AcDbLine
 10
97.47005000000001
 20
85.8
 30
0.0
 11
97.47005000000001
 21
83.2
 31
0.0
  0
LINE
  5
E2
330
1E
100
AcDbEntity
  8
0
100
AcDbLine
 10
97.47005000000001
 20
85.8
 30
0.0
 11
97.47005000000001
 21
88.8
 31
0.0
  0
LINE
  5
E3
330
1E
100
AcDbEntity
  8
0
100
AcDbLine
 10
97.47005000000001
 20
88.8
 30
0.0
 11
97.47005000000001
 21
85.8
 31
0.0
  0
LINE
  5
E4
330
1E
100
AcDbEntity
  8
0
100
AcDbLine
 10
97.47005000000001
 20
88.8
 30
0.0
 11
97.47005000000001
 21
92.0
 31
0.0
  0
LINE
  5
E5
330
1E
100
AcDbEntity
  8
0
100
AcDbLine
 10
97.47005000000001
 20
92.0
 30
0.0
 11
97.47005000000001
 21
88.8
 31
0.0
  0
LINE
  5
E6
330
1E
100
AcDbEntity
  8
0
100
AcDbLine
 10
97.47005000000001
 20
92.0
 30
0.0
 11
97.47005000000001
 21
95.20000000000001
 31
0.0
  0
LINE
  5
E7
330
1E
100
AcDbEntity
  8
0
100
AcDbLine
 10
97.47005000000001
 20
100.8
 30
0.0
 11
97.47005000000001
 21
98.2
 31
0.0
  0
LINE
  5
E8
330
1E
100
AcDbEntity
  8
0
100
AcDbLine
 10
97.47005000000001
 20
100.8
 30
0.0
 11
97.47005000000001
 21
102.8
 31
0.0
  0
LINE
  5
E9
330
1E
100
AcDbEntity
  8
0
100
AcDbLine
 10
97.47005000000001
 20
98.2
 30
0.0
 11
97.47005000000001
 21
95.20000000000001
 31
0.0
  0
LINE
  5
EA
330
1E
100
AcDbEntity
  8
0
100
AcDbLine
 10
97.47005000000001
 20
98.2
 30
0.0
 11
97.47005000000001
 21
100.8
 31
0.0
  0
LINE
  5
EB
330
1E
100
AcDbEntity
  8
0
100
AcDbLine
 10
97.47005000000001
 20
95.20000000000001
 30
0.0
 11
97.47005000000001
 21
92.0
 31
0.0
  0
LINE
  5
EC
330
1E
100
AcDbEntity
  8
0
100
AcDbLine
 10
97.47005000000001
 20
95.20000000000001
 30
0.0
 11
97.47005000000001
 21
98.2
 31
0.0
  0
LINE
  5
ED
330
1E
100
AcDbEntity
  8
0
100
AcDbLine
 10
97.47005000000001
 20
102.8
 30
0.0
 11
97.47005000000001
 21
100.8
 31
0.0
  0
LINE
  5
EE
330
1E
100
AcDbEntity
  8
0
100
AcDbLine
 10
97.47005000000001
 20
102.8
 30
0.0
 11
97.47005000000001
 21
104.0
 31
0.0
  0
LINE
  5
EF
330
1E
100
AcDbEntity
  8
0
100
AcDbLine
 10
97.47005000000001
 20
104.0
 30
0.0
 11
97.47005000000001
 21
102.8
 31
0.0
  0
LINE
  5
F0
330
1E
100
AcDbEntity
  8
0
100
AcDbLine
 10
97.47005000000001
 20
104.0
 30
0.0
 11
97.47005000000001
 21
104.4999999999999
 31
0.0
  0
LINE
  5
F1
330
1E
100
AcDbEntity
  8
0
100
AcDbLine
 10
96.97005
 20
105.0669999999999
 30
0.0
 11
96.97005
 21
105.5329999999999
 31
0.0
  0
LINE
  5
F2
330
1E
100
AcDbEntity
  8
0
100
AcDbLine
 10
96.97005
 20
105.0669999999999
 30
0.0
 11
96.97005
 21
103.76
 31
0.0
  0
LINE
  5
F3
330
1E
100
AcDbEntity
  8
0
100
AcDbLine
 10
97.47005000000001
 20
79.5
 30
0.0
 11
98.54325000000001
 21
79.2957
 31
0.0
  0
LINE
  5
F4
330
1E
100
AcDbEntity
  8
0
100
AcDbLine
 10
97.47005000000001
 20
79.5
 30
0.0
 11
97.47005000000001
 21
80.0
 31
0.0
  0
LINE
  5
F5
330
1E
100
AcDbEntity
  8
0
100
AcDbLine
 10
98.54325000000001
 20
79.2957
 30
0.0
 11
100.05245
 21
78.5585
 31
0.0
  0
LINE
  5
F6
330
1E
100
AcDbEntity
  8
0
100
AcDbLine
 10
98.54325000000001
 20
104.7039999999999
 30
0.0
 11
100.05245
 21
105.441
 31
0.0
  0
LINE
  5
F7
330
1E
100
AcDbEntity
  8
0
100
AcDbLine
 10
97.47005000000001
 20
104.4999999999999
 30
0.0
 11
98.54325000000001
 21
104.7039999999999
 31
0.0
  0
LINE
  5
F8
330
1E
100
AcDbEntity
  8
0
100
AcDbLine
 10
97.47005000000001
 20
104.4999999999999
 30
0.0
 11
97.47005000000001
 21
104.0
 31
0.0
  0
LINE
  5
F9
330
1E
100
AcDbEntity
  8
0
100
AcDbLine
 10
96.97005
 20
78.4667
 30
0.0
 11
97.47005000000001
 21
79.5
 31
0.0
  0
LINE
  5
FA
330
1E
100
AcDbEntity
  8
0
100
AcDbLine
 10
96.97005
 20
78.4667
 30
0.0
 11
96.97005
 21
78.9333
 31
0.0
  0
LINE
  5
FB
330
1E
100
AcDbEntity
  8
0
100
AcDbLine
 10
93.97005
 20
105.5329999999999
 30
0.0
 11
95.47005
 21
106.0
 31
0.0
  0
LINE
  5
FC
330
1E
100
AcDbEntity
  8
0
100
AcDbLine
 10
93.97005
 20
105.5329999999999
 30
0.0
 11
93.97005
 21
105.0669999999999
 31
0.0
  0
LINE
  5
FD
330
1E
100
AcDbEntity
  8
0
100
AcDbLine
 10
95.47005
 20
106.0
 30
0.0
 11
96.97005
 21
105.5329999999999
 31
0.0
  0
LINE
  5
FF
330
1E
100
AcDbEntity
  8
0
100
AcDbLine
 10
96.97005
 20
105.5329999999999
 30
0.0
 11
97.47005000000001
 21
104.4999999999999
 31
0.0
  0
LINE
  5
100
330
1E
100
AcDbEntity
  8
0
100
AcDbLine
 10
96.97005
 20
105.5329999999999
 30
0.0
 11
96.97005
 21
105.0669999999999
 31
0.0
  0
LINE
  5
101
330
1E
100
AcDbEntity
  8
0
100
AcDbLine
 10
99.97005000000001
 20
68.0
 30
0.0
 11
100.4700499999999
 21
66.5
 31
0.0
  0
LINE
  5
102
330
1E
100
AcDbEntity
  8
0
100
AcDbLine
 10
99.97005000000001
 20
68.0
 30
0.0
 11
100.4700499999999
 21
69.5
 31
0.0
  0
LINE
  5
104
330
1E
100
AcDbEntity
  8
0
100
AcDbLine
 10
99.97005000000001
 20
15.0
 30
0.0
 11
100.5700499999999
 21
15.0
 31
0.0
  0
LINE
  5
105
330
1E
100
AcDbEntity
  8
0
100
AcDbLine
 10
99.97005000000001
 20
15.0
 30
0.0
 11
100.97005
 21
15.5
 31
0.0
  0
LINE
  5
106
330
1E
100
AcDbEntity
  8
0
100
AcDbLine
 10
99.47005
 20
14.0
 30
0.0
 11
99.47005
 21
13.5
 31
0.0
  0
LINE
  5
107
330
1E
100
AcDbEntity
  8
0
100
AcDbLine
 10
99.47005
 20
14.0
 30
0.0
 11
99.97005000000001
 21
15.0
 31
0.0
  0
LINE
  5
108
330
1E
100
AcDbEntity
  8
0
100
AcDbLine
 10
99.47005
 20
13.5
 30
0.0
 11
99.97005000000001
 21
12.5
 31
0.0
  0
LINE
  5
109
330
1E
100
AcDbEntity
  8
0
100
AcDbLine
 10
99.47005
 20
13.5
 30
0.0
 11
99.47005
 21
14.0
 31
0.0
  0
LINE
  5
10A
330
1E
100
AcDbEntity
  8
0
100
AcDbLine
 10
100.05245
 20
78.5585
 30
0.0
 11
101.18765
 21
77.35689999999999
 31
0.0
  0
LINE
  5
10B
330
1E
100
AcDbEntity
  8
0
100
AcDbLine
 10
100.05245
 20
105.441
 30
0.0
 11
101.18765
 21
106.6429999999999
 31
0.0
  0
LINE
  5
10D
330
1E
100
AcDbEntity
  8
0
100
AcDbLine
 10
100.4700499999999
 20
69.5
 30
0.0
 11
101.97005
 21
70.0
 31
0.0
  0
LINE
  5
10E
330
1E
100
AcDbEntity
  8
0
100
AcDbLine
 10
100.4700499999999
 20
69.5
 30
0.0
 11
101.07005
 21
69.5
 31
0.0
  0
LINE
  5
10F
330
1E
100
AcDbEntity
  8
0
100
AcDbLine
 10
100.4700499999999
 20
66.5
 30
0.0
 11
101.47005
 21
66.0
 31
0.0
  0
LINE
  5
110
330
1E
100
AcDbEntity
  8
0
100
AcDbLine
 10
100.4700499999999
 20
66.5
 30
0.0
 11
101.07005
 21
66.5
 31
0.0
  0
LINE
  5
111
330
1E
100
AcDbEntity
  8
0
100
AcDbLine
 10
101.07005
 20
69.5
 30
0.0
 11
102.67005
 21
69.5
 31
0.0
  0
LINE
  5
112
330
1E
100
AcDbEntity
  8
0
100
AcDbLine
 10
101.07005
 20
66.5
 30
0.0
 11
102.67005
 21
66.5
 31
0.0
  0
LINE
  5
113
330
1E
100
AcDbEntity
  8
0
100
AcDbLine
 10
100.97005
 20
15.5
 30
0.0
 11
101.47005
 21
16.0
 31
0.0
  0
LINE
  5
114
330
1E
100
AcDbEntity
  8
0
100
AcDbLine
 10
100.5700499999999
 20
15.0
 30
0.0
 11
131.67005
 21
15.0
 31
0.0
  0
LINE
  5
115
330
1E
100
AcDbEntity
  8
0
100
AcDbLine
 10
99.97005000000001
 20
12.5
 30
0.0
 11
100.17005
 21
11.4
 31
0.0
  0
LINE
  5
116
330
1E
100
AcDbEntity
  8
0
100
AcDbLine
 10
99.97005000000001
 20
10.0
 30
0.0
 11
100.17005
 21
11.4
 31
0.0
  0
LINE
  5
117
330
1E
100
AcDbEntity
  8
0
100
AcDbLine
 10
98.97005
 20
7.0
 30
0.0
 11
99.97005000000001
 21
10.0
 31
0.0
  0
LINE
  5
118
330
1E
100
AcDbEntity
  8
0
100
AcDbLine
 10
96.97005
 20
4.0
 30
0.0
 11
98.97005
 21
7.0
 31
0.0
  0
LINE
  5
119
330
1E
100
AcDbEntity
  8
0
100
AcDbLine
 10
93.47005000000001
 20
2.5
 30
0.0
 11
96.97005
 21
4.0
 31
0.0
  0
LINE
  5
11A
330
1E
100
AcDbEntity
  8
0
100
AcDbLine
 10
92.47004999999999
 20
1.5
 30
0.0
 11
93.47005000000001
 21
2.5
 31
0.0
  0
LINE
  5
11B
330
1E
100
AcDbEntity
  8
0
100
AcDbLine
 10
91.97005
 20
-0.0000000000000036
 30
0.0
 11
92.47004999999999
 21
1.5
 31
0.0
  0
LINE
  5
11C
330
1E
100
AcDbEntity
  8
0
100
AcDbLine
 10
91.97005
 20
-0.0000000000000036
 30
0.0
 11
92.87005
 21
-0.0000000000000037
 31
0.0
  0
LINE
  5
11D
330
1E
100
AcDbEntity
  8
0
100
AcDbLine
 10
91.97005
 20
-0.0000000000000036
 30
0.0
 11
92.47004999999999
 21
1.5
 31
0.0
  0
LINE
  5
11E
330
1E
100
AcDbEntity
  8
0
100
AcDbLine
 10
101.18765
 20
77.35689999999999
 30
0.0
 11
101.97005
 21
75.5000064885496
 31
0.0
  0
LINE
  5
11F
330
1E
100
AcDbEntity
  8
0
100
AcDbLine
 10
101.18765
 20
106.6429999999999
 30
0.0
 11
101.97005
 21
108.500080152672
 31
0.0
  0
LINE
  5
120
330
1E
100
AcDbEntity
  8
0
100
AcDbLine
 10
101.47005
 20
66.0
 30
0.0
 11
101.97005
 21
64.5
 31
0.0
  0
LINE
  5
121
330
1E
100
AcDbEntity
  8
0
100
AcDbLine
 10
101.47005
 20
66.0
 30
0.0
 11
102.07005
 21
66.0
 31
0.0
  0
LINE
  5
122
330
1E
100
AcDbEntity
  8
0
100
AcDbLine
 10
101.47005
 20
16.0
 30
0.0
 11
101.97005
 21
18.0
 31
0.0
  0
LINE
  5
123
330
1E
100
AcDbEntity
  8
0
100
AcDbLine
 10
101.07005
 20
117.5
 30
0.0
 11
102.67005
 21
117.5
 31
0.0
  0
LINE
  5
124
330
1E
100
AcDbEntity
  8
0
100
AcDbLine
 10
101.07005
 20
120.5
 30
0.0
 11
102.67005
 21
120.5
 31
0.0
  0
LINE
  5
126
330
1E
100
AcDbEntity
  8
0
100
AcDbLine
 10
101.47005
 20
121.0
 30
0.0
 11
101.47005
 21
127.0
 31
0.0
  0
LINE
  5
127
330
1E
100
AcDbEntity
  8
0
100
AcDbLine
 10
101.47005
 20
121.0
 30
0.0
 11
101.97005
 21
121.0
 31
0.0
  0
LINE
  5
128
330
1E
100
AcDbEntity
  8
0
100
AcDbLine
 10
100.4700499999999
 20
120.5
 30
0.0
 11
101.97005
 21
121.0
 31
0.0
  0
LINE
  5
129
330
1E
100
AcDbEntity
  8
0
100
AcDbLine
 10
100.4700499999999
 20
120.5
 30
0.0
 11
101.07005
 21
120.5
 31
0.0
  0
LINE
  5
12A
330
1E
100
AcDbEntity
  8
0
100
AcDbLine
 10
99.97005000000001
 20
119.0
 30
0.0
 11
100.4700499999999
 21
117.5
 31
0.0
  0
LINE
  5
12B
330
1E
100
AcDbEntity
  8
0
100
AcDbLine
 10
99.97005000000001
 20
119.0
 30
0.0
 11
100.4700499999999
 21
120.5
 31
0.0
  0
LINE
  5
12D
330
1E
100
AcDbEntity
  8
0
100
AcDbLine
 10
100.4700499999999
 20
117.5
 30
0.0
 11
101.47005
 21
117.0
 31
0.0
  0
LINE
  5
12E
330
1E
100
AcDbEntity
  8
0
100
AcDbLine
 10
100.4700499999999
 20
117.5
 30
0.0
 11
101.07005
 21
117.5
 31
0.0
  0
LINE
  5
12F
330
1E
100
AcDbEntity
  8
0
100
AcDbLine
 10
123.37005
 20
-0.0000000000000056
 30
0.0
 11
129.3700499999999
 21
-0.0000000000000059
 31
0.0
  0
LINE
  5
130
330
1E
100
AcDbEntity
  8
0
100
AcDbLine
 10
129.3700499999999
 20
-0.0000000000000059
 30
0.0
 11
134.57005
 21
-0.0000000000000062
 31
0.0
  0
LINE
  5
131
330
1E
100
AcDbEntity
  8
0
100
AcDbLine
 10
106.07005
 20
16.0
 30
0.0
 11
109.27005
 21
16.0
 31
0.0
  0
LINE
  5
132
330
1E
100
AcDbEntity
  8
0
100
AcDbLine
 10
109.27005
 20
16.0
 30
0.0
 11
132.4700499999999
 21
16.0
 31
0.0
  0
LINE
  5
134
330
1E
100
AcDbEntity
  8
0
100
AcDbLine
 10
104.5700499999999
 20
-0.0000000000000044
 30
0.0
 11
110.5700499999999
 21
-0.0000000000000048
 31
0.0
  0
LINE
  5
136
330
1E
100
AcDbEntity
  8
0
100
AcDbLine
 10
131.67005
 20
15.0
 30
0.0
 11
133.3700499999999
 21
15.0
 31
0.0
  0
LINE
  5
13D
330
1E
100
AcDbEntity
  8
0
100
AcDbLine
 10
110.5700499999999
 20
-0.0000000000000048
 30
0.0
 11
116.97005
 21
-0.0000000000000052
 31
0.0
  0
LINE
  5
13E
330
1E
100
AcDbEntity
  8
0
100
AcDbLine
 10
116.97005
 20
-0.0000000000000052
 30
0.0
 11
123.37005
 21
-0.0000000000000056
 31
0.0
  0
LINE
  5
13F
330
1E
100
AcDbEntity
  8
0
100
AcDbLine
 10
103.5700499999999
 20
16.0
 30
0.0
 11
106.07005
 21
16.0
 31
0.0
  0
LINE
  5
140
330
1E
100
AcDbEntity
  8
0
100
AcDbLine
 10
131.9700499999999
 20
18.0
 30
0.0
 11
132.4700499999999
 21
16.0
 31
0.0
  0
LINE
  5
141
330
1E
100
AcDbEntity
  8
0
100
AcDbLine
 10
131.9700499999999
 20
18.0
 30
0.0
 11
131.9700499999999
 21
64.5
 31
0.0
  0
LINE
  5
142
330
1E
100
AcDbEntity
  8
0
100
AcDbLine
 10
103.5700499999999
 20
66.0
 30
0.0
 11
106.07005
 21
66.0
 31
0.0
  0
LINE
  5
143
330
1E
100
AcDbEntity
  8
0
100
AcDbLine
 10
102.07005
 20
66.0
 30
0.0
 11
103.5700499999999
 21
66.0
 31
0.0
  0
LINE
  5
144
330
1E
100
AcDbEntity
  8
0
100
AcDbLine
 10
106.07005
 20
66.0
 30
0.0
 11
109.27005
 21
66.0
 31
0.0
  0
LINE
  5
145
330
1E
100
AcDbEntity
  8
0
100
AcDbLine
 10
109.27005
 20
66.0
 30
0.0
 11
112.9700499999999
 21
66.0
 31
0.0
  0
LINE
  5
146
330
1E
100
AcDbEntity
  8
0
100
AcDbLine
 10
112.9700499999999
 20
66.0
 30
0.0
 11
116.97005
 21
66.0
 31
0.0
  0
LINE
  5
147
330
1E
100
AcDbEntity
  8
0
100
AcDbLine
 10
127.87005
 20
66.0
 30
0.0
 11
130.3700499999999
 21
66.0
 31
0.0
  0
LINE
  5
148
330
1E
100
AcDbEntity
  8
0
100
AcDbLine
 10
130.3700499999999
 20
66.0
 30
0.0
 11
131.87005
 21
66.0
 31
0.0
  0
LINE
  5
149
330
1E
100
AcDbEntity
  8
0
100
AcDbLine
 10
131.87005
 20
66.0
 30
0.0
 11
132.4700499999999
 21
66.0
 31
0.0
  0
LINE
  5
14A
330
1E
100
AcDbEntity
  8
0
100
AcDbLine
 10
124.6700499999999
 20
66.0
 30
0.0
 11
127.87005
 21
66.0
 31
0.0
  0
LINE
  5
14B
330
1E
100
AcDbEntity
  8
0
100
AcDbLine
 10
120.97005
 20
66.0
 30
0.0
 11
124.6700499999999
 21
66.0
 31
0.0
  0
LINE
  5
14C
330
1E
100
AcDbEntity
  8
0
100
AcDbLine
 10
102.67005
 20
66.5
 30
0.0
 11
105.27005
 21
66.5
 31
0.0
  0
LINE
  5
14D
330
1E
100
AcDbEntity
  8
0
100
AcDbLine
 10
105.27005
 20
66.5
 30
0.0
 11
108.7700499999999
 21
66.5
 31
0.0
  0
LINE
  5
150
330
1E
100
AcDbEntity
  8
0
100
AcDbLine
 10
108.7700499999999
 20
66.5
 30
0.0
 11
112.7700499999999
 21
66.5
 31
0.0
  0
LINE
  5
151
330
1E
100
AcDbEntity
  8
0
100
AcDbLine
 10
112.7700499999999
 20
66.5
 30
0.0
 11
116.97005
 21
66.5
 31
0.0
  0
LINE
  5
152
330
1E
100
AcDbEntity
  8
0
100
AcDbLine
 10
102.67005
 20
69.5
 30
0.0
 11
105.27005
 21
69.5
 31
0.0
  0
LINE
  5
153
330
1E
100
AcDbEntity
  8
0
100
AcDbLine
 10
105.27005
 20
69.5
 30
0.0
 11
108.7700499999999
 21
69.5
 31
0.0
  0
LINE
  5
154
330
1E
100
AcDbEntity
  8
0
100
AcDbLine
 10
103.9700499999999
 20
70.0
 30
0.0
 11
106.37005
 21
70.0
 31
0.0
  0
LINE
  5
155
330
1E
100
AcDbEntity
  8
0
100
AcDbLine
 10
102.47005
 20
70.0
 30
0.0
 11
103.9700499999999
 21
70.0
 31
0.0
  0
LINE
  5
156
330
1E
100
AcDbEntity
  8
0
100
AcDbLine
 10
106.37005
 20
70.0
 30
0.0
 11
109.47005
 21
70.0
 31
0.0
  0
LINE
  5
157
330
1E
100
AcDbEntity
  8
0
100
AcDbLine
 10
109.47005
 20
70.0
 30
0.0
 11
113.0700499999999
 21
70.0
 31
0.0
  0
LINE
  5
158
330
1E
100
AcDbEntity
  8
0
100
AcDbLine
 10
108.7700499999999
 20
69.5
 30
0.0
 11
112.7700499999999
 21
69.5
 31
0.0
  0
LINE
  5
159
330
1E
100
AcDbEntity
  8
0
100
AcDbLine
 10
113.0700499999999
 20
70.0
 30
0.0
 11
116.97005
 21
70.0
 31
0.0
  0
LINE
  5
15A
330
1E
100
AcDbEntity
  8
0
100
AcDbLine
 10
112.7700499999999
 20
69.5
 30
0.0
 11
116.97005
 21
69.5
 31
0.0
  0
LINE
  5
15B
330
1E
100
AcDbEntity
  8
0
100
AcDbLine
 10
116.97005
 20
70.0
 30
0.0
 11
120.87005
 21
70.0
 31
0.0
  0
LINE
  5
15C
330
1E
100
AcDbEntity
  8
0
100
AcDbLine
 10
116.97005
 20
69.5
 30
0.0
 11
121.17005
 21
69.5
 31
0.0
  0
LINE
  5
15E
330
1E
100
AcDbEntity
  8
0
100
AcDbLine
 10
128.67005
 20
66.5
 30
0.0
 11
131.27005
 21
66.5
 31
0.0
  0
LINE
  5
15F
330
1E
100
AcDbEntity
  8
0
100
AcDbLine
 10
131.27005
 20
66.5
 30
0.0
 11
132.8700499999999
 21
66.5
 31
0.0
  0
LINE
  5
160
330
1E
100
AcDbEntity
  8
0
100
AcDbLine
 10
125.17005
 20
66.5
 30
0.0
 11
128.67005
 21
66.5
 31
0.0
  0
LINE
  5
161
330
1E
100
AcDbEntity
  8
0
100
AcDbLine
 10
120.87005
 20
70.0
 30
0.0
 11
124.4700499999999
 21
70.0
 31
0.0
  0
LINE
  5
162
330
1E
100
AcDbEntity
  8
0
100
AcDbLine
 10
121.17005
 20
69.5
 30
0.0
 11
125.17005
 21
69.5
 31
0.0
  0
LINE
  5
163
330
1E
100
AcDbEntity
  8
0
100
AcDbLine
 10
128.67005
 20
69.5
 30
0.0
 11
131.27005
 21
69.5
 31
0.0
  0
LINE
  5
164
330
1E
100
AcDbEntity
  8
0
100
AcDbLine
 10
131.27005
 20
69.5
 30
0.0
 11
132.8700499999999
 21
69.5
 31
0.0
  0
LINE
  5
166
330
1E
100
AcDbEntity
  8
0
100
AcDbLine
 10
127.5700499999999
 20
70.0
 30
0.0
 11
129.9700499999999
 21
70.0
 31
0.0
  0
LINE
  5
167
330
1E
100
AcDbEntity
  8
0
100
AcDbLine
 10
129.9700499999999
 20
70.0
 30
0.0
 11
131.4700499999999
 21
70.0
 31
0.0
  0
LINE
  5
168
330
1E
100
AcDbEntity
  8
0
100
AcDbLine
 10
131.4700499999999
 20
70.0
 30
0.0
 11
131.9700499999999
 21
70.0
 31
0.0
  0
LINE
  5
169
330
1E
100
AcDbEntity
  8
0
100
AcDbLine
 10
124.4700499999999
 20
70.0
 30
0.0
 11
127.5700499999999
 21
70.0
 31
0.0
  0
LINE
  5
16A
330
1E
100
AcDbEntity
  8
0
100
AcDbLine
 10
125.17005
 20
69.5
 30
0.0
 11
128.67005
 21
69.5
 31
0.0
  0
LINE
  5
16C
330
1E
100
AcDbEntity
  8
0
100
AcDbLine
 10
121.17005
 20
66.5
 30
0.0
 11
125.17005
 21
66.5
 31
0.0
  0
LINE
  5
16D
330
1E
100
AcDbEntity
  8
0
100
AcDbLine
 10
116.97005
 20
66.5
 30
0.0
 11
121.17005
 21
66.5
 31
0.0
  0
LINE
  5
16E
330
1E
100
AcDbEntity
  8
0
100
AcDbLine
 10
116.97005
 20
66.0
 30
0.0
 11
120.97005
 21
66.0
 31
0.0
  0
LINE
  5
16F
330
1E
100
AcDbEntity
  8
0
100
AcDbLine
 10
101.97005
 20
64.5
 30
0.0
 11
101.97005
 21
18.0
 31
0.0
  0
LINE
  5
170
330
1E
100
AcDbEntity
  8
0
100
AcDbLine
 10
101.97005
 20
18.0
 30
0.0
 11
101.97005
 21
64.5
 31
0.0
  0
LINE
  5
171
330
1E
100
AcDbEntity
  8
0
100
AcDbLine
 10
131.9700499999999
 20
64.5
 30
0.0
 11
131.9700499999999
 21
18.0
 31
0.0
  0
LINE
  5
172
330
1E
100
AcDbEntity
  8
0
100
AcDbLine
 10
131.9700499999999
 20
64.5
 30
0.0
 11
132.4700499999999
 21
66.0
 31
0.0
  0
LINE
  5
173
330
1E
100
AcDbEntity
  8
0
100
AcDbLine
 10
101.47005
 20
16.0
 30
0.0
 11
103.5700499999999
 21
16.0
 31
0.0
  0
LINE
  5
174
330
1E
100
AcDbEntity
  8
0
100
AcDbLine
 10
131.9700499999999
 20
70.0
 30
0.0
 11
131.9700499999999
 21
115.5
 31
0.0
  0
LINE
  5
175
330
1E
100
AcDbEntity
  8
0
100
AcDbLine
 10
131.9700499999999
 20
70.0
 30
0.0
 11
133.4700499999999
 21
69.5
 31
0.0
  0
LINE
  5
176
330
1E
100
AcDbEntity
  8
0
100
AcDbLine
 10
101.97005
 20
75.5000064885496
 30
0.0
 11
101.97005
 21
70.0
 31
0.0
  0
LINE
  5
177
330
1E
100
AcDbEntity
  8
0
100
AcDbLine
 10
101.97005
 20
115.5
 30
0.0
 11
101.97005
 21
108.500080152672
 31
0.0
  0
LINE
  5
178
330
1E
100
AcDbEntity
  8
0
100
AcDbLine
 10
101.97005
 20
121.0
 30
0.0
 11
102.47005
 21
121.0
 31
0.0
  0
LINE
  5
179
330
1E
100
AcDbEntity
  8
0
100
AcDbLine
 10
106.07005
 20
117.0
 30
0.0
 11
109.27005
 21
117.0
 31
0.0
  0
LINE
  5
17A
330
1E
100
AcDbEntity
  8
0
100
AcDbLine
 10
127.87005
 20
117.0
 30
0.0
 11
130.3700499999999
 21
117.0
 31
0.0
  0
LINE
  5
17B
330
1E
100
AcDbEntity
  8
0
100
AcDbLine
 10
130.3700499999999
 20
117.0
 30
0.0
 11
131.87005
 21
117.0
 31
0.0
  0
LINE
  5
17C
330
1E
100
AcDbEntity
  8
0
100
AcDbLine
 10
131.87005
 20
117.0
 30
0.0
 11
132.4700499999999
 21
117.0
 31
0.0
  0
LINE
  5
17D
330
1E
100
AcDbEntity
  8
0
100
AcDbLine
 10
124.6700499999999
 20
117.0
 30
0.0
 11
127.87005
 21
117.0
 31
0.0
  0
LINE
  5
17E
330
1E
100
AcDbEntity
  8
0
100
AcDbLine
 10
120.97005
 20
117.0
 30
0.0
 11
124.6700499999999
 21
117.0
 31
0.0
  0
LINE
  5
17F
330
1E
100
AcDbEntity
  8
0
100
AcDbLine
 10
116.97005
 20
117.0
 30
0.0
 11
120.97005
 21
117.0
 31
0.0
  0
LINE
  5
180
330
1E
100
AcDbEntity
  8
0
100
AcDbLine
 10
109.27005
 20
117.0
 30
0.0
 11
112.9700499999999
 21
117.0
 31
0.0
  0
LINE
  5
181
330
1E
100
AcDbEntity
  8
0
100
AcDbLine
 10
112.9700499999999
 20
117.0
 30
0.0
 11
116.97005
 21
117.0
 31
0.0
  0
LINE
  5
182
330
1E
100
AcDbEntity
  8
0
100
AcDbLine
 10
103.5700499999999
 20
117.0
 30
0.0
 11
106.07005
 21
117.0
 31
0.0
  0
LINE
  5
183
330
1E
100
AcDbEntity
  8
0
100
AcDbLine
 10
102.47005
 20
121.0
 30
0.0
 11
103.9700499999999
 21
121.0
 31
0.0
  0
LINE
  5
184
330
1E
100
AcDbEntity
  8
0
100
AcDbLine
 10
102.67005
 20
120.5
 30
0.0
 11
105.27005
 21
120.5
 31
0.0
  0
LINE
  5
185
330
1E
100
AcDbEntity
  8
0
100
AcDbLine
 10
105.27005
 20
117.5
 30
0.0
 11
108.7700499999999
 21
117.5
 31
0.0
  0
LINE
  5
187
330
1E
100
AcDbEntity
  8
0
100
AcDbLine
 10
105.6285499999999
 20
121.0
 30
0.0
 11
109.47005
 21
121.0
 31
0.0
  0
LINE
  5
188
330
1E
100
AcDbEntity
  8
0
100
AcDbLine
 10
106.37005
 20
121.0
 30
0.0
 11
109.47005
 21
121.0
 31
0.0
  0
LINE
  5
189
330
1E
100
AcDbEntity
  8
0
100
AcDbLine
 10
105.27005
 20
120.5
 30
0.0
 11
108.7700499999999
 21
120.5
 31
0.0
  0
LINE
  5
18A
330
1E
100
AcDbEntity
  8
0
100
AcDbLine
 10
109.47005
 20
121.0
 30
0.0
 11
113.0700499999999
 21
121.0
 31
0.0
  0
LINE
  5
18B
330
1E
100
AcDbEntity
  8
0
100
AcDbLine
 10
108.7700499999999
 20
120.5
 30
0.0
 11
112.7700499999999
 21
120.5
 31
0.0
  0
LINE
  5
18D
330
1E
100
AcDbEntity
  8
0
100
AcDbLine
 10
112.7700499999999
 20
120.5
 30
0.0
 11
116.97005
 21
120.5
 31
0.0
  0
LINE
  5
18F
330
1E
100
AcDbEntity
  8
0
100
AcDbLine
 10
108.7700499999999
 20
117.5
 30
0.0
 11
112.7700499999999
 21
117.5
 31
0.0
  0
LINE
  5
190
330
1E
100
AcDbEntity
  8
0
100
AcDbLine
 10
116.97005
 20
121.0
 30
0.0
 11
120.87005
 21
121.0
 31
0.0
  0
LINE
  5
191
330
1E
100
AcDbEntity
  8
0
100
AcDbLine
 10
116.97005
 20
121.0
 30
0.0
 11
121.12905
 21
121.0
 31
0.0
  0
LINE
  5
192
330
1E
100
AcDbEntity
  8
0
100
AcDbLine
 10
116.97005
 20
120.5
 30
0.0
 11
121.17005
 21
120.5
 31
0.0
  0
LINE
  5
194
330
1E
100
AcDbEntity
  8
0
100
AcDbLine
 10
128.67005
 20
117.5
 30
0.0
 11
131.27005
 21
117.5
 31
0.0
  0
LINE
  5
195
330
1E
100
AcDbEntity
  8
0
100
AcDbLine
 10
131.27005
 20
117.5
 30
0.0
 11
132.8700499999999
 21
117.5
 31
0.0
  0
LINE
  5
196
330
1E
100
AcDbEntity
  8
0
100
AcDbLine
 10
125.17005
 20
117.5
 30
0.0
 11
128.67005
 21
117.5
 31
0.0
  0
LINE
  5
197
330
1E
100
AcDbEntity
  8
0
100
AcDbLine
 10
121.12905
 20
121.0
 30
0.0
 11
124.4700499999999
 21
121.0
 31
0.0
  0
LINE
  5
199
330
1E
100
AcDbEntity
  8
0
100
AcDbLine
 10
120.87005
 20
121.0
 30
0.0
 11
124.4700499999999
 21
121.0
 31
0.0
  0
LINE
  5
19A
330
1E
100
AcDbEntity
  8
0
100
AcDbLine
 10
121.17005
 20
120.5
 30
0.0
 11
125.17005
 21
120.5
 31
0.0
  0
LINE
  5
19B
330
1E
100
AcDbEntity
  8
0
100
AcDbLine
 10
128.67005
 20
120.5
 30
0.0
 11
131.27005
 21
120.5
 31
0.0
  0
LINE
  5
19C
330
1E
100
AcDbEntity
  8
0
100
AcDbLine
 10
131.27005
 20
120.5
 30
0.0
 11
132.8700499999999
 21
120.5
 31
0.0
  0
LINE
  5
19E
330
1E
100
AcDbEntity
  8
0
100
AcDbLine
 10
127.5700499999999
 20
121.0
 30
0.0
 11
129.9700499999999
 21
121.0
 31
0.0
  0
LINE
  5
19F
330
1E
100
AcDbEntity
  8
0
100
AcDbLine
 10
129.9700499999999
 20
121.0
 30
0.0
 11
131.4700499999999
 21
121.0
 31
0.0
  0
LINE
  5
1A0
330
1E
100
AcDbEntity
  8
0
100
AcDbLine
 10
129.9700499999999
 20
121.0
 30
0.0
 11
132.4700499999999
 21
121.0
 31
0.0
  0
LINE
  5
1A1
330
1E
100
AcDbEntity
  8
0
100
AcDbLine
 10
131.4700499999999
 20
121.0
 30
0.0
 11
131.9700499999999
 21
121.0
 31
0.0
  0
LINE
  5
1A2
330
1E
100
AcDbEntity
  8
0
100
AcDbLine
 10
124.4700499999999
 20
121.0
 30
0.0
 11
127.5700499999999
 21
121.0
 31
0.0
  0
LINE
  5
1A3
330
1E
100
AcDbEntity
  8
0
100
AcDbLine
 10
125.17005
 20
120.5
 30
0.0
 11
128.67005
 21
120.5
 31
0.0
  0
LINE
  5
1A5
330
1E
100
AcDbEntity
  8
0
100
AcDbLine
 10
121.17005
 20
117.5
 30
0.0
 11
125.17005
 21
117.5
 31
0.0
  0
LINE
  5
1A6
330
1E
100
AcDbEntity
  8
0
100
AcDbLine
 10
116.97005
 20
117.5
 30
0.0
 11
121.17005
 21
117.5
 31
0.0
  0
LINE
  5
1A7
330
1E
100
AcDbEntity
  8
0
100
AcDbLine
 10
113.0700499999999
 20
121.0
 30
0.0
 11
116.97005
 21
121.0
 31
0.0
  0
LINE
  5
1A8
330
1E
100
AcDbEntity
  8
0
100
AcDbLine
 10
112.7700499999999
 20
117.5
 30
0.0
 11
116.97005
 21
117.5
 31
0.0
  0
LINE
  5
1A9
330
1E
100
AcDbEntity
  8
0
100
AcDbLine
 10
103.9700499999999
 20
121.0
 30
0.0
 11
106.37005
 21
121.0
 31
0.0
  0
LINE
  5
1AA
330
1E
100
AcDbEntity
  8
0
100
AcDbLine
 10
102.67005
 20
117.5
 30
0.0
 11
105.27005
 21
117.5
 31
0.0
  0
LINE
  5
1AB
330
1E
100
AcDbEntity
  8
0
100
AcDbLine
 10
102.07005
 20
117.0
 30
0.0
 11
103.5700499999999
 21
117.0
 31
0.0
  0
LINE
  5
1AC
330
1E
100
AcDbEntity
  8
0
100
AcDbLine
 10
101.97005
 20
108.500080152672
 30
0.0
 11
101.97005
 21
115.5
 31
0.0
  0
LINE
  5
1AD
330
1E
100
AcDbEntity
  8
0
100
AcDbLine
 10
101.97005
 20
70.0
 30
0.0
 11
101.97005
 21
75.5000064885496
 31
0.0
  0
LINE
  5
1AE
330
1E
100
AcDbEntity
  8
0
100
AcDbLine
 10
101.97005
 20
70.0
 30
0.0
 11
102.47005
 21
70.0
 31
0.0
  0
LINE
  5
1AF
330
1E
100
AcDbEntity
  8
0
100
AcDbLine
 10
101.47005
 20
117.0
 30
0.0
 11
101.97005
 21
115.5
 31
0.0
  0
LINE
  5
1B0
330
1E
100
AcDbEntity
  8
0
100
AcDbLine
 10
101.47005
 20
117.0
 30
0.0
 11
102.07005
 21
117.0
 31
0.0
  0
LINE
  5
1B1
330
1E
100
AcDbEntity
  8
0
100
AcDbLine
 10
101.47005
 20
127.0
 30
0.0
 11
101.47005
 21
121.0
 31
0.0
  0
LINE
  5
1B2
330
1E
100
AcDbEntity
  8
0
100
AcDbLine
 10
101.47005
 20
127.0
 30
0.0
 11
105.6285499999999
 21
127.0
 31
0.0
  0
LINE
  5
1B3
330
1E
100
AcDbEntity
  8
0
100
AcDbLine
 10
104.9700499999999
 20
139.0
 30
0.0
 11
105.47005
 21
139.5
 31
0.0
  0
LINE
  5
1B4
330
1E
100
AcDbEntity
  8
0
100
AcDbLine
 10
104.9700499999999
 20
139.0
 30
0.0
 11
104.9700499999999
 21
127.0
 31
0.0
  0
LINE
  5
1B5
330
1E
100
AcDbEntity
  8
0
100
AcDbLine
 10
104.9700499999999
 20
139.0
 30
0.0
 11
105.37005
 21
139.0
 31
0.0
  0
LINE
  5
1B7
330
1E
100
AcDbEntity
  8
0
100
AcDbLine
 10
105.6285499999999
 20
127.0
 30
0.0
 11
121.12905
 21
127.0
 31
0.0
  0
LINE
  5
1B8
330
1E
100
AcDbEntity
  8
0
100
AcDbLine
 10
108.47005
 20
139.0
 30
0.0
 11
110.9700499999999
 21
139.0
 31
0.0
  0
LINE
  5
1BA
330
1E
100
AcDbEntity
  8
0
100
AcDbLine
 10
121.12905
 20
127.0
 30
0.0
 11
132.4700499999999
 21
127.0
 31
0.0
  0
LINE
  5
1BB
330
1E
100
AcDbEntity
  8
0
100
AcDbLine
 10
125.4700499999999
 20
139.0
 30
0.0
 11
127.37005
 21
139.0
 31
0.0
  0
LINE
  5
1BC
330
1E
100
AcDbEntity
  8
0
100
AcDbLine
 10
127.37005
 20
139.0
 30
0.0
 11
128.57005
 21
139.0
 31
0.0
  0
LINE
  5
1BD
330
1E
100
AcDbEntity
  8
0
100
AcDbLine
 10
128.57005
 20
139.0
 30
0.0
 11
128.9700499999999
 21
139.0
 31
0.0
  0
LINE
  5
1BE
330
1E
100
AcDbEntity
  8
0
100
AcDbLine
 10
128.9700499999999
 20
127.0
 30
0.0
 11
128.9700499999999
 21
139.0
 31
0.0
  0
LINE
  5
1BF
330
1E
100
AcDbEntity
  8
0
100
AcDbLine
 10
122.97005
 20
139.0
 30
0.0
 11
125.4700499999999
 21
139.0
 31
0.0
  0
LINE
  5
1C0
330
1E
100
AcDbEntity
  8
0
100
AcDbLine
 10
120.0700499999999
 20
139.0
 30
0.0
 11
122.97005
 21
139.0
 31
0.0
  0
LINE
  5
1C1
330
1E
100
AcDbEntity
  8
0
100
AcDbLine
 10
116.97005
 20
139.0
 30
0.0
 11
120.0700499999999
 21
139.0
 31
0.0
  0
LINE
  5
1C2
330
1E
100
AcDbEntity
  8
0
100
AcDbLine
 10
110.9700499999999
 20
139.0
 30
0.0
 11
113.87005
 21
139.0
 31
0.0
  0
LINE
  5
1C3
330
1E
100
AcDbEntity
  8
0
100
AcDbLine
 10
113.87005
 20
139.0
 30
0.0
 11
116.97005
 21
139.0
 31
0.0
  0
LINE
  5
1C4
330
1E
100
AcDbEntity
  8
0
100
AcDbLine
 10
106.5700499999999
 20
139.0
 30
0.0
 11
108.47005
 21
139.0
 31
0.0
  0
LINE
  5
1C5
330
1E
100
AcDbEntity
  8
0
100
AcDbLine
 10
108.87005
 20
139.5
 30
0.0
 11
111.27005
 21
139.5
 31
0.0
  0
LINE
  5
1C6
330
1E
100
AcDbEntity
  8
0
100
AcDbLine
 10
125.0700499999999
 20
139.5
 30
0.0
 11
126.97005
 21
139.5
 31
0.0
  0
LINE
  5
1C7
330
1E
100
AcDbEntity
  8
0
100
AcDbLine
 10
126.97005
 20
139.5
 30
0.0
 11
128.07005
 21
139.5
 31
0.0
  0
LINE
  5
1C8
330
1E
100
AcDbEntity
  8
0
100
AcDbLine
 10
128.07005
 20
139.5
 30
0.0
 11
128.4700499999999
 21
139.5
 31
0.0
  0
LINE
  5
1C9
330
1E
100
AcDbEntity
  8
0
100
AcDbLine
 10
122.6700499999999
 20
139.5
 30
0.0
 11
125.0700499999999
 21
139.5
 31
0.0
  0
LINE
  5
1CA
330
1E
100
AcDbEntity
  8
0
100
AcDbLine
 10
119.97005
 20
139.5
 30
0.0
 11
122.6700499999999
 21
139.5
 31
0.0
  0
LINE
  5
1CB
330
1E
100
AcDbEntity
  8
0
100
AcDbLine
 10
116.97005
 20
139.5
 30
0.0
 11
119.97005
 21
139.5
 31
0.0
  0
LINE
  5
1CC
330
1E
100
AcDbEntity
  8
0
100
AcDbLine
 10
111.27005
 20
139.5
 30
0.0
 11
113.97005
 21
139.5
 31
0.0
  0
LINE
  5
1CD
330
1E
100
AcDbEntity
  8
0
100
AcDbLine
 10
113.97005
 20
139.5
 30
0.0
 11
116.97005
 21
139.5
 31
0.0
  0
LINE
  5
1CE
330
1E
100
AcDbEntity
  8
0
100
AcDbLine
 10
106.9700499999999
 20
139.5
 30
0.0
 11
108.87005
 21
139.5
 31
0.0
  0
LINE
  5
1CF
330
1E
100
AcDbEntity
  8
0
100
AcDbLine
 10
105.87005
 20
139.5
 30
0.0
 11
106.9700499999999
 21
139.5
 31
0.0
  0
LINE
  5
1D0
330
1E
100
AcDbEntity
  8
0
100
AcDbLine
 10
105.47005
 20
139.5
 30
0.0
 11
105.87005
 21
139.5
 31
0.0
  0
LINE
  5
1D1
330
1E
100
AcDbEntity
  8
0
100
AcDbLine
 10
105.37005
 20
139.0
 30
0.0
 11
106.5700499999999
 21
139.0
 31
0.0
  0
LINE
  5
1D2
330
1E
100
AcDbEntity
  8
0
100
AcDbLine
 10
104.9700499999999
 20
127.0
 30
0.0
 11
104.9700499999999
 21
139.0
 31
0.0
  0
LINE
  5
1D3
330
1E
100
AcDbEntity
  8
0
100
AcDbLine
 10
104.9700499999999
 20
141.5
 30
0.0
 11
105.47005
 21
142.0
 31
0.0
  0
LINE
  5
1D4
330
1E
100
AcDbEntity
  8
0
100
AcDbLine
 10
104.9700499999999
 20
141.5
 30
0.0
 11
104.9700499999999
 21
140.0
 31
0.0
  0
LINE
  5
1D5
330
1E
100
AcDbEntity
  8
0
100
AcDbLine
 10
104.9700499999999
 20
141.5
 30
0.0
 11
105.37005
 21
141.5
 31
0.0
  0
LINE
  5
1D6
330
1E
100
AcDbEntity
  8
0
100
AcDbLine
 10
125.4700499999999
 20
140.0
 30
0.0
 11
127.37005
 21
140.0
 31
0.0
  0
LINE
  5
1D7
330
1E
100
AcDbEntity
  8
0
100
AcDbLine
 10
128.9700499999999
 20
140.0
 30
0.0
 11
128.9700499999999
 21
141.5
 31
0.0
  0
LINE
  5
1D8
330
1E
100
AcDbEntity
  8
0
100
AcDbLine
 10
127.37005
 20
140.0
 30
0.0
 11
128.57005
 21
140.0
 31
0.0
  0
LINE
  5
1D9
330
1E
100
AcDbEntity
  8
0
100
AcDbLine
 10
128.57005
 20
140.0
 30
0.0
 11
128.9700499999999
 21
140.0
 31
0.0
  0
LINE
  5
1DA
330
1E
100
AcDbEntity
  8
0
100
AcDbLine
 10
122.97005
 20
140.0
 30
0.0
 11
125.4700499999999
 21
140.0
 31
0.0
  0
LINE
  5
1DB
330
1E
100
AcDbEntity
  8
0
100
AcDbLine
 10
120.0700499999999
 20
140.0
 30
0.0
 11
122.97005
 21
140.0
 31
0.0
  0
LINE
  5
1DC
330
1E
100
AcDbEntity
  8
0
100
AcDbLine
 10
116.97005
 20
140.0
 30
0.0
 11
120.0700499999999
 21
140.0
 31
0.0
  0
LINE
  5
1DD
330
1E
100
AcDbEntity
  8
0
100
AcDbLine
 10
108.47005
 20
140.0
 30
0.0
 11
110.9700499999999
 21
140.0
 31
0.0
  0
LINE
  5
1DE
330
1E
100
AcDbEntity
  8
0
100
AcDbLine
 10
110.9700499999999
 20
140.0
 30
0.0
 11
113.87005
 21
140.0
 31
0.0
  0
LINE
  5
1DF
330
1E
100
AcDbEntity
  8
0
100
AcDbLine
 10
113.87005
 20
140.0
 30
0.0
 11
116.97005
 21
140.0
 31
0.0
  0
LINE
  5
1E0
330
1E
100
AcDbEntity
  8
0
100
AcDbLine
 10
106.5700499999999
 20
140.0
 30
0.0
 11
108.47005
 21
140.0
 31
0.0
  0
LINE
  5
1E1
330
1E
100
AcDbEntity
  8
0
100
AcDbLine
 10
108.47005
 20
141.5
 30
0.0
 11
110.9700499999999
 21
141.5
 31
0.0
  0
LINE
  5
1E2
330
1E
100
AcDbEntity
  8
0
100
AcDbLine
 10
110.9700499999999
 20
141.5
 30
0.0
 11
113.87005
 21
141.5
 31
0.0
  0
LINE
  5
1E3
330
1E
100
AcDbEntity
  8
0
100
AcDbLine
 10
125.4700499999999
 20
141.5
 30
0.0
 11
127.37005
 21
141.5
 31
0.0
  0
LINE
  5
1E4
330
1E
100
AcDbEntity
  8
0
100
AcDbLine
 10
127.37005
 20
141.5
 30
0.0
 11
128.57005
 21
141.5
 31
0.0
  0
LINE
  5
1E5
330
1E
100
AcDbEntity
  8
0
100
AcDbLine
 10
128.57005
 20
141.5
 30
0.0
 11
128.9700499999999
 21
141.5
 31
0.0
  0
LINE
  5
1E6
330
1E
100
AcDbEntity
  8
0
100
AcDbLine
 10
122.97005
 20
141.5
 30
0.0
 11
125.4700499999999
 21
141.5
 31
0.0
  0
LINE
  5
1E7
330
1E
100
AcDbEntity
  8
0
100
AcDbLine
 10
120.0700499999999
 20
141.5
 30
0.0
 11
122.97005
 21
141.5
 31
0.0
  0
LINE
  5
1E8
330
1E
100
AcDbEntity
  8
0
100
AcDbLine
 10
116.97005
 20
141.5
 30
0.0
 11
120.0700499999999
 21
141.5
 31
0.0
  0
LINE
  5
1E9
330
1E
100
AcDbEntity
  8
0
100
AcDbLine
 10
113.87005
 20
141.5
 30
0.0
 11
116.97005
 21
141.5
 31
0.0
  0
LINE
  5
1EA
330
1E
100
AcDbEntity
  8
0
100
AcDbLine
 10
110.9700499999999
 20
142.0
 30
0.0
 11
110.9700499999999
 21
153.0
 31
0.0
  0
LINE
  5
1EB
330
1E
100
AcDbEntity
  8
0
100
AcDbLine
 10
108.87005
 20
142.0
 30
0.0
 11
111.27005
 21
142.0
 31
0.0
  0
LINE
  5
1EC
330
1E
100
AcDbEntity
  8
0
100
AcDbLine
 10
122.97005
 20
142.0
 30
0.0
 11
122.97005
 21
153.0
 31
0.0
  0
LINE
  5
1ED
330
1E
100
AcDbEntity
  8
0
100
AcDbLine
 10
125.0700499999999
 20
142.0
 30
0.0
 11
126.97005
 21
142.0
 31
0.0
  0
LINE
  5
1EE
330
1E
100
AcDbEntity
  8
0
100
AcDbLine
 10
126.97005
 20
142.0
 30
0.0
 11
128.07005
 21
142.0
 31
0.0
  0
LINE
  5
1EF
330
1E
100
AcDbEntity
  8
0
100
AcDbLine
 10
128.07005
 20
142.0
 30
0.0
 11
128.4700499999999
 21
142.0
 31
0.0
  0
LINE
  5
1F0
330
1E
100
AcDbEntity
  8
0
100
AcDbLine
 10
122.6700499999999
 20
142.0
 30
0.0
 11
125.0700499999999
 21
142.0
 31
0.0
  0
LINE
  5
1F1
330
1E
100
AcDbEntity
  8
0
100
AcDbLine
 10
119.97005
 20
142.0
 30
0.0
 11
122.6700499999999
 21
142.0
 31
0.0
  0
LINE
  5
1F2
330
1E
100
AcDbEntity
  8
0
100
AcDbLine
 10
116.97005
 20
142.0
 30
0.0
 11
119.97005
 21
142.0
 31
0.0
  0
LINE
  5
1F3
330
1E
100
AcDbEntity
  8
0
100
AcDbLine
 10
111.27005
 20
142.0
 30
0.0
 11
113.97005
 21
142.0
 31
0.0
  0
LINE
  5
1F4
330
1E
100
AcDbEntity
  8
0
100
AcDbLine
 10
113.97005
 20
142.0
 30
0.0
 11
116.97005
 21
142.0
 31
0.0
  0
LINE
  5
1F5
330
1E
100
AcDbEntity
  8
0
100
AcDbLine
 10
106.9700499999999
 20
142.0
 30
0.0
 11
108.87005
 21
142.0
 31
0.0
  0
LINE
  5
1F6
330
1E
100
AcDbEntity
  8
0
100
AcDbLine
 10
105.87005
 20
142.0
 30
0.0
 11
106.9700499999999
 21
142.0
 31
0.0
  0
LINE
  5
1F7
330
1E
100
AcDbEntity
  8
0
100
AcDbLine
 10
105.47005
 20
142.0
 30
0.0
 11
105.87005
 21
142.0
 31
0.0
  0
LINE
  5
1F8
330
1E
100
AcDbEntity
  8
0
100
AcDbLine
 10
106.5700499999999
 20
141.5
 30
0.0
 11
108.47005
 21
141.5
 31
0.0
  0
LINE
  5
1F9
330
1E
100
AcDbEntity
  8
0
100
AcDbLine
 10
105.37005
 20
141.5
 30
0.0
 11
106.5700499999999
 21
141.5
 31
0.0
  0
LINE
  5
1FA
330
1E
100
AcDbEntity
  8
0
100
AcDbLine
 10
105.37005
 20
140.0
 30
0.0
 11
106.5700499999999
 21
140.0
 31
0.0
  0
LINE
  5
1FB
330
1E
100
AcDbEntity
  8
0
100
AcDbLine
 10
104.9700499999999
 20
140.0
 30
0.0
 11
105.47005
 21
139.5
 31
0.0
  0
LINE
  5
1FC
330
1E
100
AcDbEntity
  8
0
100
AcDbLine
 10
104.9700499999999
 20
140.0
 30
0.0
 11
104.9700499999999
 21
141.5
 31
0.0
  0
LINE
  5
1FD
330
1E
100
AcDbEntity
  8
0
100
AcDbLine
 10
104.9700499999999
 20
140.0
 30
0.0
 11
105.37005
 21
140.0
 31
0.0
  0
LINE
  5
1FE
330
1E
100
AcDbEntity
  8
0
100
AcDbLine
 10
88.32625
 20
170.929
 30
0.0
 11
88.84545000000001
 21
172.044
 31
0.0
  0
LINE
  5
1FF
330
1E
100
AcDbEntity
  8
0
100
AcDbLine
 10
87.97005
 20
168.0
 30
0.0
 11
88.32625
 21
165.071
 31
0.0
  0
LINE
  5
200
330
1E
100
AcDbEntity
  8
0
100
AcDbLine
 10
87.97005
 20
168.0
 30
0.0
 11
88.32625
 21
170.929
 31
0.0
  0
LINE
  5
202
330
1E
100
AcDbEntity
  8
0
100
AcDbLine
 10
90.59535
 20
162.476
 30
0.0
 11
92.09524999999999
 21
162.092
 31
0.0
  0
LINE
  5
203
330
1E
100
AcDbEntity
  8
0
100
AcDbLine
 10
92.09524999999999
 20
162.092
 30
0.0
 11
93.99295
 21
162.212
 31
0.0
  0
LINE
  5
204
330
1E
100
AcDbEntity
  8
0
100
AcDbLine
 10
93.86644999999999
 20
162.1929999999999
 30
0.0
 11
94.5062178704944
 21
162.2737197157549
 31
0.0
  0
LINE
  5
205
330
1E
100
AcDbEntity
  8
0
100
AcDbLine
 10
93.99295
 20
162.212
 30
0.0
 11
97.96805
 21
162.69
 31
0.0
  0
LINE
  5
206
330
1E
100
AcDbEntity
  8
0
100
AcDbLine
 10
93.31000900373728
 20
162.1688146073919
 30
0.0
 11
93.86644999999999
 21
162.1929999999999
 31
0.0
  0
LINE
  5
207
330
1E
100
AcDbEntity
  8
0
100
AcDbLine
 10
91.70716896551679
 20
162.191355368519
 30
0.0
 11
91.97985
 21
162.1109999999999
 31
0.0
  0
LINE
  5
208
330
1E
100
AcDbEntity
  8
0
100
AcDbLine
 10
89.49925
 20
163.187
 30
0.0
 11
90.59535
 21
162.476
 31
0.0
  0
LINE
  5
20B
330
1E
100
AcDbEntity
  8
0
100
AcDbLine
 10
88.84545000000001
 20
163.9559999999999
 30
0.0
 11
89.49925
 21
163.187
 31
0.0
  0
LINE
  5
20C
330
1E
100
AcDbEntity
  8
0
100
AcDbLine
 10
88.84545000000001
 20
172.044
 30
0.0
 11
89.2524105258354
 21
172.5226672443669
 31
0.0
  0
LINE
  5
20D
330
1E
100
AcDbEntity
  8
0
100
AcDbLine
 10
88.84545000000001
 20
172.044
 30
0.0
 11
89.49925
 21
172.8129999999999
 31
0.0
  0
LINE
  5
211
330
1E
100
AcDbEntity
  8
0
100
AcDbLine
 10
90.59535
 20
173.524
 30
0.0
 11
92.09524999999999
 21
173.9079999999999
 31
0.0
  0
LINE
  5
212
330
1E
100
AcDbEntity
  8
0
100
AcDbLine
 10
89.49925
 20
172.8129999999999
 30
0.0
 11
90.59535
 21
173.524
 31
0.0
  0
LINE
  5
213
330
1E
100
AcDbEntity
  8
0
100
AcDbLine
 10
89.2524105258354
 20
172.5226672443669
 30
0.0
 11
89.40305
 21
172.717
 31
0.0
  0
LINE
  5
214
330
1E
100
AcDbEntity
  8
0
100
AcDbLine
 10
89.2524105258353
 20
163.477332755633
 30
0.0
 11
89.40305
 21
163.283
 31
0.0
  0
LINE
  5
215
330
1E
100
AcDbEntity
  8
0
100
AcDbLine
 10
88.32625
 20
165.071
 30
0.0
 11
88.84545000000001
 21
163.9559999999999
 31
0.0
  0
LINE
  5
216
330
1E
100
AcDbEntity
  8
0
100
AcDbLine
 10
92.09524999999999
 20
173.9079999999999
 30
0.0
 11
93.3100090037387
 21
173.831185392608
 31
0.0
  0
LINE
  5
217
330
1E
100
AcDbEntity
  8
0
100
AcDbLine
 10
92.09524999999999
 20
173.9079999999999
 30
0.0
 11
93.99295
 21
173.7879999999999
 31
0.0
  0
LINE
  5
218
330
1E
100
AcDbEntity
  8
0
100
AcDbLine
 10
93.3100090037387
 20
173.831185392608
 30
0.0
 11
93.86644999999999
 21
173.807
 31
0.0
  0
LINE
  5
219
330
1E
100
AcDbEntity
  8
0
100
AcDbLine
 10
91.70716896551759
 20
173.808644631481
 30
0.0
 11
91.97985
 21
173.889
 31
0.0
  0
LINE
  5
21A
330
1E
100
AcDbEntity
  8
0
100
AcDbLine
 10
93.86644999999999
 20
173.807
 30
0.0
 11
94.50621787049108
 21
173.7262802842459
 31
0.0
  0
LINE
  5
21B
330
1E
100
AcDbEntity
  8
0
100
AcDbLine
 10
110.07005
 20
163.0
 30
0.0
 11
111.3700499999999
 21
163.0
 31
0.0
  0
LINE
  5
21C
330
1E
100
AcDbEntity
  8
0
100
AcDbLine
 10
109.27005
 20
163.0
 30
0.0
 11
110.07005
 21
163.0
 31
0.0
  0
LINE
  5
21D
330
1E
100
AcDbEntity
  8
0
100
AcDbLine
 10
110.47005
 20
161.0
 30
0.0
 11
110.47005
 21
153.0
 31
0.0
  0
LINE
  5
21E
330
1E
100
AcDbEntity
  8
0
100
AcDbLine
 10
110.47005
 20
161.0
 30
0.0
 11
110.67005
 21
161.0
 31
0.0
  0
LINE
  5
21F
330
1E
100
AcDbEntity
  8
0
100
AcDbLine
 10
108.9700499999999
 20
163.0
 30
0.0
 11
110.47005
 21
161.0
 31
0.0
  0
LINE
  5
220
330
1E
100
AcDbEntity
  8
0
100
AcDbLine
 10
108.9700499999999
 20
163.0
 30
0.0
 11
109.27005
 21
163.0
 31
0.0
  0
LINE
  5
221
330
1E
100
AcDbEntity
  8
0
100
AcDbLine
 10
111.3700499999999
 20
153.0
 30
0.0
 11
112.3700499999999
 21
153.0
 31
0.0
  0
LINE
  5
222
330
1E
100
AcDbEntity
  8
0
100
AcDbLine
 10
111.7700499999999
 20
153.0
 30
0.0
 11
112.7700499999999
 21
153.0
 31
0.0
  0
LINE
  5
223
330
1E
100
AcDbEntity
  8
0
100
AcDbLine
 10
111.1700499999999
 20
153.0
 30
0.0
 11
111.7700499999999
 21
153.0
 31
0.0
  0
LINE
  5
224
330
1E
100
AcDbEntity
  8
0
100
AcDbLine
 10
110.9700499999999
 20
153.0
 30
0.0
 11
110.9700499999999
 21
142.0
 31
0.0
  0
LINE
  5
225
330
1E
100
AcDbEntity
  8
0
100
AcDbLine
 10
110.9700499999999
 20
153.0
 30
0.0
 11
111.1700499999999
 21
153.0
 31
0.0
  0
LINE
  5
226
330
1E
100
AcDbEntity
  8
0
100
AcDbLine
 10
112.3700499999999
 20
153.0
 30
0.0
 11
113.77005
 21
153.0
 31
0.0
  0
LINE
  5
227
330
1E
100
AcDbEntity
  8
0
100
AcDbLine
 10
113.77005
 20
153.0
 30
0.0
 11
115.2700499999999
 21
153.0
 31
0.0
  0
LINE
  5
228
330
1E
100
AcDbEntity
  8
0
100
AcDbLine
 10
112.7700499999999
 20
153.0
 30
0.0
 11
113.97005
 21
153.0
 31
0.0
  0
LINE
  5
229
330
1E
100
AcDbEntity
  8
0
100
AcDbLine
 10
115.2700499999999
 20
153.0
 30
0.0
 11
116.97005
 21
153.0
 31
0.0
  0
LINE
  5
22A
330
1E
100
AcDbEntity
  8
0
100
AcDbLine
 10
113.97005
 20
153.0
 30
0.0
 11
115.47005
 21
153.0
 31
0.0
  0
LINE
  5
22B
330
1E
100
AcDbEntity
  8
0
100
AcDbLine
 10
111.3700499999999
 20
161.0
 30
0.0
 11
112.3700499999999
 21
161.0
 31
0.0
  0
LINE
  5
22C
330
1E
100
AcDbEntity
  8
0
100
AcDbLine
 10
110.67005
 20
161.0
 30
0.0
 11
111.3700499999999
 21
161.0
 31
0.0
  0
LINE
  5
22D
330
1E
100
AcDbEntity
  8
0
100
AcDbLine
 10
112.3700499999999
 20
161.0
 30
0.0
 11
113.77005
 21
161.0
 31
0.0
  0
LINE
  5
22E
330
1E
100
AcDbEntity
  8
0
100
AcDbLine
 10
111.3700499999999
 20
163.0
 30
0.0
 11
112.9700499999999
 21
163.0
 31
0.0
  0
LINE
  5
22F
330
1E
100
AcDbEntity
  8
0
100
AcDbLine
 10
112.9700499999999
 20
163.0
 30
0.0
 11
114.87005
 21
163.0
 31
0.0
  0
LINE
  5
230
330
1E
100
AcDbEntity
  8
0
100
AcDbLine
 10
114.87005
 20
163.0
 30
0.0
 11
115.2547558823529
 21
163.0
 31
0.0
  0
LINE
  5
231
330
1E
100
AcDbEntity
  8
0
100
AcDbLine
 10
113.77005
 20
161.0
 30
0.0
 11
115.2700499999999
 21
161.0
 31
0.0
  0
LINE
  5
232
330
1E
100
AcDbEntity
  8
0
100
AcDbLine
 10
115.2700499999999
 20
161.0
 30
0.0
 11
116.97005
 21
161.0
 31
0.0
  0
LINE
  5
233
330
1E
100
AcDbEntity
  8
0
100
AcDbLine
 10
110.67005
 20
153.0
 30
0.0
 11
110.9700499999999
 21
153.0
 31
0.0
  0
LINE
  5
234
330
1E
100
AcDbEntity
  8
0
100
AcDbLine
 10
110.67005
 20
153.0
 30
0.0
 11
111.3700499999999
 21
153.0
 31
0.0
  0
LINE
  5
235
330
1E
100
AcDbEntity
  8
0
100
AcDbLine
 10
110.47005
 20
153.0
 30
0.0
 11
110.67005
 21
153.0
 31
0.0
  0
LINE
  5
236
330
1E
100
AcDbEntity
  8
0
100
AcDbLine
 10
110.47005
 20
153.0
 30
0.0
 11
110.47005
 21
161.0
 31
0.0
  0
LINE
  5
237
330
1E
100
AcDbEntity
  8
0
100
AcDbLine
 10
101.51215
 20
163.217
 30
0.0
 11
104.2660499999999
 21
163.552
 31
0.0
  0
LINE
  5
238
330
1E
100
AcDbEntity
  8
0
100
AcDbLine
 10
101.51215
 20
163.217
 30
0.0
 11
101.83185
 21
163.243
 31
0.0
  0
LINE
  5
239
330
1E
100
AcDbEntity
  8
0
100
AcDbLine
 10
97.96805
 20
162.69
 30
0.0
 11
101.51215
 21
163.217
 31
0.0
  0
LINE
  5
23A
330
1E
100
AcDbEntity
  8
0
100
AcDbLine
 10
114.8240499999999
 20
163.217
 30
0.0
 11
115.5948248240699
 21
162.828665074297
 31
0.0
  0
LINE
  5
23B
330
1E
100
AcDbEntity
  8
0
100
AcDbLine
 10
115.47005
 20
153.0
 30
0.0
 11
116.97005
 21
153.0
 31
0.0
  0
LINE
  5
23D
330
1E
100
AcDbEntity
  8
0
100
AcDbLine
 10
115.67005
 20
162.591
 30
0.0
 11
116.17005
 21
162.092
 31
0.0
  0
LINE
  5
23E
330
1E
100
AcDbEntity
  8
0
100
AcDbLine
 10
116.17005
 20
162.092
 30
0.0
 11
116.17005
 21
162.476
 31
0.0
  0
LINE
  5
23F
330
1E
100
AcDbEntity
  8
0
100
AcDbLine
 10
116.17005
 20
162.092
 30
0.0
 11
116.97005
 21
162.1109999999999
 31
0.0
  0
LINE
  5
240
330
1E
100
AcDbEntity
  8
0
100
AcDbLine
 10
116.97005
 20
161.0
 30
0.0
 11
118.67005
 21
161.0
 31
0.0
  0
LINE
  5
241
330
1E
100
AcDbEntity
  8
0
100
AcDbLine
 10
116.97005
 20
153.0
 30
0.0
 11
118.4700499999999
 21
153.0
 31
0.0
  0
LINE
  5
242
330
1E
100
AcDbEntity
  8
0
100
AcDbLine
 10
116.97005
 20
153.0
 30
0.0
 11
118.67005
 21
153.0
 31
0.0
  0
LINE
  5
243
330
1E
100
AcDbEntity
  8
0
100
AcDbLine
 10
118.67005
 20
153.0
 30
0.0
 11
120.17005
 21
153.0
 31
0.0
  0
LINE
  5
244
330
1E
100
AcDbEntity
  8
0
100
AcDbLine
 10
121.57005
 20
153.0
 30
0.0
 11
122.57005
 21
153.0
 31
0.0
  0
LINE
  5
245
330
1E
100
AcDbEntity
  8
0
100
AcDbLine
 10
122.57005
 20
153.0
 30
0.0
 11
123.2700499999999
 21
153.0
 31
0.0
  0
LINE
  5
246
330
1E
100
AcDbEntity
  8
0
100
AcDbLine
 10
121.17005
 20
153.0
 30
0.0
 11
122.17005
 21
153.0
 31
0.0
  0
LINE
  5
247
330
1E
100
AcDbEntity
  8
0
100
AcDbLine
 10
122.17005
 20
153.0
 30
0.0
 11
122.77005
 21
153.0
 31
0.0
  0
LINE
  5
248
330
1E
100
AcDbEntity
  8
0
100
AcDbLine
 10
122.77005
 20
153.0
 30
0.0
 11
122.97005
 21
153.0
 31
0.0
  0
LINE
  5
249
330
1E
100
AcDbEntity
  8
0
100
AcDbLine
 10
120.17005
 20
153.0
 30
0.0
 11
121.57005
 21
153.0
 31
0.0
  0
LINE
  5
24A
330
1E
100
AcDbEntity
  8
0
100
AcDbLine
 10
119.97005
 20
153.0
 30
0.0
 11
121.17005
 21
153.0
 31
0.0
  0
LINE
  5
24B
330
1E
100
AcDbEntity
  8
0
100
AcDbLine
 10
118.4700499999999
 20
153.0
 30
0.0
 11
119.97005
 21
153.0
 31
0.0
  0
LINE
  5
24C
330
1E
100
AcDbEntity
  8
0
100
AcDbLine
 10
123.4700499999999
 20
153.0
 30
0.0
 11
123.4700499999999
 21
161.0
 31
0.0
  0
LINE
  5
24D
330
1E
100
AcDbEntity
  8
0
100
AcDbLine
 10
123.2700499999999
 20
153.0
 30
0.0
 11
123.4700499999999
 21
153.0
 31
0.0
  0
LINE
  5
24E
330
1E
100
AcDbEntity
  8
0
100
AcDbLine
 10
121.57005
 20
161.0
 30
0.0
 11
122.57005
 21
161.0
 31
0.0
  0
LINE
  5
24F
330
1E
100
AcDbEntity
  8
0
100
AcDbLine
 10
122.57005
 20
161.0
 30
0.0
 11
123.2700499999999
 21
161.0
 31
0.0
  0
LINE
  5
250
330
1E
100
AcDbEntity
  8
0
100
AcDbLine
 10
123.2700499999999
 20
161.0
 30
0.0
 11
123.4700499999999
 21
161.0
 31
0.0
  0
LINE
  5
251
330
1E
100
AcDbEntity
  8
0
100
AcDbLine
 10
120.17005
 20
161.0
 30
0.0
 11
121.57005
 21
161.0
 31
0.0
  0
LINE
  5
252
330
1E
100
AcDbEntity
  8
0
100
AcDbLine
 10
118.67005
 20
161.0
 30
0.0
 11
120.17005
 21
161.0
 31
0.0
  0
LINE
  5
253
330
1E
100
AcDbEntity
  8
0
100
AcDbLine
 10
123.4700499999999
 20
161.0
 30
0.0
 11
123.4700499999999
 21
153.0
 31
0.0
  0
LINE
  5
254
330
1E
100
AcDbEntity
  8
0
100
AcDbLine
 10
123.4700499999999
 20
161.0
 30
0.0
 11
124.97005
 21
163.0
 31
0.0
  0
LINE
  5
255
330
1E
100
AcDbEntity
  8
0
100
AcDbLine
 10
122.97005
 20
153.0
 30
0.0
 11
122.97005
 21
142.0
 31
0.0
  0
LINE
  5
256
330
1E
100
AcDbEntity
  8
0
100
AcDbLine
 10
122.97005
 20
153.0
 30
0.0
 11
123.2700499999999
 21
153.0
 31
0.0
  0
LINE
  5
257
330
1E
100
AcDbEntity
  8
0
100
AcDbLine
 10
117.77005
 20
162.092
 30
0.0
 11
117.77005
 21
162.476
 31
0.0
  0
LINE
  5
258
330
1E
100
AcDbEntity
  8
0
100
AcDbLine
 10
117.77005
 20
162.092
 30
0.0
 11
118.2700499999999
 21
162.591
 31
0.0
  0
LINE
  5
25A
330
1E
100
AcDbEntity
  8
0
100
AcDbLine
 10
118.2700499999999
 20
162.591
 30
0.0
 11
118.77005
 21
165.0509999999999
 31
0.0
  0
LINE
  5
25B
330
1E
100
AcDbEntity
  8
0
100
AcDbLine
 10
117.77005
 20
162.476
 30
0.0
 11
117.77005
 21
162.092
 31
0.0
  0
LINE
  5
25C
330
1E
100
AcDbEntity
  8
0
100
AcDbLine
 10
117.77005
 20
162.476
 30
0.0
 11
117.77005
 21
163.187
 31
0.0
  0
LINE
  5
25D
330
1E
100
AcDbEntity
  8
0
100
AcDbLine
 10
116.97005
 20
162.1109999999999
 30
0.0
 11
117.77005
 21
162.092
 31
0.0
  0
LINE
  5
25E
330
1E
100
AcDbEntity
  8
0
100
AcDbLine
 10
116.17005
 20
162.476
 30
0.0
 11
116.17005
 21
163.187
 31
0.0
  0
LINE
  5
25F
330
1E
100
AcDbEntity
  8
0
100
AcDbLine
 10
116.17005
 20
162.476
 30
0.0
 11
116.17005
 21
162.092
 31
0.0
  0
LINE
  5
262
330
1E
100
AcDbEntity
  8
0
100
AcDbLine
 10
117.77005
 20
163.187
 30
0.0
 11
117.77005
 21
162.476
 31
0.0
  0
LINE
  5
263
330
1E
100
AcDbEntity
  8
0
100
AcDbLine
 10
117.77005
 20
163.187
 30
0.0
 11
117.77005
 21
163.9559999999999
 31
0.0
  0
LINE
  5
266
330
1E
100
AcDbEntity
  8
0
100
AcDbLine
 10
116.17005
 20
163.187
 30
0.0
 11
116.17005
 21
163.9559999999999
 31
0.0
  0
LINE
  5
267
330
1E
100
AcDbEntity
  8
0
100
AcDbLine
 10
116.17005
 20
163.187
 30
0.0
 11
116.17005
 21
162.476
 31
0.0
  0
LINE
  5
268
330
1E
100
AcDbEntity
  8
0
100
AcDbLine
 10
122.57005
 20
163.0
 30
0.0
 11
123.8700499999999
 21
163.0
 31
0.0
  0
LINE
  5
269
330
1E
100
AcDbEntity
  8
0
100
AcDbLine
 10
123.8700499999999
 20
163.0
 30
0.0
 11
124.6700499999999
 21
163.0
 31
0.0
  0
LINE
  5
26A
330
1E
100
AcDbEntity
  8
0
100
AcDbLine
 10
124.6700499999999
 20
163.0
 30
0.0
 11
124.97005
 21
163.0
 31
0.0
  0
LINE
  5
26B
330
1E
100
AcDbEntity
  8
0
100
AcDbLine
 10
120.97005
 20
163.0
 30
0.0
 11
122.57005
 21
163.0
 31
0.0
  0
LINE
  5
26C
330
1E
100
AcDbEntity
  8
0
100
AcDbLine
 10
119.0700499999999
 20
163.0
 30
0.0
 11
120.97005
 21
163.0
 31
0.0
  0
LINE
  5
26D
330
1E
100
AcDbEntity
  8
0
100
AcDbLine
 10
118.685344117647
 20
163.0
 30
0.0
 11
119.0700499999999
 21
163.0
 31
0.0
  0
LINE
  5
26E
330
1E
100
AcDbEntity
  8
0
100
AcDbLine
 10
124.97005
 20
163.0
 30
0.0
 11
127.436475127831
 21
163.8221417092769
 31
0.0
  0
LINE
  5
26F
330
1E
100
AcDbEntity
  8
0
100
AcDbLine
 10
119.11605
 20
163.217
 30
0.0
 11
120.96005
 21
163.552
 31
0.0
  0
LINE
  5
270
330
1E
100
AcDbEntity
  8
0
100
AcDbLine
 10
118.34527517593
 20
162.828665074297
 30
0.0
 11
119.11605
 21
163.217
 31
0.0
  0
LINE
  5
273
330
1E
100
AcDbEntity
  8
0
100
AcDbLine
 10
104.2660499999999
 20
163.552
 30
0.0
 11
106.5477499999999
 21
163.857
 31
0.0
  0
LINE
  5
274
330
1E
100
AcDbEntity
  8
0
100
AcDbLine
 10
104.2660499999999
 20
172.4479999999999
 30
0.0
 11
106.5477499999999
 21
172.1429999999999
 31
0.0
  0
LINE
  5
275
330
1E
100
AcDbEntity
  8
0
100
AcDbLine
 10
101.51215
 20
172.7829999999999
 30
0.0
 11
104.2660499999999
 21
172.4479999999999
 31
0.0
  0
LINE
  5
276
330
1E
100
AcDbEntity
  8
0
100
AcDbLine
 10
101.51215
 20
172.7829999999999
 30
0.0
 11
101.83185
 21
172.757
 31
0.0
  0
LINE
  5
277
330
1E
100
AcDbEntity
  8
0
100
AcDbLine
 10
97.96805
 20
173.31
 30
0.0
 11
101.51215
 21
172.7829999999999
 31
0.0
  0
LINE
  5
278
330
1E
100
AcDbEntity
  8
0
100
AcDbLine
 10
101.83185
 20
172.757
 30
0.0
 11
102.583855018455
 21
172.652631729118
 31
0.0
  0
LINE
  5
279
330
1E
100
AcDbEntity
  8
0
100
AcDbLine
 10
106.503585404695
 20
163.8221548651019
 30
0.0
 11
108.9700499999999
 21
163.0
 31
0.0
  0
LINE
  5
27A
330
1E
100
AcDbEntity
  8
0
100
AcDbLine
 10
106.5477499999999
 20
172.1429999999999
 30
0.0
 11
108.47005
 21
172.0
 31
0.0
  0
LINE
  5
27B
330
1E
100
AcDbEntity
  8
0
100
AcDbLine
 10
108.47005
 20
172.0
 30
0.0
 11
110.9700499999999
 21
172.1429999999999
 31
0.0
  0
LINE
  5
27C
330
1E
100
AcDbEntity
  8
0
100
AcDbLine
 10
108.47005
 20
164.0
 30
0.0
 11
110.9700499999999
 21
163.857
 31
0.0
  0
LINE
  5
27D
330
1E
100
AcDbEntity
  8
0
100
AcDbLine
 10
106.5477499999999
 20
163.857
 30
0.0
 11
108.47005
 21
164.0
 31
0.0
  0
LINE
  5
27E
330
1E
100
AcDbEntity
  8
0
100
AcDbLine
 10
110.9700499999999
 20
172.1429999999999
 30
0.0
 11
112.9800499999999
 21
172.4479999999999
 31
0.0
  0
LINE
  5
27F
330
1E
100
AcDbEntity
  8
0
100
AcDbLine
 10
110.9700499999999
 20
163.857
 30
0.0
 11
112.9800499999999
 21
163.552
 31
0.0
  0
LINE
  5
280
330
1E
100
AcDbEntity
  8
0
100
AcDbLine
 10
112.9800499999999
 20
163.552
 30
0.0
 11
114.8240499999999
 21
163.217
 31
0.0
  0
LINE
  5
281
330
1E
100
AcDbEntity
  8
0
100
AcDbLine
 10
115.17005
 20
170.949
 30
0.0
 11
115.67005
 21
173.409
 31
0.0
  0
LINE
  5
282
330
1E
100
AcDbEntity
  8
0
100
AcDbLine
 10
114.97005
 20
168.0
 30
0.0
 11
115.17005
 21
165.0509999999999
 31
0.0
  0
LINE
  5
283
330
1E
100
AcDbEntity
  8
0
100
AcDbLine
 10
114.97005
 20
168.0
 30
0.0
 11
115.17005
 21
170.949
 31
0.0
  0
LINE
  5
284
330
1E
100
AcDbEntity
  8
0
100
AcDbLine
 10
115.17005
 20
165.0509999999999
 30
0.0
 11
115.67005
 21
162.591
 31
0.0
  0
LINE
  5
285
330
1E
100
AcDbEntity
  8
0
100
AcDbLine
 10
112.9800499999999
 20
172.4479999999999
 30
0.0
 11
114.8240499999999
 21
172.7829999999999
 31
0.0
  0
LINE
  5
286
330
1E
100
AcDbEntity
  8
0
100
AcDbLine
 10
109.5700499999999
 20
173.5
 30
0.0
 11
111.7700499999999
 21
173.5
 31
0.0
  0
LINE
  5
287
330
1E
100
AcDbEntity
  8
0
100
AcDbLine
 10
111.7700499999999
 20
173.5
 30
0.0
 11
114.2700499999999
 21
173.5
 31
0.0
  0
LINE
  5
288
330
1E
100
AcDbEntity
  8
0
100
AcDbLine
 10
114.2700499999999
 20
173.5
 30
0.0
 11
115.7612323647289
 21
173.5
 31
0.0
  0
LINE
  5
289
330
1E
100
AcDbEntity
  8
0
100
AcDbLine
 10
107.87005
 20
173.5
 30
0.0
 11
109.5700499999999
 21
173.5
 31
0.0
  0
LINE
  5
28A
330
1E
100
AcDbEntity
  8
0
100
AcDbLine
 10
106.87005
 20
173.5
 30
0.0
 11
107.87005
 21
173.5
 31
0.0
  0
LINE
  5
28B
330
1E
100
AcDbEntity
  8
0
100
AcDbLine
 10
114.8240499999999
 20
172.7829999999999
 30
0.0
 11
115.5948248240699
 21
173.171334925703
 31
0.0
  0
LINE
  5
292
330
1E
100
AcDbEntity
  8
0
100
AcDbLine
 10
117.77005
 20
163.9559999999999
 30
0.0
 11
117.77005
 21
163.187
 31
0.0
  0
LINE
  5
293
330
1E
100
AcDbEntity
  8
0
100
AcDbLine
 10
117.77005
 20
163.9559999999999
 30
0.0
 11
117.77005
 21
165.071
 31
0.0
  0
LINE
  5
294
330
1E
100
AcDbEntity
  8
0
100
AcDbLine
 10
117.77005
 20
165.071
 30
0.0
 11
117.77005
 21
163.9559999999999
 31
0.0
  0
LINE
  5
295
330
1E
100
AcDbEntity
  8
0
100
AcDbLine
 10
117.77005
 20
165.071
 30
0.0
 11
117.77005
 21
168.0
 31
0.0
  0
LINE
  5
296
330
1E
100
AcDbEntity
  8
0
100
AcDbLine
 10
116.17005
 20
163.9559999999999
 30
0.0
 11
116.17005
 21
165.071
 31
0.0
  0
LINE
  5
297
330
1E
100
AcDbEntity
  8
0
100
AcDbLine
 10
116.17005
 20
163.9559999999999
 30
0.0
 11
116.17005
 21
163.187
 31
0.0
  0
LINE
  5
29D
330
1E
100
AcDbEntity
  8
0
100
AcDbLine
 10
116.17005
 20
172.8129999999999
 30
0.0
 11
116.17005
 21
173.524
 31
0.0
  0
LINE
  5
29E
330
1E
100
AcDbEntity
  8
0
100
AcDbLine
 10
116.17005
 20
172.8129999999999
 30
0.0
 11
116.17005
 21
172.044
 31
0.0
  0
LINE
  5
29F
330
1E
100
AcDbEntity
  8
0
100
AcDbLine
 10
116.17005
 20
172.044
 30
0.0
 11
116.17005
 21
172.8129999999999
 31
0.0
  0
LINE
  5
2A0
330
1E
100
AcDbEntity
  8
0
100
AcDbLine
 10
116.17005
 20
172.044
 30
0.0
 11
116.17005
 21
170.929
 31
0.0
  0
LINE
  5
2A1
330
1E
100
AcDbEntity
  8
0
100
AcDbLine
 10
116.17005
 20
170.929
 30
0.0
 11
116.17005
 21
172.044
 31
0.0
  0
LINE
  5
2A2
330
1E
100
AcDbEntity
  8
0
100
AcDbLine
 10
116.17005
 20
170.929
 30
0.0
 11
116.17005
 21
168.0
 31
0.0
  0
LINE
  5
2A3
330
1E
100
AcDbEntity
  8
0
100
AcDbLine
 10
117.77005
 20
168.0
 30
0.0
 11
117.77005
 21
170.929
 31
0.0
  0
LINE
  5
2A4
330
1E
100
AcDbEntity
  8
0
100
AcDbLine
 10
117.77005
 20
168.0
 30
0.0
 11
117.77005
 21
165.071
 31
0.0
  0
LINE
  5
2A5
330
1E
100
AcDbEntity
  8
0
100
AcDbLine
 10
117.77005
 20
172.8129999999999
 30
0.0
 11
117.77005
 21
172.044
 31
0.0
  0
LINE
  5
2A6
330
1E
100
AcDbEntity
  8
0
100
AcDbLine
 10
117.77005
 20
172.8129999999999
 30
0.0
 11
117.77005
 21
173.524
 31
0.0
  0
LINE
  5
2AC
330
1E
100
AcDbEntity
  8
0
100
AcDbLine
 10
117.77005
 20
172.044
 30
0.0
 11
117.77005
 21
170.929
 31
0.0
  0
LINE
  5
2AD
330
1E
100
AcDbEntity
  8
0
100
AcDbLine
 10
117.77005
 20
172.044
 30
0.0
 11
117.77005
 21
172.8129999999999
 31
0.0
  0
LINE
  5
2AE
330
1E
100
AcDbEntity
  8
0
100
AcDbLine
 10
117.77005
 20
170.929
 30
0.0
 11
117.77005
 21
168.0
 31
0.0
  0
LINE
  5
2AF
330
1E
100
AcDbEntity
  8
0
100
AcDbLine
 10
117.77005
 20
170.929
 30
0.0
 11
117.77005
 21
172.044
 31
0.0
  0
LINE
  5
2B0
330
1E
100
AcDbEntity
  8
0
100
AcDbLine
 10
116.17005
 20
168.0
 30
0.0
 11
116.17005
 21
165.071
 31
0.0
  0
LINE
  5
2B1
330
1E
100
AcDbEntity
  8
0
100
AcDbLine
 10
116.17005
 20
168.0
 30
0.0
 11
116.17005
 21
170.929
 31
0.0
  0
LINE
  5
2B2
330
1E
100
AcDbEntity
  8
0
100
AcDbLine
 10
116.17005
 20
165.071
 30
0.0
 11
116.17005
 21
168.0
 31
0.0
  0
LINE
  5
2B3
330
1E
100
AcDbEntity
  8
0
100
AcDbLine
 10
116.17005
 20
165.071
 30
0.0
 11
116.17005
 21
163.9559999999999
 31
0.0
  0
LINE
  5
2B4
330
1E
100
AcDbEntity
  8
0
100
AcDbLine
 10
118.77005
 20
165.0509999999999
 30
0.0
 11
118.97005
 21
168.0
 31
0.0
  0
LINE
  5
2B5
330
1E
100
AcDbEntity
  8
0
100
AcDbLine
 10
122.97005
 20
163.857
 30
0.0
 11
125.4700499999999
 21
164.0
 31
0.0
  0
LINE
  5
2B6
330
1E
100
AcDbEntity
  8
0
100
AcDbLine
 10
122.97005
 20
172.1429999999999
 30
0.0
 11
125.4700499999999
 21
172.0
 31
0.0
  0
LINE
  5
2B7
330
1E
100
AcDbEntity
  8
0
100
AcDbLine
 10
125.4700499999999
 20
172.0
 30
0.0
 11
127.39205
 21
172.1429999999999
 31
0.0
  0
LINE
  5
2B8
330
1E
100
AcDbEntity
  8
0
100
AcDbLine
 10
125.4700499999999
 20
164.0
 30
0.0
 11
127.39205
 21
163.857
 31
0.0
  0
LINE
  5
2B9
330
1E
100
AcDbEntity
  8
0
100
AcDbLine
 10
127.39205
 20
172.1429999999999
 30
0.0
 11
129.67405
 21
172.4479999999999
 31
0.0
  0
LINE
  5
2BA
330
1E
100
AcDbEntity
  8
0
100
AcDbLine
 10
127.39205
 20
163.857
 30
0.0
 11
129.67405
 21
163.552
 31
0.0
  0
LINE
  5
2BB
330
1E
100
AcDbEntity
  8
0
100
AcDbLine
 10
120.96005
 20
163.552
 30
0.0
 11
122.97005
 21
163.857
 31
0.0
  0
LINE
  5
2BC
330
1E
100
AcDbEntity
  8
0
100
AcDbLine
 10
120.96005
 20
172.4479999999999
 30
0.0
 11
122.97005
 21
172.1429999999999
 31
0.0
  0
LINE
  5
2BD
330
1E
100
AcDbEntity
  8
0
100
AcDbLine
 10
118.77005
 20
170.949
 30
0.0
 11
118.97005
 21
168.0
 31
0.0
  0
LINE
  5
2BE
330
1E
100
AcDbEntity
  8
0
100
AcDbLine
 10
119.11605
 20
172.7829999999999
 30
0.0
 11
120.96005
 21
172.4479999999999
 31
0.0
  0
LINE
  5
2BF
330
1E
100
AcDbEntity
  8
0
100
AcDbLine
 10
118.34527517593
 20
173.171334925703
 30
0.0
 11
119.11605
 21
172.7829999999999
 31
0.0
  0
LINE
  5
2C0
330
1E
100
AcDbEntity
  8
0
100
AcDbLine
 10
124.37005
 20
173.5
 30
0.0
 11
126.07005
 21
173.5
 31
0.0
  0
LINE
  5
2C1
330
1E
100
AcDbEntity
  8
0
100
AcDbLine
 10
126.07005
 20
173.5
 30
0.0
 11
127.07005
 21
173.5
 31
0.0
  0
LINE
  5
2C2
330
1E
100
AcDbEntity
  8
0
100
AcDbLine
 10
127.07005
 20
173.5
 30
0.0
 11
127.47005
 21
173.5
 31
0.0
  0
LINE
  5
2C3
330
1E
100
AcDbEntity
  8
0
100
AcDbLine
 10
122.17005
 20
173.5
 30
0.0
 11
124.37005
 21
173.5
 31
0.0
  0
LINE
  5
2C4
330
1E
100
AcDbEntity
  8
0
100
AcDbLine
 10
119.67005
 20
173.5
 30
0.0
 11
122.17005
 21
173.5
 31
0.0
  0
LINE
  5
2C5
330
1E
100
AcDbEntity
  8
0
100
AcDbLine
 10
118.1788676352709
 20
173.5
 30
0.0
 11
119.67005
 21
173.5
 31
0.0
  0
LINE
  5
2C7
330
1E
100
AcDbEntity
  8
0
100
AcDbLine
 10
118.2700499999999
 20
173.409
 30
0.0
 11
118.77005
 21
170.949
 31
0.0
  0
LINE
  5
2C8
330
1E
100
AcDbEntity
  8
0
100
AcDbLine
 10
115.67005
 20
173.409
 30
0.0
 11
116.17005
 21
173.9079999999999
 31
0.0
  0
LINE
  5
2CC
330
1E
100
AcDbEntity
  8
0
100
AcDbLine
 10
110.5700499999999
 20
174.0
 30
0.0
 11
112.47005
 21
174.0
 31
0.0
  0
LINE
  5
2CD
330
1E
100
AcDbEntity
  8
0
100
AcDbLine
 10
112.47005
 20
174.0
 30
0.0
 11
114.67005
 21
174.0
 31
0.0
  0
LINE
  5
2CE
330
1E
100
AcDbEntity
  8
0
100
AcDbLine
 10
114.67005
 20
174.0
 30
0.0
 11
116.97005
 21
174.0
 31
0.0
  0
LINE
  5
2CF
330
1E
100
AcDbEntity
  8
0
100
AcDbLine
 10
109.1700499999999
 20
174.0
 30
0.0
 11
110.5700499999999
 21
174.0
 31
0.0
  0
LINE
  5
2D0
330
1E
100
AcDbEntity
  8
0
100
AcDbLine
 10
108.27005
 20
174.0
 30
0.0
 11
109.1700499999999
 21
174.0
 31
0.0
  0
LINE
  5
2D1
330
1E
100
AcDbEntity
  8
0
100
AcDbLine
 10
107.9700499999999
 20
174.0
 30
0.0
 11
108.27005
 21
174.0
 31
0.0
  0
LINE
  5
2D2
330
1E
100
AcDbEntity
  8
0
100
AcDbLine
 10
116.17005
 20
173.524
 30
0.0
 11
116.17005
 21
173.9079999999999
 31
0.0
  0
LINE
  5
2D3
330
1E
100
AcDbEntity
  8
0
100
AcDbLine
 10
116.17005
 20
173.524
 30
0.0
 11
116.17005
 21
172.8129999999999
 31
0.0
  0
LINE
  5
2D4
330
1E
100
AcDbEntity
  8
0
100
AcDbLine
 10
116.97005
 20
174.0
 30
0.0
 11
119.2700499999999
 21
174.0
 31
0.0
  0
LINE
  5
2D5
330
1E
100
AcDbEntity
  8
0
100
AcDbLine
 10
116.97005
 20
173.889
 30
0.0
 11
117.77005
 21
173.9079999999999
 31
0.0
  0
LINE
  5
2D6
330
1E
100
AcDbEntity
  8
0
100
AcDbLine
 10
123.37005
 20
174.0
 30
0.0
 11
124.77005
 21
174.0
 31
0.0
  0
LINE
  5
2D7
330
1E
100
AcDbEntity
  8
0
100
AcDbLine
 10
124.77005
 20
174.0
 30
0.0
 11
125.6700499999999
 21
174.0
 31
0.0
  0
LINE
  5
2D8
330
1E
100
AcDbEntity
  8
0
100
AcDbLine
 10
125.6700499999999
 20
174.0
 30
0.0
 11
125.97005
 21
174.0
 31
0.0
  0
LINE
  5
2D9
330
1E
100
AcDbEntity
  8
0
100
AcDbLine
 10
121.4700499999999
 20
174.0
 30
0.0
 11
123.37005
 21
174.0
 31
0.0
  0
LINE
  5
2DA
330
1E
100
AcDbEntity
  8
0
100
AcDbLine
 10
119.2700499999999
 20
174.0
 30
0.0
 11
121.4700499999999
 21
174.0
 31
0.0
  0
LINE
  5
2DB
330
1E
100
AcDbEntity
  8
0
100
AcDbLine
 10
117.77005
 20
173.9079999999999
 30
0.0
 11
117.77005
 21
173.524
 31
0.0
  0
LINE
  5
2DC
330
1E
100
AcDbEntity
  8
0
100
AcDbLine
 10
117.77005
 20
173.9079999999999
 30
0.0
 11
118.2700499999999
 21
173.409
 31
0.0
  0
LINE
  5
2DD
330
1E
100
AcDbEntity
  8
0
100
AcDbLine
 10
117.77005
 20
173.524
 30
0.0
 11
117.77005
 21
172.8129999999999
 31
0.0
  0
LINE
  5
2DE
330
1E
100
AcDbEntity
  8
0
100
AcDbLine
 10
117.77005
 20
173.524
 30
0.0
 11
117.77005
 21
173.9079999999999
 31
0.0
  0
LINE
  5
2DF
330
1E
100
AcDbEntity
  8
0
100
AcDbLine
 10
116.17005
 20
173.9079999999999
 30
0.0
 11
116.97005
 21
173.889
 31
0.0
  0
LINE
  5
2E0
330
1E
100
AcDbEntity
  8
0
100
AcDbLine
 10
116.17005
 20
173.9079999999999
 30
0.0
 11
116.17005
 21
173.524
 31
0.0
  0
LINE
  5
2E1
330
1E
100
AcDbEntity
  8
0
100
AcDbLine
 10
106.47005
 20
173.5
 30
0.0
 11
107.9700499999999
 21
174.0
 31
0.0
  0
LINE
  5
2E2
330
1E
100
AcDbEntity
  8
0
100
AcDbLine
 10
106.47005
 20
173.5
 30
0.0
 11
106.87005
 21
173.5
 31
0.0
  0
LINE
  5
2E3
330
1E
100
AcDbEntity
  8
0
100
AcDbLine
 10
106.047680032737
 20
172.2328900982099
 30
0.0
 11
106.47005
 21
173.5
 31
0.0
  0
LINE
  5
2E4
330
1E
100
AcDbEntity
  8
0
100
AcDbLine
 10
101.83185
 20
163.243
 30
0.0
 11
102.583855018456
 21
163.3473682708819
 31
0.0
  0
LINE
  5
2E5
330
1E
100
AcDbEntity
  8
0
100
AcDbLine
 10
93.99295
 20
173.7879999999999
 30
0.0
 11
97.96805
 21
173.31
 31
0.0
  0
LINE
  5
2E6
330
1E
100
AcDbEntity
  8
0
100
AcDbLine
 10
125.97005
 20
174.0
 30
0.0
 11
127.47005
 21
173.5
 31
0.0
  0
LINE
  5
2E7
330
1E
100
AcDbEntity
  8
0
100
AcDbLine
 10
127.47005
 20
173.5
 30
0.0
 11
127.892415394835
 21
172.2329038154959
 31
0.0
  0
LINE
  5
2E8
330
1E
100
AcDbEntity
  8
0
100
AcDbLine
 10
128.4700499999999
 20
142.0
 30
0.0
 11
128.9700499999999
 21
141.5
 31
0.0
  0
LINE
  5
2E9
330
1E
100
AcDbEntity
  8
0
100
AcDbLine
 10
128.9700499999999
 20
141.5
 30
0.0
 11
128.9700499999999
 21
140.0
 31
0.0
  0
LINE
  5
2EA
330
1E
100
AcDbEntity
  8
0
100
AcDbLine
 10
128.4700499999999
 20
139.5
 30
0.0
 11
128.9700499999999
 21
139.0
 31
0.0
  0
LINE
  5
2EB
330
1E
100
AcDbEntity
  8
0
100
AcDbLine
 10
128.4700499999999
 20
139.5
 30
0.0
 11
128.9700499999999
 21
140.0
 31
0.0
  0
LINE
  5
2EC
330
1E
100
AcDbEntity
  8
0
100
AcDbLine
 10
129.67405
 20
172.4479999999999
 30
0.0
 11
132.42805
 21
172.7829999999999
 31
0.0
  0
LINE
  5
2ED
330
1E
100
AcDbEntity
  8
0
100
AcDbLine
 10
129.67405
 20
163.552
 30
0.0
 11
131.3548337928019
 21
163.3475473599899
 31
0.0
  0
LINE
  5
2EE
330
1E
100
AcDbEntity
  8
0
100
AcDbLine
 10
129.67405
 20
163.552
 30
0.0
 11
132.42805
 21
163.217
 31
0.0
  0
LINE
  5
2EF
330
1E
100
AcDbEntity
  8
0
100
AcDbLine
 10
128.9700499999999
 20
139.0
 30
0.0
 11
128.9700499999999
 21
127.0
 31
0.0
  0
LINE
  5
2F0
330
1E
100
AcDbEntity
  8
0
100
AcDbLine
 10
131.9700499999999
 20
121.0
 30
0.0
 11
133.4700499999999
 21
120.5
 31
0.0
  0
LINE
  5
2F1
330
1E
100
AcDbEntity
  8
0
100
AcDbLine
 10
131.9700499999999
 20
121.0
 30
0.0
 11
132.4700499999999
 21
121.0
 31
0.0
  0
LINE
  5
2F2
330
1E
100
AcDbEntity
  8
0
100
AcDbLine
 10
134.57005
 20
-0.0000000000000062
 30
0.0
 11
138.67005
 21
-0.0000000000000065
 31
0.0
  0
LINE
  5
2F3
330
1E
100
AcDbEntity
  8
0
100
AcDbLine
 10
138.67005
 20
-0.0000000000000065
 30
0.0
 11
141.07005
 21
-0.0000000000000066
 31
0.0
  0
LINE
  5
2F4
330
1E
100
AcDbEntity
  8
0
100
AcDbLine
 10
133.3700499999999
 20
15.0
 30
0.0
 11
133.9700499999999
 21
15.0
 31
0.0
  0
LINE
  5
2F5
330
1E
100
AcDbEntity
  8
0
100
AcDbLine
 10
132.8700499999999
 20
69.5
 30
0.0
 11
133.4700499999999
 21
69.5
 31
0.0
  0
LINE
  5
2F6
330
1E
100
AcDbEntity
  8
0
100
AcDbLine
 10
132.8700499999999
 20
66.5
 30
0.0
 11
133.4700499999999
 21
66.5
 31
0.0
  0
LINE
  5
2F7
330
1E
100
AcDbEntity
  8
0
100
AcDbLine
 10
132.4700499999999
 20
66.0
 30
0.0
 11
133.4700499999999
 21
66.5
 31
0.0
  0
LINE
  5
2F8
330
1E
100
AcDbEntity
  8
0
100
AcDbLine
 10
132.4700499999999
 20
16.0
 30
0.0
 11
132.9700499999999
 21
15.5
 31
0.0
  0
LINE
  5
2FA
330
1E
100
AcDbEntity
  8
0
100
AcDbLine
 10
133.4700499999999
 20
69.5
 30
0.0
 11
133.9700499999999
 21
68.0
 31
0.0
  0
LINE
  5
2FB
330
1E
100
AcDbEntity
  8
0
100
AcDbLine
 10
133.4700499999999
 20
66.5
 30
0.0
 11
133.9700499999999
 21
68.0
 31
0.0
  0
LINE
  5
2FC
330
1E
100
AcDbEntity
  8
0
100
AcDbLine
 10
132.9700499999999
 20
15.5
 30
0.0
 11
133.9700499999999
 21
15.0
 31
0.0
  0
LINE
  5
2FD
330
1E
100
AcDbEntity
  8
0
100
AcDbLine
 10
133.9700499999999
 20
15.0
 30
0.0
 11
134.4700499999999
 21
14.0
 31
0.0
  0
LINE
  5
2FE
330
1E
100
AcDbEntity
  8
0
100
AcDbLine
 10
133.9700499999999
 20
12.5
 30
0.0
 11
134.4700499999999
 21
13.5
 31
0.0
  0
LINE
  5
2FF
330
1E
100
AcDbEntity
  8
0
100
AcDbLine
 10
133.7700499999999
 20
11.4
 30
0.0
 11
133.9700499999999
 21
9.999999999999991
 31
0.0
  0
LINE
  5
300
330
1E
100
AcDbEntity
  8
0
100
AcDbLine
 10
133.7700499999999
 20
11.4
 30
0.0
 11
133.9700499999999
 21
12.5
 31
0.0
  0
LINE
  5
301
330
1E
100
AcDbEntity
  8
0
100
AcDbLine
 10
134.4700499999999
 20
13.5
 30
0.0
 11
134.4700499999999
 21
14.0
 31
0.0
  0
LINE
  5
302
330
1E
100
AcDbEntity
  8
0
100
AcDbLine
 10
134.4700499999999
 20
14.0
 30
0.0
 11
134.4700499999999
 21
13.5
 31
0.0
  0
LINE
  5
303
330
1E
100
AcDbEntity
  8
0
100
AcDbLine
 10
133.9700499999999
 20
9.999999999999991
 30
0.0
 11
134.9700499999999
 21
6.99999999999999
 31
0.0
  0
LINE
  5
304
330
1E
100
AcDbEntity
  8
0
100
AcDbLine
 10
134.9700499999999
 20
6.99999999999999
 30
0.0
 11
136.9700499999999
 21
3.99999999999999
 31
0.0
  0
LINE
  5
305
330
1E
100
AcDbEntity
  8
0
100
AcDbLine
 10
136.9700499999999
 20
3.99999999999999
 30
0.0
 11
140.4700499999999
 21
2.49999999999999
 31
0.0
  0
LINE
  5
306
330
1E
100
AcDbEntity
  8
0
100
AcDbLine
 10
140.4700499999999
 20
2.49999999999999
 30
0.0
 11
141.4700499999999
 21
1.499999999999989
 31
0.0
  0
LINE
  5
307
330
1E
100
AcDbEntity
  8
0
100
AcDbLine
 10
141.4700499999999
 20
1.499999999999989
 30
0.0
 11
141.9700499999999
 21
-0.0000000000000066
 31
0.0
  0
LINE
  5
308
330
1E
100
AcDbEntity
  8
0
100
AcDbLine
 10
141.4700499999999
 20
1.499999999999989
 30
0.0
 11
141.9700499999999
 21
-0.0000000000000067
 31
0.0
  0
LINE
  5
309
330
1E
100
AcDbEntity
  8
0
100
AcDbLine
 10
141.07005
 20
-0.0000000000000066
 30
0.0
 11
141.9700499999999
 21
-0.0000000000000067
 31
0.0
  0
LINE
  5
30A
330
1E
100
AcDbEntity
  8
0
100
AcDbLine
 10
132.8700499999999
 20
120.5
 30
0.0
 11
133.4700499999999
 21
120.5
 31
0.0
  0
LINE
  5
30C
330
1E
100
AcDbEntity
  8
0
100
AcDbLine
 10
132.8700499999999
 20
117.5
 30
0.0
 11
133.4700499999999
 21
117.5
 31
0.0
  0
LINE
  5
30D
330
1E
100
AcDbEntity
  8
0
100
AcDbLine
 10
132.42805
 20
163.217
 30
0.0
 11
135.9720499999999
 21
162.69
 31
0.0
  0
LINE
  5
30E
330
1E
100
AcDbEntity
  8
0
100
AcDbLine
 10
132.1080499999999
 20
163.243
 30
0.0
 11
134.1741602853219
 21
162.95734985317
 31
0.0
  0
LINE
  5
30F
330
1E
100
AcDbEntity
  8
0
100
AcDbLine
 10
132.1080499999999
 20
163.243
 30
0.0
 11
132.42805
 21
163.217
 31
0.0
  0
LINE
  5
310
330
1E
100
AcDbEntity
  8
0
100
AcDbLine
 10
132.1080499999999
 20
172.757
 30
0.0
 11
132.42805
 21
172.7829999999999
 31
0.0
  0
LINE
  5
311
330
1E
100
AcDbEntity
  8
0
100
AcDbLine
 10
132.1080499999999
 20
172.757
 30
0.0
 11
134.1741602853219
 21
173.04265014683
 31
0.0
  0
LINE
  5
312
330
1E
100
AcDbEntity
  8
0
100
AcDbLine
 10
132.42805
 20
172.7829999999999
 30
0.0
 11
135.9720499999999
 21
173.31
 31
0.0
  0
LINE
  5
313
330
1E
100
AcDbEntity
  8
0
100
AcDbLine
 10
132.4700499999999
 20
127.0
 30
0.0
 11
132.4700499999999
 21
121.0
 31
0.0
  0
LINE
  5
314
330
1E
100
AcDbEntity
  8
0
100
AcDbLine
 10
132.4700499999999
 20
121.0
 30
0.0
 11
132.4700499999999
 21
127.0
 31
0.0
  0
LINE
  5
315
330
1E
100
AcDbEntity
  8
0
100
AcDbLine
 10
133.4700499999999
 20
120.5
 30
0.0
 11
133.9700499999999
 21
119.0
 31
0.0
  0
LINE
  5
316
330
1E
100
AcDbEntity
  8
0
100
AcDbLine
 10
141.8450499999999
 20
162.092
 30
0.0
 11
143.34505
 21
162.476
 31
0.0
  0
LINE
  5
317
330
1E
100
AcDbEntity
  8
0
100
AcDbLine
 10
139.9470499999999
 20
162.212
 30
0.0
 11
141.8450499999999
 21
162.092
 31
0.0
  0
LINE
  5
318
330
1E
100
AcDbEntity
  8
0
100
AcDbLine
 10
139.441954301647
 20
162.2727385519029
 30
0.0
 11
140.0740499999999
 21
162.1929999999999
 31
0.0
  0
LINE
  5
319
330
1E
100
AcDbEntity
  8
0
100
AcDbLine
 10
140.0740499999999
 20
162.1929999999999
 30
0.0
 11
140.629625406033
 21
162.1688445475639
 31
0.0
  0
LINE
  5
31A
330
1E
100
AcDbEntity
  8
0
100
AcDbLine
 10
141.96005
 20
162.1109999999999
 30
0.0
 11
142.23005
 21
162.19056
 31
0.0
  0
LINE
  5
31D
330
1E
100
AcDbEntity
  8
0
100
AcDbLine
 10
144.4410499999999
 20
163.187
 30
0.0
 11
145.0950499999999
 21
163.9559999999999
 31
0.0
  0
LINE
  5
31E
330
1E
100
AcDbEntity
  8
0
100
AcDbLine
 10
135.9720499999999
 20
162.69
 30
0.0
 11
139.9470499999999
 21
162.212
 31
0.0
  0
LINE
  5
31F
330
1E
100
AcDbEntity
  8
0
100
AcDbLine
 10
143.34505
 20
162.476
 30
0.0
 11
144.4410499999999
 21
163.187
 31
0.0
  0
LINE
  5
321
330
1E
100
AcDbEntity
  8
0
100
AcDbLine
 10
145.0950499999999
 20
163.9559999999999
 30
0.0
 11
145.6140499999999
 21
165.071
 31
0.0
  0
LINE
  5
322
330
1E
100
AcDbEntity
  8
0
100
AcDbLine
 10
144.5370499999999
 20
163.283
 30
0.0
 11
144.6845734294429
 21
163.4733448275869
 31
0.0
  0
LINE
  5
323
330
1E
100
AcDbEntity
  8
0
100
AcDbLine
 10
145.6140499999999
 20
165.071
 30
0.0
 11
145.9700499999999
 21
168.0
 31
0.0
  0
LINE
  5
325
330
1E
100
AcDbEntity
  8
0
100
AcDbLine
 10
135.9720499999999
 20
173.31
 30
0.0
 11
139.9470499999999
 21
173.7879999999999
 31
0.0
  0
LINE
  5
326
330
1E
100
AcDbEntity
  8
0
100
AcDbLine
 10
139.9470499999999
 20
173.7879999999999
 30
0.0
 11
141.8450499999999
 21
173.9079999999999
 31
0.0
  0
LINE
  5
327
330
1E
100
AcDbEntity
  8
0
100
AcDbLine
 10
139.441954301647
 20
173.727261448097
 30
0.0
 11
140.0740499999999
 21
173.807
 31
0.0
  0
LINE
  5
329
330
1E
100
AcDbEntity
  8
0
100
AcDbLine
 10
140.0740499999999
 20
173.807
 30
0.0
 11
140.629625406033
 21
173.8311554524359
 31
0.0
  0
LINE
  5
32A
330
1E
100
AcDbEntity
  8
0
100
AcDbLine
 10
141.8450499999999
 20
173.9079999999999
 30
0.0
 11
143.34505
 21
173.524
 31
0.0
  0
LINE
  5
32C
330
1E
100
AcDbEntity
  8
0
100
AcDbLine
 10
143.34505
 20
173.524
 30
0.0
 11
144.4410499999999
 21
172.8129999999999
 31
0.0
  0
LINE
  5
32D
330
1E
100
AcDbEntity
  8
0
100
AcDbLine
 10
144.4410499999999
 20
172.8129999999999
 30
0.0
 11
145.0950499999999
 21
172.044
 31
0.0
  0
LINE
  5
32E
330
1E
100
AcDbEntity
  8
0
100
AcDbLine
 10
141.96005
 20
173.889
 30
0.0
 11
142.23005
 21
173.80944
 31
0.0
  0
LINE
  5
32F
330
1E
100
AcDbEntity
  8
0
100
AcDbLine
 10
145.0950499999999
 20
172.044
 30
0.0
 11
145.6140499999999
 21
170.929
 31
0.0
  0
LINE
  5
330
330
1E
100
AcDbEntity
  8
0
100
AcDbLine
 10
144.5370499999999
 20
172.717
 30
0.0
 11
144.6845734294429
 21
172.526655172414
 31
0.0
  0
LINE
  5
331
330
1E
100
AcDbEntity
  8
0
100
AcDbLine
 10
145.6140499999999
 20
170.929
 30
0.0
 11
145.9700499999999
 21
168.0
 31
0.0
  0
LINE
  5
332
330
1E
100
AcDbEntity
  8
0
100
AcDbLine
 10
133.4700499999999
 20
117.5
 30
0.0
 11
133.9700499999999
 21
119.0
 31
0.0
  0
LINE
  5
333
330
1E
100
AcDbEntity
  8
0
100
AcDbLine
 10
132.4700499999999
 20
117.0
 30
0.0
 11
133.4700499999999
 21
117.5
 31
0.0
  0
LINE
  5
334
330
1E
100
AcDbEntity
  8
0
100
AcDbLine
 10
131.9700499999999
 20
115.5
 30
0.0
 11
131.9700499999999
 21
70.0
 31
0.0
  0
LINE
  5
335
330
1E
100
AcDbEntity
  8
0
100
AcDbLine
 10
131.9700499999999
 20
115.5
 30
0.0
 11
132.4700499999999
 21
117.0
 31
0.0
  0
ENDSEC
  0
SECTION
  2
OBJECTS
  0
DICTIONARY
  5
C
330
0
100
AcDbDictionary
281
     1
  3
ACAD_GROUP
350
D
  3
ACAD_LAYOUT
350
19
  3
ACAD_MLINESTYLE
350
16
  3
ACAD_PLOTSETTINGS
350
18
  3
ACAD_PLOTSTYLENAME
350
E
  3
AcDbVariableDictionary
350
33A
  0
DICTIONARY
  5
D
102
{ACAD_REACTORS
330
C
102
}
330
C
100
AcDbDictionary
281
     1
  0
DICTIONARY
  5
19
102
{ACAD_REACTORS
330
C
102
}
330
C
100
AcDbDictionary
281
     1
  3
Layout1
350
1D
  3
Model
350
21
  0
DICTIONARY
  5
16
102
{ACAD_REACTORS
330
C
102
}
330
C
100
AcDbDictionary
281
     1
  3
Standard
350
17
  0
DICTIONARY
  5
18
102
{ACAD_REACTORS
330
C
102
}
330
C
100
AcDbDictionary
281
     1
  0
ACDBDICTIONARYWDFLT
  5
E
102
{ACAD_REACTORS
330
C
102
}
330
C
100
AcDbDictionary
281
     1
  3
Normal
350
F
100
AcDbDictionaryWithDefault
340
F
  0
DICTIONARY
  5
33A
102
{ACAD_REACTORS
330
C
102
}
330
C
100
AcDbDictionary
281
     1
  3
DIMASSOC
350
33B
  0
LAYOUT
  5
1D
102
{ACAD_REACTORS
330
19
102
}
330
19
100
AcDbPlotSettings
  1

  2
hp deskjet 980c series
  4

  6

 40
0.0
 41
0.0
 42
0.0
 43
0.0
 44
0.0
 45
0.0
 46
0.0
 47
0.0
 48
0.0
 49
0.0
140
0.0
141
0.0
142
1.0
143
1.0
 70
   688
 72
     0
 73
     0
 74
     5
  7

 75
    16
147
1.0
148
0.0
149
0.0
100
AcDbLayout
  1
Layout1
 70
     1
 71
     1
 10
0.0
 20
0.0
 11
12.0
 21
9.0
 12
0.0
 22
0.0
 32
0.0
 14
1.000000000000000E+20
 24
1.000000000000000E+20
 34
1.000000000000000E+20
 15
-1.000000000000000E+20
 25
-1.000000000000000E+20
 35
-1.000000000000000E+20
146
0.0
 13
0.0
 23
0.0
 33
0.0
 16
1.0
 26
0.0
 36
0.0
 17
0.0
 27
1.0
 37
0.0
 76
     0
330
1A
  0
LAYOUT
  5
21
102
{ACAD_REACTORS
330
19
102
}
330
19
100
AcDbPlotSettings
  1

  2
hp deskjet 980c series
  4

  6

 40
0.0
 41
0.0
 42
0.0
 43
0.0
 44
0.0
 45
0.0
 46
0.0
 47
0.0
 48
0.0
 49
0.0
140
0.0
141
0.0
142
1.0
143
1.0
 70
  1712
 72
     0
 73
     0
 74
     0
  7

 75
     0
147
1.0
148
0.0
149
0.0
100
AcDbLayout
  1
Model
 70
     1
 71
     0
 10
0.0
 20
0.0
 11
12.0
 21
9.0
 12
0.0
 22
0.0
 32
0.0
 14
0.0
 24
0.0
 34
0.0
 15
0.0
 25
0.0
 35
0.0
146
0.0
 13
0.0
 23
0.0
 33
0.0
 16
1.0
 26
0.0
 36
0.0
 17
0.0
 27
1.0
 37
0.0
 76
     0
330
1E
  0
MLINESTYLE
  5
17
102
{ACAD_REACTORS
330
16
102
}
330
16
100
AcDbMlineStyle
  2
STANDARD
 70
     0
  3

 62
   256
 51
90.0
 52
90.0
 71
     2
 49
0.5
 62
   256
  6
BYLAYER
 49
-0.5
 62
   256
  6
BYLAYER
  0
ACDBPLACEHOLDER
  5
F
102
{ACAD_REACTORS
330
E
102
}
330
E
  0
DICTIONARYVAR
  5
33B
102
{ACAD_REACTORS
330
33A
102
}
330
33A
100
DictionaryVariables
280
     0
  1
1
  0
ENDSEC
  0
EOF
