  0
SECTION
  2
HEADER
  9
$ACADVER
  1
AC1015
  9
$ACADMAINTVER
 70
    13
  9
$DWGCODEPAGE
  3
ANSI_1252
  9
$INSBASE
 10
0.0
 20
0.0
 30
0.0
  9
$EXTMIN
 10
-0.120835000000003
 20
-0.146689999999984
 30
0.0
  9
$EXTMAX
 10
187.120835
 20
144.1466899999999
 30
0.0
  9
$LIMMIN
 10
0.0
 20
0.0
  9
$LIMMAX
 10
12.0
 20
9.0
  9
$ORTHOMODE
 70
     0
  9
$REGENMODE
 70
     1
  9
$FILLMODE
 70
     1
  9
$QTEXTMODE
 70
     0
  9
$MIRRTEXT
 70
     1
  9
$LTSCALE
 40
1.0
  9
$ATTMODE
 70
     1
  9
$TEXTSIZE
 40
0.2
  9
$TRACEWID
 40
0.05
  9
$TEXTSTYLE
  7
Standard
  9
$CLAYER
  8
0
  9
$CELTYPE
  6
Continuous
  9
$CECOLOR
 62
   256
  9
$CELTSCALE
 40
1.0
  9
$DISPSILH
 70
     0
  9
$DIMSCALE
 40
1.0
  9
$DIMASZ
 40
0.18
  9
$DIMEXO
 40
0.0625
  9
$DIMDLI
 40
0.38
  9
$DIMRND
 40
0.0
  9
$DIMDLE
 40
0.0
  9
$DIMEXE
 40
0.18
  9
$DIMTP
 40
0.0
  9
$DIMTM
 40
0.0
  9
$DIMTXT
 40
0.18
  9
$DIMCEN
 40
0.09
  9
$DIMTSZ
 40
0.0
  9
$DIMTOL
 70
     0
  9
$DIMLIM
 70
     0
  9
$DIMTIH
 70
     1
  9
$DIMTOH
 70
     1
  9
$DIMSE1
 70
     0
  9
$DIMSE2
 70
     0
  9
$DIMTAD
 70
     0
  9
$DIMZIN
 70
     0
  9
$DIMBLK
  1

  9
$DIMASO
 70
     1
  9
$DIMSHO
 70
     1
  9
$DIMPOST
  1

  9
$DIMAPOST
  1

  9
$DIMALT
 70
     0
  9
$DIMALTD
 70
     2
  9
$DIMALTF
 40
25.4
  9
$DIMLFAC
 40
1.0
  9
$DIMTOFL
 70
     0
  9
$DIMTVP
 40
0.0
  9
$DIMTIX
 70
     0
  9
$DIMSOXD
 70
     0
  9
$DIMSAH
 70
     0
  9
$DIMBLK1
  1

  9
$DIMBLK2
  1

  9
$DIMSTYLE
  2
Standard
  9
$DIMCLRD
 70
     0
  9
$DIMCLRE
 70
     0
  9
$DIMCLRT
 70
     0
  9
$DIMTFAC
 40
1.0
  9
$DIMGAP
 40
0.09
  9
$DIMJUST
 70
     0
  9
$DIMSD1
 70
     0
  9
$DIMSD2
 70
     0
  9
$DIMTOLJ
 70
     1
  9
$DIMTZIN
 70
     0
  9
$DIMALTZ
 70
     0
  9
$DIMALTTZ
 70
     0
  9
$DIMUPT
 70
     0
  9
$DIMDEC
 70
     4
  9
$DIMTDEC
 70
     4
  9
$DIMALTU
 70
     2
  9
$DIMALTTD
 70
     2
  9
$DIMTXSTY
  7
Standard
  9
$DIMAUNIT
 70
     0
  9
$DIMADEC
 70
     0
  9
$DIMALTRND
 40
0.0
  9
$DIMAZIN
 70
     0
  9
$DIMDSEP
 70
    46
  9
$DIMATFIT
 70
     3
  9
$DIMFRAC
 70
     0
  9
$DIMLDRBLK
  1

  9
$DIMLUNIT
 70
     2
  9
$DIMLWD
 70
    -2
  9
$DIMLWE
 70
    -2
  9
$DIMTMOVE
 70
     0
  9
$LUNITS
 70
     2
  9
$LUPREC
 70
     4
  9
$SKETCHINC
 40
0.1
  9
$FILLETRAD
 40
0.0
  9
$AUNITS
 70
     0
  9
$AUPREC
 70
     0
  9
$MENU
  1
.
  9
$ELEVATION
 40
0.0
  9
$PELEVATION
 40
0.0
  9
$THICKNESS
 40
0.0
  9
$LIMCHECK
 70
     0
  9
$CHAMFERA
 40
0.0
  9
$CHAMFERB
 40
0.0
  9
$CHAMFERC
 40
0.0
  9
$CHAMFERD
 40
0.0
  9
$SKPOLY
 70
     0
  9
$TDCREATE
 40
2454751.617557685
  9
$TDUCREATE
 40
2454751.534224352
  9
$TDUPDATE
 40
2454751.642327292
  9
$TDUUPDATE
 40
2454751.558993958
  9
$TDINDWG
 40
0.0247696065
  9
$TDUSRTIMER
 40
0.0247696065
  9
$USRTIMER
 70
     1
  9
$ANGBASE
 50
0.0
  9
$ANGDIR
 70
     0
  9
$PDMODE
 70
     0
  9
$PDSIZE
 40
0.0
  9
$PLINEWID
 40
0.0
  9
$SPLFRAME
 70
     0
  9
$SPLINETYPE
 70
     6
  9
$SPLINESEGS
 70
     8
  9
$HANDSEED
  5
5C0
  9
$SURFTAB1
 70
     6
  9
$SURFTAB2
 70
     6
  9
$SURFTYPE
 70
     6
  9
$SURFU
 70
     6
  9
$SURFV
 70
     6
  9
$UCSBASE
  2

  9
$UCSNAME
  2

  9
$UCSORG
 10
0.0
 20
0.0
 30
0.0
  9
$UCSXDIR
 10
1.0
 20
0.0
 30
0.0
  9
$UCSYDIR
 10
0.0
 20
1.0
 30
0.0
  9
$UCSORTHOREF
  2

  9
$UCSORTHOVIEW
 70
     1
  9
$UCSORGTOP
 10
0.0
 20
0.0
 30
0.0
  9
$UCSORGBOTTOM
 10
0.0
 20
0.0
 30
0.0
  9
$UCSORGLEFT
 10
0.0
 20
0.0
 30
0.0
  9
$UCSORGRIGHT
 10
0.0
 20
0.0
 30
0.0
  9
$UCSORGFRONT
 10
0.0
 20
0.0
 30
0.0
  9
$UCSORGBACK
 10
0.0
 20
0.0
 30
0.0
  9
$PUCSBASE
  2

  9
$PUCSNAME
  2

  9
$PUCSORG
 10
0.0
 20
0.0
 30
0.0
  9
$PUCSXDIR
 10
1.0
 20
0.0
 30
0.0
  9
$PUCSYDIR
 10
0.0
 20
1.0
 30
0.0
  9
$PUCSORTHOREF
  2

  9
$PUCSORTHOVIEW
 70
     0
  9
$PUCSORGTOP
 10
0.0
 20
0.0
 30
0.0
  9
$PUCSORGBOTTOM
 10
0.0
 20
0.0
 30
0.0
  9
$PUCSORGLEFT
 10
0.0
 20
0.0
 30
0.0
  9
$PUCSORGRIGHT
 10
0.0
 20
0.0
 30
0.0
  9
$PUCSORGFRONT
 10
0.0
 20
0.0
 30
0.0
  9
$PUCSORGBACK
 10
0.0
 20
0.0
 30
0.0
  9
$USERI1
 70
     0
  9
$USERI2
 70
     0
  9
$USERI3
 70
     0
  9
$USERI4
 70
     0
  9
$USERI5
 70
     0
  9
$USERR1
 40
0.0
  9
$USERR2
 40
0.0
  9
$USERR3
 40
0.0
  9
$USERR4
 40
0.0
  9
$USERR5
 40
0.0
  9
$WORLDVIEW
 70
     1
  9
$SHADEDGE
 70
     3
  9
$SHADEDIF
 70
    70
  9
$TILEMODE
 70
     1
  9
$MAXACTVP
 70
    64
  9
$PINSBASE
 10
0.0
 20
0.0
 30
0.0
  9
$PLIMCHECK
 70
     0
  9
$PEXTMIN
 10
1.000000000000000E+20
 20
1.000000000000000E+20
 30
1.000000000000000E+20
  9
$PEXTMAX
 10
-1.000000000000000E+20
 20
-1.000000000000000E+20
 30
-1.000000000000000E+20
  9
$PLIMMIN
 10
0.0
 20
0.0
  9
$PLIMMAX
 10
12.0
 20
9.0
  9
$UNITMODE
 70
     0
  9
$VISRETAIN
 70
     1
  9
$PLINEGEN
 70
     0
  9
$PSLTSCALE
 70
     1
  9
$TREEDEPTH
 70
  3020
  9
$CMLSTYLE
  2
Standard
  9
$CMLJUST
 70
     0
  9
$CMLSCALE
 40
1.0
  9
$PROXYGRAPHICS
 70
     1
  9
$MEASUREMENT
 70
     0
  9
$CELWEIGHT
370
    -1
  9
$ENDCAPS
280
     0
  9
$JOINSTYLE
280
     0
  9
$LWDISPLAY
290
     0
  9
$INSUNITS
 70
     0
  9
$HYPERLINKBASE
  1

  9
$STYLESHEET
  1

  9
$XEDIT
290
     1
  9
$CEPSNTYPE
380
     0
  9
$PSTYLEMODE
290
     1
  9
$FINGERPRINTGUID
  2
{E5F3A711-4888-4300-9ECB-957F17EA6A9D}
  9
$VERSIONGUID
  2
{037A24A4-40F0-4961-97D6-348F60549E95}
  9
$EXTNAMES
290
     1
  9
$PSVPSCALE
 40
0.0
  9
$OLESTARTUP
290
     0
  0
ENDSEC
  0
SECTION
  2
CLASSES
  0
CLASS
  1
ACDBDICTIONARYWDFLT
  2
AcDbDictionaryWithDefault
  3
AutoCAD 2000
 90
        0
280
     0
281
     0
  0
CLASS
  1
ACDBPLACEHOLDER
  2
AcDbPlaceHolder
  3
AutoCAD 2000
 90
        0
280
     0
281
     0
  0
CLASS
  1
LAYOUT
  2
AcDbLayout
  3
AutoCAD 2000
 90
        0
280
     0
281
     0
  0
CLASS
  1
DICTIONARYVAR
  2
AcDbDictionaryVar
  3
AutoCAD 2000
 90
        0
280
     0
281
     0
  0
ENDSEC
  0
SECTION
  2
TABLES
  0
TABLE
  2
VPORT
  5
8
330
0
100
AcDbSymbolTable
 70
     4
  0
VPORT
  5
5BF
330
8
100
AcDbSymbolTableRecord
100
AcDbViewportTableRecord
  2
*Active
 70
     0
 10
0.0
 20
0.0
 11
1.0
 21
1.0
 12
93.49999999999999
 22
72.0
 13
0.0
 23
0.0
 14
1.0
 24
1.0
 15
0.0
 25
0.0
 16
0.0
 26
0.0
 36
1.0
 17
0.0
 27
0.0
 37
0.0
 40
145.4004903324807
 41
2.078104993597951
 42
50.0
 43
0.0
 44
0.0
 50
0.0
 51
0.0
 71
     0
 72
   100
 73
     1
 74
     3
 75
     0
 76
     0
 77
     0
 78
     0
281
     0
 65
     1
110
0.0
120
0.0
130
0.0
111
1.0
121
0.0
131
0.0
112
0.0
122
1.0
132
0.0
 79
     1
146
0.0
  0
ENDTAB
  0
TABLE
  2
LTYPE
  5
5
330
0
100
AcDbSymbolTable
 70
     1
  0
LTYPE
  5
13
330
5
100
AcDbSymbolTableRecord
100
AcDbLinetypeTableRecord
  2
ByBlock
 70
     0
  3

 72
    65
 73
     0
 40
0.0
  0
LTYPE
  5
14
330
5
100
AcDbSymbolTableRecord
100
AcDbLinetypeTableRecord
  2
ByLayer
 70
     0
  3

 72
    65
 73
     0
 40
0.0
  0
LTYPE
  5
15
330
5
100
AcDbSymbolTableRecord
100
AcDbLinetypeTableRecord
  2
Continuous
 70
     0
  3
Solid line
 72
    65
 73
     0
 40
0.0
  0
ENDTAB
  0
TABLE
  2
LAYER
  5
2
330
0
100
AcDbSymbolTable
 70
     1
  0
LAYER
  5
10
330
2
100
AcDbSymbolTableRecord
100
AcDbLayerTableRecord
  2
0
 70
     0
 62
     7
  6
Continuous
370
    -3
390
F
  0
ENDTAB
  0
TABLE
  2
STYLE
  5
3
330
0
100
AcDbSymbolTable
 70
     1
  0
STYLE
  5
11
330
3
100
AcDbSymbolTableRecord
100
AcDbTextStyleTableRecord
  2
Standard
 70
     0
 40
0.0
 41
1.0
 50
0.0
 71
     0
 42
0.2
  3
txt
  4

  0
ENDTAB
  0
TABLE
  2
VIEW
  5
6
330
0
100
AcDbSymbolTable
 70
     0
  0
ENDTAB
  0
TABLE
  2
UCS
  5
7
330
0
100
AcDbSymbolTable
 70
     0
  0
ENDTAB
  0
TABLE
  2
APPID
  5
9
330
0
100
AcDbSymbolTable
 70
     1
  0
APPID
  5
12
330
9
100
AcDbSymbolTableRecord
100
AcDbRegAppTableRecord
  2
ACAD
 70
     0
  0
ENDTAB
  0
TABLE
  2
DIMSTYLE
  5
A
330
0
100
AcDbSymbolTable
 70
     1
100
AcDbDimStyleTable
 71
     0
  0
DIMSTYLE
105
460
330
A
100
AcDbSymbolTableRecord
100
AcDbDimStyleTableRecord
  2
Standard
 70
     0
340
11
  0
ENDTAB
  0
TABLE
  2
BLOCK_RECORD
  5
1
330
0
100
AcDbSymbolTable
 70
     0
  0
BLOCK_RECORD
  5
1E
330
1
100
AcDbSymbolTableRecord
100
AcDbBlockTableRecord
  2
*Model_Space
340
21
  0
BLOCK_RECORD
  5
1A
330
1
100
AcDbSymbolTableRecord
100
AcDbBlockTableRecord
  2
*Paper_Space
340
1D
  0
ENDTAB
  0
ENDSEC
  0
SECTION
  2
BLOCKS
  0
BLOCK
  5
1F
330
1E
100
AcDbEntity
  8
0
100
AcDbBlockBegin
  2
*Model_Space
 70
     0
 10
0.0
 20
0.0
 30
0.0
  3
*Model_Space
  1

  0
ENDBLK
  5
20
330
1E
100
AcDbEntity
  8
0
100
AcDbBlockEnd
  0
BLOCK
  5
1B
330
1A
100
AcDbEntity
 67
     1
  8
0
100
AcDbBlockBegin
  2
*Paper_Space
 70
     0
 10
0.0
 20
0.0
 30
0.0
  3
*Paper_Space
  1

  0
ENDBLK
  5
1C
330
1A
100
AcDbEntity
 67
     1
  8
0
100
AcDbBlockEnd
  0
ENDSEC
  0
SECTION
  2
ENTITIES
  0
LINE
  5
22
330
1E
100
AcDbEntity
  8
0
100
AcDbLine
 10
14.279935
 20
81.63089000000001
 30
0.0
 11
14.594535
 21
80.13099
 31
0.0
  0
LINE
  5
23
330
1E
100
AcDbEntity
  8
0
100
AcDbLine
 10
14.279935
 20
81.63089000000001
 30
0.0
 11
14.378235
 21
83.52859
 31
0.0
  0
LINE
  5
24
330
1E
100
AcDbEntity
  8
0
100
AcDbLine
 10
12.743135
 20
96.08339
 30
0.0
 11
13.646035
 21
93.80169
 31
0.0
  0
LINE
  5
25
330
1E
100
AcDbEntity
  8
0
100
AcDbLine
 10
11.426335
 20
98.00569000000001
 30
0.0
 11
12.743135
 21
96.08339
 31
0.0
  0
LINE
  5
26
330
1E
100
AcDbEntity
  8
0
100
AcDbLine
 10
12.090435
 20
97.40569
 30
0.0
 11
13.524335
 21
96.40569000000001
 31
0.0
  0
LINE
  5
27
330
1E
100
AcDbEntity
  8
0
100
AcDbLine
 10
13.524335
 20
96.40569000000001
 30
0.0
 11
15.073035
 21
96.00569
 31
0.0
  0
LINE
  5
29
330
1E
100
AcDbEntity
  8
0
100
AcDbLine
 10
13.646035
 20
93.80169
 30
0.0
 11
14.429235
 21
91.04779
 31
0.0
  0
LINE
  5
2A
330
1E
100
AcDbEntity
  8
0
100
AcDbLine
 10
17.637935
 20
77.86189
 30
0.0
 11
20.03723499999999
 21
77.50569
 31
0.0
  0
LINE
  5
2B
330
1E
100
AcDbEntity
  8
0
100
AcDbLine
 10
15.197635
 20
81.63089000000001
 30
0.0
 11
15.512235
 21
80.13099
 31
0.0
  0
LINE
  5
2C
330
1E
100
AcDbEntity
  8
0
100
AcDbLine
 10
15.197635
 20
81.63089000000001
 30
0.0
 11
15.295935
 21
83.52859
 31
0.0
  0
LINE
  5
2D
330
1E
100
AcDbEntity
  8
0
100
AcDbLine
 10
15.512235
 20
80.13099
 30
0.0
 11
16.094635
 21
79.03489
 31
0.0
  0
LINE
  5
2E
330
1E
100
AcDbEntity
  8
0
100
AcDbLine
 10
15.295935
 20
83.52859
 30
0.0
 11
15.859635
 21
87.50369
 31
0.0
  0
LINE
  5
2F
330
1E
100
AcDbEntity
  8
0
100
AcDbLine
 10
14.594535
 20
80.13099
 30
0.0
 11
15.176935
 21
79.03489
 31
0.0
  0
LINE
  5
30
330
1E
100
AcDbEntity
  8
0
100
AcDbLine
 10
15.176935
 20
79.03489
 30
0.0
 11
15.806835
 21
78.38109
 31
0.0
  0
LINE
  5
34
330
1E
100
AcDbEntity
  8
0
100
AcDbLine
 10
16.094635
 20
79.03489
 30
0.0
 11
16.724535
 21
78.38109
 31
0.0
  0
LINE
  5
35
330
1E
100
AcDbEntity
  8
0
100
AcDbLine
 10
16.724535
 20
78.38109
 30
0.0
 11
17.637935
 21
77.86189
 31
0.0
  0
LINE
  5
36
330
1E
100
AcDbEntity
  8
0
100
AcDbLine
 10
16.891435
 20
91.04779
 30
0.0
 11
18.223435
 21
93.80169
 31
0.0
  0
LINE
  5
37
330
1E
100
AcDbEntity
  8
0
100
AcDbLine
 10
15.859635
 20
87.50369
 30
0.0
 11
16.891435
 21
91.04779
 31
0.0
  0
LINE
  5
38
330
1E
100
AcDbEntity
  8
0
100
AcDbLine
 10
15.806835
 20
78.38109
 30
0.0
 11
16.72023499999999
 21
77.86189
 31
0.0
  0
LINE
  5
39
330
1E
100
AcDbEntity
  8
0
100
AcDbLine
 10
16.72023499999999
 20
77.86189
 30
0.0
 11
19.119535
 21
77.50569
 31
0.0
  0
LINE
  5
3D
330
1E
100
AcDbEntity
  8
0
100
AcDbLine
 10
24.778435
 20
83.52859
 30
0.0
 11
24.876735
 21
81.63089000000001
 31
0.0
  0
LINE
  5
3E
330
1E
100
AcDbEntity
  8
0
100
AcDbLine
 10
24.562235
 20
80.13099
 30
0.0
 11
24.876735
 21
81.63089000000001
 31
0.0
  0
LINE
  5
3F
330
1E
100
AcDbEntity
  8
0
100
AcDbLine
 10
23.979835
 20
79.03489
 30
0.0
 11
24.562235
 21
80.13099
 31
0.0
  0
LINE
  5
40
330
1E
100
AcDbEntity
  8
0
100
AcDbLine
 10
23.349835
 20
78.38109
 30
0.0
 11
23.979835
 21
79.03489
 31
0.0
  0
LINE
  5
41
330
1E
100
AcDbEntity
  8
0
100
AcDbLine
 10
22.436535
 20
77.86189
 30
0.0
 11
23.349835
 21
78.38109
 31
0.0
  0
LINE
  5
42
330
1E
100
AcDbEntity
  8
0
100
AcDbLine
 10
20.03723499999999
 20
77.50569
 30
0.0
 11
22.436535
 21
77.86189
 31
0.0
  0
LINE
  5
43
330
1E
100
AcDbEntity
  8
0
100
AcDbLine
 10
19.57833499999999
 20
77.50569
 30
0.0
 11
20.03723499999999
 21
77.50569
 31
0.0
  0
LINE
  5
44
330
1E
100
AcDbEntity
  8
0
100
AcDbLine
 10
24.72743499999999
 20
91.04779
 30
0.0
 11
25.510635
 21
93.80169
 31
0.0
  0
LINE
  5
45
330
1E
100
AcDbEntity
  8
0
100
AcDbLine
 10
24.559035
 20
87.50369
 30
0.0
 11
24.778435
 21
83.52859
 31
0.0
  0
LINE
  5
46
330
1E
100
AcDbEntity
  8
0
100
AcDbLine
 10
24.559035
 20
87.50369
 30
0.0
 11
24.72743499999999
 21
91.04779
 31
0.0
  0
LINE
  5
47
330
1E
100
AcDbEntity
  8
0
100
AcDbLine
 10
19.119535
 20
77.50569
 30
0.0
 11
19.57833499999999
 21
77.50569
 31
0.0
  0
LINE
  5
48
330
1E
100
AcDbEntity
  8
0
100
AcDbLine
 10
18.055635
 20
97.40569
 30
0.0
 11
19.31743499999999
 21
99.10569
 31
0.0
  0
LINE
  5
49
330
1E
100
AcDbEntity
  8
0
100
AcDbLine
 10
16.621635
 20
96.40569000000001
 30
0.0
 11
18.055635
 21
97.40569
 31
0.0
  0
LINE
  5
4A
330
1E
100
AcDbEntity
  8
0
100
AcDbLine
 10
15.073035
 20
96.00569
 30
0.0
 11
16.621635
 21
96.40569000000001
 31
0.0
  0
LINE
  5
4B
330
1E
100
AcDbEntity
  8
0
100
AcDbLine
 10
19.626035
 20
96.08339
 30
0.0
 11
21.177135
 21
98.00569000000001
 31
0.0
  0
LINE
  5
4C
330
1E
100
AcDbEntity
  8
0
100
AcDbLine
 10
21.177135
 20
98.00569000000001
 30
0.0
 11
22.162635
 21
100.50569
 31
0.0
  0
LINE
  5
4D
330
1E
100
AcDbEntity
  8
0
100
AcDbLine
 10
27.73033499999999
 20
98.00569000000001
 30
0.0
 11
28.95013499999999
 21
100.50569
 31
0.0
  0
LINE
  5
4E
330
1E
100
AcDbEntity
  8
0
100
AcDbLine
 10
26.41353499999999
 20
96.08339
 30
0.0
 11
27.73033499999999
 21
98.00569000000001
 31
0.0
  0
LINE
  5
4F
330
1E
100
AcDbEntity
  8
0
100
AcDbLine
 10
25.510635
 20
93.80169
 30
0.0
 11
26.41353499999999
 21
96.08339
 31
0.0
  0
LINE
  5
50
330
1E
100
AcDbEntity
  8
0
100
AcDbLine
 10
18.223435
 20
93.80169
 30
0.0
 11
19.626035
 21
96.08339
 31
0.0
  0
LINE
  5
51
330
1E
100
AcDbEntity
  8
0
100
AcDbLine
 10
14.429235
 20
91.04779
 30
0.0
 11
14.597735
 21
87.50369
 31
0.0
  0
LINE
  5
52
330
1E
100
AcDbEntity
  8
0
100
AcDbLine
 10
14.378235
 20
83.52859
 30
0.0
 11
14.597735
 21
87.50369
 31
0.0
  0
LINE
  5
53
330
1E
100
AcDbEntity
  8
0
100
AcDbLine
 10
28.706175
 20
100.00569
 30
0.0
 11
31.865635
 21
100.00569
 31
0.0
  0
LINE
  5
54
330
1E
100
AcDbEntity
  8
0
100
AcDbLine
 10
22.162635
 20
100.50569
 30
0.0
 11
23.221435
 21
102.51569
 31
0.0
  0
LINE
  5
55
330
1E
100
AcDbEntity
  8
0
100
AcDbLine
 10
32.84073499999999
 20
100.20569
 30
0.0
 11
33.70103499999999
 21
100.90569
 31
0.0
  0
LINE
  5
56
330
1E
100
AcDbEntity
  8
0
100
AcDbLine
 10
31.865635
 20
100.00569
 30
0.0
 11
32.84073499999999
 21
100.20569
 31
0.0
  0
LINE
  5
57
330
1E
100
AcDbEntity
  8
0
100
AcDbLine
 10
33.209435
 20
100.50569
 30
0.0
 11
40.87633499999999
 21
100.50569
 31
0.0
  0
LINE
  5
58
330
1E
100
AcDbEntity
  8
0
100
AcDbLine
 10
28.95013499999999
 20
100.50569
 30
0.0
 11
30.4661470908693
 21
102.4608932740759
 31
0.0
  0
LINE
  5
59
330
1E
100
AcDbEntity
  8
0
100
AcDbLine
 10
19.31743499999999
 20
99.10569
 30
0.0
 11
20.292535
 21
101.30569
 31
0.0
  0
LINE
  5
5A
330
1E
100
AcDbEntity
  8
0
100
AcDbLine
 10
10.828535
 20
99.10569
 30
0.0
 11
12.090435
 21
97.40569
 31
0.0
  0
LINE
  5
5B
330
1E
100
AcDbEntity
  8
0
100
AcDbLine
 10
11.00689744474039
 20
98.865404592235
 30
0.0
 11
11.426335
 21
98.00569000000001
 31
0.0
  0
LINE
  5
5C
330
1E
100
AcDbEntity
  8
0
100
AcDbLine
 10
-0.120835000000003
 20
107.3056899999999
 30
0.0
 11
-0.0973450000000032
 21
106.5056899999999
 31
0.0
  0
LINE
  5
5D
330
1E
100
AcDbEntity
  8
0
100
AcDbLine
 10
-0.120835000000003
 20
107.3056899999999
 30
0.0
 11
0.334534999999996
 21
107.8056899999999
 31
0.0
  0
LINE
  5
5E
330
1E
100
AcDbEntity
  8
0
100
AcDbLine
 10
0.334534999999996
 20
105.2056899999999
 30
0.0
 11
2.52915357807647
 21
104.7902298138569
 31
0.0
  0
LINE
  5
60
330
1E
100
AcDbEntity
  8
0
100
AcDbLine
 10
-0.0745550000000035
 20
105.7056899999999
 30
0.0
 11
0.471204999999998
 21
105.7056899999999
 31
0.0
  0
LINE
  5
61
330
1E
100
AcDbEntity
  8
0
100
AcDbLine
 10
-0.120835000000003
 20
105.7056899999999
 30
0.0
 11
0.334534999999996
 21
105.2056899999999
 31
0.0
  0
LINE
  5
62
330
1E
100
AcDbEntity
  8
0
100
AcDbLine
 10
0.334534999999996
 20
105.2056899999999
 30
0.0
 11
2.52915357807646
 21
104.7902298138569
 31
0.0
  0
LINE
  5
63
330
1E
100
AcDbEntity
  8
0
100
AcDbLine
 10
20.292535
 20
101.30569
 30
0.0
 11
20.86613499999999
 21
103.8056899999999
 31
0.0
  0
LINE
  5
64
330
1E
100
AcDbEntity
  8
0
100
AcDbLine
 10
34.50413499999999
 20
101.90569
 30
0.0
 11
35.077635
 21
103.30569
 31
0.0
  0
LINE
  5
65
330
1E
100
AcDbEntity
  8
0
100
AcDbLine
 10
33.70103499999999
 20
100.90569
 30
0.0
 11
34.50413499999999
 21
101.90569
 31
0.0
  0
LINE
  5
66
330
1E
100
AcDbEntity
  8
0
100
AcDbLine
 10
30.46614709086911
 20
102.4608932740757
 30
0.0
 11
32.09973499999999
 21
103.89869
 31
0.0
  0
LINE
  5
67
330
1E
100
AcDbEntity
  8
0
100
AcDbLine
 10
35.077635
 20
103.30569
 30
0.0
 11
35.4406669858079
 21
104.6619738822209
 31
0.0
  0
LINE
  5
68
330
1E
100
AcDbEntity
  8
0
100
AcDbLine
 10
20.86613499999999
 20
103.8056899999999
 30
0.0
 11
21.095535
 21
106.5056899999999
 31
0.0
  0
LINE
  5
69
330
1E
100
AcDbEntity
  8
0
100
AcDbLine
 10
23.221435
 20
102.51569
 30
0.0
 11
24.52663499999999
 21
104.35969
 31
0.0
  0
LINE
  5
6A
330
1E
100
AcDbEntity
  8
0
100
AcDbLine
 10
9.853435000000001
 20
101.30569
 30
0.0
 11
10.828535
 21
99.10569
 31
0.0
  0
LINE
  5
6B
330
1E
100
AcDbEntity
  8
0
100
AcDbLine
 10
32.09973499999999
 20
103.89869
 30
0.0
 11
33.5428344489251
 21
104.5344416602799
 31
0.0
  0
LINE
  5
6C
330
1E
100
AcDbEntity
  8
0
100
AcDbLine
 10
9.279935
 20
103.8056899999999
 30
0.0
 11
9.853435000000001
 21
101.30569
 31
0.0
  0
LINE
  5
6D
330
1E
100
AcDbEntity
  8
0
100
AcDbLine
 10
8.648034999999991
 20
102.51569
 30
0.0
 11
10.206635
 21
100.50569
 31
0.0
  0
LINE
  5
6E
330
1E
100
AcDbEntity
  8
0
100
AcDbLine
 10
33.47757074975132
 20
104.50569
 30
0.0
 11
36.18753499999999
 21
104.70569
 31
0.0
  0
LINE
  5
6F
330
1E
100
AcDbEntity
  8
0
100
AcDbLine
 10
36.18103499999999
 20
104.70569
 30
0.0
 11
38.82213499999999
 21
105.2056899999999
 31
0.0
  0
LINE
  5
72
330
1E
100
AcDbEntity
  8
0
100
AcDbLine
 10
24.52663499999999
 20
104.35969
 30
0.0
 11
26.127735
 21
105.4056899999999
 31
0.0
  0
LINE
  5
73
330
1E
100
AcDbEntity
  8
0
100
AcDbLine
 10
6.794035
 20
104.35969
 30
0.0
 11
8.648034999999991
 21
102.51569
 31
0.0
  0
LINE
  5
74
330
1E
100
AcDbEntity
  8
0
100
AcDbLine
 10
7.056935
 20
103.89869
 30
0.0
 11
8.690531495218859
 21
102.46088571706
 31
0.0
  0
LINE
  5
75
330
1E
100
AcDbEntity
  8
0
100
AcDbLine
 10
5.304429418761323
 20
104.5690041006593
 30
0.0
 11
5.613905549930349
 21
104.5344386355249
 31
0.0
  0
LINE
  5
76
330
1E
100
AcDbEntity
  8
0
100
AcDbLine
 10
4.329534999999999
 20
105.4056899999999
 30
0.0
 11
6.794035
 21
104.35969
 31
0.0
  0
LINE
  5
77
330
1E
100
AcDbEntity
  8
0
100
AcDbLine
 10
1.657984999999999
 20
105.7056899999999
 30
0.0
 11
4.329534999999999
 21
105.4056899999999
 31
0.0
  0
LINE
  5
7B
330
1E
100
AcDbEntity
  8
0
100
AcDbLine
 10
28.01623499999999
 20
105.7056899999999
 30
0.0
 11
29.00643499999999
 21
105.7056899999999
 31
0.0
  0
LINE
  5
7C
330
1E
100
AcDbEntity
  8
0
100
AcDbLine
 10
29.00643499999999
 20
105.7056899999999
 30
0.0
 11
30.18123499999999
 21
105.7056899999999
 31
0.0
  0
LINE
  5
7D
330
1E
100
AcDbEntity
  8
0
100
AcDbLine
 10
30.18123499999999
 20
105.7056899999999
 30
0.0
 11
31.392335
 21
105.7056899999999
 31
0.0
  0
LINE
  5
7E
330
1E
100
AcDbEntity
  8
0
100
AcDbLine
 10
31.392335
 20
105.7056899999999
 30
0.0
 11
32.39733499999999
 21
105.7056899999999
 31
0.0
  0
LINE
  5
7F
330
1E
100
AcDbEntity
  8
0
100
AcDbLine
 10
32.39733499999999
 20
105.7056899999999
 30
0.0
 11
33.608435
 21
105.7056899999999
 31
0.0
  0
LINE
  5
80
330
1E
100
AcDbEntity
  8
0
100
AcDbLine
 10
33.608435
 20
105.7056899999999
 30
0.0
 11
36.212035
 21
105.7056899999999
 31
0.0
  0
LINE
  5
81
330
1E
100
AcDbEntity
  8
0
100
AcDbLine
 10
36.212035
 20
105.7056899999999
 30
0.0
 11
38.407035
 21
105.7056899999999
 31
0.0
  0
LINE
  5
82
330
1E
100
AcDbEntity
  8
0
100
AcDbLine
 10
26.127735
 20
105.4056899999999
 30
0.0
 11
28.01623499999999
 21
105.7056899999999
 31
0.0
  0
LINE
  5
83
330
1E
100
AcDbEntity
  8
0
100
AcDbLine
 10
5.613905549930349
 20
104.5344386355249
 30
0.0
 11
7.056935
 21
103.89869
 31
0.0
  0
LINE
  5
84
330
1E
100
AcDbEntity
  8
0
100
AcDbLine
 10
2.52915357807647
 20
104.7902298138569
 30
0.0
 11
5.304429418761323
 21
104.5690041006593
 31
0.0
  0
LINE
  5
85
330
1E
100
AcDbEntity
  8
0
100
AcDbLine
 10
0.471204999999998
 20
105.7056899999999
 30
0.0
 11
1.657984999999999
 21
105.7056899999999
 31
0.0
  0
LINE
  5
86
330
1E
100
AcDbEntity
  8
0
100
AcDbLine
 10
-0.0745550000000035
 20
107.3056899999999
 30
0.0
 11
0.471204999999998
 21
107.3056899999999
 31
0.0
  0
LINE
  5
87
330
1E
100
AcDbEntity
  8
0
100
AcDbLine
 10
-0.120835000000003
 20
107.3056899999999
 30
0.0
 11
0.334534999999996
 21
107.8056899999999
 31
0.0
  0
LINE
  5
88
330
1E
100
AcDbEntity
  8
0
100
AcDbLine
 10
0.471204999999998
 20
107.3056899999999
 30
0.0
 11
1.657984999999999
 21
107.3056899999999
 31
0.0
  0
LINE
  5
89
330
1E
100
AcDbEntity
  8
0
100
AcDbLine
 10
-0.0745550000000035
 20
107.3056899999999
 30
0.0
 11
0.471204999999998
 21
107.3056899999999
 31
0.0
  0
LINE
  5
8A
330
1E
100
AcDbEntity
  8
0
100
AcDbLine
 10
0.334534999999996
 20
107.8056899999999
 30
0.0
 11
2.52915357807647
 21
108.2211501861429
 31
0.0
  0
LINE
  5
8C
330
1E
100
AcDbEntity
  8
0
100
AcDbLine
 10
2.52915357807647
 20
108.2211501861429
 30
0.0
 11
5.304429418766719
 21
108.4423758993409
 31
0.0
  0
LINE
  5
8D
330
1E
100
AcDbEntity
  8
0
100
AcDbLine
 10
2.52915357807647
 20
108.2211501861429
 30
0.0
 11
5.304429418766719
 21
108.4423758993409
 31
0.0
  0
LINE
  5
8E
330
1E
100
AcDbEntity
  8
0
100
AcDbLine
 10
0.334534999999996
 20
107.8056899999999
 30
0.0
 11
2.52915357807646
 21
108.2211501861429
 31
0.0
  0
LINE
  5
8F
330
1E
100
AcDbEntity
  8
0
100
AcDbLine
 10
4.329534999999999
 20
107.6056899999999
 30
0.0
 11
6.794035
 21
108.6516899999999
 31
0.0
  0
LINE
  5
90
330
1E
100
AcDbEntity
  8
0
100
AcDbLine
 10
1.657984999999999
 20
107.3056899999999
 30
0.0
 11
4.329534999999999
 21
107.6056899999999
 31
0.0
  0
LINE
  5
91
330
1E
100
AcDbEntity
  8
0
100
AcDbLine
 10
5.304429418766719
 20
108.4423758993409
 30
0.0
 11
7.056935
 21
109.1126899999999
 31
0.0
  0
LINE
  5
92
330
1E
100
AcDbEntity
  8
0
100
AcDbLine
 10
6.794035
 20
108.6516899999999
 30
0.0
 11
8.648034999999991
 21
110.4956899999999
 31
0.0
  0
LINE
  5
93
330
1E
100
AcDbEntity
  8
0
100
AcDbLine
 10
8.648034999999991
 20
110.4956899999999
 30
0.0
 11
10.206635
 21
112.5056899999999
 31
0.0
  0
LINE
  5
94
330
1E
100
AcDbEntity
  8
0
100
AcDbLine
 10
7.056935
 20
109.1126899999999
 30
0.0
 11
8.690737357289361
 21
110.5507597665539
 31
0.0
  0
LINE
  5
96
330
1E
100
AcDbEntity
  8
0
100
AcDbLine
 10
28.01623499999999
 20
107.3056899999999
 30
0.0
 11
29.00643499999999
 21
107.3056899999999
 31
0.0
  0
LINE
  5
97
330
1E
100
AcDbEntity
  8
0
100
AcDbLine
 10
29.00643499999999
 20
107.3056899999999
 30
0.0
 11
30.18123499999999
 21
107.3056899999999
 31
0.0
  0
LINE
  5
98
330
1E
100
AcDbEntity
  8
0
100
AcDbLine
 10
30.18123499999999
 20
107.3056899999999
 30
0.0
 11
31.392335
 21
107.3056899999999
 31
0.0
  0
LINE
  5
99
330
1E
100
AcDbEntity
  8
0
100
AcDbLine
 10
31.392335
 20
107.3056899999999
 30
0.0
 11
32.39733499999999
 21
107.3056899999999
 31
0.0
  0
LINE
  5
9A
330
1E
100
AcDbEntity
  8
0
100
AcDbLine
 10
32.39733499999999
 20
107.3056899999999
 30
0.0
 11
33.608435
 21
107.3056899999999
 31
0.0
  0
LINE
  5
9B
330
1E
100
AcDbEntity
  8
0
100
AcDbLine
 10
33.608435
 20
107.3056899999999
 30
0.0
 11
36.212035
 21
107.3056899999999
 31
0.0
  0
LINE
  5
9F
330
1E
100
AcDbEntity
  8
0
100
AcDbLine
 10
33.5428344489251
 20
108.47693833972
 30
0.0
 11
36.18753499999999
 21
108.3056899999999
 31
0.0
  0
LINE
  5
A0
330
1E
100
AcDbEntity
  8
0
100
AcDbLine
 10
36.18103499999999
 20
108.3056899999999
 30
0.0
 11
38.82213499999999
 21
107.8056899999999
 31
0.0
  0
LINE
  5
A1
330
1E
100
AcDbEntity
  8
0
100
AcDbLine
 10
36.212035
 20
107.3056899999999
 30
0.0
 11
38.407035
 21
107.3056899999999
 31
0.0
  0
LINE
  5
A2
330
1E
100
AcDbEntity
  8
0
100
AcDbLine
 10
26.127735
 20
107.6056899999999
 30
0.0
 11
28.01623499999999
 21
107.3056899999999
 31
0.0
  0
LINE
  5
A3
330
1E
100
AcDbEntity
  8
0
100
AcDbLine
 10
9.279935
 20
109.20569
 30
0.0
 11
9.853435000000001
 21
111.7056899999999
 31
0.0
  0
LINE
  5
A4
330
1E
100
AcDbEntity
  8
0
100
AcDbLine
 10
20.86613499999999
 20
109.20569
 30
0.0
 11
21.095535
 21
106.5056899999999
 31
0.0
  0
LINE
  5
A5
330
1E
100
AcDbEntity
  8
0
100
AcDbLine
 10
23.221435
 20
110.4956899999999
 30
0.0
 11
24.52663499999999
 21
108.6516899999999
 31
0.0
  0
LINE
  5
A6
330
1E
100
AcDbEntity
  8
0
100
AcDbLine
 10
24.52663499999999
 20
108.6516899999999
 30
0.0
 11
26.127735
 21
107.6056899999999
 31
0.0
  0
LINE
  5
A7
330
1E
100
AcDbEntity
  8
0
100
AcDbLine
 10
9.853435000000001
 20
111.7056899999999
 30
0.0
 11
10.828535
 21
113.9056899999999
 31
0.0
  0
LINE
  5
A8
330
1E
100
AcDbEntity
  8
0
100
AcDbLine
 10
28.95013499999999
 20
112.5056899999999
 30
0.0
 11
30.4659412714787
 21
110.550752171529
 31
0.0
  0
LINE
  5
A9
330
1E
100
AcDbEntity
  8
0
100
AcDbLine
 10
22.162635
 20
112.5056899999999
 30
0.0
 11
23.221435
 21
110.4956899999999
 31
0.0
  0
LINE
  5
AA
330
1E
100
AcDbEntity
  8
0
100
AcDbLine
 10
20.292535
 20
111.7056899999999
 30
0.0
 11
20.86613499999999
 21
109.20569
 31
0.0
  0
LINE
  5
AB
330
1E
100
AcDbEntity
  8
0
100
AcDbLine
 10
30.4659412714787
 20
110.550752171529
 30
0.0
 11
32.09973499999999
 21
109.1126899999999
 31
0.0
  0
LINE
  5
AC
330
1E
100
AcDbEntity
  8
0
100
AcDbLine
 10
34.50413499999999
 20
111.1056899999999
 30
0.0
 11
35.077635
 21
109.7056899999999
 31
0.0
  0
LINE
  5
AD
330
1E
100
AcDbEntity
  8
0
100
AcDbLine
 10
35.077635
 20
109.7056899999999
 30
0.0
 11
35.4406669858079
 21
108.349406117779
 31
0.0
  0
LINE
  5
AE
330
1E
100
AcDbEntity
  8
0
100
AcDbLine
 10
33.70103499999999
 20
112.1056899999999
 30
0.0
 11
34.50413499999999
 21
111.1056899999999
 31
0.0
  0
LINE
  5
AF
330
1E
100
AcDbEntity
  8
0
100
AcDbLine
 10
33.209435
 20
112.5056899999999
 30
0.0
 11
40.87633499999999
 21
112.5056899999999
 31
0.0
  0
LINE
  5
B0
330
1E
100
AcDbEntity
  8
0
100
AcDbLine
 10
32.09973499999999
 20
109.1126899999999
 30
0.0
 11
33.5428344489251
 21
108.47693833972
 31
0.0
  0
LINE
  5
B3
330
1E
100
AcDbEntity
  8
0
100
AcDbLine
 10
9.050435
 20
106.5056899999999
 30
0.0
 11
9.279935
 21
103.8056899999999
 31
0.0
  0
LINE
  5
B4
330
1E
100
AcDbEntity
  8
0
100
AcDbLine
 10
9.050435
 20
106.5056899999999
 30
0.0
 11
9.279935
 21
109.20569
 31
0.0
  0
LINE
  5
B5
330
1E
100
AcDbEntity
  8
0
100
AcDbLine
 10
-0.0745550000000035
 20
105.7056899999999
 30
0.0
 11
0.471204999999998
 21
105.7056899999999
 31
0.0
  0
LINE
  5
B6
330
1E
100
AcDbEntity
  8
0
100
AcDbLine
 10
-0.120835000000003
 20
105.7056899999999
 30
0.0
 11
-0.0973450000000032
 21
106.5056899999999
 31
0.0
  0
LINE
  5
B7
330
1E
100
AcDbEntity
  8
0
100
AcDbLine
 10
-0.120835000000003
 20
105.7056899999999
 30
0.0
 11
0.334534999999996
 21
105.2056899999999
 31
0.0
  0
LINE
  5
B8
330
1E
100
AcDbEntity
  8
0
100
AcDbLine
 10
11.426335
 20
115.0056899999999
 30
0.0
 11
12.743135
 21
116.9276899999999
 31
0.0
  0
LINE
  5
B9
330
1E
100
AcDbEntity
  8
0
100
AcDbLine
 10
11.00689744474039
 20
114.145975407765
 30
0.0
 11
11.426335
 21
115.0056899999999
 31
0.0
  0
LINE
  5
BA
330
1E
100
AcDbEntity
  8
0
100
AcDbLine
 10
10.828535
 20
113.9056899999999
 30
0.0
 11
12.090435
 21
115.60569
 31
0.0
  0
LINE
  5
BB
330
1E
100
AcDbEntity
  8
0
100
AcDbLine
 10
12.090435
 20
115.60569
 30
0.0
 11
13.524335
 21
116.60569
 31
0.0
  0
LINE
  5
BC
330
1E
100
AcDbEntity
  8
0
100
AcDbLine
 10
13.524335
 20
116.60569
 30
0.0
 11
15.073035
 21
117.0056899999999
 31
0.0
  0
LINE
  5
BE
330
1E
100
AcDbEntity
  8
0
100
AcDbLine
 10
12.743135
 20
116.9276899999999
 30
0.0
 11
13.646035
 21
119.2096899999999
 31
0.0
  0
LINE
  5
BF
330
1E
100
AcDbEntity
  8
0
100
AcDbLine
 10
13.646035
 20
119.2096899999999
 30
0.0
 11
14.429235
 21
121.9636899999999
 31
0.0
  0
LINE
  5
C0
330
1E
100
AcDbEntity
  8
0
100
AcDbLine
 10
15.073035
 20
117.0056899999999
 30
0.0
 11
16.621635
 21
116.60569
 31
0.0
  0
LINE
  5
C1
330
1E
100
AcDbEntity
  8
0
100
AcDbLine
 10
14.429235
 20
121.9636899999999
 30
0.0
 11
14.597735
 21
125.5076899999999
 31
0.0
  0
LINE
  5
C2
330
1E
100
AcDbEntity
  8
0
100
AcDbLine
 10
14.279935
 20
131.3806899999999
 30
0.0
 11
14.594535
 21
132.8806899999999
 31
0.0
  0
LINE
  5
C3
330
1E
100
AcDbEntity
  8
0
100
AcDbLine
 10
14.279935
 20
131.3806899999999
 30
0.0
 11
14.378235
 21
129.4826899999999
 31
0.0
  0
LINE
  5
C4
330
1E
100
AcDbEntity
  8
0
100
AcDbLine
 10
14.594535
 20
132.8806899999999
 30
0.0
 11
15.176935
 21
133.9766899999999
 31
0.0
  0
LINE
  5
C5
330
1E
100
AcDbEntity
  8
0
100
AcDbLine
 10
15.176935
 20
133.9766899999999
 30
0.0
 11
15.806835
 21
134.6306899999999
 31
0.0
  0
LINE
  5
C6
330
1E
100
AcDbEntity
  8
0
100
AcDbLine
 10
15.197635
 20
131.3806899999999
 30
0.0
 11
15.512235
 21
132.8806899999999
 31
0.0
  0
LINE
  5
C7
330
1E
100
AcDbEntity
  8
0
100
AcDbLine
 10
15.197635
 20
131.3806899999999
 30
0.0
 11
15.295935
 21
129.4826899999999
 31
0.0
  0
LINE
  5
C8
330
1E
100
AcDbEntity
  8
0
100
AcDbLine
 10
14.378235
 20
129.4826899999999
 30
0.0
 11
14.597735
 21
125.5076899999999
 31
0.0
  0
LINE
  5
C9
330
1E
100
AcDbEntity
  8
0
100
AcDbLine
 10
16.621635
 20
116.60569
 30
0.0
 11
18.055635
 21
115.60569
 31
0.0
  0
LINE
  5
CB
330
1E
100
AcDbEntity
  8
0
100
AcDbLine
 10
19.626035
 20
116.9276899999999
 30
0.0
 11
21.177135
 21
115.0056899999999
 31
0.0
  0
LINE
  5
CC
330
1E
100
AcDbEntity
  8
0
100
AcDbLine
 10
18.223435
 20
119.2096899999999
 30
0.0
 11
19.626035
 21
116.9276899999999
 31
0.0
  0
LINE
  5
CD
330
1E
100
AcDbEntity
  8
0
100
AcDbLine
 10
18.055635
 20
115.60569
 30
0.0
 11
19.31743499999999
 21
113.9056899999999
 31
0.0
  0
LINE
  5
CE
330
1E
100
AcDbEntity
  8
0
100
AcDbLine
 10
21.177135
 20
115.0056899999999
 30
0.0
 11
22.162635
 21
112.5056899999999
 31
0.0
  0
LINE
  5
D0
330
1E
100
AcDbEntity
  8
0
100
AcDbLine
 10
19.31743499999999
 20
113.9056899999999
 30
0.0
 11
20.292535
 21
111.7056899999999
 31
0.0
  0
LINE
  5
D1
330
1E
100
AcDbEntity
  8
0
100
AcDbLine
 10
26.41353499999999
 20
116.9276899999999
 30
0.0
 11
27.73033499999999
 21
115.0056899999999
 31
0.0
  0
LINE
  5
D2
330
1E
100
AcDbEntity
  8
0
100
AcDbLine
 10
28.706175
 20
113.0056899999999
 30
0.0
 11
31.865635
 21
113.0056899999999
 31
0.0
  0
LINE
  5
D3
330
1E
100
AcDbEntity
  8
0
100
AcDbLine
 10
32.84073499999999
 20
112.8056899999999
 30
0.0
 11
33.70103499999999
 21
112.1056899999999
 31
0.0
  0
LINE
  5
D4
330
1E
100
AcDbEntity
  8
0
100
AcDbLine
 10
31.865635
 20
113.0056899999999
 30
0.0
 11
32.84073499999999
 21
112.8056899999999
 31
0.0
  0
LINE
  5
D5
330
1E
100
AcDbEntity
  8
0
100
AcDbLine
 10
27.73033499999999
 20
115.0056899999999
 30
0.0
 11
28.95013499999999
 21
112.5056899999999
 31
0.0
  0
LINE
  5
D6
330
1E
100
AcDbEntity
  8
0
100
AcDbLine
 10
25.510635
 20
119.2096899999999
 30
0.0
 11
26.41353499999999
 21
116.9276899999999
 31
0.0
  0
LINE
  5
D7
330
1E
100
AcDbEntity
  8
0
100
AcDbLine
 10
24.72743499999999
 20
121.9636899999999
 30
0.0
 11
25.510635
 21
119.2096899999999
 31
0.0
  0
LINE
  5
D8
330
1E
100
AcDbEntity
  8
0
100
AcDbLine
 10
24.559035
 20
125.5076899999999
 30
0.0
 11
24.778435
 21
129.4826899999999
 31
0.0
  0
LINE
  5
D9
330
1E
100
AcDbEntity
  8
0
100
AcDbLine
 10
24.559035
 20
125.5076899999999
 30
0.0
 11
24.72743499999999
 21
121.9636899999999
 31
0.0
  0
LINE
  5
DA
330
1E
100
AcDbEntity
  8
0
100
AcDbLine
 10
16.891435
 20
121.9636899999999
 30
0.0
 11
18.223435
 21
119.2096899999999
 31
0.0
  0
LINE
  5
DE
330
1E
100
AcDbEntity
  8
0
100
AcDbLine
 10
15.512235
 20
132.8806899999999
 30
0.0
 11
16.094635
 21
133.9766899999999
 31
0.0
  0
LINE
  5
DF
330
1E
100
AcDbEntity
  8
0
100
AcDbLine
 10
15.806835
 20
134.6306899999999
 30
0.0
 11
16.72023499999999
 21
135.1496899999999
 31
0.0
  0
LINE
  5
E0
330
1E
100
AcDbEntity
  8
0
100
AcDbLine
 10
16.72023499999999
 20
135.1496899999999
 30
0.0
 11
19.119535
 21
135.5056899999999
 31
0.0
  0
LINE
  5
E1
330
1E
100
AcDbEntity
  8
0
100
AcDbLine
 10
16.094635
 20
133.9766899999999
 30
0.0
 11
16.724535
 21
134.6306899999999
 31
0.0
  0
LINE
  5
E2
330
1E
100
AcDbEntity
  8
0
100
AcDbLine
 10
16.724535
 20
134.6306899999999
 30
0.0
 11
17.637935
 21
135.1496899999999
 31
0.0
  0
LINE
  5
E3
330
1E
100
AcDbEntity
  8
0
100
AcDbLine
 10
19.119535
 20
135.5056899999999
 30
0.0
 11
19.57833499999999
 21
135.5056899999999
 31
0.0
  0
LINE
  5
E4
330
1E
100
AcDbEntity
  8
0
100
AcDbLine
 10
17.637935
 20
135.1496899999999
 30
0.0
 11
20.03723499999999
 21
135.5056899999999
 31
0.0
  0
LINE
  5
E7
330
1E
100
AcDbEntity
  8
0
100
AcDbLine
 10
24.778435
 20
129.4826899999999
 30
0.0
 11
24.876735
 21
131.3806899999999
 31
0.0
  0
LINE
  5
E9
330
1E
100
AcDbEntity
  8
0
100
AcDbLine
 10
24.562235
 20
132.8806899999999
 30
0.0
 11
24.876735
 21
131.3806899999999
 31
0.0
  0
LINE
  5
EA
330
1E
100
AcDbEntity
  8
0
100
AcDbLine
 10
23.979835
 20
133.9766899999999
 30
0.0
 11
24.562235
 21
132.8806899999999
 31
0.0
  0
LINE
  5
EB
330
1E
100
AcDbEntity
  8
0
100
AcDbLine
 10
23.349835
 20
134.6306899999999
 30
0.0
 11
23.979835
 21
133.9766899999999
 31
0.0
  0
LINE
  5
EC
330
1E
100
AcDbEntity
  8
0
100
AcDbLine
 10
22.436535
 20
135.1496899999999
 30
0.0
 11
23.349835
 21
134.6306899999999
 31
0.0
  0
LINE
  5
ED
330
1E
100
AcDbEntity
  8
0
100
AcDbLine
 10
20.03723499999999
 20
135.5056899999999
 30
0.0
 11
22.436535
 21
135.1496899999999
 31
0.0
  0
LINE
  5
EE
330
1E
100
AcDbEntity
  8
0
100
AcDbLine
 10
19.57833499999999
 20
135.5056899999999
 30
0.0
 11
20.03723499999999
 21
135.5056899999999
 31
0.0
  0
LINE
  5
EF
330
1E
100
AcDbEntity
  8
0
100
AcDbLine
 10
15.859635
 20
125.5076899999999
 30
0.0
 11
16.891435
 21
121.9636899999999
 31
0.0
  0
LINE
  5
F0
330
1E
100
AcDbEntity
  8
0
100
AcDbLine
 10
15.295935
 20
129.4826899999999
 30
0.0
 11
15.859635
 21
125.5076899999999
 31
0.0
  0
LINE
  5
F1
330
1E
100
AcDbEntity
  8
0
100
AcDbLine
 10
35.27675999999999
 20
112.5056899999999
 30
0.0
 11
36.230335
 21
114.60569
 31
0.0
  0
LINE
  5
F2
330
1E
100
AcDbEntity
  8
0
100
AcDbLine
 10
36.230335
 20
114.60569
 30
0.0
 11
37.606935
 21
116.5056899999999
 31
0.0
  0
LINE
  5
F3
330
1E
100
AcDbEntity
  8
0
100
AcDbLine
 10
36.230335
 20
114.60569
 30
0.0
 11
36.410435
 21
115.0056899999999
 31
0.0
  0
LINE
  5
F4
330
1E
100
AcDbEntity
  8
0
100
AcDbLine
 10
35.27675999999999
 20
100.50569
 30
0.0
 11
36.230335
 21
98.40569000000002
 31
0.0
  0
LINE
  5
F5
330
1E
100
AcDbEntity
  8
0
100
AcDbLine
 10
58.48803499999999
 20
90.00569
 30
0.0
 11
60.897135
 21
90.60568999999999
 31
0.0
  0
LINE
  5
F6
330
1E
100
AcDbEntity
  8
0
100
AcDbLine
 10
75.89983499999999
 20
88.90569000000001
 30
0.0
 11
81.099835
 21
84.80569
 31
0.0
  0
LINE
  5
F7
330
1E
100
AcDbEntity
  8
0
100
AcDbLine
 10
90.853835
 20
-0.048849999999984
 30
0.0
 11
93.499835
 21
-0.146689999999984
 31
0.0
  0
LINE
  5
F8
330
1E
100
AcDbEntity
  8
0
100
AcDbLine
 10
88.417835
 20
0.212040000000016
 30
0.0
 11
90.853835
 21
-0.048849999999984
 31
0.0
  0
LINE
  5
F9
330
1E
100
AcDbEntity
  8
0
100
AcDbLine
 10
88.417835
 20
0.212040000000016
 30
0.0
 11
90.853835
 21
-0.048849999999984
 31
0.0
  0
LINE
  5
FA
330
1E
100
AcDbEntity
  8
0
100
AcDbLine
 10
86.275835
 20
0.635980000000016
 30
0.0
 11
88.417835
 21
0.212040000000016
 31
0.0
  0
LINE
  5
FB
330
1E
100
AcDbEntity
  8
0
100
AcDbLine
 10
84.63783499999999
 20
1.190370000000019
 30
0.0
 11
86.275835
 21
0.635980000000016
 31
0.0
  0
LINE
  5
FC
330
1E
100
AcDbEntity
  8
0
100
AcDbLine
 10
83.629835
 20
1.820855000000019
 30
0.0
 11
84.63783499999999
 21
1.190370000000019
 31
0.0
  0
LINE
  5
FD
330
1E
100
AcDbEntity
  8
0
100
AcDbLine
 10
90.853835
 20
20.23559
 30
0.0
 11
93.499835
 21
20.13778999999999
 31
0.0
  0
LINE
  5
FE
330
1E
100
AcDbEntity
  8
0
100
AcDbLine
 10
83.377835
 20
2.218645000000019
 30
0.0
 11
83.629835
 21
1.820855000000019
 31
0.0
  0
LINE
  5
FF
330
1E
100
AcDbEntity
  8
0
100
AcDbLine
 10
82.99983500000001
 20
2.91435100000002
 30
0.0
 11
83.377835
 21
2.218645000000019
 31
0.0
  0
LINE
  5
100
330
1E
100
AcDbEntity
  8
0
100
AcDbLine
 10
82.99983500000001
 20
2.91435100000002
 30
0.0
 11
82.99983500000001
 21
22.38148999999999
 31
0.0
  0
LINE
  5
101
330
1E
100
AcDbEntity
  8
0
100
AcDbLine
 10
93.499835
 20
-0.146689999999984
 30
0.0
 11
96.145835
 21
-0.048849999999984
 31
0.0
  0
LINE
  5
102
330
1E
100
AcDbEntity
  8
0
100
AcDbLine
 10
96.145835
 20
-0.048849999999984
 30
0.0
 11
98.581835
 21
0.212040000000016
 31
0.0
  0
LINE
  5
103
330
1E
100
AcDbEntity
  8
0
100
AcDbLine
 10
96.145835
 20
-0.048849999999984
 30
0.0
 11
98.581835
 21
0.212040000000016
 31
0.0
  0
LINE
  5
104
330
1E
100
AcDbEntity
  8
0
100
AcDbLine
 10
98.581835
 20
0.212040000000016
 30
0.0
 11
100.7238349999999
 21
0.635980000000016
 31
0.0
  0
LINE
  5
105
330
1E
100
AcDbEntity
  8
0
100
AcDbLine
 10
93.499835
 20
20.13778999999999
 30
0.0
 11
96.145835
 21
20.23559
 31
0.0
  0
LINE
  5
106
330
1E
100
AcDbEntity
  8
0
100
AcDbLine
 10
90.81183499999999
 20
20.35609
 30
0.0
 11
93.499835
 21
20.25828999999999
 31
0.0
  0
LINE
  5
107
330
1E
100
AcDbEntity
  8
0
100
AcDbLine
 10
93.499835
 20
20.25828999999999
 30
0.0
 11
96.18783499999999
 21
20.35609
 31
0.0
  0
LINE
  5
108
330
1E
100
AcDbEntity
  8
0
100
AcDbLine
 10
96.18783499999999
 20
20.35609
 30
0.0
 11
98.70783500000001
 21
20.61698999999999
 31
0.0
  0
LINE
  5
109
330
1E
100
AcDbEntity
  8
0
100
AcDbLine
 10
88.29183499999999
 20
20.61698999999999
 30
0.0
 11
90.81183499999999
 21
20.35609
 31
0.0
  0
LINE
  5
10A
330
1E
100
AcDbEntity
  8
0
100
AcDbLine
 10
88.417835
 20
20.49649
 30
0.0
 11
90.853835
 21
20.23559
 31
0.0
  0
LINE
  5
10B
330
1E
100
AcDbEntity
  8
0
100
AcDbLine
 10
86.275835
 20
20.92039
 30
0.0
 11
88.417835
 21
20.49649
 31
0.0
  0
LINE
  5
10C
330
1E
100
AcDbEntity
  8
0
100
AcDbLine
 10
96.145835
 20
20.23559
 30
0.0
 11
98.581835
 21
20.49649
 31
0.0
  0
LINE
  5
10D
330
1E
100
AcDbEntity
  8
0
100
AcDbLine
 10
100.7238349999999
 20
0.635980000000016
 30
0.0
 11
102.361835
 21
1.190370000000019
 31
0.0
  0
LINE
  5
10E
330
1E
100
AcDbEntity
  8
0
100
AcDbLine
 10
98.70783500000001
 20
20.61698999999999
 30
0.0
 11
100.9338349999999
 21
21.05179
 31
0.0
  0
LINE
  5
10F
330
1E
100
AcDbEntity
  8
0
100
AcDbLine
 10
102.361835
 20
1.190370000000019
 30
0.0
 11
103.3698349999999
 21
1.820855000000019
 31
0.0
  0
LINE
  5
110
330
1E
100
AcDbEntity
  8
0
100
AcDbLine
 10
98.581835
 20
20.49649
 30
0.0
 11
100.7238349999999
 21
20.92039
 31
0.0
  0
LINE
  5
111
330
1E
100
AcDbEntity
  8
0
100
AcDbLine
 10
86.06583499999999
 20
21.05179
 30
0.0
 11
88.29183499999999
 21
20.61698999999999
 31
0.0
  0
LINE
  5
112
330
1E
100
AcDbEntity
  8
0
100
AcDbLine
 10
100.9338349999999
 20
21.05179
 30
0.0
 11
102.6138349999999
 21
21.62799
 31
0.0
  0
LINE
  5
113
330
1E
100
AcDbEntity
  8
0
100
AcDbLine
 10
84.385835
 20
21.62799
 30
0.0
 11
86.06583499999999
 21
21.05179
 31
0.0
  0
LINE
  5
114
330
1E
100
AcDbEntity
  8
0
100
AcDbLine
 10
102.6138349999999
 20
21.62799
 30
0.0
 11
103.6218349999999
 21
22.28019
 31
0.0
  0
LINE
  5
115
330
1E
100
AcDbEntity
  8
0
100
AcDbLine
 10
84.63783499999999
 20
21.47479
 30
0.0
 11
86.275835
 21
20.92039
 31
0.0
  0
LINE
  5
116
330
1E
100
AcDbEntity
  8
0
100
AcDbLine
 10
83.629835
 20
22.10529
 30
0.0
 11
84.18028661290341
 21
21.7609847004607
 31
0.0
  0
LINE
  5
117
330
1E
100
AcDbEntity
  8
0
100
AcDbLine
 10
100.7238349999999
 20
20.92039
 30
0.0
 11
102.361835
 21
21.47479
 31
0.0
  0
LINE
  5
118
330
1E
100
AcDbEntity
  8
0
100
AcDbLine
 10
103.3698349999999
 20
1.820855000000019
 30
0.0
 11
103.6218349999999
 21
2.218645000000019
 31
0.0
  0
LINE
  5
119
330
1E
100
AcDbEntity
  8
0
100
AcDbLine
 10
103.999835
 20
2.91435100000002
 30
0.0
 11
103.999835
 21
22.38148999999999
 31
0.0
  0
LINE
  5
11A
330
1E
100
AcDbEntity
  8
0
100
AcDbLine
 10
103.6218349999999
 20
2.218645000000019
 30
0.0
 11
103.999835
 21
2.91435100000002
 31
0.0
  0
LINE
  5
11B
330
1E
100
AcDbEntity
  8
0
100
AcDbLine
 10
102.8193833870969
 20
21.7609847004608
 30
0.0
 11
103.3698349999999
 21
22.10529
 31
0.0
  0
LINE
  5
11C
330
1E
100
AcDbEntity
  8
0
100
AcDbLine
 10
83.377835
 20
22.28019
 30
0.0
 11
84.385835
 21
21.62799
 31
0.0
  0
LINE
  5
11D
330
1E
100
AcDbEntity
  8
0
100
AcDbLine
 10
83.377835
 20
22.28019
 30
0.0
 11
83.629835
 21
22.10529
 31
0.0
  0
LINE
  5
11E
330
1E
100
AcDbEntity
  8
0
100
AcDbLine
 10
90.81183499999999
 20
24.81429
 30
0.0
 11
93.499835
 21
24.71639
 31
0.0
  0
LINE
  5
11F
330
1E
100
AcDbEntity
  8
0
100
AcDbLine
 10
82.99983500000001
 20
22.97588999999999
 30
0.0
 11
83.377835
 21
22.28019
 31
0.0
  0
LINE
  5
120
330
1E
100
AcDbEntity
  8
0
100
AcDbLine
 10
82.99983500000001
 20
22.97588999999999
 30
0.0
 11
82.99983500000001
 21
27.43399
 31
0.0
  0
LINE
  5
121
330
1E
100
AcDbEntity
  8
0
100
AcDbLine
 10
93.499835
 20
24.71639
 30
0.0
 11
96.18783499999999
 21
24.81429
 31
0.0
  0
LINE
  5
123
330
1E
100
AcDbEntity
  8
0
100
AcDbLine
 10
88.29183499999999
 20
25.07509
 30
0.0
 11
90.81183499999999
 21
24.81429
 31
0.0
  0
LINE
  5
125
330
1E
100
AcDbEntity
  8
0
100
AcDbLine
 10
96.18783499999999
 20
24.81429
 30
0.0
 11
98.70783500000001
 21
25.07509
 31
0.0
  0
LINE
  5
128
330
1E
100
AcDbEntity
  8
0
100
AcDbLine
 10
86.06583499999999
 20
25.50999
 30
0.0
 11
88.29183499999999
 21
25.07509
 31
0.0
  0
LINE
  5
129
330
1E
100
AcDbEntity
  8
0
100
AcDbLine
 10
84.385835
 20
26.08608999999999
 30
0.0
 11
86.06583499999999
 21
25.50999
 31
0.0
  0
LINE
  5
12A
330
1E
100
AcDbEntity
  8
0
100
AcDbLine
 10
98.70783500000001
 20
25.07509
 30
0.0
 11
100.9338349999999
 21
25.50999
 31
0.0
  0
LINE
  5
12B
330
1E
100
AcDbEntity
  8
0
100
AcDbLine
 10
100.9338349999999
 20
25.50999
 30
0.0
 11
102.6138349999999
 21
26.08608999999999
 31
0.0
  0
LINE
  5
12C
330
1E
100
AcDbEntity
  8
0
100
AcDbLine
 10
92.347835
 20
26.49699
 30
0.0
 11
93.499835
 21
26.45509
 31
0.0
  0
LINE
  5
12D
330
1E
100
AcDbEntity
  8
0
100
AcDbLine
 10
93.499835
 20
26.45509
 30
0.0
 11
94.651835
 21
26.49699
 31
0.0
  0
LINE
  5
12E
330
1E
100
AcDbEntity
  8
0
100
AcDbLine
 10
91.267835
 20
26.60879
 30
0.0
 11
92.347835
 21
26.49699
 31
0.0
  0
LINE
  5
12F
330
1E
100
AcDbEntity
  8
0
100
AcDbLine
 10
94.651835
 20
26.49699
 30
0.0
 11
95.731835
 21
26.60879
 31
0.0
  0
LINE
  5
130
330
1E
100
AcDbEntity
  8
0
100
AcDbLine
 10
95.731835
 20
26.60879
 30
0.0
 11
96.685835
 21
26.79519
 31
0.0
  0
LINE
  5
132
330
1E
100
AcDbEntity
  8
0
100
AcDbLine
 10
83.629835
 20
28.30459
 30
0.0
 11
84.63783499999999
 21
28.93509
 31
0.0
  0
LINE
  5
133
330
1E
100
AcDbEntity
  8
0
100
AcDbLine
 10
83.377835
 20
28.12969
 30
0.0
 11
83.629835
 21
28.30459
 31
0.0
  0
LINE
  5
136
330
1E
100
AcDbEntity
  8
0
100
AcDbLine
 10
90.313835
 20
26.79519
 30
0.0
 11
91.267835
 21
26.60879
 31
0.0
  0
LINE
  5
137
330
1E
100
AcDbEntity
  8
0
100
AcDbLine
 10
89.59383499999999
 20
27.04209
 30
0.0
 11
90.313835
 21
26.79519
 31
0.0
  0
LINE
  5
138
330
1E
100
AcDbEntity
  8
0
100
AcDbLine
 10
96.685835
 20
26.79519
 30
0.0
 11
97.40583499999999
 21
27.04209
 31
0.0
  0
LINE
  5
139
330
1E
100
AcDbEntity
  8
0
100
AcDbLine
 10
88.417835
 20
28.49139
 30
0.0
 11
90.853835
 21
28.23049
 31
0.0
  0
LINE
  5
13A
330
1E
100
AcDbEntity
  8
0
100
AcDbLine
 10
88.29183499999999
 20
28.61199
 30
0.0
 11
90.81183499999999
 21
28.35109
 31
0.0
  0
LINE
  5
13B
330
1E
100
AcDbEntity
  8
0
100
AcDbLine
 10
88.99983500000001
 20
28.4290567487685
 30
0.0
 11
88.99983500000001
 21
27.61979
 31
0.0
  0
LINE
  5
13C
330
1E
100
AcDbEntity
  8
0
100
AcDbLine
 10
90.853835
 20
28.23049
 30
0.0
 11
93.499835
 21
28.13269
 31
0.0
  0
LINE
  5
13D
330
1E
100
AcDbEntity
  8
0
100
AcDbLine
 10
93.499835
 20
28.13269
 30
0.0
 11
96.145835
 21
28.23049
 31
0.0
  0
LINE
  5
13E
330
1E
100
AcDbEntity
  8
0
100
AcDbLine
 10
96.145835
 20
28.23049
 30
0.0
 11
98.581835
 21
28.49139
 31
0.0
  0
LINE
  5
13F
330
1E
100
AcDbEntity
  8
0
100
AcDbLine
 10
90.81183499999999
 20
28.35109
 30
0.0
 11
93.499835
 21
28.25319
 31
0.0
  0
LINE
  5
140
330
1E
100
AcDbEntity
  8
0
100
AcDbLine
 10
93.499835
 20
28.25319
 30
0.0
 11
96.18783499999999
 21
28.35109
 31
0.0
  0
LINE
  5
141
330
1E
100
AcDbEntity
  8
0
100
AcDbLine
 10
96.18783499999999
 20
28.35109
 30
0.0
 11
98.70783500000001
 21
28.61199
 31
0.0
  0
LINE
  5
142
330
1E
100
AcDbEntity
  8
0
100
AcDbLine
 10
89.161835
 20
27.32159
 30
0.0
 11
89.59383499999999
 21
27.04209
 31
0.0
  0
LINE
  5
143
330
1E
100
AcDbEntity
  8
0
100
AcDbLine
 10
88.99983500000001
 20
27.61979
 30
0.0
 11
89.161835
 21
27.32159
 31
0.0
  0
LINE
  5
144
330
1E
100
AcDbEntity
  8
0
100
AcDbLine
 10
88.99983500000001
 20
27.61979
 30
0.0
 11
88.99983500000001
 21
28.4290567487685
 31
0.0
  0
LINE
  5
145
330
1E
100
AcDbEntity
  8
0
100
AcDbLine
 10
97.40583499999999
 20
27.04209
 30
0.0
 11
97.837835
 21
27.32159
 31
0.0
  0
LINE
  5
146
330
1E
100
AcDbEntity
  8
0
100
AcDbLine
 10
98.581835
 20
28.49139
 30
0.0
 11
100.7238349999999
 21
28.91539
 31
0.0
  0
LINE
  5
147
330
1E
100
AcDbEntity
  8
0
100
AcDbLine
 10
98.70783500000001
 20
28.61199
 30
0.0
 11
100.9338349999999
 21
29.04679
 31
0.0
  0
LINE
  5
148
330
1E
100
AcDbEntity
  8
0
100
AcDbLine
 10
97.99983500000001
 20
28.4290567487685
 30
0.0
 11
97.99983500000001
 21
27.61979
 31
0.0
  0
LINE
  5
149
330
1E
100
AcDbEntity
  8
0
100
AcDbLine
 10
97.99983500000001
 20
27.61979
 30
0.0
 11
97.99983500000001
 21
28.4290567487685
 31
0.0
  0
LINE
  5
14A
330
1E
100
AcDbEntity
  8
0
100
AcDbLine
 10
97.837835
 20
27.32159
 30
0.0
 11
97.99983500000001
 21
27.61979
 31
0.0
  0
LINE
  5
14B
330
1E
100
AcDbEntity
  8
0
100
AcDbLine
 10
86.275835
 20
28.91539
 30
0.0
 11
88.417835
 21
28.49139
 31
0.0
  0
LINE
  5
14C
330
1E
100
AcDbEntity
  8
0
100
AcDbLine
 10
86.06583499999999
 20
29.04679
 30
0.0
 11
88.29183499999999
 21
28.61199
 31
0.0
  0
LINE
  5
14D
330
1E
100
AcDbEntity
  8
0
100
AcDbLine
 10
100.7238349999999
 20
28.91539
 30
0.0
 11
102.361835
 21
29.46979
 31
0.0
  0
LINE
  5
14E
330
1E
100
AcDbEntity
  8
0
100
AcDbLine
 10
100.9338349999999
 20
29.04679
 30
0.0
 11
102.6138349999999
 21
29.62289
 31
0.0
  0
LINE
  5
14F
330
1E
100
AcDbEntity
  8
0
100
AcDbLine
 10
84.63783499999999
 20
28.93509
 30
0.0
 11
85.4277327272727
 21
29.20244
 31
0.0
  0
LINE
  5
150
330
1E
100
AcDbEntity
  8
0
100
AcDbLine
 10
84.1766056422019
 20
28.6465928669725
 30
0.0
 11
84.385835
 21
28.78199
 31
0.0
  0
LINE
  5
151
330
1E
100
AcDbEntity
  8
0
100
AcDbLine
 10
83.377835
 20
26.73829
 30
0.0
 11
84.385835
 21
26.08608999999999
 31
0.0
  0
LINE
  5
152
330
1E
100
AcDbEntity
  8
0
100
AcDbLine
 10
82.99983500000001
 20
27.43399
 30
0.0
 11
83.377835
 21
26.73829
 31
0.0
  0
LINE
  5
153
330
1E
100
AcDbEntity
  8
0
100
AcDbLine
 10
82.99983500000001
 20
27.43399
 30
0.0
 11
82.99983500000001
 21
22.97588999999999
 31
0.0
  0
LINE
  5
154
330
1E
100
AcDbEntity
  8
0
100
AcDbLine
 10
82.99983500000001
 20
27.43399
 30
0.0
 11
83.377835
 21
28.12969
 31
0.0
  0
LINE
  5
155
330
1E
100
AcDbEntity
  8
0
100
AcDbLine
 10
82.99983500000001
 20
30.97079
 30
0.0
 11
83.377835
 21
30.27509
 31
0.0
  0
LINE
  5
156
330
1E
100
AcDbEntity
  8
0
100
AcDbLine
 10
82.99983500000001
 20
30.97079
 30
0.0
 11
82.99983500000001
 21
33.19989
 31
0.0
  0
LINE
  5
157
330
1E
100
AcDbEntity
  8
0
100
AcDbLine
 10
82.99983500000001
 20
33.19989
 30
0.0
 11
82.99983500000001
 21
37.90009
 31
0.0
  0
LINE
  5
158
330
1E
100
AcDbEntity
  8
0
100
AcDbLine
 10
82.99983500000001
 20
33.19989
 30
0.0
 11
82.99983500000001
 21
30.97079
 31
0.0
  0
LINE
  5
159
330
1E
100
AcDbEntity
  8
0
100
AcDbLine
 10
82.99983500000001
 20
37.90009
 30
0.0
 11
82.99983500000001
 21
44.89199
 31
0.0
  0
LINE
  5
15A
330
1E
100
AcDbEntity
  8
0
100
AcDbLine
 10
82.99983500000001
 20
37.90009
 30
0.0
 11
82.99983500000001
 21
33.19989
 31
0.0
  0
LINE
  5
15B
330
1E
100
AcDbEntity
  8
0
100
AcDbLine
 10
82.99983500000001
 20
59.11939
 30
0.0
 11
82.99983500000001
 21
52.00569
 31
0.0
  0
LINE
  5
15C
330
1E
100
AcDbEntity
  8
0
100
AcDbLine
 10
82.99983500000001
 20
59.11939
 30
0.0
 11
82.99983500000001
 21
66.11129
 31
0.0
  0
LINE
  5
15D
330
1E
100
AcDbEntity
  8
0
100
AcDbLine
 10
82.99983500000001
 20
79.25569
 30
0.0
 11
82.99983500000001
 21
85.18318999999999
 31
0.0
  0
LINE
  5
15E
330
1E
100
AcDbEntity
  8
0
100
AcDbLine
 10
82.99983500000001
 20
79.25569
 30
0.0
 11
82.99983500000001
 21
72.86189
 31
0.0
  0
LINE
  5
15F
330
1E
100
AcDbEntity
  8
0
100
AcDbLine
 10
82.99983500000001
 20
85.18318999999999
 30
0.0
 11
82.99983500000001
 21
90.54299
 31
0.0
  0
LINE
  5
160
330
1E
100
AcDbEntity
  8
0
100
AcDbLine
 10
82.99983500000001
 20
85.18318999999999
 30
0.0
 11
82.99983500000001
 21
79.25569
 31
0.0
  0
LINE
  5
161
330
1E
100
AcDbEntity
  8
0
100
AcDbLine
 10
82.99983500000001
 20
72.86189
 30
0.0
 11
82.99983500000001
 21
66.11129
 31
0.0
  0
LINE
  5
162
330
1E
100
AcDbEntity
  8
0
100
AcDbLine
 10
82.99983500000001
 20
72.86189
 30
0.0
 11
82.99983500000001
 21
79.25569
 31
0.0
  0
LINE
  5
163
330
1E
100
AcDbEntity
  8
0
100
AcDbLine
 10
82.99983500000001
 20
66.11129
 30
0.0
 11
82.99983500000001
 21
59.11939
 31
0.0
  0
LINE
  5
164
330
1E
100
AcDbEntity
  8
0
100
AcDbLine
 10
82.99983500000001
 20
66.11129
 30
0.0
 11
82.99983500000001
 21
72.86189
 31
0.0
  0
LINE
  5
165
330
1E
100
AcDbEntity
  8
0
100
AcDbLine
 10
82.99983500000001
 20
52.00569
 30
0.0
 11
82.99983500000001
 21
44.89199
 31
0.0
  0
LINE
  5
166
330
1E
100
AcDbEntity
  8
0
100
AcDbLine
 10
82.99983500000001
 20
52.00569
 30
0.0
 11
82.99983500000001
 21
59.11939
 31
0.0
  0
LINE
  5
167
330
1E
100
AcDbEntity
  8
0
100
AcDbLine
 10
83.629835
 20
30.10029
 30
0.0
 11
84.175641451613
 21
29.75889023041469
 31
0.0
  0
LINE
  5
168
330
1E
100
AcDbEntity
  8
0
100
AcDbLine
 10
84.63783499999999
 20
29.46979
 30
0.0
 11
86.275835
 21
28.91539
 31
0.0
  0
LINE
  5
169
330
1E
100
AcDbEntity
  8
0
100
AcDbLine
 10
84.385835
 20
29.62289
 30
0.0
 11
86.06583499999999
 21
29.04679
 31
0.0
  0
LINE
  5
16A
330
1E
100
AcDbEntity
  8
0
100
AcDbLine
 10
83.377835
 20
30.27509
 30
0.0
 11
84.385835
 21
29.62289
 31
0.0
  0
LINE
  5
16B
330
1E
100
AcDbEntity
  8
0
100
AcDbLine
 10
83.377835
 20
30.27509
 30
0.0
 11
83.629835
 21
30.10029
 31
0.0
  0
LINE
  5
16C
330
1E
100
AcDbEntity
  8
0
100
AcDbLine
 10
82.99983500000001
 20
44.89199
 30
0.0
 11
82.99983500000001
 21
37.90009
 31
0.0
  0
LINE
  5
16D
330
1E
100
AcDbEntity
  8
0
100
AcDbLine
 10
82.99983500000001
 20
44.89199
 30
0.0
 11
82.99983500000001
 21
52.00569
 31
0.0
  0
LINE
  5
16E
330
1E
100
AcDbEntity
  8
0
100
AcDbLine
 10
101.5719372727269
 20
29.20244
 30
0.0
 11
102.361835
 21
28.93509
 31
0.0
  0
LINE
  5
16F
330
1E
100
AcDbEntity
  8
0
100
AcDbLine
 10
102.6138349999999
 20
29.62289
 30
0.0
 11
103.6218349999999
 21
30.27509
 31
0.0
  0
LINE
  5
170
330
1E
100
AcDbEntity
  8
0
100
AcDbLine
 10
102.6138349999999
 20
28.78199
 30
0.0
 11
102.8230643577979
 21
28.64659286697239
 31
0.0
  0
LINE
  5
171
330
1E
100
AcDbEntity
  8
0
100
AcDbLine
 10
102.361835
 20
28.93509
 30
0.0
 11
103.3698349999999
 21
28.30459
 31
0.0
  0
LINE
  5
173
330
1E
100
AcDbEntity
  8
0
100
AcDbLine
 10
102.8240285483869
 20
29.7588902304148
 30
0.0
 11
103.3698349999999
 21
30.10029
 31
0.0
  0
LINE
  5
174
330
1E
100
AcDbEntity
  8
0
100
AcDbLine
 10
102.6138349999999
 20
26.08608999999999
 30
0.0
 11
103.6218349999999
 21
26.73829
 31
0.0
  0
LINE
  5
175
330
1E
100
AcDbEntity
  8
0
100
AcDbLine
 10
82.99983500000001
 20
22.38148999999999
 30
0.0
 11
82.99983500000001
 21
2.914351000000009
 31
0.0
  0
LINE
  5
176
330
1E
100
AcDbEntity
  8
0
100
AcDbLine
 10
82.99983500000001
 20
22.38148999999999
 30
0.0
 11
83.1613149482535
 21
22.67869
 31
0.0
  0
LINE
  5
177
330
1E
100
AcDbEntity
  8
0
100
AcDbLine
 10
103.6218349999999
 20
22.28019
 30
0.0
 11
103.999835
 21
22.97588999999999
 31
0.0
  0
LINE
  5
178
330
1E
100
AcDbEntity
  8
0
100
AcDbLine
 10
103.999835
 20
22.38148999999999
 30
0.0
 11
103.999835
 21
2.914351000000009
 31
0.0
  0
LINE
  5
179
330
1E
100
AcDbEntity
  8
0
100
AcDbLine
 10
103.3698349999999
 20
30.10029
 30
0.0
 11
103.6218349999999
 21
30.27509
 31
0.0
  0
LINE
  5
17A
330
1E
100
AcDbEntity
  8
0
100
AcDbLine
 10
103.6218349999999
 20
30.27509
 30
0.0
 11
103.999835
 21
30.97079
 31
0.0
  0
LINE
  5
17B
330
1E
100
AcDbEntity
  8
0
100
AcDbLine
 10
103.6218349999999
 20
28.12969
 30
0.0
 11
103.999835
 21
27.43399
 31
0.0
  0
LINE
  5
17D
330
1E
100
AcDbEntity
  8
0
100
AcDbLine
 10
103.3698349999999
 20
28.30459
 30
0.0
 11
103.6218349999999
 21
28.12969
 31
0.0
  0
LINE
  5
17F
330
1E
100
AcDbEntity
  8
0
100
AcDbLine
 10
103.999835
 20
22.97588999999999
 30
0.0
 11
103.999835
 21
27.43399
 31
0.0
  0
LINE
  5
180
330
1E
100
AcDbEntity
  8
0
100
AcDbLine
 10
103.999835
 20
44.89199
 30
0.0
 11
103.999835
 21
37.90009
 31
0.0
  0
LINE
  5
181
330
1E
100
AcDbEntity
  8
0
100
AcDbLine
 10
103.999835
 20
44.89199
 30
0.0
 11
103.999835
 21
52.00569
 31
0.0
  0
LINE
  5
182
330
1E
100
AcDbEntity
  8
0
100
AcDbLine
 10
103.999835
 20
59.11939
 30
0.0
 11
103.999835
 21
66.11129
 31
0.0
  0
LINE
  5
183
330
1E
100
AcDbEntity
  8
0
100
AcDbLine
 10
103.999835
 20
59.11939
 30
0.0
 11
103.999835
 21
52.00569
 31
0.0
  0
LINE
  5
184
330
1E
100
AcDbEntity
  8
0
100
AcDbLine
 10
103.999835
 20
52.00569
 30
0.0
 11
103.999835
 21
59.11939
 31
0.0
  0
LINE
  5
185
330
1E
100
AcDbEntity
  8
0
100
AcDbLine
 10
103.999835
 20
52.00569
 30
0.0
 11
103.999835
 21
44.89199
 31
0.0
  0
LINE
  5
186
330
1E
100
AcDbEntity
  8
0
100
AcDbLine
 10
103.999835
 20
37.90009
 30
0.0
 11
103.999835
 21
33.19989
 31
0.0
  0
LINE
  5
187
330
1E
100
AcDbEntity
  8
0
100
AcDbLine
 10
103.999835
 20
37.90009
 30
0.0
 11
103.999835
 21
44.89199
 31
0.0
  0
LINE
  5
188
330
1E
100
AcDbEntity
  8
0
100
AcDbLine
 10
103.999835
 20
72.86189
 30
0.0
 11
103.999835
 21
66.11129
 31
0.0
  0
LINE
  5
189
330
1E
100
AcDbEntity
  8
0
100
AcDbLine
 10
103.999835
 20
72.86189
 30
0.0
 11
103.999835
 21
79.25569
 31
0.0
  0
LINE
  5
18A
330
1E
100
AcDbEntity
  8
0
100
AcDbLine
 10
103.999835
 20
85.18318999999999
 30
0.0
 11
103.999835
 21
79.25569
 31
0.0
  0
LINE
  5
18B
330
1E
100
AcDbEntity
  8
0
100
AcDbLine
 10
103.999835
 20
85.18318999999999
 30
0.0
 11
103.999835
 21
90.54299
 31
0.0
  0
LINE
  5
18C
330
1E
100
AcDbEntity
  8
0
100
AcDbLine
 10
103.999835
 20
79.25569
 30
0.0
 11
103.999835
 21
72.86189
 31
0.0
  0
LINE
  5
18D
330
1E
100
AcDbEntity
  8
0
100
AcDbLine
 10
103.999835
 20
79.25569
 30
0.0
 11
103.999835
 21
85.18318999999999
 31
0.0
  0
LINE
  5
18E
330
1E
100
AcDbEntity
  8
0
100
AcDbLine
 10
103.999835
 20
66.11129
 30
0.0
 11
103.999835
 21
72.86189
 31
0.0
  0
LINE
  5
18F
330
1E
100
AcDbEntity
  8
0
100
AcDbLine
 10
103.999835
 20
66.11129
 30
0.0
 11
103.999835
 21
59.11939
 31
0.0
  0
LINE
  5
190
330
1E
100
AcDbEntity
  8
0
100
AcDbLine
 10
103.999835
 20
33.19989
 30
0.0
 11
103.999835
 21
30.97079
 31
0.0
  0
LINE
  5
191
330
1E
100
AcDbEntity
  8
0
100
AcDbLine
 10
103.999835
 20
33.19989
 30
0.0
 11
103.999835
 21
37.90009
 31
0.0
  0
LINE
  5
192
330
1E
100
AcDbEntity
  8
0
100
AcDbLine
 10
103.999835
 20
30.97079
 30
0.0
 11
103.999835
 21
33.19989
 31
0.0
  0
LINE
  5
193
330
1E
100
AcDbEntity
  8
0
100
AcDbLine
 10
103.999835
 20
27.43399
 30
0.0
 11
103.999835
 21
22.97588999999999
 31
0.0
  0
LINE
  5
194
330
1E
100
AcDbEntity
  8
0
100
AcDbLine
 10
103.6218349999999
 20
26.73829
 30
0.0
 11
103.999835
 21
27.43399
 31
0.0
  0
LINE
  5
195
330
1E
100
AcDbEntity
  8
0
100
AcDbLine
 10
103.838355051746
 20
22.67869
 30
0.0
 11
103.999835
 21
22.38148999999999
 31
0.0
  0
LINE
  5
196
330
1E
100
AcDbEntity
  8
0
100
AcDbLine
 10
103.3698349999999
 20
22.10529
 30
0.0
 11
103.6218349999999
 21
22.28019
 31
0.0
  0
LINE
  5
1B5
330
1E
100
AcDbEntity
  8
0
100
AcDbLine
 10
105.899835
 20
84.80569
 30
0.0
 11
111.099835
 21
88.90569000000001
 31
0.0
  0
LINE
  5
1B6
330
1E
100
AcDbEntity
  8
0
100
AcDbLine
 10
103.999835
 20
84.04569
 30
0.0
 11
105.899835
 21
84.80569
 31
0.0
  0
LINE
  5
1BB
330
1E
100
AcDbEntity
  8
0
100
AcDbLine
 10
111.099835
 20
88.90569000000001
 30
0.0
 11
114.726758076923
 21
93.50569
 31
0.0
  0
LINE
  5
1BC
330
1E
100
AcDbEntity
  8
0
100
AcDbLine
 10
81.099835
 20
84.80569
 30
0.0
 11
82.99983500000001
 21
84.04569
 31
0.0
  0
LINE
  5
1BD
330
1E
100
AcDbEntity
  8
0
100
AcDbLine
 10
62.240535
 20
90.10569
 30
0.0
 11
63.35453499999999
 21
90.60568999999999
 31
0.0
  0
LINE
  5
1BF
330
1E
100
AcDbEntity
  8
0
100
AcDbLine
 10
59.716835
 20
89.50568999999999
 30
0.0
 11
62.240535
 21
90.10569
 31
0.0
  0
LINE
  5
1C0
330
1E
100
AcDbEntity
  8
0
100
AcDbLine
 10
55.54883499999999
 20
91.00569
 30
0.0
 11
60.463735
 21
91.00569
 31
0.0
  0
LINE
  5
1C1
330
1E
100
AcDbEntity
  8
0
100
AcDbLine
 10
55.54883499999999
 20
91.00569
 30
0.0
 11
62.054035
 21
102.34719
 31
0.0
  0
LINE
  5
1C2
330
1E
100
AcDbEntity
  8
0
100
AcDbLine
 10
42.51463499999999
 20
94.50568999999999
 30
0.0
 11
44.29273499999999
 21
94.90569
 31
0.0
  0
LINE
  5
1C3
330
1E
100
AcDbEntity
  8
0
100
AcDbLine
 10
41.285835
 20
94.50568999999999
 30
0.0
 11
42.51463499999999
 21
94.50568999999999
 31
0.0
  0
LINE
  5
1C4
330
1E
100
AcDbEntity
  8
0
100
AcDbLine
 10
41.285835
 20
94.50568999999999
 30
0.0
 11
43.063935
 21
94.90569
 31
0.0
  0
LINE
  5
1C5
330
1E
100
AcDbEntity
  8
0
100
AcDbLine
 10
37.606935
 20
96.50569
 30
0.0
 11
39.155535
 21
95.40569000000001
 31
0.0
  0
LINE
  5
1C6
330
1E
100
AcDbEntity
  8
0
100
AcDbLine
 10
37.606935
 20
116.5056899999999
 30
0.0
 11
39.155535
 21
117.60569
 31
0.0
  0
LINE
  5
1C7
330
1E
100
AcDbEntity
  8
0
100
AcDbLine
 10
36.410435
 20
115.0056899999999
 30
0.0
 11
37.844435
 21
116.9056899999999
 31
0.0
  0
LINE
  5
1C8
330
1E
100
AcDbEntity
  8
0
100
AcDbLine
 10
37.844435
 20
116.9056899999999
 30
0.0
 11
39.507835
 21
118.1056899999999
 31
0.0
  0
LINE
  5
1C9
330
1E
100
AcDbEntity
  8
0
100
AcDbLine
 10
36.410435
 20
98.00569000000001
 30
0.0
 11
37.844435
 21
96.10568999999999
 31
0.0
  0
LINE
  5
1CA
330
1E
100
AcDbEntity
  8
0
100
AcDbLine
 10
42.59703499999999
 20
95.40569000000001
 30
0.0
 11
44.14573499999999
 21
96.50569
 31
0.0
  0
LINE
  5
1CB
330
1E
100
AcDbEntity
  8
0
100
AcDbLine
 10
40.87633499999999
 20
95.00569
 30
0.0
 11
42.59703499999999
 21
95.40569000000001
 31
0.0
  0
LINE
  5
1CC
330
1E
100
AcDbEntity
  8
0
100
AcDbLine
 10
38.82213499999999
 20
105.2056899999999
 30
0.0
 11
39.277535
 21
105.7056899999999
 31
0.0
  0
LINE
  5
1CE
330
1E
100
AcDbEntity
  8
0
100
AcDbLine
 10
39.022635
 20
105.7056899999999
 30
0.0
 11
39.277535
 21
105.7056899999999
 31
0.0
  0
LINE
  5
1D0
330
1E
100
AcDbEntity
  8
0
100
AcDbLine
 10
38.82213499999999
 20
107.8056899999999
 30
0.0
 11
39.277535
 21
107.3056899999999
 31
0.0
  0
LINE
  5
1D1
330
1E
100
AcDbEntity
  8
0
100
AcDbLine
 10
39.022635
 20
107.3056899999999
 30
0.0
 11
39.277535
 21
107.3056899999999
 31
0.0
  0
LINE
  5
1D2
330
1E
100
AcDbEntity
  8
0
100
AcDbLine
 10
38.407035
 20
107.3056899999999
 30
0.0
 11
39.022635
 21
107.3056899999999
 31
0.0
  0
LINE
  5
1D3
330
1E
100
AcDbEntity
  8
0
100
AcDbLine
 10
38.407035
 20
105.7056899999999
 30
0.0
 11
39.022635
 21
105.7056899999999
 31
0.0
  0
LINE
  5
1D4
330
1E
100
AcDbEntity
  8
0
100
AcDbLine
 10
40.87633499999999
 20
100.50569
 30
0.0
 11
41.73663499999999
 21
100.70569
 31
0.0
  0
LINE
  5
1D5
330
1E
100
AcDbEntity
  8
0
100
AcDbLine
 10
40.87633499999999
 20
112.5056899999999
 30
0.0
 11
41.73663499999999
 21
112.3056899999999
 31
0.0
  0
LINE
  5
1D6
330
1E
100
AcDbEntity
  8
0
100
AcDbLine
 10
39.25403499999999
 20
106.5056899999999
 30
0.0
 11
39.277535
 21
105.7056899999999
 31
0.0
  0
LINE
  5
1D7
330
1E
100
AcDbEntity
  8
0
100
AcDbLine
 10
39.25403499999999
 20
106.5056899999999
 30
0.0
 11
39.277535
 21
107.3056899999999
 31
0.0
  0
LINE
  5
1D8
330
1E
100
AcDbEntity
  8
0
100
AcDbLine
 10
39.155535
 20
117.60569
 30
0.0
 11
40.87633499999999
 21
118.0056899999999
 31
0.0
  0
LINE
  5
1D9
330
1E
100
AcDbEntity
  8
0
100
AcDbLine
 10
39.507835
 20
118.1056899999999
 30
0.0
 11
41.285835
 21
118.5056899999999
 31
0.0
  0
LINE
  5
1DA
330
1E
100
AcDbEntity
  8
0
100
AcDbLine
 10
41.73663499999999
 20
112.3056899999999
 30
0.0
 11
42.59703499999999
 21
111.7056899999999
 31
0.0
  0
LINE
  5
1DB
330
1E
100
AcDbEntity
  8
0
100
AcDbLine
 10
41.73663499999999
 20
100.70569
 30
0.0
 11
42.59703499999999
 21
101.30569
 31
0.0
  0
LINE
  5
1DC
330
1E
100
AcDbEntity
  8
0
100
AcDbLine
 10
40.87633499999999
 20
118.0056899999999
 30
0.0
 11
42.59703499999999
 21
117.60569
 31
0.0
  0
LINE
  5
1DD
330
1E
100
AcDbEntity
  8
0
100
AcDbLine
 10
41.285835
 20
118.5056899999999
 30
0.0
 11
43.063935
 21
118.1056899999999
 31
0.0
  0
LINE
  5
1DE
330
1E
100
AcDbEntity
  8
0
100
AcDbLine
 10
41.285835
 20
118.5056899999999
 30
0.0
 11
42.51463499999999
 21
118.5056899999999
 31
0.0
  0
LINE
  5
1DF
330
1E
100
AcDbEntity
  8
0
100
AcDbLine
 10
42.59703499999999
 20
111.7056899999999
 30
0.0
 11
43.28533499999999
 21
110.7056899999999
 31
0.0
  0
LINE
  5
1E0
330
1E
100
AcDbEntity
  8
0
100
AcDbLine
 10
42.59703499999999
 20
101.30569
 30
0.0
 11
43.28533499999999
 21
102.30569
 31
0.0
  0
LINE
  5
1E1
330
1E
100
AcDbEntity
  8
0
100
AcDbLine
 10
42.92418499999999
 20
118.413557948934
 30
0.0
 11
43.33373499999999
 21
118.5056899999999
 31
0.0
  0
LINE
  5
1E2
330
1E
100
AcDbEntity
  8
0
100
AcDbLine
 10
42.59703499999999
 20
117.60569
 30
0.0
 11
44.14573499999999
 21
116.5056899999999
 31
0.0
  0
LINE
  5
1E3
330
1E
100
AcDbEntity
  8
0
100
AcDbLine
 10
42.51463499999999
 20
118.5056899999999
 30
0.0
 11
44.29273499999999
 21
118.1056899999999
 31
0.0
  0
LINE
  5
1E4
330
1E
100
AcDbEntity
  8
0
100
AcDbLine
 10
39.155535
 20
95.40569000000001
 30
0.0
 11
40.87633499999999
 21
95.00569
 31
0.0
  0
LINE
  5
1E5
330
1E
100
AcDbEntity
  8
0
100
AcDbLine
 10
37.844435
 20
96.10568999999999
 30
0.0
 11
39.507835
 21
94.90569
 31
0.0
  0
LINE
  5
1E6
330
1E
100
AcDbEntity
  8
0
100
AcDbLine
 10
39.507835
 20
94.90569
 30
0.0
 11
41.285835
 21
94.50568999999999
 31
0.0
  0
LINE
  5
1E7
330
1E
100
AcDbEntity
  8
0
100
AcDbLine
 10
48.06623310027649
 20
94.50568999999999
 30
0.0
 11
55.54883499999999
 21
91.00569
 31
0.0
  0
LINE
  5
1E8
330
1E
100
AcDbEntity
  8
0
100
AcDbLine
 10
53.163635
 20
94.50568999999999
 30
0.0
 11
54.94163499999999
 21
94.90569
 31
0.0
  0
LINE
  5
1E9
330
1E
100
AcDbEntity
  8
0
100
AcDbLine
 10
43.063935
 20
94.90569
 30
0.0
 11
44.72733499999999
 21
96.10568999999999
 31
0.0
  0
LINE
  5
1EA
330
1E
100
AcDbEntity
  8
0
100
AcDbLine
 10
43.28533499999999
 20
110.7056899999999
 30
0.0
 11
43.85893499999999
 21
109.5056899999999
 31
0.0
  0
LINE
  5
1EB
330
1E
100
AcDbEntity
  8
0
100
AcDbLine
 10
43.28533499999999
 20
102.30569
 30
0.0
 11
43.85893499999999
 21
103.50569
 31
0.0
  0
LINE
  5
1EC
330
1E
100
AcDbEntity
  8
0
100
AcDbLine
 10
43.063935
 20
118.1056899999999
 30
0.0
 11
44.72733499999999
 21
116.9056899999999
 31
0.0
  0
LINE
  5
1ED
330
1E
100
AcDbEntity
  8
0
100
AcDbLine
 10
43.85893499999999
 20
109.5056899999999
 30
0.0
 11
44.203035
 21
108.0056899999999
 31
0.0
  0
LINE
  5
1EE
330
1E
100
AcDbEntity
  8
0
100
AcDbLine
 10
44.203035
 20
108.0056899999999
 30
0.0
 11
44.317735
 21
106.5056899999999
 31
0.0
  0
LINE
  5
1EF
330
1E
100
AcDbEntity
  8
0
100
AcDbLine
 10
43.85893499999999
 20
103.50569
 30
0.0
 11
44.203035
 21
105.0056899999999
 31
0.0
  0
LINE
  5
1F0
330
1E
100
AcDbEntity
  8
0
100
AcDbLine
 10
44.203035
 20
105.0056899999999
 30
0.0
 11
44.317735
 21
106.5056899999999
 31
0.0
  0
LINE
  5
1F1
330
1E
100
AcDbEntity
  8
0
100
AcDbLine
 10
44.14573499999999
 20
116.5056899999999
 30
0.0
 11
45.52223499999999
 21
114.60569
 31
0.0
  0
LINE
  5
1F2
330
1E
100
AcDbEntity
  8
0
100
AcDbLine
 10
44.72733499999999
 20
116.9056899999999
 30
0.0
 11
46.16123499999999
 21
115.0056899999999
 31
0.0
  0
LINE
  5
1F3
330
1E
100
AcDbEntity
  8
0
100
AcDbLine
 10
44.29273499999999
 20
118.1056899999999
 30
0.0
 11
45.956035
 21
116.9056899999999
 31
0.0
  0
LINE
  5
1F4
330
1E
100
AcDbEntity
  8
0
100
AcDbLine
 10
43.33373499999999
 20
118.5056899999999
 30
0.0
 11
45.111835
 21
118.1056899999999
 31
0.0
  0
LINE
  5
1F5
330
1E
100
AcDbEntity
  8
0
100
AcDbLine
 10
43.33373499999999
 20
118.5056899999999
 30
0.0
 11
53.163635
 21
118.5056899999999
 31
0.0
  0
LINE
  5
1F6
330
1E
100
AcDbEntity
  8
0
100
AcDbLine
 10
44.14573499999999
 20
96.50569
 30
0.0
 11
45.52223499999999
 21
98.40569000000002
 31
0.0
  0
LINE
  5
1F7
330
1E
100
AcDbEntity
  8
0
100
AcDbLine
 10
45.111835
 20
118.1056899999999
 30
0.0
 11
46.77523499999999
 21
116.9056899999999
 31
0.0
  0
LINE
  5
1F8
330
1E
100
AcDbEntity
  8
0
100
AcDbLine
 10
44.72733499999999
 20
96.10568999999999
 30
0.0
 11
46.16123499999999
 21
98.00569000000001
 31
0.0
  0
LINE
  5
1F9
330
1E
100
AcDbEntity
  8
0
100
AcDbLine
 10
44.29273499999999
 20
94.90569
 30
0.0
 11
45.956035
 21
96.10568999999999
 31
0.0
  0
LINE
  5
1FA
330
1E
100
AcDbEntity
  8
0
100
AcDbLine
 10
45.956035
 20
116.9056899999999
 30
0.0
 11
47.39003499999999
 21
115.0056899999999
 31
0.0
  0
LINE
  5
1FB
330
1E
100
AcDbEntity
  8
0
100
AcDbLine
 10
45.52223499999999
 20
114.60569
 30
0.0
 11
46.612035
 21
112.20569
 31
0.0
  0
LINE
  5
1FC
330
1E
100
AcDbEntity
  8
0
100
AcDbLine
 10
46.16123499999999
 20
115.0056899999999
 30
0.0
 11
47.25103499999999
 21
112.5056899999999
 31
0.0
  0
LINE
  5
1FD
330
1E
100
AcDbEntity
  8
0
100
AcDbLine
 10
45.52223499999999
 20
98.40569000000002
 30
0.0
 11
46.612035
 21
100.8056899999999
 31
0.0
  0
LINE
  5
1FE
330
1E
100
AcDbEntity
  8
0
100
AcDbLine
 10
46.77523499999999
 20
116.9056899999999
 30
0.0
 11
48.20913499999999
 21
115.0056899999999
 31
0.0
  0
LINE
  5
1FF
330
1E
100
AcDbEntity
  8
0
100
AcDbLine
 10
46.612035
 20
112.20569
 30
0.0
 11
47.243035
 21
109.5056899999999
 31
0.0
  0
LINE
  5
200
330
1E
100
AcDbEntity
  8
0
100
AcDbLine
 10
46.612035
 20
100.8056899999999
 30
0.0
 11
47.243035
 21
103.50569
 31
0.0
  0
LINE
  5
201
330
1E
100
AcDbEntity
  8
0
100
AcDbLine
 10
46.16123499999999
 20
98.00569000000001
 30
0.0
 11
47.25103499999999
 21
100.50569
 31
0.0
  0
LINE
  5
202
330
1E
100
AcDbEntity
  8
0
100
AcDbLine
 10
45.956035
 20
96.10568999999999
 30
0.0
 11
47.39003499999999
 21
98.00569000000001
 31
0.0
  0
LINE
  5
203
330
1E
100
AcDbEntity
  8
0
100
AcDbLine
 10
48.20913499999999
 20
98.00569000000001
 30
0.0
 11
49.298935
 21
100.50569
 31
0.0
  0
LINE
  5
204
330
1E
100
AcDbEntity
  8
0
100
AcDbLine
 10
47.39003499999999
 20
98.00569000000001
 30
0.0
 11
47.570135
 21
98.40569000000002
 31
0.0
  0
LINE
  5
205
330
1E
100
AcDbEntity
  8
0
100
AcDbLine
 10
47.39003499999999
 20
98.00569000000001
 30
0.0
 11
48.47983499999999
 21
100.50569
 31
0.0
  0
LINE
  5
206
330
1E
100
AcDbEntity
  8
0
100
AcDbLine
 10
47.25103499999999
 20
100.50569
 30
0.0
 11
47.939335
 21
103.40569
 31
0.0
  0
LINE
  5
207
330
1E
100
AcDbEntity
  8
0
100
AcDbLine
 10
48.47983499999999
 20
100.50569
 30
0.0
 11
49.16813499999999
 21
103.40569
 31
0.0
  0
LINE
  5
208
330
1E
100
AcDbEntity
  8
0
100
AcDbLine
 10
47.570135
 20
98.40569000000002
 30
0.0
 11
48.659935
 21
100.8056899999999
 31
0.0
  0
LINE
  5
209
330
1E
100
AcDbEntity
  8
0
100
AcDbLine
 10
47.243035
 20
109.5056899999999
 30
0.0
 11
47.47243499999999
 21
106.5056899999999
 31
0.0
  0
LINE
  5
20A
330
1E
100
AcDbEntity
  8
0
100
AcDbLine
 10
47.25103499999999
 20
112.5056899999999
 30
0.0
 11
47.939335
 21
109.6056899999999
 31
0.0
  0
LINE
  5
20B
330
1E
100
AcDbEntity
  8
0
100
AcDbLine
 10
47.939335
 20
109.6056899999999
 30
0.0
 11
48.16883499999999
 21
106.5056899999999
 31
0.0
  0
LINE
  5
20C
330
1E
100
AcDbEntity
  8
0
100
AcDbLine
 10
48.47983499999999
 20
112.5056899999999
 30
0.0
 11
49.16813499999999
 21
109.6056899999999
 31
0.0
  0
LINE
  5
20D
330
1E
100
AcDbEntity
  8
0
100
AcDbLine
 10
47.39003499999999
 20
115.0056899999999
 30
0.0
 11
48.47983499999999
 21
112.5056899999999
 31
0.0
  0
LINE
  5
20E
330
1E
100
AcDbEntity
  8
0
100
AcDbLine
 10
47.39003499999999
 20
115.0056899999999
 30
0.0
 11
47.570135
 21
114.60569
 31
0.0
  0
LINE
  5
20F
330
1E
100
AcDbEntity
  8
0
100
AcDbLine
 10
47.570135
 20
114.60569
 30
0.0
 11
48.659935
 21
112.20569
 31
0.0
  0
LINE
  5
210
330
1E
100
AcDbEntity
  8
0
100
AcDbLine
 10
49.16813499999999
 20
109.6056899999999
 30
0.0
 11
49.397535
 21
106.5056899999999
 31
0.0
  0
LINE
  5
211
330
1E
100
AcDbEntity
  8
0
100
AcDbLine
 10
48.659935
 20
112.20569
 30
0.0
 11
49.290935
 21
109.5056899999999
 31
0.0
  0
LINE
  5
212
330
1E
100
AcDbEntity
  8
0
100
AcDbLine
 10
48.7707342593246
 20
118.5056899999999
 30
0.0
 11
50.778335
 21
122.0056899999999
 31
0.0
  0
LINE
  5
213
330
1E
100
AcDbEntity
  8
0
100
AcDbLine
 10
48.20913499999999
 20
115.0056899999999
 30
0.0
 11
49.298935
 21
112.5056899999999
 31
0.0
  0
LINE
  5
214
330
1E
100
AcDbEntity
  8
0
100
AcDbLine
 10
47.243035
 20
103.50569
 30
0.0
 11
47.47243499999999
 21
106.5056899999999
 31
0.0
  0
LINE
  5
215
330
1E
100
AcDbEntity
  8
0
100
AcDbLine
 10
47.939335
 20
103.40569
 30
0.0
 11
48.16883499999999
 21
106.5056899999999
 31
0.0
  0
LINE
  5
216
330
1E
100
AcDbEntity
  8
0
100
AcDbLine
 10
49.290935
 20
109.5056899999999
 30
0.0
 11
49.52033499999999
 21
106.5056899999999
 31
0.0
  0
LINE
  5
217
330
1E
100
AcDbEntity
  8
0
100
AcDbLine
 10
49.16813499999999
 20
103.40569
 30
0.0
 11
49.397535
 21
106.5056899999999
 31
0.0
  0
LINE
  5
218
330
1E
100
AcDbEntity
  8
0
100
AcDbLine
 10
48.659935
 20
100.8056899999999
 30
0.0
 11
49.290935
 21
103.50569
 31
0.0
  0
LINE
  5
219
330
1E
100
AcDbEntity
  8
0
100
AcDbLine
 10
49.298935
 20
112.5056899999999
 30
0.0
 11
49.987235
 21
109.6056899999999
 31
0.0
  0
LINE
  5
21A
330
1E
100
AcDbEntity
  8
0
100
AcDbLine
 10
49.987235
 20
109.6056899999999
 30
0.0
 11
50.21663499999999
 21
106.5056899999999
 31
0.0
  0
LINE
  5
21B
330
1E
100
AcDbEntity
  8
0
100
AcDbLine
 10
49.290935
 20
103.50569
 30
0.0
 11
49.52033499999999
 21
106.5056899999999
 31
0.0
  0
LINE
  5
21C
330
1E
100
AcDbEntity
  8
0
100
AcDbLine
 10
49.298935
 20
100.50569
 30
0.0
 11
49.987235
 21
103.40569
 31
0.0
  0
LINE
  5
21D
330
1E
100
AcDbEntity
  8
0
100
AcDbLine
 10
54.94163499999999
 20
118.1056899999999
 30
0.0
 11
56.605035
 21
116.9056899999999
 31
0.0
  0
LINE
  5
21E
330
1E
100
AcDbEntity
  8
0
100
AcDbLine
 10
55.50546
 20
122.0056899999999
 30
0.0
 11
56.07903499999999
 21
122.4056899999999
 31
0.0
  0
LINE
  5
21F
330
1E
100
AcDbEntity
  8
0
100
AcDbLine
 10
56.07903499999999
 20
122.4056899999999
 30
0.0
 11
58.48803499999999
 21
123.0056899999999
 31
0.0
  0
LINE
  5
220
330
1E
100
AcDbEntity
  8
0
100
AcDbLine
 10
56.07903499999999
 20
122.4056899999999
 30
0.0
 11
57.19303499999999
 21
122.90569
 31
0.0
  0
LINE
  5
221
330
1E
100
AcDbEntity
  8
0
100
AcDbLine
 10
55.69323499999999
 20
122.0056899999999
 30
0.0
 11
64.583735
 21
117.8466899999999
 31
0.0
  0
LINE
  5
222
330
1E
100
AcDbEntity
  8
0
100
AcDbLine
 10
50.778335
 20
122.0056899999999
 30
0.0
 11
55.69323499999999
 21
122.0056899999999
 31
0.0
  0
LINE
  5
223
330
1E
100
AcDbEntity
  8
0
100
AcDbLine
 10
50.778335
 20
122.0056899999999
 30
0.0
 11
59.66883499999999
 21
117.8466899999999
 31
0.0
  0
LINE
  5
224
330
1E
100
AcDbEntity
  8
0
100
AcDbLine
 10
53.163635
 20
118.5056899999999
 30
0.0
 11
54.94163499999999
 21
118.1056899999999
 31
0.0
  0
LINE
  5
225
330
1E
100
AcDbEntity
  8
0
100
AcDbLine
 10
49.987235
 20
103.40569
 30
0.0
 11
50.21663499999999
 21
106.5056899999999
 31
0.0
  0
LINE
  5
226
330
1E
100
AcDbEntity
  8
0
100
AcDbLine
 10
46.77523499999999
 20
96.10568999999999
 30
0.0
 11
48.20913499999999
 21
98.00569000000001
 31
0.0
  0
LINE
  5
227
330
1E
100
AcDbEntity
  8
0
100
AcDbLine
 10
54.94163499999999
 20
94.90569
 30
0.0
 11
56.605035
 21
96.10568999999999
 31
0.0
  0
LINE
  5
228
330
1E
100
AcDbEntity
  8
0
100
AcDbLine
 10
45.111835
 20
94.90569
 30
0.0
 11
46.77523499999999
 21
96.10568999999999
 31
0.0
  0
LINE
  5
229
330
1E
100
AcDbEntity
  8
0
100
AcDbLine
 10
43.33373499999999
 20
94.50568999999999
 30
0.0
 11
53.163635
 21
94.50568999999999
 31
0.0
  0
LINE
  5
22A
330
1E
100
AcDbEntity
  8
0
100
AcDbLine
 10
43.33373499999999
 20
94.50568999999999
 30
0.0
 11
45.111835
 21
94.90569
 31
0.0
  0
LINE
  5
22B
330
1E
100
AcDbEntity
  8
0
100
AcDbLine
 10
42.92418499999999
 20
94.5978220510657
 30
0.0
 11
43.33373499999999
 21
94.50568999999999
 31
0.0
  0
LINE
  5
22C
330
1E
100
AcDbEntity
  8
0
100
AcDbLine
 10
55.4171055019796
 20
91.06730670088159
 30
0.0
 11
56.07903499999999
 21
90.60568999999999
 31
0.0
  0
LINE
  5
22D
330
1E
100
AcDbEntity
  8
0
100
AcDbLine
 10
60.897135
 20
90.60568999999999
 30
0.0
 11
63.191435
 21
92.20569000000001
 31
0.0
  0
LINE
  5
22E
330
1E
100
AcDbEntity
  8
0
100
AcDbLine
 10
60.463735
 20
91.00569
 30
0.0
 11
66.968935
 21
102.34719
 31
0.0
  0
LINE
  5
22F
330
1E
100
AcDbEntity
  8
0
100
AcDbLine
 10
63.191435
 20
92.20569000000001
 30
0.0
 11
65.19893499999999
 21
94.80569
 31
0.0
  0
LINE
  5
230
330
1E
100
AcDbEntity
  8
0
100
AcDbLine
 10
63.35453499999999
 20
90.60568999999999
 30
0.0
 11
65.64883499999999
 21
92.20569000000001
 31
0.0
  0
LINE
  5
231
330
1E
100
AcDbEntity
  8
0
100
AcDbLine
 10
66.652585
 20
93.50569
 30
0.0
 11
74.07713499999999
 21
93.50569
 31
0.0
  0
LINE
  5
232
330
1E
100
AcDbEntity
  8
0
100
AcDbLine
 10
66.652585
 20
93.50569
 30
0.0
 11
74.07713499999999
 21
93.50569
 31
0.0
  0
LINE
  5
233
330
1E
100
AcDbEntity
  8
0
100
AcDbLine
 10
65.64883499999999
 20
92.20569000000001
 30
0.0
 11
67.65633499999999
 21
94.80569
 31
0.0
  0
LINE
  5
234
330
1E
100
AcDbEntity
  8
0
100
AcDbLine
 10
65.19893499999999
 20
94.80569
 30
0.0
 11
66.690235
 21
98.30569
 31
0.0
  0
LINE
  5
235
330
1E
100
AcDbEntity
  8
0
100
AcDbLine
 10
58.039035
 20
98.00569000000001
 30
0.0
 11
59.12883499999999
 21
100.50569
 31
0.0
  0
LINE
  5
236
330
1E
100
AcDbEntity
  8
0
100
AcDbLine
 10
56.605035
 20
96.10568999999999
 30
0.0
 11
58.039035
 21
98.00569000000001
 31
0.0
  0
LINE
  5
237
330
1E
100
AcDbEntity
  8
0
100
AcDbLine
 10
59.12883499999999
 20
100.50569
 30
0.0
 11
59.817035
 21
103.40569
 31
0.0
  0
LINE
  5
238
330
1E
100
AcDbEntity
  8
0
100
AcDbLine
 10
66.690235
 20
98.30569
 30
0.0
 11
67.607935
 21
102.30569
 31
0.0
  0
LINE
  5
239
330
1E
100
AcDbEntity
  8
0
100
AcDbLine
 10
67.607935
 20
102.30569
 30
0.0
 11
67.952135
 21
106.5056899999999
 31
0.0
  0
LINE
  5
23C
330
1E
100
AcDbEntity
  8
0
100
AcDbLine
 10
67.65633499999999
 20
94.80569
 30
0.0
 11
69.14763499999999
 21
98.30569
 31
0.0
  0
LINE
  5
23D
330
1E
100
AcDbEntity
  8
0
100
AcDbLine
 10
103.999835
 20
90.54299
 30
0.0
 11
103.999835
 21
95.24349
 31
0.0
  0
LINE
  5
23E
330
1E
100
AcDbEntity
  8
0
100
AcDbLine
 10
103.999835
 20
90.54299
 30
0.0
 11
103.999835
 21
85.18318999999999
 31
0.0
  0
LINE
  5
23F
330
1E
100
AcDbEntity
  8
0
100
AcDbLine
 10
82.99983500000001
 20
90.54299
 30
0.0
 11
82.99983500000001
 21
95.24349
 31
0.0
  0
LINE
  5
240
330
1E
100
AcDbEntity
  8
0
100
AcDbLine
 10
82.99983500000001
 20
90.54299
 30
0.0
 11
82.99983500000001
 21
85.18318999999999
 31
0.0
  0
LINE
  5
241
330
1E
100
AcDbEntity
  8
0
100
AcDbLine
 10
79.18483499999999
 20
93.50569
 30
0.0
 11
82.79613129629629
 21
93.50569
 31
0.0
  0
LINE
  5
242
330
1E
100
AcDbEntity
  8
0
100
AcDbLine
 10
74.07713499999999
 20
93.50569
 30
0.0
 11
79.18483499999999
 21
93.50569
 31
0.0
  0
LINE
  5
243
330
1E
100
AcDbEntity
  8
0
100
AcDbLine
 10
103.999835
 20
93.34854714285709
 30
0.0
 11
105.4998349999999
 21
94.50568999999999
 31
0.0
  0
LINE
  5
251
330
1E
100
AcDbEntity
  8
0
100
AcDbLine
 10
104.203538703704
 20
93.50569
 30
0.0
 11
107.814835
 21
93.50569
 31
0.0
  0
LINE
  5
252
330
1E
100
AcDbEntity
  8
0
100
AcDbLine
 10
107.814835
 20
93.50569
 30
0.0
 11
112.9228349999999
 21
93.50569
 31
0.0
  0
LINE
  5
253
330
1E
100
AcDbEntity
  8
0
100
AcDbLine
 10
103.999835
 20
92.6678521621622
 30
0.0
 11
105.106977857143
 21
93.50569
 31
0.0
  0
LINE
  5
25D
330
1E
100
AcDbEntity
  8
0
100
AcDbLine
 10
105.199835
 20
94.80569
 30
0.0
 11
107.799835
 21
98.30569
 31
0.0
  0
LINE
  5
25E
330
1E
100
AcDbEntity
  8
0
100
AcDbLine
 10
105.4998349999999
 20
94.50568999999999
 30
0.0
 11
108.199835
 21
98.00569000000001
 31
0.0
  0
LINE
  5
25F
330
1E
100
AcDbEntity
  8
0
100
AcDbLine
 10
103.999835
 20
93.91426142857142
 30
0.0
 11
105.199835
 21
94.80569
 31
0.0
  0
LINE
  5
260
330
1E
100
AcDbEntity
  8
0
100
AcDbLine
 10
103.999835
 20
95.24349
 30
0.0
 11
103.999835
 21
90.54299
 31
0.0
  0
LINE
  5
261
330
1E
100
AcDbEntity
  8
0
100
AcDbLine
 10
103.999835
 20
95.24349
 30
0.0
 11
103.999835
 21
99.20409000000001
 31
0.0
  0
LINE
  5
262
330
1E
100
AcDbEntity
  8
0
100
AcDbLine
 10
82.99983500000001
 20
95.24349
 30
0.0
 11
82.99983500000001
 21
99.20409000000001
 31
0.0
  0
LINE
  5
263
330
1E
100
AcDbEntity
  8
0
100
AcDbLine
 10
82.99983500000001
 20
95.24349
 30
0.0
 11
82.99983500000001
 21
90.54299
 31
0.0
  0
LINE
  5
284
330
1E
100
AcDbEntity
  8
0
100
AcDbLine
 10
108.199835
 20
98.00569000000001
 30
0.0
 11
109.899835
 21
102.10569
 31
0.0
  0
LINE
  5
285
330
1E
100
AcDbEntity
  8
0
100
AcDbLine
 10
81.799835
 20
94.80569
 30
0.0
 11
82.99983500000001
 21
93.91426142857142
 31
0.0
  0
LINE
  5
286
330
1E
100
AcDbEntity
  8
0
100
AcDbLine
 10
81.49983500000001
 20
94.50568999999999
 30
0.0
 11
82.99983500000001
 21
93.34854714285709
 31
0.0
  0
LINE
  5
289
330
1E
100
AcDbEntity
  8
0
100
AcDbLine
 10
107.799835
 20
98.30569
 30
0.0
 11
109.399835
 21
102.30569
 31
0.0
  0
LINE
  5
28A
330
1E
100
AcDbEntity
  8
0
100
AcDbLine
 10
103.999835
 20
99.20409000000001
 30
0.0
 11
103.999835
 21
102.3570899999999
 31
0.0
  0
LINE
  5
28B
330
1E
100
AcDbEntity
  8
0
100
AcDbLine
 10
103.999835
 20
99.20409000000001
 30
0.0
 11
103.999835
 21
95.24349
 31
0.0
  0
LINE
  5
28C
330
1E
100
AcDbEntity
  8
0
100
AcDbLine
 10
82.99983500000001
 20
99.20409000000001
 30
0.0
 11
82.99983500000001
 21
95.24349
 31
0.0
  0
LINE
  5
28D
330
1E
100
AcDbEntity
  8
0
100
AcDbLine
 10
82.99983500000001
 20
99.20409000000001
 30
0.0
 11
82.99983500000001
 21
102.3570899999999
 31
0.0
  0
LINE
  5
28E
330
1E
100
AcDbEntity
  8
0
100
AcDbLine
 10
103.999835
 20
99.85526267080741
 30
0.0
 11
104.2958349999999
 21
100.25569
 31
0.0
  0
LINE
  5
28F
330
1E
100
AcDbEntity
  8
0
100
AcDbLine
 10
103.999835
 20
100.994243961268
 30
0.0
 11
104.976835
 21
103.43769
 31
0.0
  0
LINE
  5
290
330
1E
100
AcDbEntity
  8
0
100
AcDbLine
 10
104.2958349999999
 20
100.25569
 30
0.0
 11
105.545835
 21
103.3236899999999
 31
0.0
  0
LINE
  5
291
330
1E
100
AcDbEntity
  8
0
100
AcDbLine
 10
82.704435
 20
100.25569
 30
0.0
 11
82.99983500000001
 21
99.8560329754633
 31
0.0
  0
LINE
  5
292
330
1E
100
AcDbEntity
  8
0
100
AcDbLine
 10
109.399835
 20
102.30569
 30
0.0
 11
109.999835
 21
106.5056899999999
 31
0.0
  0
LINE
  5
2AE
330
1E
100
AcDbEntity
  8
0
100
AcDbLine
 10
109.899835
 20
102.10569
 30
0.0
 11
110.499835
 21
106.5056899999999
 31
0.0
  0
LINE
  5
2AF
330
1E
100
AcDbEntity
  8
0
100
AcDbLine
 10
79.19983499999999
 20
98.30569
 30
0.0
 11
81.799835
 21
94.80569
 31
0.0
  0
LINE
  5
2B0
330
1E
100
AcDbEntity
  8
0
100
AcDbLine
 10
77.599835
 20
102.30569
 30
0.0
 11
79.19983499999999
 21
98.30569
 31
0.0
  0
LINE
  5
2B1
330
1E
100
AcDbEntity
  8
0
100
AcDbLine
 10
78.799835
 20
98.00569000000001
 30
0.0
 11
81.49983500000001
 21
94.50568999999999
 31
0.0
  0
LINE
  5
2B2
330
1E
100
AcDbEntity
  8
0
100
AcDbLine
 10
77.09983499999999
 20
102.10569
 30
0.0
 11
78.799835
 21
98.00569000000001
 31
0.0
  0
LINE
  5
2B3
330
1E
100
AcDbEntity
  8
0
100
AcDbLine
 10
72.2729119230769
 20
93.50569
 30
0.0
 11
75.89983499999999
 21
88.90569000000001
 31
0.0
  0
LINE
  5
2B4
330
1E
100
AcDbEntity
  8
0
100
AcDbLine
 10
69.14763499999999
 20
98.30569
 30
0.0
 11
70.06543499999999
 21
102.30569
 31
0.0
  0
LINE
  5
2B5
330
1E
100
AcDbEntity
  8
0
100
AcDbLine
 10
58.48803499999999
 20
123.0056899999999
 30
0.0
 11
60.897135
 21
122.4056899999999
 31
0.0
  0
LINE
  5
2B6
330
1E
100
AcDbEntity
  8
0
100
AcDbLine
 10
57.19303499999999
 20
122.90569
 30
0.0
 11
59.716835
 21
123.5056899999999
 31
0.0
  0
LINE
  5
2B7
330
1E
100
AcDbEntity
  8
0
100
AcDbLine
 10
56.605035
 20
116.9056899999999
 30
0.0
 11
58.039035
 21
115.0056899999999
 31
0.0
  0
LINE
  5
2B8
330
1E
100
AcDbEntity
  8
0
100
AcDbLine
 10
58.039035
 20
115.0056899999999
 30
0.0
 11
59.12883499999999
 21
112.5056899999999
 31
0.0
  0
LINE
  5
2B9
330
1E
100
AcDbEntity
  8
0
100
AcDbLine
 10
59.716835
 20
123.5056899999999
 30
0.0
 11
62.240535
 21
122.90569
 31
0.0
  0
LINE
  5
2BA
330
1E
100
AcDbEntity
  8
0
100
AcDbLine
 10
59.66883499999999
 20
117.8466899999999
 30
0.0
 11
62.054035
 21
102.34719
 31
0.0
  0
LINE
  5
2BB
330
1E
100
AcDbEntity
  8
0
100
AcDbLine
 10
59.66883499999999
 20
117.8466899999999
 30
0.0
 11
64.583735
 21
117.8466899999999
 31
0.0
  0
LINE
  5
2BC
330
1E
100
AcDbEntity
  8
0
100
AcDbLine
 10
59.12883499999999
 20
112.5056899999999
 30
0.0
 11
59.817035
 21
109.6056899999999
 31
0.0
  0
LINE
  5
2BD
330
1E
100
AcDbEntity
  8
0
100
AcDbLine
 10
59.817035
 20
109.6056899999999
 30
0.0
 11
60.04653499999999
 21
106.5056899999999
 31
0.0
  0
LINE
  5
2C3
330
1E
100
AcDbEntity
  8
0
100
AcDbLine
 10
63.191435
 20
120.8056899999999
 30
0.0
 11
65.19893499999999
 21
118.2056899999999
 31
0.0
  0
LINE
  5
2C4
330
1E
100
AcDbEntity
  8
0
100
AcDbLine
 10
60.897135
 20
122.4056899999999
 30
0.0
 11
63.191435
 21
120.8056899999999
 31
0.0
  0
LINE
  5
2C5
330
1E
100
AcDbEntity
  8
0
100
AcDbLine
 10
62.240535
 20
122.90569
 30
0.0
 11
63.35453499999999
 21
122.4056899999999
 31
0.0
  0
LINE
  5
2C7
330
1E
100
AcDbEntity
  8
0
100
AcDbLine
 10
63.35453499999999
 20
122.4056899999999
 30
0.0
 11
65.64883499999999
 21
120.8056899999999
 31
0.0
  0
LINE
  5
2C8
330
1E
100
AcDbEntity
  8
0
100
AcDbLine
 10
67.607935
 20
110.7056899999999
 30
0.0
 11
67.952135
 21
106.5056899999999
 31
0.0
  0
LINE
  5
2C9
330
1E
100
AcDbEntity
  8
0
100
AcDbLine
 10
66.690235
 20
114.7056899999999
 30
0.0
 11
67.607935
 21
110.7056899999999
 31
0.0
  0
LINE
  5
2CA
330
1E
100
AcDbEntity
  8
0
100
AcDbLine
 10
65.19893499999999
 20
118.2056899999999
 30
0.0
 11
66.690235
 21
114.7056899999999
 31
0.0
  0
LINE
  5
2CD
330
1E
100
AcDbEntity
  8
0
100
AcDbLine
 10
66.652585
 20
119.5056899999999
 30
0.0
 11
74.07713499999999
 21
119.5056899999999
 31
0.0
  0
LINE
  5
2CE
330
1E
100
AcDbEntity
  8
0
100
AcDbLine
 10
67.65633499999999
 20
118.2056899999999
 30
0.0
 11
69.14763499999999
 21
114.7056899999999
 31
0.0
  0
LINE
  5
2CF
330
1E
100
AcDbEntity
  8
0
100
AcDbLine
 10
69.14763499999999
 20
114.7056899999999
 30
0.0
 11
70.06543499999999
 21
110.7056899999999
 31
0.0
  0
LINE
  5
2D0
330
1E
100
AcDbEntity
  8
0
100
AcDbLine
 10
70.06543499999999
 20
110.7056899999999
 30
0.0
 11
70.40953499999999
 21
106.5056899999999
 31
0.0
  0
LINE
  5
2D1
330
1E
100
AcDbEntity
  8
0
100
AcDbLine
 10
74.07713499999999
 20
119.5056899999999
 30
0.0
 11
79.00463499999999
 21
119.5056899999999
 31
0.0
  0
LINE
  5
2D2
330
1E
100
AcDbEntity
  8
0
100
AcDbLine
 10
66.652585
 20
119.5056899999999
 30
0.0
 11
74.07713499999999
 21
119.5056899999999
 31
0.0
  0
LINE
  5
2D3
330
1E
100
AcDbEntity
  8
0
100
AcDbLine
 10
81.45433500000001
 20
103.3236899999999
 30
0.0
 11
82.704435
 21
100.25569
 31
0.0
  0
LINE
  5
2D4
330
1E
100
AcDbEntity
  8
0
100
AcDbLine
 10
103.999835
 20
102.3570899999999
 30
0.0
 11
103.999835
 21
104.64869
 31
0.0
  0
LINE
  5
2D5
330
1E
100
AcDbEntity
  8
0
100
AcDbLine
 10
103.999835
 20
102.3570899999999
 30
0.0
 11
103.999835
 21
99.20409000000001
 31
0.0
  0
LINE
  5
2D6
330
1E
100
AcDbEntity
  8
0
100
AcDbLine
 10
82.99983500000001
 20
102.3570899999999
 30
0.0
 11
82.99983500000001
 21
99.20409000000001
 31
0.0
  0
LINE
  5
2D7
330
1E
100
AcDbEntity
  8
0
100
AcDbLine
 10
82.99983500000001
 20
102.3570899999999
 30
0.0
 11
82.99983500000001
 21
104.64869
 31
0.0
  0
LINE
  5
2D8
330
1E
100
AcDbEntity
  8
0
100
AcDbLine
 10
104.976835
 20
103.43769
 30
0.0
 11
105.431835
 21
106.5056899999999
 31
0.0
  0
LINE
  5
2D9
330
1E
100
AcDbEntity
  8
0
100
AcDbLine
 10
105.545835
 20
103.3236899999999
 30
0.0
 11
105.999835
 21
106.5056899999999
 31
0.0
  0
LINE
  5
2DA
330
1E
100
AcDbEntity
  8
0
100
AcDbLine
 10
82.99983500000001
 20
106.5056899999999
 30
0.0
 11
82.99983500000001
 21
106.0396899999999
 31
0.0
  0
LINE
  5
2DB
330
1E
100
AcDbEntity
  8
0
100
AcDbLine
 10
82.99983500000001
 20
106.0396899999999
 30
0.0
 11
82.99983500000001
 21
106.5056899999999
 31
0.0
  0
LINE
  5
2DC
330
1E
100
AcDbEntity
  8
0
100
AcDbLine
 10
82.99983500000001
 20
106.0396899999999
 30
0.0
 11
82.99983500000001
 21
104.64869
 31
0.0
  0
LINE
  5
2DD
330
1E
100
AcDbEntity
  8
0
100
AcDbLine
 10
103.999835
 20
104.64869
 30
0.0
 11
103.999835
 21
106.0396899999999
 31
0.0
  0
LINE
  5
2DE
330
1E
100
AcDbEntity
  8
0
100
AcDbLine
 10
103.999835
 20
104.64869
 30
0.0
 11
103.999835
 21
102.3570899999999
 31
0.0
  0
LINE
  5
2DF
330
1E
100
AcDbEntity
  8
0
100
AcDbLine
 10
103.999835
 20
106.5056899999999
 30
0.0
 11
103.999835
 21
106.0396899999999
 31
0.0
  0
LINE
  5
2E0
330
1E
100
AcDbEntity
  8
0
100
AcDbLine
 10
103.999835
 20
106.0396899999999
 30
0.0
 11
103.999835
 21
106.5056899999999
 31
0.0
  0
LINE
  5
2E1
330
1E
100
AcDbEntity
  8
0
100
AcDbLine
 10
103.999835
 20
106.0396899999999
 30
0.0
 11
103.999835
 21
104.64869
 31
0.0
  0
LINE
  5
2E2
330
1E
100
AcDbEntity
  8
0
100
AcDbLine
 10
82.99983500000001
 20
104.64869
 30
0.0
 11
82.99983500000001
 21
106.0396899999999
 31
0.0
  0
LINE
  5
2E3
330
1E
100
AcDbEntity
  8
0
100
AcDbLine
 10
82.99983500000001
 20
104.64869
 30
0.0
 11
82.99983500000001
 21
102.3570899999999
 31
0.0
  0
LINE
  5
2E4
330
1E
100
AcDbEntity
  8
0
100
AcDbLine
 10
82.02253499999999
 20
103.43769
 30
0.0
 11
82.99983500000001
 21
100.994354000352
 31
0.0
  0
LINE
  5
2E5
330
1E
100
AcDbEntity
  8
0
100
AcDbLine
 10
81.568035
 20
106.5056899999999
 30
0.0
 11
82.02253499999999
 21
103.43769
 31
0.0
  0
LINE
  5
2E6
330
1E
100
AcDbEntity
  8
0
100
AcDbLine
 10
81.568035
 20
106.5056899999999
 30
0.0
 11
82.02253499999999
 21
109.5736899999999
 31
0.0
  0
LINE
  5
2E7
330
1E
100
AcDbEntity
  8
0
100
AcDbLine
 10
103.599835
 20
109.20569
 30
0.0
 11
103.999835
 21
106.5056899999999
 31
0.0
  0
LINE
  5
2E8
330
1E
100
AcDbEntity
  8
0
100
AcDbLine
 10
81.45433500000001
 20
109.6876899999999
 30
0.0
 11
82.704435
 21
112.7556899999999
 31
0.0
  0
LINE
  5
2E9
330
1E
100
AcDbEntity
  8
0
100
AcDbLine
 10
82.02253499999999
 20
109.5736899999999
 30
0.0
 11
83.15893499999999
 21
112.4146899999999
 31
0.0
  0
LINE
  5
2EA
330
1E
100
AcDbEntity
  8
0
100
AcDbLine
 10
105.545835
 20
109.6876899999999
 30
0.0
 11
105.999835
 21
106.5056899999999
 31
0.0
  0
LINE
  5
2EB
330
1E
100
AcDbEntity
  8
0
100
AcDbLine
 10
104.976835
 20
109.5736899999999
 30
0.0
 11
105.431835
 21
106.5056899999999
 31
0.0
  0
LINE
  5
2EC
330
1E
100
AcDbEntity
  8
0
100
AcDbLine
 10
80.999835
 20
106.5056899999999
 30
0.0
 11
81.45433500000001
 21
103.3236899999999
 31
0.0
  0
LINE
  5
2ED
330
1E
100
AcDbEntity
  8
0
100
AcDbLine
 10
80.999835
 20
106.5056899999999
 30
0.0
 11
81.45433500000001
 21
109.6876899999999
 31
0.0
  0
LINE
  5
36D
330
1E
100
AcDbEntity
  8
0
100
AcDbLine
 10
109.399835
 20
110.7056899999999
 30
0.0
 11
109.999835
 21
106.5056899999999
 31
0.0
  0
LINE
  5
36F
330
1E
100
AcDbEntity
  8
0
100
AcDbLine
 10
109.899835
 20
110.9056899999999
 30
0.0
 11
110.499835
 21
106.5056899999999
 31
0.0
  0
LINE
  5
370
330
1E
100
AcDbEntity
  8
0
100
AcDbLine
 10
77.599835
 20
110.7056899999999
 30
0.0
 11
79.19983499999999
 21
114.7056899999999
 31
0.0
  0
LINE
  5
371
330
1E
100
AcDbEntity
  8
0
100
AcDbLine
 10
76.999835
 20
106.5056899999999
 30
0.0
 11
77.599835
 21
110.7056899999999
 31
0.0
  0
LINE
  5
372
330
1E
100
AcDbEntity
  8
0
100
AcDbLine
 10
76.999835
 20
106.5056899999999
 30
0.0
 11
77.599835
 21
102.30569
 31
0.0
  0
LINE
  5
373
330
1E
100
AcDbEntity
  8
0
100
AcDbLine
 10
83.15893499999999
 20
112.4146899999999
 30
0.0
 11
85.09073499999999
 21
114.9146899999999
 31
0.0
  0
LINE
  5
374
330
1E
100
AcDbEntity
  8
0
100
AcDbLine
 10
86.099835
 20
113.9056899999999
 30
0.0
 11
88.299835
 21
115.60569
 31
0.0
  0
LINE
  5
375
330
1E
100
AcDbEntity
  8
0
100
AcDbLine
 10
82.704435
 20
112.7556899999999
 30
0.0
 11
84.636235
 21
115.3696899999999
 31
0.0
  0
LINE
  5
376
330
1E
100
AcDbEntity
  8
0
100
AcDbLine
 10
104.2958349999999
 20
112.7556899999999
 30
0.0
 11
105.545835
 21
109.6876899999999
 31
0.0
  0
LINE
  5
377
330
1E
100
AcDbEntity
  8
0
100
AcDbLine
 10
103.840835
 20
112.4146899999999
 30
0.0
 11
104.976835
 21
109.5736899999999
 31
0.0
  0
LINE
  5
393
330
1E
100
AcDbEntity
  8
0
100
AcDbLine
 10
107.799835
 20
114.7056899999999
 30
0.0
 11
109.399835
 21
110.7056899999999
 31
0.0
  0
LINE
  5
394
330
1E
100
AcDbEntity
  8
0
100
AcDbLine
 10
79.00463499999999
 20
119.5056899999999
 30
0.0
 11
82.79613129629629
 21
119.5056899999999
 31
0.0
  0
LINE
  5
395
330
1E
100
AcDbEntity
  8
0
100
AcDbLine
 10
84.636235
 20
115.3696899999999
 30
0.0
 11
87.249835
 21
117.3016899999999
 31
0.0
  0
LINE
  5
396
330
1E
100
AcDbEntity
  8
0
100
AcDbLine
 10
85.09073499999999
 20
114.9146899999999
 30
0.0
 11
87.59073499999999
 21
116.84669
 31
0.0
  0
LINE
  5
397
330
1E
100
AcDbEntity
  8
0
100
AcDbLine
 10
87.249835
 20
117.3016899999999
 30
0.0
 11
90.318035
 21
118.5516899999999
 31
0.0
  0
LINE
  5
398
330
1E
100
AcDbEntity
  8
0
100
AcDbLine
 10
98.699835
 20
115.60569
 30
0.0
 11
100.8998349999999
 21
113.9056899999999
 31
0.0
  0
LINE
  5
399
330
1E
100
AcDbEntity
  8
0
100
AcDbLine
 10
93.499835
 20
117.0056899999999
 30
0.0
 11
96.199835
 21
116.60569
 31
0.0
  0
LINE
  5
39A
330
1E
100
AcDbEntity
  8
0
100
AcDbLine
 10
96.199835
 20
116.60569
 30
0.0
 11
98.699835
 21
115.60569
 31
0.0
  0
LINE
  5
39B
330
1E
100
AcDbEntity
  8
0
100
AcDbLine
 10
90.799835
 20
116.60569
 30
0.0
 11
93.499835
 21
117.0056899999999
 31
0.0
  0
LINE
  5
39C
330
1E
100
AcDbEntity
  8
0
100
AcDbLine
 10
88.299835
 20
115.60569
 30
0.0
 11
90.799835
 21
116.60569
 31
0.0
  0
LINE
  5
39D
330
1E
100
AcDbEntity
  8
0
100
AcDbLine
 10
87.59073499999999
 20
116.84669
 30
0.0
 11
90.431635
 21
117.9826899999999
 31
0.0
  0
LINE
  5
39E
330
1E
100
AcDbEntity
  8
0
100
AcDbLine
 10
90.431635
 20
117.9826899999999
 30
0.0
 11
93.499835
 21
118.4376899999999
 31
0.0
  0
LINE
  5
39F
330
1E
100
AcDbEntity
  8
0
100
AcDbLine
 10
99.749835
 20
117.3016899999999
 30
0.0
 11
102.3638349999999
 21
115.3696899999999
 31
0.0
  0
LINE
  5
3A0
330
1E
100
AcDbEntity
  8
0
100
AcDbLine
 10
99.40883499999999
 20
116.84669
 30
0.0
 11
101.908835
 21
114.9146899999999
 31
0.0
  0
LINE
  5
3A1
330
1E
100
AcDbEntity
  8
0
100
AcDbLine
 10
96.56783500000001
 20
117.9826899999999
 30
0.0
 11
99.40883499999999
 21
116.84669
 31
0.0
  0
LINE
  5
3A2
330
1E
100
AcDbEntity
  8
0
100
AcDbLine
 10
102.3638349999999
 20
115.3696899999999
 30
0.0
 11
104.2958349999999
 21
112.7556899999999
 31
0.0
  0
LINE
  5
3A3
330
1E
100
AcDbEntity
  8
0
100
AcDbLine
 10
101.908835
 20
114.9146899999999
 30
0.0
 11
103.840835
 21
112.4146899999999
 31
0.0
  0
LINE
  5
3A4
330
1E
100
AcDbEntity
  8
0
100
AcDbLine
 10
105.199835
 20
118.2056899999999
 30
0.0
 11
107.799835
 21
114.7056899999999
 31
0.0
  0
LINE
  5
3CA
330
1E
100
AcDbEntity
  8
0
100
AcDbLine
 10
108.199835
 20
115.0056899999999
 30
0.0
 11
109.899835
 21
110.9056899999999
 31
0.0
  0
LINE
  5
3CB
330
1E
100
AcDbEntity
  8
0
100
AcDbLine
 10
90.318035
 20
118.5516899999999
 30
0.0
 11
93.499835
 21
119.0056899999999
 31
0.0
  0
LINE
  5
3CC
330
1E
100
AcDbEntity
  8
0
100
AcDbLine
 10
104.203538703704
 20
119.5056899999999
 30
0.0
 11
107.994835
 21
119.5056899999999
 31
0.0
  0
LINE
  5
3CD
330
1E
100
AcDbEntity
  8
0
100
AcDbLine
 10
96.68183499999999
 20
118.5516899999999
 30
0.0
 11
99.749835
 21
117.3016899999999
 31
0.0
  0
LINE
  5
3CE
330
1E
100
AcDbEntity
  8
0
100
AcDbLine
 10
93.499835
 20
119.0056899999999
 30
0.0
 11
96.68183499999999
 21
118.5516899999999
 31
0.0
  0
LINE
  5
3CF
330
1E
100
AcDbEntity
  8
0
100
AcDbLine
 10
93.499835
 20
118.4376899999999
 30
0.0
 11
96.56783500000001
 21
117.9826899999999
 31
0.0
  0
LINE
  5
3D9
330
1E
100
AcDbEntity
  8
0
100
AcDbLine
 10
107.994835
 20
119.5056899999999
 30
0.0
 11
112.9228349999999
 21
119.5056899999999
 31
0.0
  0
LINE
  5
3DA
330
1E
100
AcDbEntity
  8
0
100
AcDbLine
 10
105.4998349999999
 20
118.5056899999999
 30
0.0
 11
108.199835
 21
115.0056899999999
 31
0.0
  0
LINE
  5
3DB
330
1E
100
AcDbEntity
  8
0
100
AcDbLine
 10
81.799835
 20
118.2056899999999
 30
0.0
 11
85.299835
 21
120.8056899999999
 31
0.0
  0
LINE
  5
3DC
330
1E
100
AcDbEntity
  8
0
100
AcDbLine
 10
81.49983500000001
 20
118.5056899999999
 30
0.0
 11
84.999835
 21
121.2056899999999
 31
0.0
  0
LINE
  5
3DD
330
1E
100
AcDbEntity
  8
0
100
AcDbLine
 10
79.19983499999999
 20
114.7056899999999
 30
0.0
 11
81.799835
 21
118.2056899999999
 31
0.0
  0
LINE
  5
3DE
330
1E
100
AcDbEntity
  8
0
100
AcDbLine
 10
78.799835
 20
115.0056899999999
 30
0.0
 11
81.49983500000001
 21
118.5056899999999
 31
0.0
  0
LINE
  5
3DF
330
1E
100
AcDbEntity
  8
0
100
AcDbLine
 10
77.09983499999999
 20
110.9056899999999
 30
0.0
 11
78.799835
 21
115.0056899999999
 31
0.0
  0
LINE
  5
3E0
330
1E
100
AcDbEntity
  8
0
100
AcDbLine
 10
76.49983500000001
 20
106.5056899999999
 30
0.0
 11
77.09983499999999
 21
110.9056899999999
 31
0.0
  0
LINE
  5
3E1
330
1E
100
AcDbEntity
  8
0
100
AcDbLine
 10
76.49983500000001
 20
106.5056899999999
 30
0.0
 11
77.09983499999999
 21
102.10569
 31
0.0
  0
LINE
  5
3E2
330
1E
100
AcDbEntity
  8
0
100
AcDbLine
 10
65.64883499999999
 20
120.8056899999999
 30
0.0
 11
67.65633499999999
 21
118.2056899999999
 31
0.0
  0
LINE
  5
3E3
330
1E
100
AcDbEntity
  8
0
100
AcDbLine
 10
85.299835
 20
120.8056899999999
 30
0.0
 11
89.299835
 21
122.4056899999999
 31
0.0
  0
LINE
  5
3E4
330
1E
100
AcDbEntity
  8
0
100
AcDbLine
 10
84.999835
 20
121.2056899999999
 30
0.0
 11
89.099835
 21
122.90569
 31
0.0
  0
LINE
  5
3E6
330
1E
100
AcDbEntity
  8
0
100
AcDbLine
 10
75.89983499999999
 20
124.10569
 30
0.0
 11
81.099835
 21
128.20569
 31
0.0
  0
LINE
  5
3E7
330
1E
100
AcDbEntity
  8
0
100
AcDbLine
 10
81.099835
 20
128.20569
 30
0.0
 11
87.09983499999999
 21
130.6056899999999
 31
0.0
  0
LINE
  5
3E8
330
1E
100
AcDbEntity
  8
0
100
AcDbLine
 10
101.6998349999999
 20
120.8056899999999
 30
0.0
 11
105.199835
 21
118.2056899999999
 31
0.0
  0
LINE
  5
3E9
330
1E
100
AcDbEntity
  8
0
100
AcDbLine
 10
97.699835
 20
122.4056899999999
 30
0.0
 11
101.6998349999999
 21
120.8056899999999
 31
0.0
  0
LINE
  5
3EA
330
1E
100
AcDbEntity
  8
0
100
AcDbLine
 10
101.999835
 20
121.2056899999999
 30
0.0
 11
105.4998349999999
 21
118.5056899999999
 31
0.0
  0
LINE
  5
3F7
330
1E
100
AcDbEntity
  8
0
100
AcDbLine
 10
93.499835
 20
123.0056899999999
 30
0.0
 11
97.699835
 21
122.4056899999999
 31
0.0
  0
LINE
  5
3FB
330
1E
100
AcDbEntity
  8
0
100
AcDbLine
 10
97.89983499999999
 20
122.90569
 30
0.0
 11
101.999835
 21
121.2056899999999
 31
0.0
  0
LINE
  5
3FC
330
1E
100
AcDbEntity
  8
0
100
AcDbLine
 10
89.299835
 20
122.4056899999999
 30
0.0
 11
93.499835
 21
123.0056899999999
 31
0.0
  0
LINE
  5
3FD
330
1E
100
AcDbEntity
  8
0
100
AcDbLine
 10
89.099835
 20
122.90569
 30
0.0
 11
93.499835
 21
123.5056899999999
 31
0.0
  0
LINE
  5
40C
330
1E
100
AcDbEntity
  8
0
100
AcDbLine
 10
91.00053499999999
 20
127.0876899999999
 30
0.0
 11
91.008232458092
 21
123.1659260170129
 31
0.0
  0
LINE
  5
40E
330
1E
100
AcDbEntity
  8
0
100
AcDbLine
 10
90.999835
 20
128.2876899999999
 30
0.0
 11
90.999835
 21
127.8526899999999
 31
0.0
  0
LINE
  5
40F
330
1E
100
AcDbEntity
  8
0
100
AcDbLine
 10
90.999835
 20
128.2876899999999
 30
0.0
 11
90.999935
 21
128.7616899999999
 31
0.0
  0
LINE
  5
410
330
1E
100
AcDbEntity
  8
0
100
AcDbLine
 10
91.000235
 20
129.2536899999999
 30
0.0
 11
91.012135
 21
144.1466899999999
 31
0.0
  0
LINE
  5
411
330
1E
100
AcDbEntity
  8
0
100
AcDbLine
 10
90.999935
 20
128.7616899999999
 30
0.0
 11
91.000235
 21
129.2536899999999
 31
0.0
  0
LINE
  5
412
330
1E
100
AcDbEntity
  8
0
100
AcDbLine
 10
90.999835
 20
127.8526899999999
 30
0.0
 11
91.00003499999999
 21
127.4736899999999
 31
0.0
  0
LINE
  5
413
330
1E
100
AcDbEntity
  8
0
100
AcDbLine
 10
90.999835
 20
127.8526899999999
 30
0.0
 11
90.999835
 21
128.2876899999999
 31
0.0
  0
LINE
  5
414
330
1E
100
AcDbEntity
  8
0
100
AcDbLine
 10
91.00003499999999
 20
127.4736899999999
 30
0.0
 11
91.00053499999999
 21
127.1046899999999
 31
0.0
  0
LINE
  5
415
330
1E
100
AcDbEntity
  8
0
100
AcDbLine
 10
95.95083499999999
 20
127.1006899999999
 30
0.0
 11
95.95083499999999
 21
127.4696899999999
 31
0.0
  0
LINE
  5
416
330
1E
100
AcDbEntity
  8
0
100
AcDbLine
 10
91.012135
 20
144.1466899999999
 30
0.0
 11
91.19893499999999
 21
144.1466899999999
 31
0.0
  0
LINE
  5
417
330
1E
100
AcDbEntity
  8
0
100
AcDbLine
 10
91.739835
 20
144.1466899999999
 30
0.0
 11
92.54373499999999
 21
144.14569
 31
0.0
  0
LINE
  5
418
330
1E
100
AcDbEntity
  8
0
100
AcDbLine
 10
91.19893499999999
 20
144.1466899999999
 30
0.0
 11
91.73433499999999
 21
144.1466899999999
 31
0.0
  0
LINE
  5
419
330
1E
100
AcDbEntity
  8
0
100
AcDbLine
 10
91.73433499999999
 20
144.1466899999999
 30
0.0
 11
92.536435
 21
144.14569
 31
0.0
  0
LINE
  5
41A
330
1E
100
AcDbEntity
  8
0
100
AcDbLine
 10
93.48353499999999
 20
144.14469
 30
0.0
 11
94.430835
 21
144.14369
 31
0.0
  0
LINE
  5
41B
330
1E
100
AcDbEntity
  8
0
100
AcDbLine
 10
94.430835
 20
144.14369
 30
0.0
 11
95.23483500000001
 21
144.14369
 31
0.0
  0
LINE
  5
41C
330
1E
100
AcDbEntity
  8
0
100
AcDbLine
 10
95.772835
 20
144.1426899999999
 30
0.0
 11
95.962835
 21
144.1426899999999
 31
0.0
  0
LINE
  5
41D
330
1E
100
AcDbEntity
  8
0
100
AcDbLine
 10
95.24083500000001
 20
144.14369
 30
0.0
 11
95.77583500000001
 21
144.1426899999999
 31
0.0
  0
LINE
  5
41E
330
1E
100
AcDbEntity
  8
0
100
AcDbLine
 10
95.23483500000001
 20
144.14369
 30
0.0
 11
95.772835
 21
144.1426899999999
 31
0.0
  0
LINE
  5
41F
330
1E
100
AcDbEntity
  8
0
100
AcDbLine
 10
93.49133499999998
 20
144.14469
 30
0.0
 11
94.438835
 21
144.14369
 31
0.0
  0
LINE
  5
420
330
1E
100
AcDbEntity
  8
0
100
AcDbLine
 10
92.54373499999999
 20
144.14569
 30
0.0
 11
93.49133499999998
 21
144.14469
 31
0.0
  0
LINE
  5
421
330
1E
100
AcDbEntity
  8
0
100
AcDbLine
 10
92.536435
 20
144.14569
 30
0.0
 11
93.48353499999999
 21
144.14469
 31
0.0
  0
LINE
  5
422
330
1E
100
AcDbEntity
  8
0
100
AcDbLine
 10
92.536435
 20
144.14569
 30
0.0
 11
95.23483500000001
 21
144.14369
 31
0.0
  0
LINE
  5
423
330
1E
100
AcDbEntity
  8
0
100
AcDbLine
 10
95.95083499999999
 20
129.2496899999999
 30
0.0
 11
95.95083499999999
 21
128.7576899999999
 31
0.0
  0
LINE
  5
424
330
1E
100
AcDbEntity
  8
0
100
AcDbLine
 10
95.95083499999999
 20
129.2496899999999
 30
0.0
 11
95.962835
 21
144.1426899999999
 31
0.0
  0
LINE
  5
425
330
1E
100
AcDbEntity
  8
0
100
AcDbLine
 10
95.95083499999999
 20
128.7576899999999
 30
0.0
 11
95.95083499999999
 21
128.2836899999999
 31
0.0
  0
LINE
  5
426
330
1E
100
AcDbEntity
  8
0
100
AcDbLine
 10
95.95083499999999
 20
128.7576899999999
 30
0.0
 11
95.95083499999999
 21
129.2496899999999
 31
0.0
  0
LINE
  5
427
330
1E
100
AcDbEntity
  8
0
100
AcDbLine
 10
95.95083499999999
 20
128.2836899999999
 30
0.0
 11
95.95083499999999
 21
127.8486899999999
 31
0.0
  0
LINE
  5
428
330
1E
100
AcDbEntity
  8
0
100
AcDbLine
 10
95.95083499999999
 20
128.2836899999999
 30
0.0
 11
95.95083499999999
 21
128.7576899999999
 31
0.0
  0
LINE
  5
429
330
1E
100
AcDbEntity
  8
0
100
AcDbLine
 10
95.95083499999999
 20
127.8486899999999
 30
0.0
 11
95.95083499999999
 21
127.4696899999999
 31
0.0
  0
LINE
  5
42A
330
1E
100
AcDbEntity
  8
0
100
AcDbLine
 10
95.95083499999999
 20
127.8486899999999
 30
0.0
 11
95.95083499999999
 21
128.2836899999999
 31
0.0
  0
LINE
  5
42B
330
1E
100
AcDbEntity
  8
0
100
AcDbLine
 10
95.95083499999999
 20
127.4696899999999
 30
0.0
 11
95.95083499999999
 21
127.1006899999999
 31
0.0
  0
LINE
  5
42C
330
1E
100
AcDbEntity
  8
0
100
AcDbLine
 10
95.95083499999999
 20
127.4696899999999
 30
0.0
 11
95.95083499999999
 21
127.8486899999999
 31
0.0
  0
LINE
  5
42E
330
1E
100
AcDbEntity
  8
0
100
AcDbLine
 10
95.95083499999999
 20
127.0836899999999
 30
0.0
 11
95.95869971307671
 21
123.1703902663989
 31
0.0
  0
LINE
  5
42F
330
1E
100
AcDbEntity
  8
0
100
AcDbLine
 10
93.499835
 20
123.5056899999999
 30
0.0
 11
97.89983499999999
 21
122.90569
 31
0.0
  0
LINE
  5
438
330
1E
100
AcDbEntity
  8
0
100
AcDbLine
 10
111.099835
 20
124.10569
 30
0.0
 11
114.726758076923
 21
119.5056899999999
 31
0.0
  0
LINE
  5
439
330
1E
100
AcDbEntity
  8
0
100
AcDbLine
 10
105.899835
 20
128.20569
 30
0.0
 11
111.099835
 21
124.10569
 31
0.0
  0
LINE
  5
452
330
1E
100
AcDbEntity
  8
0
100
AcDbLine
 10
99.89983500000001
 20
130.6056899999999
 30
0.0
 11
105.899835
 21
128.20569
 31
0.0
  0
LINE
  5
453
330
1E
100
AcDbEntity
  8
0
100
AcDbLine
 10
95.9523748736966
 20
131.1608015802609
 30
0.0
 11
99.89983500000001
 21
130.6056899999999
 31
0.0
  0
LINE
  5
455
330
1E
100
AcDbEntity
  8
0
100
AcDbLine
 10
87.09983499999999
 20
130.6056899999999
 30
0.0
 11
91.00175372806829
 21
131.154397321135
 31
0.0
  0
LINE
  5
456
330
1E
100
AcDbEntity
  8
0
100
AcDbLine
 10
72.2729119230769
 20
119.5056899999999
 30
0.0
 11
75.89983499999999
 21
124.10569
 31
0.0
  0
LINE
  5
457
330
1E
100
AcDbEntity
  8
0
100
AcDbLine
 10
64.583735
 20
117.8466899999999
 30
0.0
 11
66.968935
 21
102.34719
 31
0.0
  0
LINE
  5
458
330
1E
100
AcDbEntity
  8
0
100
AcDbLine
 10
62.054035
 20
102.34719
 30
0.0
 11
66.968935
 21
102.34719
 31
0.0
  0
LINE
  5
459
330
1E
100
AcDbEntity
  8
0
100
AcDbLine
 10
59.817035
 20
103.40569
 30
0.0
 11
60.04653499999999
 21
106.5056899999999
 31
0.0
  0
LINE
  5
45A
330
1E
100
AcDbEntity
  8
0
100
AcDbLine
 10
70.06543499999999
 20
102.30569
 30
0.0
 11
70.40953499999999
 21
106.5056899999999
 31
0.0
  0
LINE
  5
45B
330
1E
100
AcDbEntity
  8
0
100
AcDbLine
 10
56.07903499999999
 20
90.60568999999999
 30
0.0
 11
58.48803499999999
 21
90.00569
 31
0.0
  0
LINE
  5
45C
330
1E
100
AcDbEntity
  8
0
100
AcDbLine
 10
56.07903499999999
 20
90.60568999999999
 30
0.0
 11
57.19303499999999
 21
90.10569
 31
0.0
  0
LINE
  5
45D
330
1E
100
AcDbEntity
  8
0
100
AcDbLine
 10
57.19303499999999
 20
90.10569
 30
0.0
 11
59.716835
 21
89.50568999999999
 31
0.0
  0
LINE
  5
45E
330
1E
100
AcDbEntity
  8
0
100
AcDbLine
 10
36.230335
 20
98.40569000000002
 30
0.0
 11
36.410435
 21
98.00569000000001
 31
0.0
  0
LINE
  5
45F
330
1E
100
AcDbEntity
  8
0
100
AcDbLine
 10
36.230335
 20
98.40569000000002
 30
0.0
 11
37.606935
 21
96.50569
 31
0.0
  0
LINE
  5
464
330
1E
100
AcDbEntity
  8
0
100
AcDbLine
 10
103.599835
 20
109.20569
 30
0.0
 11
102.626907293019
 21
111.6248537084961
 31
0.0
  0
LINE
  5
465
330
1E
100
AcDbEntity
  8
0
100
AcDbLine
 10
102.626907293019
 20
111.6248537084961
 30
0.0
 11
100.8998349999999
 21
113.9056899999999
 31
0.0
  0
LINE
  5
466
330
1E
100
AcDbEntity
  8
0
100
AcDbLine
 10
86.099835
 20
113.9056899999999
 30
0.0
 11
84.2313561995453
 21
111.378333509253
 31
0.0
  0
LINE
  5
467
330
1E
100
AcDbEntity
  8
0
100
AcDbLine
 10
84.2313561995453
 20
111.378333509253
 30
0.0
 11
83.17414096717504
 21
109.0540024751364
 31
0.0
  0
LINE
  5
468
330
1E
100
AcDbEntity
  8
0
100
AcDbLine
 10
83.17414096717504
 20
109.0540024751364
 30
0.0
 11
82.99983500000001
 21
106.5056899999999
 31
0.0
  0
LINE
  5
46C
330
1E
100
AcDbEntity
  8
0
100
AcDbLine
 10
129.8069649999999
 20
90.10569
 30
0.0
 11
127.283165
 21
89.50568999999999
 31
0.0
  0
LINE
  5
46D
330
1E
100
AcDbEntity
  8
0
100
AcDbLine
 10
130.9209649999999
 20
90.60568999999999
 30
0.0
 11
128.511965
 21
90.00569
 31
0.0
  0
LINE
  5
46E
330
1E
100
AcDbEntity
  8
0
100
AcDbLine
 10
130.394965
 20
116.9056899999999
 30
0.0
 11
128.9609649999999
 21
115.0056899999999
 31
0.0
  0
LINE
  5
46F
330
1E
100
AcDbEntity
  8
0
100
AcDbLine
 10
129.8069649999999
 20
122.90569
 30
0.0
 11
127.283165
 21
123.5056899999999
 31
0.0
  0
LINE
  5
470
330
1E
100
AcDbEntity
  8
0
100
AcDbLine
 10
130.394965
 20
96.10568999999999
 30
0.0
 11
128.9609649999999
 21
98.00569000000001
 31
0.0
  0
LINE
  5
471
330
1E
100
AcDbEntity
  8
0
100
AcDbLine
 10
136.221665
 20
122.0056899999999
 30
0.0
 11
127.3311649999999
 21
117.8466899999999
 31
0.0
  0
LINE
  5
472
330
1E
100
AcDbEntity
  8
0
100
AcDbLine
 10
131.306765
 20
122.0056899999999
 30
0.0
 11
122.416265
 21
117.8466899999999
 31
0.0
  0
LINE
  5
473
330
1E
100
AcDbEntity
  8
0
100
AcDbLine
 10
130.9209649999999
 20
122.4056899999999
 30
0.0
 11
128.511965
 21
123.0056899999999
 31
0.0
  0
LINE
  5
474
330
1E
100
AcDbEntity
  8
0
100
AcDbLine
 10
131.451165
 20
91.00569
 30
0.0
 11
124.945965
 21
102.34719
 31
0.0
  0
LINE
  5
475
330
1E
100
AcDbEntity
  8
0
100
AcDbLine
 10
131.451165
 20
91.00569
 30
0.0
 11
126.5362649999999
 21
91.00569
 31
0.0
  0
LINE
  5
476
330
1E
100
AcDbEntity
  8
0
100
AcDbLine
 10
165.822865
 20
98.00569000000001
 30
0.0
 11
164.837365
 21
100.50569
 31
0.0
  0
LINE
  5
477
330
1E
100
AcDbEntity
  8
0
100
AcDbLine
 10
166.9627649999999
 20
77.50569
 30
0.0
 11
164.563465
 21
77.86189
 31
0.0
  0
LINE
  5
478
330
1E
100
AcDbEntity
  8
0
100
AcDbLine
 10
166.9627649999999
 20
135.5056899999999
 30
0.0
 11
164.563465
 21
135.1496899999999
 31
0.0
  0
LINE
  5
479
330
1E
100
AcDbEntity
  8
0
100
AcDbLine
 10
165.822865
 20
115.0056899999999
 30
0.0
 11
164.837365
 21
112.5056899999999
 31
0.0
  0
LINE
  5
47A
330
1E
100
AcDbEntity
  8
0
100
AcDbLine
 10
168.776565
 20
119.2096899999999
 30
0.0
 11
167.3739649999999
 21
116.9276899999999
 31
0.0
  0
LINE
  5
47B
330
1E
100
AcDbEntity
  8
0
100
AcDbLine
 10
174.256865
 20
116.9276899999999
 30
0.0
 11
173.3539649999999
 21
119.2096899999999
 31
0.0
  0
LINE
  5
47C
330
1E
100
AcDbEntity
  8
0
100
AcDbLine
 10
185.3420149999999
 20
105.7056899999999
 30
0.0
 11
182.670465
 21
105.4056899999999
 31
0.0
  0
LINE
  5
47D
330
1E
100
AcDbEntity
  8
0
100
AcDbLine
 10
185.3420149999999
 20
107.3056899999999
 30
0.0
 11
182.670465
 21
107.6056899999999
 31
0.0
  0
LINE
  5
47E
330
1E
100
AcDbEntity
  8
0
100
AcDbLine
 10
184.4708464219235
 20
108.2211501861429
 30
0.0
 11
181.6955705812332
 21
108.4423758993409
 31
0.0
  0
LINE
  5
47F
330
1E
100
AcDbEntity
  8
0
100
AcDbLine
 10
184.4708464219235
 20
108.2211501861429
 30
0.0
 11
181.6955705812332
 21
108.4423758993409
 31
0.0
  0
LINE
  5
480
330
1E
100
AcDbEntity
  8
0
100
AcDbLine
 10
184.4708464219235
 20
104.7902298138569
 30
0.0
 11
181.6955705812386
 21
104.5690041006593
 31
0.0
  0
LINE
  5
481
330
1E
100
AcDbEntity
  8
0
100
AcDbLine
 10
187.120835
 20
105.7056899999999
 30
0.0
 11
187.0973449999999
 21
106.5056899999999
 31
0.0
  0
LINE
  5
482
330
1E
100
AcDbEntity
  8
0
100
AcDbLine
 10
186.665465
 20
105.2056899999999
 30
0.0
 11
184.4708464219235
 21
104.7902298138569
 31
0.0
  0
LINE
  5
483
330
1E
100
AcDbEntity
  8
0
100
AcDbLine
 10
186.665465
 20
105.2056899999999
 30
0.0
 11
184.4708464219235
 21
104.7902298138569
 31
0.0
  0
LINE
  5
484
330
1E
100
AcDbEntity
  8
0
100
AcDbLine
 10
186.528795
 20
105.7056899999999
 30
0.0
 11
185.3420149999999
 21
105.7056899999999
 31
0.0
  0
LINE
  5
485
330
1E
100
AcDbEntity
  8
0
100
AcDbLine
 10
187.120835
 20
105.7056899999999
 30
0.0
 11
186.665465
 21
105.2056899999999
 31
0.0
  0
LINE
  5
486
330
1E
100
AcDbEntity
  8
0
100
AcDbLine
 10
187.074555
 20
105.7056899999999
 30
0.0
 11
186.528795
 21
105.7056899999999
 31
0.0
  0
LINE
  5
487
330
1E
100
AcDbEntity
  8
0
100
AcDbLine
 10
187.120835
 20
105.7056899999999
 30
0.0
 11
186.665465
 21
105.2056899999999
 31
0.0
  0
LINE
  5
488
330
1E
100
AcDbEntity
  8
0
100
AcDbLine
 10
187.074555
 20
105.7056899999999
 30
0.0
 11
186.528795
 21
105.7056899999999
 31
0.0
  0
LINE
  5
489
330
1E
100
AcDbEntity
  8
0
100
AcDbLine
 10
186.665465
 20
107.8056899999999
 30
0.0
 11
184.4708464219235
 21
108.2211501861429
 31
0.0
  0
LINE
  5
48A
330
1E
100
AcDbEntity
  8
0
100
AcDbLine
 10
186.665465
 20
107.8056899999999
 30
0.0
 11
184.4708464219235
 21
108.2211501861429
 31
0.0
  0
LINE
  5
48B
330
1E
100
AcDbEntity
  8
0
100
AcDbLine
 10
186.528795
 20
107.3056899999999
 30
0.0
 11
185.3420149999999
 21
107.3056899999999
 31
0.0
  0
LINE
  5
48C
330
1E
100
AcDbEntity
  8
0
100
AcDbLine
 10
187.120835
 20
107.3056899999999
 30
0.0
 11
186.665465
 21
107.8056899999999
 31
0.0
  0
LINE
  5
48D
330
1E
100
AcDbEntity
  8
0
100
AcDbLine
 10
187.074555
 20
107.3056899999999
 30
0.0
 11
186.528795
 21
107.3056899999999
 31
0.0
  0
LINE
  5
48E
330
1E
100
AcDbEntity
  8
0
100
AcDbLine
 10
187.120835
 20
107.3056899999999
 30
0.0
 11
186.665465
 21
107.8056899999999
 31
0.0
  0
LINE
  5
48F
330
1E
100
AcDbEntity
  8
0
100
AcDbLine
 10
187.074555
 20
107.3056899999999
 30
0.0
 11
186.528795
 21
107.3056899999999
 31
0.0
  0
LINE
  5
490
330
1E
100
AcDbEntity
  8
0
100
AcDbLine
 10
187.120835
 20
107.3056899999999
 30
0.0
 11
187.0973449999999
 21
106.5056899999999
 31
0.0
  0
LINE
  5
491
330
1E
100
AcDbEntity
  8
0
100
AcDbLine
 10
168.776565
 20
93.80169
 30
0.0
 11
167.3739649999999
 21
96.08339
 31
0.0
  0
LINE
  5
492
330
1E
100
AcDbEntity
  8
0
100
AcDbLine
 10
174.256865
 20
96.08339
 30
0.0
 11
173.3539649999999
 21
93.80169
 31
0.0
  0
LINE
  5
493
330
1E
100
AcDbEntity
  8
0
100
AcDbLine
 10
171.802365
 20
81.63089000000001
 30
0.0
 11
171.704065
 21
83.52859
 31
0.0
  0
LINE
  5
494
330
1E
100
AcDbEntity
  8
0
100
AcDbLine
 10
172.720065
 20
81.63089000000001
 30
0.0
 11
172.621765
 21
83.52859
 31
0.0
  0
LINE
  5
495
330
1E
100
AcDbEntity
  8
0
100
AcDbLine
 10
170.2797649999999
 20
77.86189
 30
0.0
 11
167.880465
 21
77.50569
 31
0.0
  0
LINE
  5
496
330
1E
100
AcDbEntity
  8
0
100
AcDbLine
 10
170.2754649999999
 20
78.38109
 30
0.0
 11
169.3620649999999
 21
77.86189
 31
0.0
  0
LINE
  5
497
330
1E
100
AcDbEntity
  8
0
100
AcDbLine
 10
172.405465
 20
80.13099
 30
0.0
 11
171.8230649999999
 21
79.03489
 31
0.0
  0
LINE
  5
498
330
1E
100
AcDbEntity
  8
0
100
AcDbLine
 10
172.720065
 20
81.63089000000001
 30
0.0
 11
172.405465
 21
80.13099
 31
0.0
  0
LINE
  5
499
330
1E
100
AcDbEntity
  8
0
100
AcDbLine
 10
171.802365
 20
81.63089000000001
 30
0.0
 11
171.487765
 21
80.13099
 31
0.0
  0
LINE
  5
49A
330
1E
100
AcDbEntity
  8
0
100
AcDbLine
 10
171.8230649999999
 20
79.03489
 30
0.0
 11
171.1931649999999
 21
78.38109
 31
0.0
  0
LINE
  5
49B
330
1E
100
AcDbEntity
  8
0
100
AcDbLine
 10
171.487765
 20
80.13099
 30
0.0
 11
170.9053649999999
 21
79.03489
 31
0.0
  0
LINE
  5
49C
330
1E
100
AcDbEntity
  8
0
100
AcDbLine
 10
171.1931649999999
 20
78.38109
 30
0.0
 11
170.2797649999999
 21
77.86189
 31
0.0
  0
LINE
  5
49D
330
1E
100
AcDbEntity
  8
0
100
AcDbLine
 10
170.9053649999999
 20
79.03489
 30
0.0
 11
170.2754649999999
 21
78.38109
 31
0.0
  0
LINE
  5
49E
330
1E
100
AcDbEntity
  8
0
100
AcDbLine
 10
169.3620649999999
 20
77.86189
 30
0.0
 11
166.9627649999999
 21
77.50569
 31
0.0
  0
LINE
  5
49F
330
1E
100
AcDbEntity
  8
0
100
AcDbLine
 10
167.880465
 20
77.50569
 30
0.0
 11
167.4216649999999
 21
77.50569
 31
0.0
  0
LINE
  5
4A0
330
1E
100
AcDbEntity
  8
0
100
AcDbLine
 10
167.4216649999999
 20
77.50569
 30
0.0
 11
166.9627649999999
 21
77.50569
 31
0.0
  0
LINE
  5
4A1
330
1E
100
AcDbEntity
  8
0
100
AcDbLine
 10
170.108565
 20
91.04779
 30
0.0
 11
168.776565
 21
93.80169
 31
0.0
  0
LINE
  5
4A2
330
1E
100
AcDbEntity
  8
0
100
AcDbLine
 10
172.5707649999999
 20
91.04779
 30
0.0
 11
172.402265
 21
87.50369
 31
0.0
  0
LINE
  5
4A3
330
1E
100
AcDbEntity
  8
0
100
AcDbLine
 10
171.140365
 20
87.50369
 30
0.0
 11
170.108565
 21
91.04779
 31
0.0
  0
LINE
  5
4A4
330
1E
100
AcDbEntity
  8
0
100
AcDbLine
 10
172.621765
 20
83.52859
 30
0.0
 11
172.402265
 21
87.50369
 31
0.0
  0
LINE
  5
4A5
330
1E
100
AcDbEntity
  8
0
100
AcDbLine
 10
171.704065
 20
83.52859
 30
0.0
 11
171.140365
 21
87.50369
 31
0.0
  0
LINE
  5
4A6
330
1E
100
AcDbEntity
  8
0
100
AcDbLine
 10
173.3539649999999
 20
93.80169
 30
0.0
 11
172.5707649999999
 21
91.04779
 31
0.0
  0
LINE
  5
4A7
330
1E
100
AcDbEntity
  8
0
100
AcDbLine
 10
174.9095649999999
 20
97.40569
 30
0.0
 11
173.475665
 21
96.40569000000001
 31
0.0
  0
LINE
  5
4A8
330
1E
100
AcDbEntity
  8
0
100
AcDbLine
 10
175.573665
 20
98.00569000000001
 30
0.0
 11
174.256865
 21
96.08339
 31
0.0
  0
LINE
  5
4A9
330
1E
100
AcDbEntity
  8
0
100
AcDbLine
 10
174.9095649999999
 20
115.60569
 30
0.0
 11
173.475665
 21
116.60569
 31
0.0
  0
LINE
  5
4AA
330
1E
100
AcDbEntity
  8
0
100
AcDbLine
 10
175.573665
 20
115.0056899999999
 30
0.0
 11
174.256865
 21
116.9276899999999
 31
0.0
  0
LINE
  5
4AB
330
1E
100
AcDbEntity
  8
0
100
AcDbLine
 10
177.949565
 20
106.5056899999999
 30
0.0
 11
177.720065
 21
103.8056899999999
 31
0.0
  0
LINE
  5
4AC
330
1E
100
AcDbEntity
  8
0
100
AcDbLine
 10
179.9430649999999
 20
103.89869
 30
0.0
 11
178.3094685047811
 21
102.46088571706
 31
0.0
  0
LINE
  5
4AD
330
1E
100
AcDbEntity
  8
0
100
AcDbLine
 10
180.2059649999999
 20
104.35969
 30
0.0
 11
178.351965
 21
102.51569
 31
0.0
  0
LINE
  5
4AE
330
1E
100
AcDbEntity
  8
0
100
AcDbLine
 10
182.670465
 20
105.4056899999999
 30
0.0
 11
180.2059649999999
 21
104.35969
 31
0.0
  0
LINE
  5
4AF
330
1E
100
AcDbEntity
  8
0
100
AcDbLine
 10
181.3860944500696
 20
104.5344386355249
 30
0.0
 11
179.9430649999999
 21
103.89869
 31
0.0
  0
LINE
  5
4B0
330
1E
100
AcDbEntity
  8
0
100
AcDbLine
 10
181.6955705812386
 20
104.5690041006593
 30
0.0
 11
181.3860944500696
 21
104.5344386355249
 31
0.0
  0
LINE
  5
4B1
330
1E
100
AcDbEntity
  8
0
100
AcDbLine
 10
177.146565
 20
101.30569
 30
0.0
 11
176.171465
 21
99.10569
 31
0.0
  0
LINE
  5
4B2
330
1E
100
AcDbEntity
  8
0
100
AcDbLine
 10
175.9931025552596
 20
98.865404592235
 30
0.0
 11
175.573665
 21
98.00569000000001
 31
0.0
  0
LINE
  5
4B3
330
1E
100
AcDbEntity
  8
0
100
AcDbLine
 10
176.171465
 20
99.10569
 30
0.0
 11
174.9095649999999
 21
97.40569
 31
0.0
  0
LINE
  5
4B4
330
1E
100
AcDbEntity
  8
0
100
AcDbLine
 10
178.351965
 20
102.51569
 30
0.0
 11
176.7933649999999
 21
100.50569
 31
0.0
  0
LINE
  5
4B5
330
1E
100
AcDbEntity
  8
0
100
AcDbLine
 10
177.720065
 20
103.8056899999999
 30
0.0
 11
177.146565
 21
101.30569
 31
0.0
  0
LINE
  5
4B6
330
1E
100
AcDbEntity
  8
0
100
AcDbLine
 10
179.9430649999999
 20
109.1126899999999
 30
0.0
 11
178.3092626427106
 21
110.5507597665539
 31
0.0
  0
LINE
  5
4B7
330
1E
100
AcDbEntity
  8
0
100
AcDbLine
 10
180.2059649999999
 20
108.6516899999999
 30
0.0
 11
178.351965
 21
110.4956899999999
 31
0.0
  0
LINE
  5
4B8
330
1E
100
AcDbEntity
  8
0
100
AcDbLine
 10
181.6955705812332
 20
108.4423758993409
 30
0.0
 11
179.9430649999999
 21
109.1126899999999
 31
0.0
  0
LINE
  5
4B9
330
1E
100
AcDbEntity
  8
0
100
AcDbLine
 10
182.670465
 20
107.6056899999999
 30
0.0
 11
180.2059649999999
 21
108.6516899999999
 31
0.0
  0
LINE
  5
4BA
330
1E
100
AcDbEntity
  8
0
100
AcDbLine
 10
177.720065
 20
109.20569
 30
0.0
 11
177.146565
 21
111.7056899999999
 31
0.0
  0
LINE
  5
4BB
330
1E
100
AcDbEntity
  8
0
100
AcDbLine
 10
178.351965
 20
110.4956899999999
 30
0.0
 11
176.7933649999999
 21
112.5056899999999
 31
0.0
  0
LINE
  5
4BC
330
1E
100
AcDbEntity
  8
0
100
AcDbLine
 10
177.949565
 20
106.5056899999999
 30
0.0
 11
177.720065
 21
109.20569
 31
0.0
  0
LINE
  5
4BD
330
1E
100
AcDbEntity
  8
0
100
AcDbLine
 10
177.146565
 20
111.7056899999999
 30
0.0
 11
176.171465
 21
113.9056899999999
 31
0.0
  0
LINE
  5
4BE
330
1E
100
AcDbEntity
  8
0
100
AcDbLine
 10
176.171465
 20
113.9056899999999
 30
0.0
 11
174.9095649999999
 21
115.60569
 31
0.0
  0
LINE
  5
4BF
330
1E
100
AcDbEntity
  8
0
100
AcDbLine
 10
175.9931025552596
 20
114.145975407765
 30
0.0
 11
175.573665
 21
115.0056899999999
 31
0.0
  0
LINE
  5
4C0
330
1E
100
AcDbEntity
  8
0
100
AcDbLine
 10
166.133865
 20
103.8056899999999
 30
0.0
 11
165.904465
 21
106.5056899999999
 31
0.0
  0
LINE
  5
4C1
330
1E
100
AcDbEntity
  8
0
100
AcDbLine
 10
170.378365
 20
96.40569000000001
 30
0.0
 11
168.944365
 21
97.40569
 31
0.0
  0
LINE
  5
4C2
330
1E
100
AcDbEntity
  8
0
100
AcDbLine
 10
173.475665
 20
96.40569000000001
 30
0.0
 11
171.926965
 21
96.00569
 31
0.0
  0
LINE
  5
4C3
330
1E
100
AcDbEntity
  8
0
100
AcDbLine
 10
171.926965
 20
96.00569
 30
0.0
 11
170.378365
 21
96.40569000000001
 31
0.0
  0
LINE
  5
4C4
330
1E
100
AcDbEntity
  8
0
100
AcDbLine
 10
167.682565
 20
99.10569
 30
0.0
 11
166.707465
 21
101.30569
 31
0.0
  0
LINE
  5
4C5
330
1E
100
AcDbEntity
  8
0
100
AcDbLine
 10
168.944365
 20
97.40569
 30
0.0
 11
167.682565
 21
99.10569
 31
0.0
  0
LINE
  5
4C6
330
1E
100
AcDbEntity
  8
0
100
AcDbLine
 10
167.3739649999999
 20
96.08339
 30
0.0
 11
165.822865
 21
98.00569000000001
 31
0.0
  0
LINE
  5
4C7
330
1E
100
AcDbEntity
  8
0
100
AcDbLine
 10
166.707465
 20
101.30569
 30
0.0
 11
166.133865
 21
103.8056899999999
 31
0.0
  0
LINE
  5
4C8
330
1E
100
AcDbEntity
  8
0
100
AcDbLine
 10
170.378365
 20
116.60569
 30
0.0
 11
168.944365
 21
115.60569
 31
0.0
  0
LINE
  5
4C9
330
1E
100
AcDbEntity
  8
0
100
AcDbLine
 10
173.475665
 20
116.60569
 30
0.0
 11
171.926965
 21
117.0056899999999
 31
0.0
  0
LINE
  5
4CA
330
1E
100
AcDbEntity
  8
0
100
AcDbLine
 10
171.926965
 20
117.0056899999999
 30
0.0
 11
170.378365
 21
116.60569
 31
0.0
  0
LINE
  5
4CB
330
1E
100
AcDbEntity
  8
0
100
AcDbLine
 10
166.707465
 20
111.7056899999999
 30
0.0
 11
166.133865
 21
109.20569
 31
0.0
  0
LINE
  5
4CC
330
1E
100
AcDbEntity
  8
0
100
AcDbLine
 10
166.133865
 20
109.20569
 30
0.0
 11
165.904465
 21
106.5056899999999
 31
0.0
  0
LINE
  5
4CD
330
1E
100
AcDbEntity
  8
0
100
AcDbLine
 10
168.944365
 20
115.60569
 30
0.0
 11
167.682565
 21
113.9056899999999
 31
0.0
  0
LINE
  5
4CE
330
1E
100
AcDbEntity
  8
0
100
AcDbLine
 10
167.682565
 20
113.9056899999999
 30
0.0
 11
166.707465
 21
111.7056899999999
 31
0.0
  0
LINE
  5
4CF
330
1E
100
AcDbEntity
  8
0
100
AcDbLine
 10
167.3739649999999
 20
116.9276899999999
 30
0.0
 11
165.822865
 21
115.0056899999999
 31
0.0
  0
LINE
  5
4D0
330
1E
100
AcDbEntity
  8
0
100
AcDbLine
 10
171.704065
 20
129.4826899999999
 30
0.0
 11
171.140365
 21
125.5076899999999
 31
0.0
  0
LINE
  5
4D1
330
1E
100
AcDbEntity
  8
0
100
AcDbLine
 10
172.621765
 20
129.4826899999999
 30
0.0
 11
172.402265
 21
125.5076899999999
 31
0.0
  0
LINE
  5
4D2
330
1E
100
AcDbEntity
  8
0
100
AcDbLine
 10
170.108565
 20
121.9636899999999
 30
0.0
 11
168.776565
 21
119.2096899999999
 31
0.0
  0
LINE
  5
4D3
330
1E
100
AcDbEntity
  8
0
100
AcDbLine
 10
171.140365
 20
125.5076899999999
 30
0.0
 11
170.108565
 21
121.9636899999999
 31
0.0
  0
LINE
  5
4D4
330
1E
100
AcDbEntity
  8
0
100
AcDbLine
 10
172.5707649999999
 20
121.9636899999999
 30
0.0
 11
172.402265
 21
125.5076899999999
 31
0.0
  0
LINE
  5
4D5
330
1E
100
AcDbEntity
  8
0
100
AcDbLine
 10
173.3539649999999
 20
119.2096899999999
 30
0.0
 11
172.5707649999999
 21
121.9636899999999
 31
0.0
  0
LINE
  5
4D6
330
1E
100
AcDbEntity
  8
0
100
AcDbLine
 10
170.2754649999999
 20
134.6306899999999
 30
0.0
 11
169.3620649999999
 21
135.1496899999999
 31
0.0
  0
LINE
  5
4D7
330
1E
100
AcDbEntity
  8
0
100
AcDbLine
 10
170.2797649999999
 20
135.1496899999999
 30
0.0
 11
167.880465
 21
135.5056899999999
 31
0.0
  0
LINE
  5
4D8
330
1E
100
AcDbEntity
  8
0
100
AcDbLine
 10
170.9053649999999
 20
133.9766899999999
 30
0.0
 11
170.2754649999999
 21
134.6306899999999
 31
0.0
  0
LINE
  5
4D9
330
1E
100
AcDbEntity
  8
0
100
AcDbLine
 10
171.8230649999999
 20
133.9766899999999
 30
0.0
 11
171.1931649999999
 21
134.6306899999999
 31
0.0
  0
LINE
  5
4DA
330
1E
100
AcDbEntity
  8
0
100
AcDbLine
 10
172.405465
 20
132.8806899999999
 30
0.0
 11
171.8230649999999
 21
133.9766899999999
 31
0.0
  0
LINE
  5
4DB
330
1E
100
AcDbEntity
  8
0
100
AcDbLine
 10
172.720065
 20
131.3806899999999
 30
0.0
 11
172.621765
 21
129.4826899999999
 31
0.0
  0
LINE
  5
4DC
330
1E
100
AcDbEntity
  8
0
100
AcDbLine
 10
172.720065
 20
131.3806899999999
 30
0.0
 11
172.405465
 21
132.8806899999999
 31
0.0
  0
LINE
  5
4DD
330
1E
100
AcDbEntity
  8
0
100
AcDbLine
 10
171.802365
 20
131.3806899999999
 30
0.0
 11
171.704065
 21
129.4826899999999
 31
0.0
  0
LINE
  5
4DE
330
1E
100
AcDbEntity
  8
0
100
AcDbLine
 10
171.487765
 20
132.8806899999999
 30
0.0
 11
170.9053649999999
 21
133.9766899999999
 31
0.0
  0
LINE
  5
4DF
330
1E
100
AcDbEntity
  8
0
100
AcDbLine
 10
171.802365
 20
131.3806899999999
 30
0.0
 11
171.487765
 21
132.8806899999999
 31
0.0
  0
LINE
  5
4E0
330
1E
100
AcDbEntity
  8
0
100
AcDbLine
 10
171.1931649999999
 20
134.6306899999999
 30
0.0
 11
170.2797649999999
 21
135.1496899999999
 31
0.0
  0
LINE
  5
4E1
330
1E
100
AcDbEntity
  8
0
100
AcDbLine
 10
169.3620649999999
 20
135.1496899999999
 30
0.0
 11
166.9627649999999
 21
135.5056899999999
 31
0.0
  0
LINE
  5
4E2
330
1E
100
AcDbEntity
  8
0
100
AcDbLine
 10
167.880465
 20
135.5056899999999
 30
0.0
 11
167.4216649999999
 21
135.5056899999999
 31
0.0
  0
LINE
  5
4E3
330
1E
100
AcDbEntity
  8
0
100
AcDbLine
 10
167.4216649999999
 20
135.5056899999999
 30
0.0
 11
166.9627649999999
 21
135.5056899999999
 31
0.0
  0
LINE
  5
4E4
330
1E
100
AcDbEntity
  8
0
100
AcDbLine
 10
132.058365
 20
118.1056899999999
 30
0.0
 11
130.394965
 21
116.9056899999999
 31
0.0
  0
LINE
  5
4E5
330
1E
100
AcDbEntity
  8
0
100
AcDbLine
 10
141.888165
 20
118.1056899999999
 30
0.0
 11
140.2247649999999
 21
116.9056899999999
 31
0.0
  0
LINE
  5
4E6
330
1E
100
AcDbEntity
  8
0
100
AcDbLine
 10
142.707265
 20
118.1056899999999
 30
0.0
 11
141.043965
 21
116.9056899999999
 31
0.0
  0
LINE
  5
4E7
330
1E
100
AcDbEntity
  8
0
100
AcDbLine
 10
143.9360649999999
 20
118.1056899999999
 30
0.0
 11
142.272665
 21
116.9056899999999
 31
0.0
  0
LINE
  5
4E8
330
1E
100
AcDbEntity
  8
0
100
AcDbLine
 10
144.402965
 20
117.60569
 30
0.0
 11
142.8542649999999
 21
116.5056899999999
 31
0.0
  0
LINE
  5
4E9
330
1E
100
AcDbEntity
  8
0
100
AcDbLine
 10
149.155565
 20
116.9056899999999
 30
0.0
 11
147.4921649999999
 21
118.1056899999999
 31
0.0
  0
LINE
  5
4EA
330
1E
100
AcDbEntity
  8
0
100
AcDbLine
 10
149.393065
 20
116.5056899999999
 30
0.0
 11
147.844465
 21
117.60569
 31
0.0
  0
LINE
  5
4EB
330
1E
100
AcDbEntity
  8
0
100
AcDbLine
 10
161.4893649999999
 20
119.2096899999999
 30
0.0
 11
160.586465
 21
116.9276899999999
 31
0.0
  0
LINE
  5
4EC
330
1E
100
AcDbEntity
  8
0
100
AcDbLine
 10
153.790565
 20
100.50569
 30
0.0
 11
146.123665
 21
100.50569
 31
0.0
  0
LINE
  5
4ED
330
1E
100
AcDbEntity
  8
0
100
AcDbLine
 10
149.155565
 20
96.10568999999999
 30
0.0
 11
147.4921649999999
 21
94.90569
 31
0.0
  0
LINE
  5
4EE
330
1E
100
AcDbEntity
  8
0
100
AcDbLine
 10
147.844465
 20
95.40569000000001
 30
0.0
 11
146.123665
 21
95.00569
 31
0.0
  0
LINE
  5
4EF
330
1E
100
AcDbEntity
  8
0
100
AcDbLine
 10
153.790565
 20
112.5056899999999
 30
0.0
 11
146.123665
 21
112.5056899999999
 31
0.0
  0
LINE
  5
4F0
330
1E
100
AcDbEntity
  8
0
100
AcDbLine
 10
161.4893649999999
 20
93.80169
 30
0.0
 11
160.586465
 21
96.08339
 31
0.0
  0
LINE
  5
4F1
330
1E
100
AcDbEntity
  8
0
100
AcDbLine
 10
162.221565
 20
83.52859
 30
0.0
 11
162.123265
 21
81.63089000000001
 31
0.0
  0
LINE
  5
4F2
330
1E
100
AcDbEntity
  8
0
100
AcDbLine
 10
163.6501649999999
 20
78.38109
 30
0.0
 11
163.020165
 21
79.03489
 31
0.0
  0
LINE
  5
4F3
330
1E
100
AcDbEntity
  8
0
100
AcDbLine
 10
164.563465
 20
77.86189
 30
0.0
 11
163.6501649999999
 21
78.38109
 31
0.0
  0
LINE
  5
4F4
330
1E
100
AcDbEntity
  8
0
100
AcDbLine
 10
162.437765
 20
80.13099
 30
0.0
 11
162.123265
 21
81.63089000000001
 31
0.0
  0
LINE
  5
4F5
330
1E
100
AcDbEntity
  8
0
100
AcDbLine
 10
163.020165
 20
79.03489
 30
0.0
 11
162.437765
 21
80.13099
 31
0.0
  0
LINE
  5
4F6
330
1E
100
AcDbEntity
  8
0
100
AcDbLine
 10
162.440965
 20
87.50369
 30
0.0
 11
162.2725649999999
 21
91.04779
 31
0.0
  0
LINE
  5
4F7
330
1E
100
AcDbEntity
  8
0
100
AcDbLine
 10
162.440965
 20
87.50369
 30
0.0
 11
162.221565
 21
83.52859
 31
0.0
  0
LINE
  5
4F8
330
1E
100
AcDbEntity
  8
0
100
AcDbLine
 10
162.2725649999999
 20
91.04779
 30
0.0
 11
161.4893649999999
 21
93.80169
 31
0.0
  0
LINE
  5
4F9
330
1E
100
AcDbEntity
  8
0
100
AcDbLine
 10
158.049865
 20
100.50569
 30
0.0
 11
156.5338529091307
 21
102.4608932740759
 31
0.0
  0
LINE
  5
4FA
330
1E
100
AcDbEntity
  8
0
100
AcDbLine
 10
158.2938249999999
 20
100.00569
 30
0.0
 11
155.1343649999999
 21
100.00569
 31
0.0
  0
LINE
  5
4FB
330
1E
100
AcDbEntity
  8
0
100
AcDbLine
 10
158.2938249999999
 20
113.0056899999999
 30
0.0
 11
155.1343649999999
 21
113.0056899999999
 31
0.0
  0
LINE
  5
4FC
330
1E
100
AcDbEntity
  8
0
100
AcDbLine
 10
158.049865
 20
112.5056899999999
 30
0.0
 11
156.5340587285213
 21
110.550752171529
 31
0.0
  0
LINE
  5
4FD
330
1E
100
AcDbEntity
  8
0
100
AcDbLine
 10
156.818765
 20
107.3056899999999
 30
0.0
 11
155.607665
 21
107.3056899999999
 31
0.0
  0
LINE
  5
4FE
330
1E
100
AcDbEntity
  8
0
100
AcDbLine
 10
156.818765
 20
105.7056899999999
 30
0.0
 11
155.607665
 21
105.7056899999999
 31
0.0
  0
LINE
  5
4FF
330
1E
100
AcDbEntity
  8
0
100
AcDbLine
 10
162.473365
 20
104.35969
 30
0.0
 11
160.8722649999999
 21
105.4056899999999
 31
0.0
  0
LINE
  5
500
330
1E
100
AcDbEntity
  8
0
100
AcDbLine
 10
163.778565
 20
102.51569
 30
0.0
 11
162.473365
 21
104.35969
 31
0.0
  0
LINE
  5
501
330
1E
100
AcDbEntity
  8
0
100
AcDbLine
 10
164.837365
 20
100.50569
 30
0.0
 11
163.778565
 21
102.51569
 31
0.0
  0
LINE
  5
502
330
1E
100
AcDbEntity
  8
0
100
AcDbLine
 10
159.269665
 20
98.00569000000001
 30
0.0
 11
158.049865
 21
100.50569
 31
0.0
  0
LINE
  5
503
330
1E
100
AcDbEntity
  8
0
100
AcDbLine
 10
160.586465
 20
96.08339
 30
0.0
 11
159.269665
 21
98.00569000000001
 31
0.0
  0
LINE
  5
504
330
1E
100
AcDbEntity
  8
0
100
AcDbLine
 10
158.9837649999999
 20
105.7056899999999
 30
0.0
 11
157.9935649999999
 21
105.7056899999999
 31
0.0
  0
LINE
  5
505
330
1E
100
AcDbEntity
  8
0
100
AcDbLine
 10
160.8722649999999
 20
105.4056899999999
 30
0.0
 11
158.9837649999999
 21
105.7056899999999
 31
0.0
  0
LINE
  5
506
330
1E
100
AcDbEntity
  8
0
100
AcDbLine
 10
157.9935649999999
 20
105.7056899999999
 30
0.0
 11
156.818765
 21
105.7056899999999
 31
0.0
  0
LINE
  5
507
330
1E
100
AcDbEntity
  8
0
100
AcDbLine
 10
162.473365
 20
108.6516899999999
 30
0.0
 11
160.8722649999999
 21
107.6056899999999
 31
0.0
  0
LINE
  5
508
330
1E
100
AcDbEntity
  8
0
100
AcDbLine
 10
164.837365
 20
112.5056899999999
 30
0.0
 11
163.778565
 21
110.4956899999999
 31
0.0
  0
LINE
  5
509
330
1E
100
AcDbEntity
  8
0
100
AcDbLine
 10
163.778565
 20
110.4956899999999
 30
0.0
 11
162.473365
 21
108.6516899999999
 31
0.0
  0
LINE
  5
50A
330
1E
100
AcDbEntity
  8
0
100
AcDbLine
 10
158.9837649999999
 20
107.3056899999999
 30
0.0
 11
157.9935649999999
 21
107.3056899999999
 31
0.0
  0
LINE
  5
50B
330
1E
100
AcDbEntity
  8
0
100
AcDbLine
 10
160.8722649999999
 20
107.6056899999999
 30
0.0
 11
158.9837649999999
 21
107.3056899999999
 31
0.0
  0
LINE
  5
50C
330
1E
100
AcDbEntity
  8
0
100
AcDbLine
 10
157.9935649999999
 20
107.3056899999999
 30
0.0
 11
156.818765
 21
107.3056899999999
 31
0.0
  0
LINE
  5
50D
330
1E
100
AcDbEntity
  8
0
100
AcDbLine
 10
159.269665
 20
115.0056899999999
 30
0.0
 11
158.049865
 21
112.5056899999999
 31
0.0
  0
LINE
  5
50E
330
1E
100
AcDbEntity
  8
0
100
AcDbLine
 10
160.586465
 20
116.9276899999999
 30
0.0
 11
159.269665
 21
115.0056899999999
 31
0.0
  0
LINE
  5
50F
330
1E
100
AcDbEntity
  8
0
100
AcDbLine
 10
147.745965
 20
106.5056899999999
 30
0.0
 11
147.7224649999999
 21
105.7056899999999
 31
0.0
  0
LINE
  5
510
330
1E
100
AcDbEntity
  8
0
100
AcDbLine
 10
153.5224292502486
 20
104.50569
 30
0.0
 11
150.812465
 21
104.70569
 31
0.0
  0
LINE
  5
511
330
1E
100
AcDbEntity
  8
0
100
AcDbLine
 10
152.495865
 20
101.90569
 30
0.0
 11
151.922365
 21
103.30569
 31
0.0
  0
LINE
  5
512
330
1E
100
AcDbEntity
  8
0
100
AcDbLine
 10
153.391565
 20
105.7056899999999
 30
0.0
 11
150.7879649999999
 21
105.7056899999999
 31
0.0
  0
LINE
  5
513
330
1E
100
AcDbEntity
  8
0
100
AcDbLine
 10
155.1343649999999
 20
100.00569
 30
0.0
 11
154.159265
 21
100.20569
 31
0.0
  0
LINE
  5
514
330
1E
100
AcDbEntity
  8
0
100
AcDbLine
 10
154.900265
 20
103.89869
 30
0.0
 11
153.4571655510748
 21
104.5344416602799
 31
0.0
  0
LINE
  5
515
330
1E
100
AcDbEntity
  8
0
100
AcDbLine
 10
154.6026649999999
 20
105.7056899999999
 30
0.0
 11
153.391565
 21
105.7056899999999
 31
0.0
  0
LINE
  5
516
330
1E
100
AcDbEntity
  8
0
100
AcDbLine
 10
156.5338529091308
 20
102.4608932740757
 30
0.0
 11
154.900265
 21
103.89869
 31
0.0
  0
LINE
  5
517
330
1E
100
AcDbEntity
  8
0
100
AcDbLine
 10
155.607665
 20
105.7056899999999
 30
0.0
 11
154.6026649999999
 21
105.7056899999999
 31
0.0
  0
LINE
  5
518
330
1E
100
AcDbEntity
  8
0
100
AcDbLine
 10
153.298965
 20
100.90569
 30
0.0
 11
152.495865
 21
101.90569
 31
0.0
  0
LINE
  5
519
330
1E
100
AcDbEntity
  8
0
100
AcDbLine
 10
154.159265
 20
100.20569
 30
0.0
 11
153.298965
 21
100.90569
 31
0.0
  0
LINE
  5
51A
330
1E
100
AcDbEntity
  8
0
100
AcDbLine
 10
151.72324
 20
100.50569
 30
0.0
 11
150.7696649999999
 21
98.40569000000002
 31
0.0
  0
LINE
  5
51B
330
1E
100
AcDbEntity
  8
0
100
AcDbLine
 10
150.7696649999999
 20
98.40569000000002
 30
0.0
 11
149.393065
 21
96.50569
 31
0.0
  0
LINE
  5
51C
330
1E
100
AcDbEntity
  8
0
100
AcDbLine
 10
150.589565
 20
98.00569000000001
 30
0.0
 11
149.155565
 21
96.10568999999999
 31
0.0
  0
LINE
  5
51D
330
1E
100
AcDbEntity
  8
0
100
AcDbLine
 10
150.7696649999999
 20
98.40569000000002
 30
0.0
 11
150.589565
 21
98.00569000000001
 31
0.0
  0
LINE
  5
51E
330
1E
100
AcDbEntity
  8
0
100
AcDbLine
 10
149.393065
 20
96.50569
 30
0.0
 11
147.844465
 21
95.40569000000001
 31
0.0
  0
LINE
  5
51F
330
1E
100
AcDbEntity
  8
0
100
AcDbLine
 10
150.818965
 20
104.70569
 30
0.0
 11
148.177865
 21
105.2056899999999
 31
0.0
  0
LINE
  5
520
330
1E
100
AcDbEntity
  8
0
100
AcDbLine
 10
150.7879649999999
 20
105.7056899999999
 30
0.0
 11
148.5929649999999
 21
105.7056899999999
 31
0.0
  0
LINE
  5
521
330
1E
100
AcDbEntity
  8
0
100
AcDbLine
 10
151.922365
 20
103.30569
 30
0.0
 11
151.5593330141921
 21
104.6619738822209
 31
0.0
  0
LINE
  5
522
330
1E
100
AcDbEntity
  8
0
100
AcDbLine
 10
148.5929649999999
 20
105.7056899999999
 30
0.0
 11
147.977365
 21
105.7056899999999
 31
0.0
  0
LINE
  5
523
330
1E
100
AcDbEntity
  8
0
100
AcDbLine
 10
147.977365
 20
105.7056899999999
 30
0.0
 11
147.7224649999999
 21
105.7056899999999
 31
0.0
  0
LINE
  5
524
330
1E
100
AcDbEntity
  8
0
100
AcDbLine
 10
148.177865
 20
105.2056899999999
 30
0.0
 11
147.7224649999999
 21
105.7056899999999
 31
0.0
  0
LINE
  5
525
330
1E
100
AcDbEntity
  8
0
100
AcDbLine
 10
152.495865
 20
111.1056899999999
 30
0.0
 11
151.922365
 21
109.7056899999999
 31
0.0
  0
LINE
  5
526
330
1E
100
AcDbEntity
  8
0
100
AcDbLine
 10
153.4571655510748
 20
108.47693833972
 30
0.0
 11
150.812465
 21
108.3056899999999
 31
0.0
  0
LINE
  5
527
330
1E
100
AcDbEntity
  8
0
100
AcDbLine
 10
153.391565
 20
107.3056899999999
 30
0.0
 11
150.7879649999999
 21
107.3056899999999
 31
0.0
  0
LINE
  5
528
330
1E
100
AcDbEntity
  8
0
100
AcDbLine
 10
153.298965
 20
112.1056899999999
 30
0.0
 11
152.495865
 21
111.1056899999999
 31
0.0
  0
LINE
  5
529
330
1E
100
AcDbEntity
  8
0
100
AcDbLine
 10
154.900265
 20
109.1126899999999
 30
0.0
 11
153.4571655510748
 21
108.47693833972
 31
0.0
  0
LINE
  5
52A
330
1E
100
AcDbEntity
  8
0
100
AcDbLine
 10
154.6026649999999
 20
107.3056899999999
 30
0.0
 11
153.391565
 21
107.3056899999999
 31
0.0
  0
LINE
  5
52B
330
1E
100
AcDbEntity
  8
0
100
AcDbLine
 10
155.607665
 20
107.3056899999999
 30
0.0
 11
154.6026649999999
 21
107.3056899999999
 31
0.0
  0
LINE
  5
52C
330
1E
100
AcDbEntity
  8
0
100
AcDbLine
 10
156.5340587285213
 20
110.550752171529
 30
0.0
 11
154.900265
 21
109.1126899999999
 31
0.0
  0
LINE
  5
52D
330
1E
100
AcDbEntity
  8
0
100
AcDbLine
 10
155.1343649999999
 20
113.0056899999999
 30
0.0
 11
154.159265
 21
112.8056899999999
 31
0.0
  0
LINE
  5
52E
330
1E
100
AcDbEntity
  8
0
100
AcDbLine
 10
154.159265
 20
112.8056899999999
 30
0.0
 11
153.298965
 21
112.1056899999999
 31
0.0
  0
LINE
  5
52F
330
1E
100
AcDbEntity
  8
0
100
AcDbLine
 10
150.7879649999999
 20
107.3056899999999
 30
0.0
 11
148.5929649999999
 21
107.3056899999999
 31
0.0
  0
LINE
  5
530
330
1E
100
AcDbEntity
  8
0
100
AcDbLine
 10
150.818965
 20
108.3056899999999
 30
0.0
 11
148.177865
 21
107.8056899999999
 31
0.0
  0
LINE
  5
531
330
1E
100
AcDbEntity
  8
0
100
AcDbLine
 10
151.922365
 20
109.7056899999999
 30
0.0
 11
151.5593330141921
 21
108.349406117779
 31
0.0
  0
LINE
  5
532
330
1E
100
AcDbEntity
  8
0
100
AcDbLine
 10
147.745965
 20
106.5056899999999
 30
0.0
 11
147.7224649999999
 21
107.3056899999999
 31
0.0
  0
LINE
  5
533
330
1E
100
AcDbEntity
  8
0
100
AcDbLine
 10
148.5929649999999
 20
107.3056899999999
 30
0.0
 11
147.977365
 21
107.3056899999999
 31
0.0
  0
LINE
  5
534
330
1E
100
AcDbEntity
  8
0
100
AcDbLine
 10
147.977365
 20
107.3056899999999
 30
0.0
 11
147.7224649999999
 21
107.3056899999999
 31
0.0
  0
LINE
  5
535
330
1E
100
AcDbEntity
  8
0
100
AcDbLine
 10
148.177865
 20
107.8056899999999
 30
0.0
 11
147.7224649999999
 21
107.3056899999999
 31
0.0
  0
LINE
  5
536
330
1E
100
AcDbEntity
  8
0
100
AcDbLine
 10
150.589565
 20
115.0056899999999
 30
0.0
 11
149.155565
 21
116.9056899999999
 31
0.0
  0
LINE
  5
537
330
1E
100
AcDbEntity
  8
0
100
AcDbLine
 10
150.7696649999999
 20
114.60569
 30
0.0
 11
149.393065
 21
116.5056899999999
 31
0.0
  0
LINE
  5
538
330
1E
100
AcDbEntity
  8
0
100
AcDbLine
 10
151.72324
 20
112.5056899999999
 30
0.0
 11
150.7696649999999
 21
114.60569
 31
0.0
  0
LINE
  5
539
330
1E
100
AcDbEntity
  8
0
100
AcDbLine
 10
150.7696649999999
 20
114.60569
 30
0.0
 11
150.589565
 21
115.0056899999999
 31
0.0
  0
LINE
  5
53A
330
1E
100
AcDbEntity
  8
0
100
AcDbLine
 10
144.075815
 20
94.5978220510657
 30
0.0
 11
143.666265
 21
94.50568999999999
 31
0.0
  0
LINE
  5
53B
330
1E
100
AcDbEntity
  8
0
100
AcDbLine
 10
143.666265
 20
94.50568999999999
 30
0.0
 11
141.888165
 21
94.90569
 31
0.0
  0
LINE
  5
53C
330
1E
100
AcDbEntity
  8
0
100
AcDbLine
 10
133.836365
 20
94.50568999999999
 30
0.0
 11
132.058365
 21
94.90569
 31
0.0
  0
LINE
  5
53D
330
1E
100
AcDbEntity
  8
0
100
AcDbLine
 10
147.4921649999999
 20
94.90569
 30
0.0
 11
145.714165
 21
94.50568999999999
 31
0.0
  0
LINE
  5
53E
330
1E
100
AcDbEntity
  8
0
100
AcDbLine
 10
145.714165
 20
94.50568999999999
 30
0.0
 11
143.9360649999999
 21
94.90569
 31
0.0
  0
LINE
  5
53F
330
1E
100
AcDbEntity
  8
0
100
AcDbLine
 10
144.4853649999999
 20
94.50568999999999
 30
0.0
 11
142.707265
 21
94.90569
 31
0.0
  0
LINE
  5
540
330
1E
100
AcDbEntity
  8
0
100
AcDbLine
 10
143.666265
 20
94.50568999999999
 30
0.0
 11
133.836365
 21
94.50568999999999
 31
0.0
  0
LINE
  5
541
330
1E
100
AcDbEntity
  8
0
100
AcDbLine
 10
138.9337668997235
 20
94.50568999999999
 30
0.0
 11
131.451165
 21
91.00569
 31
0.0
  0
LINE
  5
542
330
1E
100
AcDbEntity
  8
0
100
AcDbLine
 10
145.714165
 20
94.50568999999999
 30
0.0
 11
144.4853649999999
 21
94.50568999999999
 31
0.0
  0
LINE
  5
543
330
1E
100
AcDbEntity
  8
0
100
AcDbLine
 10
130.9209649999999
 20
90.60568999999999
 30
0.0
 11
129.8069649999999
 21
90.10569
 31
0.0
  0
LINE
  5
544
330
1E
100
AcDbEntity
  8
0
100
AcDbLine
 10
131.5828944980204
 20
91.06730670088159
 30
0.0
 11
130.9209649999999
 21
90.60568999999999
 31
0.0
  0
LINE
  5
545
330
1E
100
AcDbEntity
  8
0
100
AcDbLine
 10
138.7908649999999
 20
115.0056899999999
 30
0.0
 11
137.701065
 21
112.5056899999999
 31
0.0
  0
LINE
  5
546
330
1E
100
AcDbEntity
  8
0
100
AcDbLine
 10
139.429865
 20
114.60569
 30
0.0
 11
138.340065
 21
112.20569
 31
0.0
  0
LINE
  5
547
330
1E
100
AcDbEntity
  8
0
100
AcDbLine
 10
139.6099649999999
 20
115.0056899999999
 30
0.0
 11
138.520165
 21
112.5056899999999
 31
0.0
  0
LINE
  5
548
330
1E
100
AcDbEntity
  8
0
100
AcDbLine
 10
139.429865
 20
98.40569000000002
 30
0.0
 11
138.340065
 21
100.8056899999999
 31
0.0
  0
LINE
  5
549
330
1E
100
AcDbEntity
  8
0
100
AcDbLine
 10
139.6099649999999
 20
98.00569000000001
 30
0.0
 11
138.520165
 21
100.50569
 31
0.0
  0
LINE
  5
54A
330
1E
100
AcDbEntity
  8
0
100
AcDbLine
 10
138.7908649999999
 20
98.00569000000001
 30
0.0
 11
137.701065
 21
100.50569
 31
0.0
  0
LINE
  5
54B
330
1E
100
AcDbEntity
  8
0
100
AcDbLine
 10
139.060665
 20
103.40569
 30
0.0
 11
138.831165
 21
106.5056899999999
 31
0.0
  0
LINE
  5
54C
330
1E
100
AcDbEntity
  8
0
100
AcDbLine
 10
139.756965
 20
103.50569
 30
0.0
 11
139.527565
 21
106.5056899999999
 31
0.0
  0
LINE
  5
54D
330
1E
100
AcDbEntity
  8
0
100
AcDbLine
 10
142.796965
 20
105.0056899999999
 30
0.0
 11
142.682265
 21
106.5056899999999
 31
0.0
  0
LINE
  5
54E
330
1E
100
AcDbEntity
  8
0
100
AcDbLine
 10
143.714665
 20
102.30569
 30
0.0
 11
143.1410649999999
 21
103.50569
 31
0.0
  0
LINE
  5
54F
330
1E
100
AcDbEntity
  8
0
100
AcDbLine
 10
143.9360649999999
 20
94.90569
 30
0.0
 11
142.272665
 21
96.10568999999999
 31
0.0
  0
LINE
  5
550
330
1E
100
AcDbEntity
  8
0
100
AcDbLine
 10
144.402965
 20
95.40569000000001
 30
0.0
 11
142.8542649999999
 21
96.50569
 31
0.0
  0
LINE
  5
551
330
1E
100
AcDbEntity
  8
0
100
AcDbLine
 10
146.123665
 20
95.00569
 30
0.0
 11
144.402965
 21
95.40569000000001
 31
0.0
  0
LINE
  5
552
330
1E
100
AcDbEntity
  8
0
100
AcDbLine
 10
146.123665
 20
100.50569
 30
0.0
 11
145.2633649999999
 21
100.70569
 31
0.0
  0
LINE
  5
553
330
1E
100
AcDbEntity
  8
0
100
AcDbLine
 10
144.402965
 20
101.30569
 30
0.0
 11
143.714665
 21
102.30569
 31
0.0
  0
LINE
  5
554
330
1E
100
AcDbEntity
  8
0
100
AcDbLine
 10
145.2633649999999
 20
100.70569
 30
0.0
 11
144.402965
 21
101.30569
 31
0.0
  0
LINE
  5
555
330
1E
100
AcDbEntity
  8
0
100
AcDbLine
 10
140.8387649999999
 20
98.00569000000001
 30
0.0
 11
139.748965
 21
100.50569
 31
0.0
  0
LINE
  5
556
330
1E
100
AcDbEntity
  8
0
100
AcDbLine
 10
141.4777649999999
 20
98.40569000000002
 30
0.0
 11
140.387965
 21
100.8056899999999
 31
0.0
  0
LINE
  5
557
330
1E
100
AcDbEntity
  8
0
100
AcDbLine
 10
141.888165
 20
94.90569
 30
0.0
 11
140.2247649999999
 21
96.10568999999999
 31
0.0
  0
LINE
  5
558
330
1E
100
AcDbEntity
  8
0
100
AcDbLine
 10
141.043965
 20
96.10568999999999
 30
0.0
 11
139.6099649999999
 21
98.00569000000001
 31
0.0
  0
LINE
  5
559
330
1E
100
AcDbEntity
  8
0
100
AcDbLine
 10
142.272665
 20
96.10568999999999
 30
0.0
 11
140.8387649999999
 21
98.00569000000001
 31
0.0
  0
LINE
  5
55A
330
1E
100
AcDbEntity
  8
0
100
AcDbLine
 10
142.8542649999999
 20
96.50569
 30
0.0
 11
141.4777649999999
 21
98.40569000000002
 31
0.0
  0
LINE
  5
55B
330
1E
100
AcDbEntity
  8
0
100
AcDbLine
 10
142.707265
 20
94.90569
 30
0.0
 11
141.043965
 21
96.10568999999999
 31
0.0
  0
LINE
  5
55C
330
1E
100
AcDbEntity
  8
0
100
AcDbLine
 10
140.2247649999999
 20
96.10568999999999
 30
0.0
 11
138.7908649999999
 21
98.00569000000001
 31
0.0
  0
LINE
  5
55D
330
1E
100
AcDbEntity
  8
0
100
AcDbLine
 10
139.6099649999999
 20
98.00569000000001
 30
0.0
 11
139.429865
 21
98.40569000000002
 31
0.0
  0
LINE
  5
55E
330
1E
100
AcDbEntity
  8
0
100
AcDbLine
 10
143.1410649999999
 20
103.50569
 30
0.0
 11
142.796965
 21
105.0056899999999
 31
0.0
  0
LINE
  5
55F
330
1E
100
AcDbEntity
  8
0
100
AcDbLine
 10
139.748965
 20
100.50569
 30
0.0
 11
139.060665
 21
103.40569
 31
0.0
  0
LINE
  5
560
330
1E
100
AcDbEntity
  8
0
100
AcDbLine
 10
140.387965
 20
100.8056899999999
 30
0.0
 11
139.756965
 21
103.50569
 31
0.0
  0
LINE
  5
561
330
1E
100
AcDbEntity
  8
0
100
AcDbLine
 10
143.714665
 20
110.7056899999999
 30
0.0
 11
143.1410649999999
 21
109.5056899999999
 31
0.0
  0
LINE
  5
562
330
1E
100
AcDbEntity
  8
0
100
AcDbLine
 10
144.402965
 20
111.7056899999999
 30
0.0
 11
143.714665
 21
110.7056899999999
 31
0.0
  0
LINE
  5
563
330
1E
100
AcDbEntity
  8
0
100
AcDbLine
 10
146.123665
 20
112.5056899999999
 30
0.0
 11
145.2633649999999
 21
112.3056899999999
 31
0.0
  0
LINE
  5
564
330
1E
100
AcDbEntity
  8
0
100
AcDbLine
 10
145.2633649999999
 20
112.3056899999999
 30
0.0
 11
144.402965
 21
111.7056899999999
 31
0.0
  0
LINE
  5
565
330
1E
100
AcDbEntity
  8
0
100
AcDbLine
 10
139.748965
 20
112.5056899999999
 30
0.0
 11
139.060665
 21
109.6056899999999
 31
0.0
  0
LINE
  5
566
330
1E
100
AcDbEntity
  8
0
100
AcDbLine
 10
140.387965
 20
112.20569
 30
0.0
 11
139.756965
 21
109.5056899999999
 31
0.0
  0
LINE
  5
567
330
1E
100
AcDbEntity
  8
0
100
AcDbLine
 10
143.1410649999999
 20
109.5056899999999
 30
0.0
 11
142.796965
 21
108.0056899999999
 31
0.0
  0
LINE
  5
568
330
1E
100
AcDbEntity
  8
0
100
AcDbLine
 10
142.796965
 20
108.0056899999999
 30
0.0
 11
142.682265
 21
106.5056899999999
 31
0.0
  0
LINE
  5
569
330
1E
100
AcDbEntity
  8
0
100
AcDbLine
 10
139.060665
 20
109.6056899999999
 30
0.0
 11
138.831165
 21
106.5056899999999
 31
0.0
  0
LINE
  5
56A
330
1E
100
AcDbEntity
  8
0
100
AcDbLine
 10
139.756965
 20
109.5056899999999
 30
0.0
 11
139.527565
 21
106.5056899999999
 31
0.0
  0
LINE
  5
56B
330
1E
100
AcDbEntity
  8
0
100
AcDbLine
 10
141.4777649999999
 20
114.60569
 30
0.0
 11
140.387965
 21
112.20569
 31
0.0
  0
LINE
  5
56C
330
1E
100
AcDbEntity
  8
0
100
AcDbLine
 10
141.043965
 20
116.9056899999999
 30
0.0
 11
139.6099649999999
 21
115.0056899999999
 31
0.0
  0
LINE
  5
56D
330
1E
100
AcDbEntity
  8
0
100
AcDbLine
 10
142.272665
 20
116.9056899999999
 30
0.0
 11
140.8387649999999
 21
115.0056899999999
 31
0.0
  0
LINE
  5
56E
330
1E
100
AcDbEntity
  8
0
100
AcDbLine
 10
142.8542649999999
 20
116.5056899999999
 30
0.0
 11
141.4777649999999
 21
114.60569
 31
0.0
  0
LINE
  5
56F
330
1E
100
AcDbEntity
  8
0
100
AcDbLine
 10
140.8387649999999
 20
115.0056899999999
 30
0.0
 11
139.748965
 21
112.5056899999999
 31
0.0
  0
LINE
  5
570
330
1E
100
AcDbEntity
  8
0
100
AcDbLine
 10
140.2247649999999
 20
116.9056899999999
 30
0.0
 11
138.7908649999999
 21
115.0056899999999
 31
0.0
  0
LINE
  5
571
330
1E
100
AcDbEntity
  8
0
100
AcDbLine
 10
139.6099649999999
 20
115.0056899999999
 30
0.0
 11
139.429865
 21
114.60569
 31
0.0
  0
LINE
  5
572
330
1E
100
AcDbEntity
  8
0
100
AcDbLine
 10
137.012765
 20
103.40569
 30
0.0
 11
136.783365
 21
106.5056899999999
 31
0.0
  0
LINE
  5
573
330
1E
100
AcDbEntity
  8
0
100
AcDbLine
 10
137.709065
 20
103.50569
 30
0.0
 11
137.479665
 21
106.5056899999999
 31
0.0
  0
LINE
  5
574
330
1E
100
AcDbEntity
  8
0
100
AcDbLine
 10
137.8318649999999
 20
103.40569
 30
0.0
 11
137.6024649999999
 21
106.5056899999999
 31
0.0
  0
LINE
  5
575
330
1E
100
AcDbEntity
  8
0
100
AcDbLine
 10
137.701065
 20
100.50569
 30
0.0
 11
137.012765
 21
103.40569
 31
0.0
  0
LINE
  5
576
330
1E
100
AcDbEntity
  8
0
100
AcDbLine
 10
138.340065
 20
100.8056899999999
 30
0.0
 11
137.709065
 21
103.50569
 31
0.0
  0
LINE
  5
577
330
1E
100
AcDbEntity
  8
0
100
AcDbLine
 10
138.520165
 20
100.50569
 30
0.0
 11
137.8318649999999
 21
103.40569
 31
0.0
  0
LINE
  5
578
330
1E
100
AcDbEntity
  8
0
100
AcDbLine
 10
132.058365
 20
94.90569
 30
0.0
 11
130.394965
 21
96.10568999999999
 31
0.0
  0
LINE
  5
579
330
1E
100
AcDbEntity
  8
0
100
AcDbLine
 10
137.701065
 20
112.5056899999999
 30
0.0
 11
137.012765
 21
109.6056899999999
 31
0.0
  0
LINE
  5
57A
330
1E
100
AcDbEntity
  8
0
100
AcDbLine
 10
138.340065
 20
112.20569
 30
0.0
 11
137.709065
 21
109.5056899999999
 31
0.0
  0
LINE
  5
57B
330
1E
100
AcDbEntity
  8
0
100
AcDbLine
 10
138.520165
 20
112.5056899999999
 30
0.0
 11
137.8318649999999
 21
109.6056899999999
 31
0.0
  0
LINE
  5
57C
330
1E
100
AcDbEntity
  8
0
100
AcDbLine
 10
137.012765
 20
109.6056899999999
 30
0.0
 11
136.783365
 21
106.5056899999999
 31
0.0
  0
LINE
  5
57D
330
1E
100
AcDbEntity
  8
0
100
AcDbLine
 10
137.709065
 20
109.5056899999999
 30
0.0
 11
137.479665
 21
106.5056899999999
 31
0.0
  0
LINE
  5
57E
330
1E
100
AcDbEntity
  8
0
100
AcDbLine
 10
137.8318649999999
 20
109.6056899999999
 30
0.0
 11
137.6024649999999
 21
106.5056899999999
 31
0.0
  0
LINE
  5
57F
330
1E
100
AcDbEntity
  8
0
100
AcDbLine
 10
147.844465
 20
117.60569
 30
0.0
 11
146.123665
 21
118.0056899999999
 31
0.0
  0
LINE
  5
580
330
1E
100
AcDbEntity
  8
0
100
AcDbLine
 10
162.440965
 20
125.5076899999999
 30
0.0
 11
162.221565
 21
129.4826899999999
 31
0.0
  0
LINE
  5
581
330
1E
100
AcDbEntity
  8
0
100
AcDbLine
 10
162.440965
 20
125.5076899999999
 30
0.0
 11
162.2725649999999
 21
121.9636899999999
 31
0.0
  0
LINE
  5
582
330
1E
100
AcDbEntity
  8
0
100
AcDbLine
 10
162.2725649999999
 20
121.9636899999999
 30
0.0
 11
161.4893649999999
 21
119.2096899999999
 31
0.0
  0
LINE
  5
583
330
1E
100
AcDbEntity
  8
0
100
AcDbLine
 10
163.6501649999999
 20
134.6306899999999
 30
0.0
 11
163.020165
 21
133.9766899999999
 31
0.0
  0
LINE
  5
584
330
1E
100
AcDbEntity
  8
0
100
AcDbLine
 10
162.221565
 20
129.4826899999999
 30
0.0
 11
162.123265
 21
131.3806899999999
 31
0.0
  0
LINE
  5
585
330
1E
100
AcDbEntity
  8
0
100
AcDbLine
 10
162.437765
 20
132.8806899999999
 30
0.0
 11
162.123265
 21
131.3806899999999
 31
0.0
  0
LINE
  5
586
330
1E
100
AcDbEntity
  8
0
100
AcDbLine
 10
163.020165
 20
133.9766899999999
 30
0.0
 11
162.437765
 21
132.8806899999999
 31
0.0
  0
LINE
  5
587
330
1E
100
AcDbEntity
  8
0
100
AcDbLine
 10
164.563465
 20
135.1496899999999
 30
0.0
 11
163.6501649999999
 21
134.6306899999999
 31
0.0
  0
LINE
  5
588
330
1E
100
AcDbEntity
  8
0
100
AcDbLine
 10
143.666265
 20
118.5056899999999
 30
0.0
 11
133.836365
 21
118.5056899999999
 31
0.0
  0
LINE
  5
589
330
1E
100
AcDbEntity
  8
0
100
AcDbLine
 10
143.666265
 20
118.5056899999999
 30
0.0
 11
141.888165
 21
118.1056899999999
 31
0.0
  0
LINE
  5
58A
330
1E
100
AcDbEntity
  8
0
100
AcDbLine
 10
144.4853649999999
 20
118.5056899999999
 30
0.0
 11
142.707265
 21
118.1056899999999
 31
0.0
  0
LINE
  5
58B
330
1E
100
AcDbEntity
  8
0
100
AcDbLine
 10
145.714165
 20
118.5056899999999
 30
0.0
 11
144.4853649999999
 21
118.5056899999999
 31
0.0
  0
LINE
  5
58C
330
1E
100
AcDbEntity
  8
0
100
AcDbLine
 10
145.714165
 20
118.5056899999999
 30
0.0
 11
143.9360649999999
 21
118.1056899999999
 31
0.0
  0
LINE
  5
58D
330
1E
100
AcDbEntity
  8
0
100
AcDbLine
 10
146.123665
 20
118.0056899999999
 30
0.0
 11
144.402965
 21
117.60569
 31
0.0
  0
LINE
  5
58E
330
1E
100
AcDbEntity
  8
0
100
AcDbLine
 10
147.4921649999999
 20
118.1056899999999
 30
0.0
 11
145.714165
 21
118.5056899999999
 31
0.0
  0
LINE
  5
58F
330
1E
100
AcDbEntity
  8
0
100
AcDbLine
 10
144.075815
 20
118.413557948934
 30
0.0
 11
143.666265
 21
118.5056899999999
 31
0.0
  0
LINE
  5
590
330
1E
100
AcDbEntity
  8
0
100
AcDbLine
 10
136.221665
 20
122.0056899999999
 30
0.0
 11
131.306765
 21
122.0056899999999
 31
0.0
  0
LINE
  5
591
330
1E
100
AcDbEntity
  8
0
100
AcDbLine
 10
138.2292657406753
 20
118.5056899999999
 30
0.0
 11
136.221665
 21
122.0056899999999
 31
0.0
  0
LINE
  5
592
330
1E
100
AcDbEntity
  8
0
100
AcDbLine
 10
130.9209649999999
 20
122.4056899999999
 30
0.0
 11
129.8069649999999
 21
122.90569
 31
0.0
  0
LINE
  5
593
330
1E
100
AcDbEntity
  8
0
100
AcDbLine
 10
133.836365
 20
118.5056899999999
 30
0.0
 11
132.058365
 21
118.1056899999999
 31
0.0
  0
LINE
  5
594
330
1E
100
AcDbEntity
  8
0
100
AcDbLine
 10
131.49454
 20
122.0056899999999
 30
0.0
 11
130.9209649999999
 21
122.4056899999999
 31
0.0
  0
LINE
  5
595
330
1E
100
AcDbEntity
  8
0
100
AcDbLine
 10
122.416265
 20
117.8466899999999
 30
0.0
 11
120.031065
 21
102.34719
 31
0.0
  0
LINE
  5
596
330
1E
100
AcDbEntity
  8
0
100
AcDbLine
 10
119.3436649999999
 20
118.2056899999999
 30
0.0
 11
117.852365
 21
114.7056899999999
 31
0.0
  0
LINE
  5
597
330
1E
100
AcDbEntity
  8
0
100
AcDbLine
 10
121.801065
 20
118.2056899999999
 30
0.0
 11
120.3097649999999
 21
114.7056899999999
 31
0.0
  0
LINE
  5
598
330
1E
100
AcDbEntity
  8
0
100
AcDbLine
 10
127.3311649999999
 20
117.8466899999999
 30
0.0
 11
124.945965
 21
102.34719
 31
0.0
  0
LINE
  5
599
330
1E
100
AcDbEntity
  8
0
100
AcDbLine
 10
121.351165
 20
92.20569000000001
 30
0.0
 11
119.3436649999999
 21
94.80569
 31
0.0
  0
LINE
  5
59A
330
1E
100
AcDbEntity
  8
0
100
AcDbLine
 10
123.808565
 20
92.20569000000001
 30
0.0
 11
121.801065
 21
94.80569
 31
0.0
  0
LINE
  5
59B
330
1E
100
AcDbEntity
  8
0
100
AcDbLine
 10
126.5362649999999
 20
91.00569
 30
0.0
 11
120.031065
 21
102.34719
 31
0.0
  0
LINE
  5
59C
330
1E
100
AcDbEntity
  8
0
100
AcDbLine
 10
126.102865
 20
90.60568999999999
 30
0.0
 11
123.808565
 21
92.20569000000001
 31
0.0
  0
LINE
  5
59D
330
1E
100
AcDbEntity
  8
0
100
AcDbLine
 10
127.283165
 20
89.50568999999999
 30
0.0
 11
124.759465
 21
90.10569
 31
0.0
  0
LINE
  5
59E
330
1E
100
AcDbEntity
  8
0
100
AcDbLine
 10
128.511965
 20
90.00569
 30
0.0
 11
126.102865
 21
90.60568999999999
 31
0.0
  0
LINE
  5
59F
330
1E
100
AcDbEntity
  8
0
100
AcDbLine
 10
123.6454649999999
 20
90.60568999999999
 30
0.0
 11
121.351165
 21
92.20569000000001
 31
0.0
  0
LINE
  5
5A0
330
1E
100
AcDbEntity
  8
0
100
AcDbLine
 10
124.759465
 20
90.10569
 30
0.0
 11
123.6454649999999
 21
90.60568999999999
 31
0.0
  0
LINE
  5
5A1
330
1E
100
AcDbEntity
  8
0
100
AcDbLine
 10
120.3474149999999
 20
93.50569
 30
0.0
 11
112.9228649999999
 21
93.50569
 31
0.0
  0
LINE
  5
5A2
330
1E
100
AcDbEntity
  8
0
100
AcDbLine
 10
120.3474149999999
 20
93.50569
 30
0.0
 11
112.9228649999999
 21
93.50569
 31
0.0
  0
LINE
  5
5A3
330
1E
100
AcDbEntity
  8
0
100
AcDbLine
 10
124.945965
 20
102.34719
 30
0.0
 11
120.031065
 21
102.34719
 31
0.0
  0
LINE
  5
5A4
330
1E
100
AcDbEntity
  8
0
100
AcDbLine
 10
121.801065
 20
94.80569
 30
0.0
 11
120.3097649999999
 21
98.30569
 31
0.0
  0
LINE
  5
5A5
330
1E
100
AcDbEntity
  8
0
100
AcDbLine
 10
127.1829649999999
 20
103.40569
 30
0.0
 11
126.9534649999999
 21
106.5056899999999
 31
0.0
  0
LINE
  5
5A6
330
1E
100
AcDbEntity
  8
0
100
AcDbLine
 10
128.9609649999999
 20
98.00569000000001
 30
0.0
 11
127.8711649999999
 21
100.50569
 31
0.0
  0
LINE
  5
5A7
330
1E
100
AcDbEntity
  8
0
100
AcDbLine
 10
127.8711649999999
 20
100.50569
 30
0.0
 11
127.1829649999999
 21
103.40569
 31
0.0
  0
LINE
  5
5A8
330
1E
100
AcDbEntity
  8
0
100
AcDbLine
 10
127.8711649999999
 20
112.5056899999999
 30
0.0
 11
127.1829649999999
 21
109.6056899999999
 31
0.0
  0
LINE
  5
5A9
330
1E
100
AcDbEntity
  8
0
100
AcDbLine
 10
127.1829649999999
 20
109.6056899999999
 30
0.0
 11
126.9534649999999
 21
106.5056899999999
 31
0.0
  0
LINE
  5
5AA
330
1E
100
AcDbEntity
  8
0
100
AcDbLine
 10
128.9609649999999
 20
115.0056899999999
 30
0.0
 11
127.8711649999999
 21
112.5056899999999
 31
0.0
  0
LINE
  5
5AB
330
1E
100
AcDbEntity
  8
0
100
AcDbLine
 10
116.934565
 20
102.30569
 30
0.0
 11
116.590465
 21
106.5056899999999
 31
0.0
  0
LINE
  5
5AC
330
1E
100
AcDbEntity
  8
0
100
AcDbLine
 10
119.392065
 20
102.30569
 30
0.0
 11
119.0478649999999
 21
106.5056899999999
 31
0.0
  0
LINE
  5
5AD
330
1E
100
AcDbEntity
  8
0
100
AcDbLine
 10
117.852365
 20
98.30569
 30
0.0
 11
116.934565
 21
102.30569
 31
0.0
  0
LINE
  5
5AE
330
1E
100
AcDbEntity
  8
0
100
AcDbLine
 10
120.3097649999999
 20
98.30569
 30
0.0
 11
119.392065
 21
102.30569
 31
0.0
  0
LINE
  5
5AF
330
1E
100
AcDbEntity
  8
0
100
AcDbLine
 10
119.3436649999999
 20
94.80569
 30
0.0
 11
117.852365
 21
98.30569
 31
0.0
  0
LINE
  5
5B0
330
1E
100
AcDbEntity
  8
0
100
AcDbLine
 10
117.852365
 20
114.7056899999999
 30
0.0
 11
116.934565
 21
110.7056899999999
 31
0.0
  0
LINE
  5
5B1
330
1E
100
AcDbEntity
  8
0
100
AcDbLine
 10
120.3097649999999
 20
114.7056899999999
 30
0.0
 11
119.392065
 21
110.7056899999999
 31
0.0
  0
LINE
  5
5B2
330
1E
100
AcDbEntity
  8
0
100
AcDbLine
 10
119.392065
 20
110.7056899999999
 30
0.0
 11
119.0478649999999
 21
106.5056899999999
 31
0.0
  0
LINE
  5
5B3
330
1E
100
AcDbEntity
  8
0
100
AcDbLine
 10
116.934565
 20
110.7056899999999
 30
0.0
 11
116.590465
 21
106.5056899999999
 31
0.0
  0
LINE
  5
5B4
330
1E
100
AcDbEntity
  8
0
100
AcDbLine
 10
121.351165
 20
120.8056899999999
 30
0.0
 11
119.3436649999999
 21
118.2056899999999
 31
0.0
  0
LINE
  5
5B5
330
1E
100
AcDbEntity
  8
0
100
AcDbLine
 10
126.102865
 20
122.4056899999999
 30
0.0
 11
123.808565
 21
120.8056899999999
 31
0.0
  0
LINE
  5
5B6
330
1E
100
AcDbEntity
  8
0
100
AcDbLine
 10
127.3311649999999
 20
117.8466899999999
 30
0.0
 11
122.416265
 21
117.8466899999999
 31
0.0
  0
LINE
  5
5B7
330
1E
100
AcDbEntity
  8
0
100
AcDbLine
 10
127.283165
 20
123.5056899999999
 30
0.0
 11
124.759465
 21
122.90569
 31
0.0
  0
LINE
  5
5B8
330
1E
100
AcDbEntity
  8
0
100
AcDbLine
 10
128.511965
 20
123.0056899999999
 30
0.0
 11
126.102865
 21
122.4056899999999
 31
0.0
  0
LINE
  5
5B9
330
1E
100
AcDbEntity
  8
0
100
AcDbLine
 10
124.759465
 20
122.90569
 30
0.0
 11
123.6454649999999
 21
122.4056899999999
 31
0.0
  0
LINE
  5
5BA
330
1E
100
AcDbEntity
  8
0
100
AcDbLine
 10
123.6454649999999
 20
122.4056899999999
 30
0.0
 11
121.351165
 21
120.8056899999999
 31
0.0
  0
LINE
  5
5BB
330
1E
100
AcDbEntity
  8
0
100
AcDbLine
 10
123.808565
 20
120.8056899999999
 30
0.0
 11
121.801065
 21
118.2056899999999
 31
0.0
  0
LINE
  5
5BC
330
1E
100
AcDbEntity
  8
0
100
AcDbLine
 10
120.3474149999999
 20
119.5056899999999
 30
0.0
 11
112.9228649999999
 21
119.5056899999999
 31
0.0
  0
LINE
  5
5BD
330
1E
100
AcDbEntity
  8
0
100
AcDbLine
 10
120.3474149999999
 20
119.5056899999999
 30
0.0
 11
112.9228649999999
 21
119.5056899999999
 31
0.0
  0
ENDSEC
  0
SECTION
  2
OBJECTS
  0
DICTIONARY
  5
C
330
0
100
AcDbDictionary
281
     1
  3
ACAD_GROUP
350
D
  3
ACAD_LAYOUT
350
19
  3
ACAD_MLINESTYLE
350
16
  3
ACAD_PLOTSETTINGS
350
18
  3
ACAD_PLOTSTYLENAME
350
E
  3
AcDbVariableDictionary
350
469
  0
DICTIONARY
  5
D
102
{ACAD_REACTORS
330
C
102
}
330
C
100
AcDbDictionary
281
     1
  0
DICTIONARY
  5
19
102
{ACAD_REACTORS
330
C
102
}
330
C
100
AcDbDictionary
281
     1
  3
Layout1
350
1D
  3
Model
350
21
  0
DICTIONARY
  5
16
102
{ACAD_REACTORS
330
C
102
}
330
C
100
AcDbDictionary
281
     1
  3
Standard
350
17
  0
DICTIONARY
  5
18
102
{ACAD_REACTORS
330
C
102
}
330
C
100
AcDbDictionary
281
     1
  0
ACDBDICTIONARYWDFLT
  5
E
102
{ACAD_REACTORS
330
C
102
}
330
C
100
AcDbDictionary
281
     1
  3
Normal
350
F
100
AcDbDictionaryWithDefault
340
F
  0
DICTIONARY
  5
469
102
{ACAD_REACTORS
330
C
102
}
330
C
100
AcDbDictionary
281
     1
  3
DIMASSOC
350
46A
  0
LAYOUT
  5
1D
102
{ACAD_REACTORS
330
19
102
}
330
19
100
AcDbPlotSettings
  1

  2
hp deskjet 980c series
  4

  6

 40
0.0
 41
0.0
 42
0.0
 43
0.0
 44
0.0
 45
0.0
 46
0.0
 47
0.0
 48
0.0
 49
0.0
140
0.0
141
0.0
142
1.0
143
1.0
 70
   688
 72
     0
 73
     0
 74
     5
  7

 75
    16
147
1.0
148
0.0
149
0.0
100
AcDbLayout
  1
Layout1
 70
     1
 71
     1
 10
0.0
 20
0.0
 11
12.0
 21
9.0
 12
0.0
 22
0.0
 32
0.0
 14
1.000000000000000E+20
 24
1.000000000000000E+20
 34
1.000000000000000E+20
 15
-1.000000000000000E+20
 25
-1.000000000000000E+20
 35
-1.000000000000000E+20
146
0.0
 13
0.0
 23
0.0
 33
0.0
 16
1.0
 26
0.0
 36
0.0
 17
0.0
 27
1.0
 37
0.0
 76
     0
330
1A
  0
LAYOUT
  5
21
102
{ACAD_REACTORS
330
19
102
}
330
19
100
AcDbPlotSettings
  1

  2
hp deskjet 980c series
  4

  6

 40
0.0
 41
0.0
 42
0.0
 43
0.0
 44
0.0
 45
0.0
 46
0.0
 47
0.0
 48
0.0
 49
0.0
140
0.0
141
0.0
142
1.0
143
1.0
 70
  1712
 72
     0
 73
     0
 74
     0
  7

 75
     0
147
1.0
148
0.0
149
0.0
100
AcDbLayout
  1
Model
 70
     1
 71
     0
 10
0.0
 20
0.0
 11
12.0
 21
9.0
 12
0.0
 22
0.0
 32
0.0
 14
0.0
 24
0.0
 34
0.0
 15
0.0
 25
0.0
 35
0.0
146
0.0
 13
0.0
 23
0.0
 33
0.0
 16
1.0
 26
0.0
 36
0.0
 17
0.0
 27
1.0
 37
0.0
 76
     0
330
1E
  0
MLINESTYLE
  5
17
102
{ACAD_REACTORS
330
16
102
}
330
16
100
AcDbMlineStyle
  2
STANDARD
 70
     0
  3

 62
   256
 51
90.0
 52
90.0
 71
     2
 49
0.5
 62
   256
  6
BYLAYER
 49
-0.5
 62
   256
  6
BYLAYER
  0
ACDBPLACEHOLDER
  5
F
102
{ACAD_REACTORS
330
E
102
}
330
E
  0
DICTIONARYVAR
  5
46A
102
{ACAD_REACTORS
330
469
102
}
330
469
100
DictionaryVariables
280
     0
  1
1
  0
ENDSEC
  0
EOF
