  0
SECTION
  2
HEADER
  9
$ACADVER
  1
AC1015
  9
$ACADMAINTVER
 70
    13
  9
$DWGCODEPAGE
  3
ANSI_1252
  9
$INSBASE
 10
0.0
 20
0.0
 30
0.0
  9
$EXTMIN
 10
-0.146689999999984
 20
-0.0000000000000113
 30
0.0
  9
$EXTMAX
 10
144.1466899999999
 20
180.0
 30
0.0
  9
$LIMMIN
 10
0.0
 20
0.0
  9
$LIMMAX
 10
12.0
 20
9.0
  9
$ORTHOMODE
 70
     0
  9
$REGENMODE
 70
     1
  9
$FILLMODE
 70
     1
  9
$QTEXTMODE
 70
     0
  9
$MIRRTEXT
 70
     1
  9
$LTSCALE
 40
1.0
  9
$ATTMODE
 70
     1
  9
$TEXTSIZE
 40
0.2
  9
$TRACEWID
 40
0.05
  9
$TEXTSTYLE
  7
Standard
  9
$CLAYER
  8
0
  9
$CELTYPE
  6
Continuous
  9
$CECOLOR
 62
   256
  9
$CELTSCALE
 40
1.0
  9
$DISPSILH
 70
     0
  9
$DIMSCALE
 40
1.0
  9
$DIMASZ
 40
0.18
  9
$DIMEXO
 40
0.0625
  9
$DIMDLI
 40
0.38
  9
$DIMRND
 40
0.0
  9
$DIMDLE
 40
0.0
  9
$DIMEXE
 40
0.18
  9
$DIMTP
 40
0.0
  9
$DIMTM
 40
0.0
  9
$DIMTXT
 40
0.18
  9
$DIMCEN
 40
0.09
  9
$DIMTSZ
 40
0.0
  9
$DIMTOL
 70
     0
  9
$DIMLIM
 70
     0
  9
$DIMTIH
 70
     1
  9
$DIMTOH
 70
     1
  9
$DIMSE1
 70
     0
  9
$DIMSE2
 70
     0
  9
$DIMTAD
 70
     0
  9
$DIMZIN
 70
     0
  9
$DIMBLK
  1

  9
$DIMASO
 70
     1
  9
$DIMSHO
 70
     1
  9
$DIMPOST
  1

  9
$DIMAPOST
  1

  9
$DIMALT
 70
     0
  9
$DIMALTD
 70
     2
  9
$DIMALTF
 40
25.4
  9
$DIMLFAC
 40
1.0
  9
$DIMTOFL
 70
     0
  9
$DIMTVP
 40
0.0
  9
$DIMTIX
 70
     0
  9
$DIMSOXD
 70
     0
  9
$DIMSAH
 70
     0
  9
$DIMBLK1
  1

  9
$DIMBLK2
  1

  9
$DIMSTYLE
  2
Standard
  9
$DIMCLRD
 70
     0
  9
$DIMCLRE
 70
     0
  9
$DIMCLRT
 70
     0
  9
$DIMTFAC
 40
1.0
  9
$DIMGAP
 40
0.09
  9
$DIMJUST
 70
     0
  9
$DIMSD1
 70
     0
  9
$DIMSD2
 70
     0
  9
$DIMTOLJ
 70
     1
  9
$DIMTZIN
 70
     0
  9
$DIMALTZ
 70
     0
  9
$DIMALTTZ
 70
     0
  9
$DIMUPT
 70
     0
  9
$DIMDEC
 70
     4
  9
$DIMTDEC
 70
     4
  9
$DIMALTU
 70
     2
  9
$DIMALTTD
 70
     2
  9
$DIMTXSTY
  7
Standard
  9
$DIMAUNIT
 70
     0
  9
$DIMADEC
 70
     0
  9
$DIMALTRND
 40
0.0
  9
$DIMAZIN
 70
     0
  9
$DIMDSEP
 70
    46
  9
$DIMATFIT
 70
     3
  9
$DIMFRAC
 70
     0
  9
$DIMLDRBLK
  1

  9
$DIMLUNIT
 70
     2
  9
$DIMLWD
 70
    -2
  9
$DIMLWE
 70
    -2
  9
$DIMTMOVE
 70
     0
  9
$LUNITS
 70
     2
  9
$LUPREC
 70
     4
  9
$SKETCHINC
 40
0.1
  9
$FILLETRAD
 40
0.0
  9
$AUNITS
 70
     0
  9
$AUPREC
 70
     0
  9
$MENU
  1
.
  9
$ELEVATION
 40
0.0
  9
$PELEVATION
 40
0.0
  9
$THICKNESS
 40
0.0
  9
$LIMCHECK
 70
     0
  9
$CHAMFERA
 40
0.0
  9
$CHAMFERB
 40
0.0
  9
$CHAMFERC
 40
0.0
  9
$CHAMFERD
 40
0.0
  9
$SKPOLY
 70
     0
  9
$TDCREATE
 40
2454750.879350579
  9
$TDUCREATE
 40
2454750.796017245
  9
$TDUPDATE
 40
2454750.880757373
  9
$TDUUPDATE
 40
2454750.797424039
  9
$TDINDWG
 40
0.0014067940
  9
$TDUSRTIMER
 40
0.0014067940
  9
$USRTIMER
 70
     1
  9
$ANGBASE
 50
0.0
  9
$ANGDIR
 70
     0
  9
$PDMODE
 70
     0
  9
$PDSIZE
 40
0.0
  9
$PLINEWID
 40
0.0
  9
$SPLFRAME
 70
     0
  9
$SPLINETYPE
 70
     6
  9
$SPLINESEGS
 70
     8
  9
$HANDSEED
  5
2F9
  9
$SURFTAB1
 70
     6
  9
$SURFTAB2
 70
     6
  9
$SURFTYPE
 70
     6
  9
$SURFU
 70
     6
  9
$SURFV
 70
     6
  9
$UCSBASE
  2

  9
$UCSNAME
  2

  9
$UCSORG
 10
0.0
 20
0.0
 30
0.0
  9
$UCSXDIR
 10
1.0
 20
0.0
 30
0.0
  9
$UCSYDIR
 10
0.0
 20
1.0
 30
0.0
  9
$UCSORTHOREF
  2

  9
$UCSORTHOVIEW
 70
     1
  9
$UCSORGTOP
 10
0.0
 20
0.0
 30
0.0
  9
$UCSORGBOTTOM
 10
0.0
 20
0.0
 30
0.0
  9
$UCSORGLEFT
 10
0.0
 20
0.0
 30
0.0
  9
$UCSORGRIGHT
 10
0.0
 20
0.0
 30
0.0
  9
$UCSORGFRONT
 10
0.0
 20
0.0
 30
0.0
  9
$UCSORGBACK
 10
0.0
 20
0.0
 30
0.0
  9
$PUCSBASE
  2

  9
$PUCSNAME
  2

  9
$PUCSORG
 10
0.0
 20
0.0
 30
0.0
  9
$PUCSXDIR
 10
1.0
 20
0.0
 30
0.0
  9
$PUCSYDIR
 10
0.0
 20
1.0
 30
0.0
  9
$PUCSORTHOREF
  2

  9
$PUCSORTHOVIEW
 70
     0
  9
$PUCSORGTOP
 10
0.0
 20
0.0
 30
0.0
  9
$PUCSORGBOTTOM
 10
0.0
 20
0.0
 30
0.0
  9
$PUCSORGLEFT
 10
0.0
 20
0.0
 30
0.0
  9
$PUCSORGRIGHT
 10
0.0
 20
0.0
 30
0.0
  9
$PUCSORGFRONT
 10
0.0
 20
0.0
 30
0.0
  9
$PUCSORGBACK
 10
0.0
 20
0.0
 30
0.0
  9
$USERI1
 70
     0
  9
$USERI2
 70
     0
  9
$USERI3
 70
     0
  9
$USERI4
 70
     0
  9
$USERI5
 70
     0
  9
$USERR1
 40
0.0
  9
$USERR2
 40
0.0
  9
$USERR3
 40
0.0
  9
$USERR4
 40
0.0
  9
$USERR5
 40
0.0
  9
$WORLDVIEW
 70
     1
  9
$SHADEDGE
 70
     3
  9
$SHADEDIF
 70
    70
  9
$TILEMODE
 70
     1
  9
$MAXACTVP
 70
    64
  9
$PINSBASE
 10
0.0
 20
0.0
 30
0.0
  9
$PLIMCHECK
 70
     0
  9
$PEXTMIN
 10
1.000000000000000E+20
 20
1.000000000000000E+20
 30
1.000000000000000E+20
  9
$PEXTMAX
 10
-1.000000000000000E+20
 20
-1.000000000000000E+20
 30
-1.000000000000000E+20
  9
$PLIMMIN
 10
0.0
 20
0.0
  9
$PLIMMAX
 10
12.0
 20
9.0
  9
$UNITMODE
 70
     0
  9
$VISRETAIN
 70
     1
  9
$PLINEGEN
 70
     0
  9
$PSLTSCALE
 70
     1
  9
$TREEDEPTH
 70
  3020
  9
$CMLSTYLE
  2
Standard
  9
$CMLJUST
 70
     0
  9
$CMLSCALE
 40
1.0
  9
$PROXYGRAPHICS
 70
     1
  9
$MEASUREMENT
 70
     0
  9
$CELWEIGHT
370
    -1
  9
$ENDCAPS
280
     0
  9
$JOINSTYLE
280
     0
  9
$LWDISPLAY
290
     0
  9
$INSUNITS
 70
     0
  9
$HYPERLINKBASE
  1

  9
$STYLESHEET
  1

  9
$XEDIT
290
     1
  9
$CEPSNTYPE
380
     0
  9
$PSTYLEMODE
290
     1
  9
$FINGERPRINTGUID
  2
{F55178AF-C0A5-46F0-BA65-50E27A57598D}
  9
$VERSIONGUID
  2
{E61136EB-FEF0-434E-BAC8-47B8C9621DCA}
  9
$EXTNAMES
290
     1
  9
$PSVPSCALE
 40
0.0
  9
$OLESTARTUP
290
     0
  0
ENDSEC
  0
SECTION
  2
CLASSES
  0
CLASS
  1
ACDBDICTIONARYWDFLT
  2
AcDbDictionaryWithDefault
  3
AutoCAD 2000
 90
        0
280
     0
281
     0
  0
CLASS
  1
ACDBPLACEHOLDER
  2
AcDbPlaceHolder
  3
AutoCAD 2000
 90
        0
280
     0
281
     0
  0
CLASS
  1
LAYOUT
  2
AcDbLayout
  3
AutoCAD 2000
 90
        0
280
     0
281
     0
  0
CLASS
  1
DICTIONARYVAR
  2
AcDbDictionaryVar
  3
AutoCAD 2000
 90
        0
280
     0
281
     0
  0
ENDSEC
  0
SECTION
  2
TABLES
  0
TABLE
  2
VPORT
  5
8
330
0
100
AcDbSymbolTable
 70
     2
  0
VPORT
  5
2F8
330
8
100
AcDbSymbolTableRecord
100
AcDbViewportTableRecord
  2
*Active
 70
     0
 10
0.0
 20
0.0
 11
1.0
 21
1.0
 12
72.0
 22
89.99999999999998
 13
0.0
 23
0.0
 14
1.0
 24
1.0
 15
0.0
 25
0.0
 16
0.0
 26
0.0
 36
1.0
 17
0.0
 27
0.0
 37
0.0
 40
181.3810741687979
 41
2.078104993597951
 42
50.0
 43
0.0
 44
0.0
 50
0.0
 51
0.0
 71
     0
 72
   100
 73
     1
 74
     3
 75
     0
 76
     0
 77
     0
 78
     0
281
     0
 65
     1
110
0.0
120
0.0
130
0.0
111
1.0
121
0.0
131
0.0
112
0.0
122
1.0
132
0.0
 79
     1
146
0.0
  0
ENDTAB
  0
TABLE
  2
LTYPE
  5
5
330
0
100
AcDbSymbolTable
 70
     1
  0
LTYPE
  5
13
330
5
100
AcDbSymbolTableRecord
100
AcDbLinetypeTableRecord
  2
ByBlock
 70
     0
  3

 72
    65
 73
     0
 40
0.0
  0
LTYPE
  5
14
330
5
100
AcDbSymbolTableRecord
100
AcDbLinetypeTableRecord
  2
ByLayer
 70
     0
  3

 72
    65
 73
     0
 40
0.0
  0
LTYPE
  5
15
330
5
100
AcDbSymbolTableRecord
100
AcDbLinetypeTableRecord
  2
Continuous
 70
     0
  3
Solid line
 72
    65
 73
     0
 40
0.0
  0
ENDTAB
  0
TABLE
  2
LAYER
  5
2
330
0
100
AcDbSymbolTable
 70
     1
  0
LAYER
  5
10
330
2
100
AcDbSymbolTableRecord
100
AcDbLayerTableRecord
  2
0
 70
     0
 62
     7
  6
Continuous
370
    -3
390
F
  0
ENDTAB
  0
TABLE
  2
STYLE
  5
3
330
0
100
AcDbSymbolTable
 70
     1
  0
STYLE
  5
11
330
3
100
AcDbSymbolTableRecord
100
AcDbTextStyleTableRecord
  2
Standard
 70
     0
 40
0.0
 41
1.0
 50
0.0
 71
     0
 42
0.2
  3
txt
  4

  0
ENDTAB
  0
TABLE
  2
VIEW
  5
6
330
0
100
AcDbSymbolTable
 70
     0
  0
ENDTAB
  0
TABLE
  2
UCS
  5
7
330
0
100
AcDbSymbolTable
 70
     0
  0
ENDTAB
  0
TABLE
  2
APPID
  5
9
330
0
100
AcDbSymbolTable
 70
     1
  0
APPID
  5
12
330
9
100
AcDbSymbolTableRecord
100
AcDbRegAppTableRecord
  2
ACAD
 70
     0
  0
ENDTAB
  0
TABLE
  2
DIMSTYLE
  5
A
330
0
100
AcDbSymbolTable
 70
     1
100
AcDbDimStyleTable
 71
     0
  0
DIMSTYLE
105
2EF
330
A
100
AcDbSymbolTableRecord
100
AcDbDimStyleTableRecord
  2
Standard
 70
     0
340
11
  0
ENDTAB
  0
TABLE
  2
BLOCK_RECORD
  5
1
330
0
100
AcDbSymbolTable
 70
     0
  0
BLOCK_RECORD
  5
1E
330
1
100
AcDbSymbolTableRecord
100
AcDbBlockTableRecord
  2
*Model_Space
340
21
  0
BLOCK_RECORD
  5
1A
330
1
100
AcDbSymbolTableRecord
100
AcDbBlockTableRecord
  2
*Paper_Space
340
1D
  0
ENDTAB
  0
ENDSEC
  0
SECTION
  2
BLOCKS
  0
BLOCK
  5
1F
330
1E
100
AcDbEntity
  8
0
100
AcDbBlockBegin
  2
*Model_Space
 70
     0
 10
0.0
 20
0.0
 30
0.0
  3
*Model_Space
  1

  0
ENDBLK
  5
20
330
1E
100
AcDbEntity
  8
0
100
AcDbBlockEnd
  0
BLOCK
  5
1B
330
1A
100
AcDbEntity
 67
     1
  8
0
100
AcDbBlockBegin
  2
*Paper_Space
 70
     0
 10
0.0
 20
0.0
 30
0.0
  3
*Paper_Space
  1

  0
ENDBLK
  5
1C
330
1A
100
AcDbEntity
 67
     1
  8
0
100
AcDbBlockEnd
  0
ENDSEC
  0
SECTION
  2
ENTITIES
  0
LINE
  5
22
330
1E
100
AcDbEntity
  8
0
100
AcDbLine
 10
81.50569
 20
-0.0000000000000081
 30
0.0
 11
82.00568999999999
 21
1.499999999999989
 31
0.0
  0
LINE
  5
23
330
1E
100
AcDbEntity
  8
0
100
AcDbLine
 10
88.90569000000001
 20
-0.0000000000000087
 30
0.0
 11
94.10569
 21
-0.000000000000009
 31
0.0
  0
LINE
  5
24
330
1E
100
AcDbEntity
  8
0
100
AcDbLine
 10
84.80569
 20
-0.0000000000000085
 30
0.0
 11
88.90569000000001
 21
-0.0000000000000087
 31
0.0
  0
LINE
  5
25
330
1E
100
AcDbEntity
  8
0
100
AcDbLine
 10
81.61168999999999
 20
95.3531
 30
0.0
 11
83.50469
 21
95.40989999999998
 31
0.0
  0
LINE
  5
26
330
1E
100
AcDbEntity
  8
0
100
AcDbLine
 10
83.50469
 20
95.40989999999998
 30
0.0
 11
87.48389000000001
 21
95.4814
 31
0.0
  0
LINE
  5
27
330
1E
100
AcDbEntity
  8
0
100
AcDbLine
 10
89.00569
 20
14.0
 30
0.0
 11
89.00569
 21
13.5
 31
0.0
  0
LINE
  5
28
330
1E
100
AcDbEntity
  8
0
100
AcDbLine
 10
89.00569
 20
14.0
 30
0.0
 11
89.50568999999999
 21
15.0
 31
0.0
  0
LINE
  5
29
330
1E
100
AcDbEntity
  8
0
100
AcDbLine
 10
89.50568999999999
 20
95.0
 30
0.0
 11
90.00569
 21
93.49999999999999
 31
0.0
  0
LINE
  5
2A
330
1E
100
AcDbEntity
  8
0
100
AcDbLine
 10
89.50568999999999
 20
95.0
 30
0.0
 11
89.55367394723021
 21
95.14395184169051
 31
0.0
  0
LINE
  5
2B
330
1E
100
AcDbEntity
  8
0
100
AcDbLine
 10
89.50568999999999
 20
95.0
 30
0.0
 11
90.10569
 21
95.0
 31
0.0
  0
LINE
  5
2C
330
1E
100
AcDbEntity
  8
0
100
AcDbLine
 10
89.50568999999999
 20
15.0
 30
0.0
 11
90.50569000000001
 21
15.5
 31
0.0
  0
LINE
  5
2D
330
1E
100
AcDbEntity
  8
0
100
AcDbLine
 10
89.50568999999999
 20
15.0
 30
0.0
 11
90.10569
 21
15.0
 31
0.0
  0
LINE
  5
2E
330
1E
100
AcDbEntity
  8
0
100
AcDbLine
 10
89.00569
 20
13.5
 30
0.0
 11
89.50568999999999
 21
12.5
 31
0.0
  0
LINE
  5
2F
330
1E
100
AcDbEntity
  8
0
100
AcDbLine
 10
89.00569
 20
13.5
 30
0.0
 11
89.00569
 21
14.0
 31
0.0
  0
LINE
  5
30
330
1E
100
AcDbEntity
  8
0
100
AcDbLine
 10
89.50568999999999
 20
12.5
 30
0.0
 11
89.70569000000001
 21
11.4
 31
0.0
  0
LINE
  5
31
330
1E
100
AcDbEntity
  8
0
100
AcDbLine
 10
89.50568999999999
 20
9.999999999999991
 30
0.0
 11
89.70569000000001
 21
11.4
 31
0.0
  0
LINE
  5
32
330
1E
100
AcDbEntity
  8
0
100
AcDbLine
 10
88.50569
 20
6.99999999999999
 30
0.0
 11
89.50568999999999
 21
9.999999999999991
 31
0.0
  0
LINE
  5
33
330
1E
100
AcDbEntity
  8
0
100
AcDbLine
 10
86.50569
 20
3.99999999999999
 30
0.0
 11
88.50569
 21
6.99999999999999
 31
0.0
  0
LINE
  5
34
330
1E
100
AcDbEntity
  8
0
100
AcDbLine
 10
83.00569000000001
 20
2.49999999999999
 30
0.0
 11
86.50569
 21
3.99999999999999
 31
0.0
  0
LINE
  5
35
330
1E
100
AcDbEntity
  8
0
100
AcDbLine
 10
82.00568999999999
 20
1.499999999999989
 30
0.0
 11
83.00569000000001
 21
2.49999999999999
 31
0.0
  0
LINE
  5
36
330
1E
100
AcDbEntity
  8
0
100
AcDbLine
 10
82.40569
 20
-0.0000000000000083
 30
0.0
 11
84.80569
 21
-0.0000000000000085
 31
0.0
  0
LINE
  5
37
330
1E
100
AcDbEntity
  8
0
100
AcDbLine
 10
81.50569
 20
-0.0000000000000083
 30
0.0
 11
82.40569
 21
-0.0000000000000083
 31
0.0
  0
LINE
  5
38
330
1E
100
AcDbEntity
  8
0
100
AcDbLine
 10
81.50569
 20
-0.0000000000000083
 30
0.0
 11
82.00568999999999
 21
1.499999999999989
 31
0.0
  0
LINE
  5
39
330
1E
100
AcDbEntity
  8
0
100
AcDbLine
 10
5.158070000000009
 20
148.1009999999999
 30
0.0
 11
5.631950000000009
 21
147.967
 31
0.0
  0
LINE
  5
3A
330
1E
100
AcDbEntity
  8
0
100
AcDbLine
 10
5.060230000000009
 20
148.466
 30
0.0
 11
5.158070000000009
 21
148.1009999999999
 31
0.0
  0
LINE
  5
3B
330
1E
100
AcDbEntity
  8
0
100
AcDbLine
 10
4.799340000000019
 20
149.4399999999999
 30
0.0
 11
5.060230000000009
 21
148.466
 31
0.0
  0
LINE
  5
3C
330
1E
100
AcDbEntity
  8
0
100
AcDbLine
 10
4.375400000000009
 20
151.022
 30
0.0
 11
4.799340000000019
 21
149.4399999999999
 31
0.0
  0
LINE
  5
3D
330
1E
100
AcDbEntity
  8
0
100
AcDbLine
 10
3.821010000000009
 20
153.091
 30
0.0
 11
4.375400000000009
 21
151.022
 31
0.0
  0
LINE
  5
3E
330
1E
100
AcDbEntity
  8
0
100
AcDbLine
 10
3.19052500000002
 20
155.4439999999999
 30
0.0
 11
3.821010000000009
 21
153.091
 31
0.0
  0
LINE
  5
3F
330
1E
100
AcDbEntity
  8
0
100
AcDbLine
 10
2.505690000000019
 20
158.0
 30
0.0
 11
3.19052500000002
 21
155.4439999999999
 31
0.0
  0
LINE
  5
40
330
1E
100
AcDbEntity
  8
0
100
AcDbLine
 10
5.631950000000009
 20
147.967
 30
0.0
 11
25.09909
 21
153.183
 31
0.0
  0
LINE
  5
41
330
1E
100
AcDbEntity
  8
0
100
AcDbLine
 10
5.631950000000009
 20
147.967
 30
0.0
 11
25.09909
 21
153.183
 31
0.0
  0
LINE
  5
42
330
1E
100
AcDbEntity
  8
0
100
AcDbLine
 10
0.635980000000016
 20
164.9779999999999
 30
0.0
 11
1.190370000000019
 21
162.9089999999999
 31
0.0
  0
LINE
  5
43
330
1E
100
AcDbEntity
  8
0
100
AcDbLine
 10
1.190370000000019
 20
162.9089999999999
 30
0.0
 11
1.820855000000019
 21
160.556
 31
0.0
  0
LINE
  5
44
330
1E
100
AcDbEntity
  8
0
100
AcDbLine
 10
1.820855000000019
 20
160.556
 30
0.0
 11
2.505690000000019
 21
158.0
 31
0.0
  0
LINE
  5
45
330
1E
100
AcDbEntity
  8
0
100
AcDbLine
 10
24.89999
 20
156.3039999999999
 30
0.0
 11
25.33478999999999
 21
154.682
 31
0.0
  0
LINE
  5
46
330
1E
100
AcDbEntity
  8
0
100
AcDbLine
 10
74.00569
 20
153.105
 30
0.0
 11
78.79119
 21
149.908
 31
0.0
  0
LINE
  5
47
330
1E
100
AcDbEntity
  8
0
100
AcDbLine
 10
25.33478999999999
 20
154.682
 30
0.0
 11
25.59569
 21
153.708
 31
0.0
  0
LINE
  5
48
330
1E
100
AcDbEntity
  8
0
100
AcDbLine
 10
25.44249
 20
153.536
 30
0.0
 11
25.69349
 21
153.3429999999999
 31
0.0
  0
LINE
  5
49
330
1E
100
AcDbEntity
  8
0
100
AcDbLine
 10
25.69349
 20
153.3429999999999
 30
0.0
 11
30.15159
 21
154.537
 31
0.0
  0
LINE
  5
4A
330
1E
100
AcDbEntity
  8
0
100
AcDbLine
 10
25.59569
 20
153.708
 30
0.0
 11
25.69349
 21
153.3429999999999
 31
0.0
  0
LINE
  5
4B
330
1E
100
AcDbEntity
  8
0
100
AcDbLine
 10
33.68839
 20
155.5339999999999
 30
0.0
 11
35.91749
 21
156.1309999999999
 31
0.0
  0
LINE
  5
4C
330
1E
100
AcDbEntity
  8
0
100
AcDbLine
 10
33.43749
 20
155.7279999999999
 30
0.0
 11
33.68839
 21
155.5339999999999
 31
0.0
  0
LINE
  5
4D
330
1E
100
AcDbEntity
  8
0
100
AcDbLine
 10
68.84379
 20
155.651
 30
0.0
 11
74.00569
 21
153.105
 31
0.0
  0
LINE
  5
4E
330
1E
100
AcDbEntity
  8
0
100
AcDbLine
 10
30.17429
 20
155.196
 30
0.0
 11
30.27209
 21
154.83
 31
0.0
  0
LINE
  5
4F
330
1E
100
AcDbEntity
  8
0
100
AcDbLine
 10
30.15159
 20
154.537
 30
0.0
 11
30.27209
 21
154.83
 31
0.0
  0
LINE
  5
50
330
1E
100
AcDbEntity
  8
0
100
AcDbLine
 10
30.05379
 20
154.902
 30
0.0
 11
30.15159
 21
154.537
 31
0.0
  0
LINE
  5
51
330
1E
100
AcDbEntity
  8
0
100
AcDbLine
 10
33.33959
 20
156.0929999999999
 30
0.0
 11
33.43749
 21
155.7279999999999
 31
0.0
  0
LINE
  5
52
330
1E
100
AcDbEntity
  8
0
100
AcDbLine
 10
33.59059
 20
155.899
 30
0.0
 11
33.68839
 21
155.5339999999999
 31
0.0
  0
LINE
  5
53
330
1E
100
AcDbEntity
  8
0
100
AcDbLine
 10
35.91749
 20
156.1309999999999
 30
0.0
 11
40.61769
 21
157.5009999999999
 31
0.0
  0
LINE
  5
54
330
1E
100
AcDbEntity
  8
0
100
AcDbLine
 10
29.91339
 20
156.1689999999999
 30
0.0
 11
30.17429
 21
155.196
 31
0.0
  0
LINE
  5
55
330
1E
100
AcDbEntity
  8
0
100
AcDbLine
 10
29.79289
 20
155.876
 30
0.0
 11
30.05379
 21
154.902
 31
0.0
  0
LINE
  5
56
330
1E
100
AcDbEntity
  8
0
100
AcDbLine
 10
25.34469
 20
153.902
 30
0.0
 11
25.44249
 21
153.536
 31
0.0
  0
LINE
  5
57
330
1E
100
AcDbEntity
  8
0
100
AcDbLine
 10
25.09909
 20
153.183
 30
0.0
 11
25.44249
 21
153.536
 31
0.0
  0
LINE
  5
58
330
1E
100
AcDbEntity
  8
0
100
AcDbLine
 10
25.08379
 20
154.875
 30
0.0
 11
25.34469
 21
153.902
 31
0.0
  0
LINE
  5
59
330
1E
100
AcDbEntity
  8
0
100
AcDbLine
 10
28.74249
 20
160.5389999999999
 30
0.0
 11
28.78449
 21
160.3829999999999
 31
0.0
  0
LINE
  5
5A
330
1E
100
AcDbEntity
  8
0
100
AcDbLine
 10
24.32379
 20
158.454
 30
0.0
 11
24.89999
 21
156.3039999999999
 31
0.0
  0
LINE
  5
5B
330
1E
100
AcDbEntity
  8
0
100
AcDbLine
 10
33.07869
 20
157.066
 30
0.0
 11
33.33959
 21
156.0929999999999
 31
0.0
  0
LINE
  5
5C
330
1E
100
AcDbEntity
  8
0
100
AcDbLine
 10
33.32969
 20
156.8729999999999
 30
0.0
 11
33.59059
 21
155.899
 31
0.0
  0
LINE
  5
5D
330
1E
100
AcDbEntity
  8
0
100
AcDbLine
 10
32.89489
 20
158.496
 30
0.0
 11
33.32969
 21
156.8729999999999
 31
0.0
  0
LINE
  5
5E
330
1E
100
AcDbEntity
  8
0
100
AcDbLine
 10
57.74889
 20
158.624
 30
0.0
 11
63.39369
 21
157.5009999999999
 31
0.0
  0
LINE
  5
5F
330
1E
100
AcDbEntity
  8
0
100
AcDbLine
 10
63.39369
 20
157.5009999999999
 30
0.0
 11
68.84379
 21
155.651
 31
0.0
  0
LINE
  5
60
330
1E
100
AcDbEntity
  8
0
100
AcDbLine
 10
40.61769
 20
157.5009999999999
 30
0.0
 11
46.26249
 21
158.624
 31
0.0
  0
LINE
  5
61
330
1E
100
AcDbEntity
  8
0
100
AcDbLine
 10
32.10039
 20
160.7179999999999
 30
0.0
 11
33.07869
 21
157.066
 31
0.0
  0
LINE
  5
62
330
1E
100
AcDbEntity
  8
0
100
AcDbLine
 10
32.31879
 20
160.646
 30
0.0
 11
32.89489
 21
158.496
 31
0.0
  0
LINE
  5
63
330
1E
100
AcDbEntity
  8
0
100
AcDbLine
 10
52.00569
 20
159.0
 30
0.0
 11
57.74889
 21
158.624
 31
0.0
  0
LINE
  5
64
330
1E
100
AcDbEntity
  8
0
100
AcDbLine
 10
46.26249
 20
158.624
 30
0.0
 11
52.00569
 21
159.0
 31
0.0
  0
LINE
  5
65
330
1E
100
AcDbEntity
  8
0
100
AcDbLine
 10
28.78449
 20
160.3829999999999
 30
0.0
 11
31.9619998644853
 21
161.2344662789309
 31
0.0
  0
LINE
  5
66
330
1E
100
AcDbEntity
  8
0
100
AcDbLine
 10
29.35809
 20
157.4989999999999
 30
0.0
 11
29.79289
 21
155.876
 31
0.0
  0
LINE
  5
67
330
1E
100
AcDbEntity
  8
0
100
AcDbLine
 10
28.78199
 20
159.649
 30
0.0
 11
29.35809
 21
157.4989999999999
 31
0.0
  0
LINE
  5
68
330
1E
100
AcDbEntity
  8
0
100
AcDbLine
 10
24.65989
 20
156.4569999999999
 30
0.0
 11
25.08379
 21
154.875
 31
0.0
  0
LINE
  5
69
330
1E
100
AcDbEntity
  8
0
100
AcDbLine
 10
24.10549
 20
158.526
 30
0.0
 11
24.65989
 21
156.4569999999999
 31
0.0
  0
LINE
  5
6A
330
1E
100
AcDbEntity
  8
0
100
AcDbLine
 10
23.67159
 20
160.889
 30
0.0
 11
24.32379
 21
158.454
 31
0.0
  0
LINE
  5
6B
330
1E
100
AcDbEntity
  8
0
100
AcDbLine
 10
27.32159
 20
165.842
 30
0.0
 11
27.61979
 21
164.729
 31
0.0
  0
LINE
  5
6C
330
1E
100
AcDbEntity
  8
0
100
AcDbLine
 10
22.97588999999999
 20
163.485
 30
0.0
 11
23.67159
 21
160.889
 31
0.0
  0
LINE
  5
6D
330
1E
100
AcDbEntity
  8
0
100
AcDbLine
 10
27.91789
 20
163.617
 30
0.0
 11
28.19749
 21
162.5729999999999
 31
0.0
  0
LINE
  5
6E
330
1E
100
AcDbEntity
  8
0
100
AcDbLine
 10
28.63464752211239
 20
160.941238938096
 30
0.0
 11
28.74249
 21
160.5389999999999
 31
0.0
  0
LINE
  5
6F
330
1E
100
AcDbEntity
  8
0
100
AcDbLine
 10
28.44439
 20
161.652
 30
0.0
 11
28.6286026050484
 21
160.963798319304
 31
0.0
  0
LINE
  5
70
330
1E
100
AcDbEntity
  8
0
100
AcDbLine
 10
31.46989
 20
163.071
 30
0.0
 11
32.10039
 21
160.7179999999999
 31
0.0
  0
LINE
  5
71
330
1E
100
AcDbEntity
  8
0
100
AcDbLine
 10
31.66649
 20
163.08
 30
0.0
 11
32.31879
 21
160.646
 31
0.0
  0
LINE
  5
72
330
1E
100
AcDbEntity
  8
0
100
AcDbLine
 10
28.19749
 20
162.5729999999999
 30
0.0
 11
28.44439
 21
161.652
 31
0.0
  0
LINE
  5
73
330
1E
100
AcDbEntity
  8
0
100
AcDbLine
 10
28.30459
 20
162.173
 30
0.0
 11
29.91339
 21
156.1689999999999
 31
0.0
  0
LINE
  5
74
330
1E
100
AcDbEntity
  8
0
100
AcDbLine
 10
28.12969
 20
162.0829999999999
 30
0.0
 11
28.78199
 21
159.649
 31
0.0
  0
LINE
  5
75
330
1E
100
AcDbEntity
  8
0
100
AcDbLine
 10
30.78509
 20
165.627
 30
0.0
 11
31.46989
 21
163.071
 31
0.0
  0
LINE
  5
76
330
1E
100
AcDbEntity
  8
0
100
AcDbLine
 10
30.97079
 20
165.676
 30
0.0
 11
31.66649
 21
163.08
 31
0.0
  0
LINE
  5
77
330
1E
100
AcDbEntity
  8
0
100
AcDbLine
 10
27.61979
 20
164.729
 30
0.0
 11
28.30459
 21
162.173
 31
0.0
  0
LINE
  5
78
330
1E
100
AcDbEntity
  8
0
100
AcDbLine
 10
27.61979
 20
164.729
 30
0.0
 11
27.91789
 21
163.617
 31
0.0
  0
LINE
  5
79
330
1E
100
AcDbEntity
  8
0
100
AcDbLine
 10
27.43399
 20
164.6799999999999
 30
0.0
 11
28.12969
 21
162.0829999999999
 31
0.0
  0
LINE
  5
7A
330
1E
100
AcDbEntity
  8
0
100
AcDbLine
 10
23.47499
 20
160.8789999999999
 30
0.0
 11
24.10549
 21
158.526
 31
0.0
  0
LINE
  5
7B
330
1E
100
AcDbEntity
  8
0
100
AcDbLine
 10
22.79008999999999
 20
163.4349999999999
 30
0.0
 11
23.47499
 21
160.8789999999999
 31
0.0
  0
LINE
  5
7C
330
1E
100
AcDbEntity
  8
0
100
AcDbLine
 10
-0.048849999999984
 20
167.534
 30
0.0
 11
0.212040000000016
 21
166.5599999999999
 31
0.0
  0
LINE
  5
7D
330
1E
100
AcDbEntity
  8
0
100
AcDbLine
 10
-0.146689999999984
 20
167.8989999999999
 30
0.0
 11
0.196750000000016
 21
168.252
 31
0.0
  0
LINE
  5
7E
330
1E
100
AcDbEntity
  8
0
100
AcDbLine
 10
-0.146689999999984
 20
167.8989999999999
 30
0.0
 11
-0.048849999999984
 21
167.534
 31
0.0
  0
LINE
  5
7F
330
1E
100
AcDbEntity
  8
0
100
AcDbLine
 10
-0.048849999999984
 20
167.534
 30
0.0
 11
0.212040000000016
 21
166.5599999999999
 31
0.0
  0
LINE
  5
80
330
1E
100
AcDbEntity
  8
0
100
AcDbLine
 10
0.196750000000018
 20
168.252
 30
0.0
 11
19.66388999999999
 21
173.4679999999999
 31
0.0
  0
LINE
  5
81
330
1E
100
AcDbEntity
  8
0
100
AcDbLine
 10
0.212040000000016
 20
166.5599999999999
 30
0.0
 11
0.635980000000016
 21
164.9779999999999
 31
0.0
  0
LINE
  5
82
330
1E
100
AcDbEntity
  8
0
100
AcDbLine
 10
0.196750000000016
 20
168.252
 30
0.0
 11
19.66388999999999
 21
173.4679999999999
 31
0.0
  0
LINE
  5
83
330
1E
100
AcDbEntity
  8
0
100
AcDbLine
 10
19.66388999999999
 20
173.4679999999999
 30
0.0
 11
20.13778999999999
 21
173.334
 31
0.0
  0
LINE
  5
84
330
1E
100
AcDbEntity
  8
0
100
AcDbLine
 10
20.25828999999999
 20
173.627
 30
0.0
 11
20.35609
 21
173.262
 31
0.0
  0
LINE
  5
85
330
1E
100
AcDbEntity
  8
0
100
AcDbLine
 10
20.25828999999999
 20
173.627
 30
0.0
 11
24.71639
 21
174.822
 31
0.0
  0
LINE
  5
86
330
1E
100
AcDbEntity
  8
0
100
AcDbLine
 10
20.35609
 20
173.262
 30
0.0
 11
20.61698999999999
 21
172.2879999999999
 31
0.0
  0
LINE
  5
87
330
1E
100
AcDbEntity
  8
0
100
AcDbLine
 10
20.13778999999999
 20
173.334
 30
0.0
 11
20.23559
 21
172.969
 31
0.0
  0
LINE
  5
88
330
1E
100
AcDbEntity
  8
0
100
AcDbLine
 10
20.13778999999999
 20
173.334
 30
0.0
 11
20.25828999999999
 21
173.627
 31
0.0
  0
LINE
  5
89
330
1E
100
AcDbEntity
  8
0
100
AcDbLine
 10
20.23559
 20
172.969
 30
0.0
 11
20.49649
 21
171.995
 31
0.0
  0
LINE
  5
8A
330
1E
100
AcDbEntity
  8
0
100
AcDbLine
 10
20.61698999999999
 20
172.2879999999999
 30
0.0
 11
21.05179
 21
170.666
 31
0.0
  0
LINE
  5
8B
330
1E
100
AcDbEntity
  8
0
100
AcDbLine
 10
21.05179
 20
170.666
 30
0.0
 11
21.62799
 21
168.5159999999999
 31
0.0
  0
LINE
  5
8C
330
1E
100
AcDbEntity
  8
0
100
AcDbLine
 10
20.49649
 20
171.995
 30
0.0
 11
20.92039
 21
170.4129999999999
 31
0.0
  0
LINE
  5
8D
330
1E
100
AcDbEntity
  8
0
100
AcDbLine
 10
20.92039
 20
170.4129999999999
 30
0.0
 11
21.47479
 21
168.344
 31
0.0
  0
LINE
  5
8E
330
1E
100
AcDbEntity
  8
0
100
AcDbLine
 10
27.04209
 20
166.8849999999999
 30
0.0
 11
27.32159
 21
165.842
 31
0.0
  0
LINE
  5
8F
330
1E
100
AcDbEntity
  8
0
100
AcDbLine
 10
22.28019
 20
166.0809999999999
 30
0.0
 11
22.97588999999999
 21
163.485
 31
0.0
  0
LINE
  5
90
330
1E
100
AcDbEntity
  8
0
100
AcDbLine
 10
21.62799
 20
168.5159999999999
 30
0.0
 11
22.28019
 21
166.0809999999999
 31
0.0
  0
LINE
  5
91
330
1E
100
AcDbEntity
  8
0
100
AcDbLine
 10
26.45509
 20
169.076
 30
0.0
 11
29.6325833693319
 21
169.927461858782
 31
0.0
  0
LINE
  5
92
330
1E
100
AcDbEntity
  8
0
100
AcDbLine
 10
26.6548757385364
 20
168.3301674448349
 30
0.0
 11
26.79519
 21
167.807
 31
0.0
  0
LINE
  5
93
330
1E
100
AcDbEntity
  8
0
100
AcDbLine
 10
26.79519
 20
167.807
 30
0.0
 11
27.04209
 21
166.8849999999999
 31
0.0
  0
LINE
  5
94
330
1E
100
AcDbEntity
  8
0
100
AcDbLine
 10
26.30449
 20
169.6379999999999
 30
0.0
 11
26.93489
 21
167.2849999999999
 31
0.0
  0
LINE
  5
95
330
1E
100
AcDbEntity
  8
0
100
AcDbLine
 10
25.06519
 20
174.263
 30
0.0
 11
25.32609
 21
173.289
 31
0.0
  0
LINE
  5
96
330
1E
100
AcDbEntity
  8
0
100
AcDbLine
 10
24.96738999999999
 20
174.6279999999999
 30
0.0
 11
25.06519
 21
174.263
 31
0.0
  0
LINE
  5
97
330
1E
100
AcDbEntity
  8
0
100
AcDbLine
 10
24.71639
 20
174.822
 30
0.0
 11
24.81429
 21
174.4569999999999
 31
0.0
  0
LINE
  5
98
330
1E
100
AcDbEntity
  8
0
100
AcDbLine
 10
24.71639
 20
174.822
 30
0.0
 11
24.96738999999999
 21
174.6279999999999
 31
0.0
  0
LINE
  5
99
330
1E
100
AcDbEntity
  8
0
100
AcDbLine
 10
24.81429
 20
174.4569999999999
 30
0.0
 11
25.07509
 21
173.483
 31
0.0
  0
LINE
  5
9A
330
1E
100
AcDbEntity
  8
0
100
AcDbLine
 10
25.32609
 20
173.289
 30
0.0
 11
25.75009
 21
171.7069999999999
 31
0.0
  0
LINE
  5
9B
330
1E
100
AcDbEntity
  8
0
100
AcDbLine
 10
25.07509
 20
173.483
 30
0.0
 11
25.50999
 21
171.86
 31
0.0
  0
LINE
  5
9C
330
1E
100
AcDbEntity
  8
0
100
AcDbLine
 10
25.50999
 20
171.86
 30
0.0
 11
26.08608999999999
 21
169.71
 31
0.0
  0
LINE
  5
9D
330
1E
100
AcDbEntity
  8
0
100
AcDbLine
 10
25.75009
 20
171.7069999999999
 30
0.0
 11
26.30449
 21
169.6379999999999
 31
0.0
  0
LINE
  5
9E
330
1E
100
AcDbEntity
  8
0
100
AcDbLine
 10
26.08608999999999
 20
169.71
 30
0.0
 11
26.73829
 21
167.2759999999999
 31
0.0
  0
LINE
  5
9F
330
1E
100
AcDbEntity
  8
0
100
AcDbLine
 10
30.10029
 20
168.182
 30
0.0
 11
30.78509
 21
165.627
 31
0.0
  0
LINE
  5
A0
330
1E
100
AcDbEntity
  8
0
100
AcDbLine
 10
28.91539
 20
172.604
 30
0.0
 11
29.46979
 21
170.5349999999999
 31
0.0
  0
LINE
  5
A1
330
1E
100
AcDbEntity
  8
0
100
AcDbLine
 10
29.46979
 20
170.5349999999999
 30
0.0
 11
30.10029
 21
168.182
 31
0.0
  0
LINE
  5
A2
330
1E
100
AcDbEntity
  8
0
100
AcDbLine
 10
29.46979
 20
170.5349999999999
 30
0.0
 11
29.6325833693319
 21
169.927461858782
 31
0.0
  0
LINE
  5
A3
330
1E
100
AcDbEntity
  8
0
100
AcDbLine
 10
28.23049
 20
175.16
 30
0.0
 11
28.49139
 21
174.187
 31
0.0
  0
LINE
  5
A4
330
1E
100
AcDbEntity
  8
0
100
AcDbLine
 10
28.49139
 20
174.187
 30
0.0
 11
28.91539
 21
172.604
 31
0.0
  0
LINE
  5
A5
330
1E
100
AcDbEntity
  8
0
100
AcDbLine
 10
28.13269
 20
175.525
 30
0.0
 11
28.23049
 21
175.16
 31
0.0
  0
LINE
  5
A6
330
1E
100
AcDbEntity
  8
0
100
AcDbLine
 10
28.13269
 20
175.525
 30
0.0
 11
28.25319
 21
175.819
 31
0.0
  0
LINE
  5
A7
330
1E
100
AcDbEntity
  8
0
100
AcDbLine
 10
28.25319
 20
175.819
 30
0.0
 11
28.35109
 21
175.453
 31
0.0
  0
LINE
  5
A8
330
1E
100
AcDbEntity
  8
0
100
AcDbLine
 10
28.25319
 20
175.819
 30
0.0
 11
30.48229
 21
176.4159999999999
 31
0.0
  0
LINE
  5
A9
330
1E
100
AcDbEntity
  8
0
100
AcDbLine
 10
28.35109
 20
175.453
 30
0.0
 11
28.61199
 21
174.4799999999999
 31
0.0
  0
LINE
  5
AA
330
1E
100
AcDbEntity
  8
0
100
AcDbLine
 10
28.61199
 20
174.4799999999999
 30
0.0
 11
29.04679
 21
172.8569999999999
 31
0.0
  0
LINE
  5
AB
330
1E
100
AcDbEntity
  8
0
100
AcDbLine
 10
29.04679
 20
172.8569999999999
 30
0.0
 11
29.62289
 21
170.7069999999999
 31
0.0
  0
LINE
  5
AC
330
1E
100
AcDbEntity
  8
0
100
AcDbLine
 10
29.62289
 20
170.7069999999999
 30
0.0
 11
30.27509
 21
168.273
 31
0.0
  0
LINE
  5
AD
330
1E
100
AcDbEntity
  8
0
100
AcDbLine
 10
30.27509
 20
168.273
 30
0.0
 11
30.97079
 21
165.676
 31
0.0
  0
LINE
  5
AE
330
1E
100
AcDbEntity
  8
0
100
AcDbLine
 10
76.88009
 20
175.052
 30
0.0
 11
84.50568999999999
 21
171.2919999999999
 31
0.0
  0
LINE
  5
AF
330
1E
100
AcDbEntity
  8
0
100
AcDbLine
 10
68.82889
 20
177.7849999999999
 30
0.0
 11
76.88009
 21
175.052
 31
0.0
  0
LINE
  5
B0
330
1E
100
AcDbEntity
  8
0
100
AcDbLine
 10
30.48229
 20
176.4159999999999
 30
0.0
 11
35.18249
 21
177.7849999999999
 31
0.0
  0
LINE
  5
B1
330
1E
100
AcDbEntity
  8
0
100
AcDbLine
 10
52.00569
 20
180.0
 30
0.0
 11
60.48989
 21
179.444
 31
0.0
  0
LINE
  5
B2
330
1E
100
AcDbEntity
  8
0
100
AcDbLine
 10
60.48989
 20
179.444
 30
0.0
 11
68.82889
 21
177.7849999999999
 31
0.0
  0
LINE
  5
B3
330
1E
100
AcDbEntity
  8
0
100
AcDbLine
 10
43.52148999999999
 20
179.444
 30
0.0
 11
52.00569
 21
180.0
 31
0.0
  0
LINE
  5
B4
330
1E
100
AcDbEntity
  8
0
100
AcDbLine
 10
35.18249
 20
177.7849999999999
 30
0.0
 11
43.52148999999999
 21
179.444
 31
0.0
  0
LINE
  5
B5
330
1E
100
AcDbEntity
  8
0
100
AcDbLine
 10
26.93489
 20
167.2849999999999
 30
0.0
 11
27.61979
 21
164.729
 31
0.0
  0
LINE
  5
B6
330
1E
100
AcDbEntity
  8
0
100
AcDbLine
 10
26.73829
 20
167.2759999999999
 30
0.0
 11
27.43399
 21
164.6799999999999
 31
0.0
  0
LINE
  5
B7
330
1E
100
AcDbEntity
  8
0
100
AcDbLine
 10
21.47479
 20
168.344
 30
0.0
 11
22.10529
 21
165.9909999999999
 31
0.0
  0
LINE
  5
B8
330
1E
100
AcDbEntity
  8
0
100
AcDbLine
 10
22.10529
 20
165.9909999999999
 30
0.0
 11
22.79008999999999
 21
163.4349999999999
 31
0.0
  0
LINE
  5
B9
330
1E
100
AcDbEntity
  8
0
100
AcDbLine
 10
77.50569
 20
100.1759999999999
 30
0.0
 11
77.50569
 21
99.52049999999999
 31
0.0
  0
LINE
  5
BA
330
1E
100
AcDbEntity
  8
0
100
AcDbLine
 10
77.50569
 20
100.1759999999999
 30
0.0
 11
77.86189
 21
101.856
 31
0.0
  0
LINE
  5
BB
330
1E
100
AcDbEntity
  8
0
100
AcDbLine
 10
77.50569
 20
99.52049999999999
 30
0.0
 11
77.50569
 21
98.8652
 31
0.0
  0
LINE
  5
BC
330
1E
100
AcDbEntity
  8
0
100
AcDbLine
 10
77.50569
 20
99.52049999999999
 30
0.0
 11
77.50569
 21
100.1759999999999
 31
0.0
  0
LINE
  5
BD
330
1E
100
AcDbEntity
  8
0
100
AcDbLine
 10
78.78489
 20
96.25709999999999
 30
0.0
 11
79.36179
 21
95.8826
 31
0.0
  0
LINE
  5
BE
330
1E
100
AcDbEntity
  8
0
100
AcDbLine
 10
78.38109
 20
96.54569999999999
 30
0.0
 11
78.78489
 21
96.25709999999999
 31
0.0
  0
LINE
  5
BF
330
1E
100
AcDbEntity
  8
0
100
AcDbLine
 10
80.32329
 20
95.5189
 30
0.0
 11
81.61168999999999
 21
95.3531
 31
0.0
  0
LINE
  5
C0
330
1E
100
AcDbEntity
  8
0
100
AcDbLine
 10
79.36179
 20
95.8826
 30
0.0
 11
80.32329
 21
95.5189
 31
0.0
  0
LINE
  5
C1
330
1E
100
AcDbEntity
  8
0
100
AcDbLine
 10
78.38109
 20
102.495
 30
0.0
 11
79.03489
 21
102.936
 31
0.0
  0
LINE
  5
C2
330
1E
100
AcDbEntity
  8
0
100
AcDbLine
 10
78.38109
 20
102.495
 30
0.0
 11
78.78489
 21
102.7839999999999
 31
0.0
  0
LINE
  5
C3
330
1E
100
AcDbEntity
  8
0
100
AcDbLine
 10
77.86189
 20
101.856
 30
0.0
 11
78.38109
 21
102.495
 31
0.0
  0
LINE
  5
C7
330
1E
100
AcDbEntity
  8
0
100
AcDbLine
 10
81.63089000000001
 20
102.254
 30
0.0
 11
83.52859
 21
102.185
 31
0.0
  0
LINE
  5
C8
330
1E
100
AcDbEntity
  8
0
100
AcDbLine
 10
80.13099
 20
102.034
 30
0.0
 11
81.63089000000001
 21
102.254
 31
0.0
  0
LINE
  5
C9
330
1E
100
AcDbEntity
  8
0
100
AcDbLine
 10
79.03489
 20
101.626
 30
0.0
 11
80.13099
 21
102.034
 31
0.0
  0
LINE
  5
CA
330
1E
100
AcDbEntity
  8
0
100
AcDbLine
 10
78.38109
 20
101.185
 30
0.0
 11
79.03489
 21
101.626
 31
0.0
  0
LINE
  5
CB
330
1E
100
AcDbEntity
  8
0
100
AcDbLine
 10
77.86189
 20
100.5449999999999
 30
0.0
 11
78.38109
 21
101.185
 31
0.0
  0
LINE
  5
CC
330
1E
100
AcDbEntity
  8
0
100
AcDbLine
 10
83.52859
 20
102.185
 30
0.0
 11
87.50369
 21
101.665
 31
0.0
  0
LINE
  5
CD
330
1E
100
AcDbEntity
  8
0
100
AcDbLine
 10
78.79119
 20
149.908
 30
0.0
 11
83.11839
 21
146.1129999999999
 31
0.0
  0
LINE
  5
CE
330
1E
100
AcDbEntity
  8
0
100
AcDbLine
 10
79.36179
 20
103.1579999999999
 30
0.0
 11
80.32329
 21
103.522
 31
0.0
  0
LINE
  5
CF
330
1E
100
AcDbEntity
  8
0
100
AcDbLine
 10
80.13099
 20
103.3439999999999
 30
0.0
 11
81.63089000000001
 21
103.5649999999999
 31
0.0
  0
LINE
  5
D0
330
1E
100
AcDbEntity
  8
0
100
AcDbLine
 10
79.03489
 20
102.936
 30
0.0
 11
80.13099
 21
103.3439999999999
 31
0.0
  0
LINE
  5
D1
330
1E
100
AcDbEntity
  8
0
100
AcDbLine
 10
81.63089000000001
 20
103.5649999999999
 30
0.0
 11
83.52859
 21
103.496
 31
0.0
  0
LINE
  5
D2
330
1E
100
AcDbEntity
  8
0
100
AcDbLine
 10
83.52859
 20
103.496
 30
0.0
 11
87.50369
 21
103.467
 31
0.0
  0
LINE
  5
D3
330
1E
100
AcDbEntity
  8
0
100
AcDbLine
 10
83.50469
 20
103.631
 30
0.0
 11
87.48389000000001
 21
103.56
 31
0.0
  0
LINE
  5
D4
330
1E
100
AcDbEntity
  8
0
100
AcDbLine
 10
84.50568999999999
 20
171.2919999999999
 30
0.0
 11
91.57519
 21
166.5679999999999
 31
0.0
  0
LINE
  5
D5
330
1E
100
AcDbEntity
  8
0
100
AcDbLine
 10
83.11839
 20
146.1129999999999
 30
0.0
 11
86.91319
 21
141.786
 31
0.0
  0
LINE
  5
D6
330
1E
100
AcDbEntity
  8
0
100
AcDbLine
 10
86.91319
 20
141.786
 30
0.0
 11
90.11079
 21
137.0
 31
0.0
  0
LINE
  5
D7
330
1E
100
AcDbEntity
  8
0
100
AcDbLine
 10
81.61168999999999
 20
103.6879999999999
 30
0.0
 11
83.50469
 21
103.631
 31
0.0
  0
LINE
  5
D8
330
1E
100
AcDbEntity
  8
0
100
AcDbLine
 10
80.32329
 20
103.522
 30
0.0
 11
81.61168999999999
 21
103.6879999999999
 31
0.0
  0
LINE
  5
D9
330
1E
100
AcDbEntity
  8
0
100
AcDbLine
 10
78.78489
 20
102.7839999999999
 30
0.0
 11
79.36179
 21
103.1579999999999
 31
0.0
  0
LINE
  5
DA
330
1E
100
AcDbEntity
  8
0
100
AcDbLine
 10
87.50369
 20
103.467
 30
0.0
 11
91.04779
 21
104.022
 31
0.0
  0
LINE
  5
DB
330
1E
100
AcDbEntity
  8
0
100
AcDbLine
 10
87.50369
 20
101.665
 30
0.0
 11
91.04779
 21
100.506
 31
0.0
  0
LINE
  5
DC
330
1E
100
AcDbEntity
  8
0
100
AcDbLine
 10
87.48389000000001
 20
103.56
 30
0.0
 11
90.73349
 21
104.089
 31
0.0
  0
LINE
  5
DD
330
1E
100
AcDbEntity
  8
0
100
AcDbLine
 10
77.86189
 20
97.18519999999999
 30
0.0
 11
78.38109
 21
96.54569999999999
 31
0.0
  0
LINE
  5
DE
330
1E
100
AcDbEntity
  8
0
100
AcDbLine
 10
77.50569
 20
98.8652
 30
0.0
 11
77.86189
 21
97.18519999999999
 31
0.0
  0
LINE
  5
DF
330
1E
100
AcDbEntity
  8
0
100
AcDbLine
 10
77.50569
 20
98.8652
 30
0.0
 11
77.50569
 21
99.52049999999999
 31
0.0
  0
LINE
  5
E0
330
1E
100
AcDbEntity
  8
0
100
AcDbLine
 10
77.50569
 20
98.8652
 30
0.0
 11
77.86189
 21
100.5449999999999
 31
0.0
  0
LINE
  5
E1
330
1E
100
AcDbEntity
  8
0
100
AcDbLine
 10
87.48389000000001
 20
95.4814
 30
0.0
 11
89.55367394723021
 21
95.14395184169051
 31
0.0
  0
LINE
  5
E2
330
1E
100
AcDbEntity
  8
0
100
AcDbLine
 10
87.48389000000001
 20
95.4814
 30
0.0
 11
90.73349
 21
94.9516
 31
0.0
  0
LINE
  5
E3
330
1E
100
AcDbEntity
  8
0
100
AcDbLine
 10
90.10569
 20
15.0
 30
0.0
 11
121.2056899999999
 21
15.0
 31
0.0
  0
LINE
  5
E6
330
1E
100
AcDbEntity
  8
0
100
AcDbLine
 10
100.10569
 20
-0.0000000000000094
 30
0.0
 11
106.5056899999999
 21
-0.0000000000000098
 31
0.0
  0
LINE
  5
E7
330
1E
100
AcDbEntity
  8
0
100
AcDbLine
 10
94.10569
 20
-0.000000000000009
 30
0.0
 11
100.10569
 21
-0.0000000000000094
 31
0.0
  0
LINE
  5
E8
330
1E
100
AcDbEntity
  8
0
100
AcDbLine
 10
91.50569
 20
18.0
 30
0.0
 11
91.50569
 21
65.0451764705882
 31
0.0
  0
LINE
  5
E9
330
1E
100
AcDbEntity
  8
0
100
AcDbLine
 10
91.00569
 20
16.0
 30
0.0
 11
91.50569
 21
18.0
 31
0.0
  0
LINE
  5
EA
330
1E
100
AcDbEntity
  8
0
100
AcDbLine
 10
90.50569000000001
 20
15.5
 30
0.0
 11
91.00569
 21
16.0
 31
0.0
  0
LINE
  5
EC
330
1E
100
AcDbEntity
  8
0
100
AcDbLine
 10
91.00569
 20
16.0
 30
0.0
 11
122.0056899999999
 21
16.0
 31
0.0
  0
LINE
  5
F0
330
1E
100
AcDbEntity
  8
0
100
AcDbLine
 10
92.20569000000001
 20
65.5586
 30
0.0
 11
94.80569
 21
62.6916
 31
0.0
  0
LINE
  5
F1
330
1E
100
AcDbEntity
  8
0
100
AcDbLine
 10
91.80569
 20
64.4525
 30
0.0
 11
92.20569000000001
 21
63.8379
 31
0.0
  0
LINE
  5
F2
330
1E
100
AcDbEntity
  8
0
100
AcDbLine
 10
92.20569000000001
 20
63.8379
 30
0.0
 11
94.80569
 21
60.9708
 31
0.0
  0
LINE
  5
F4
330
1E
100
AcDbEntity
  8
0
100
AcDbLine
 10
102.30569
 20
57.5304
 30
0.0
 11
106.5056899999999
 21
57.0389
 31
0.0
  0
LINE
  5
F5
330
1E
100
AcDbEntity
  8
0
100
AcDbLine
 10
98.30569
 20
60.5618
 30
0.0
 11
102.30569
 21
59.2511
 31
0.0
  0
LINE
  5
F7
330
1E
100
AcDbEntity
  8
0
100
AcDbLine
 10
95.16419
 20
63.272
 30
0.0
 11
95.16419
 21
66.7135
 31
0.0
  0
LINE
  5
F8
330
1E
100
AcDbEntity
  8
0
100
AcDbLine
 10
95.16419
 20
63.272
 30
0.0
 11
110.6646899999999
 21
59.8656
 31
0.0
  0
LINE
  5
F9
330
1E
100
AcDbEntity
  8
0
100
AcDbLine
 10
95.16419
 20
66.7135
 30
0.0
 11
95.16419
 21
63.272
 31
0.0
  0
LINE
  5
FA
330
1E
100
AcDbEntity
  8
0
100
AcDbLine
 10
95.16419
 20
66.7135
 30
0.0
 11
110.6646899999999
 21
63.307
 31
0.0
  0
LINE
  5
FB
330
1E
100
AcDbEntity
  8
0
100
AcDbLine
 10
94.80569
 20
62.6916
 30
0.0
 11
98.30569
 21
60.5618
 31
0.0
  0
LINE
  5
FC
330
1E
100
AcDbEntity
  8
0
100
AcDbLine
 10
94.80569
 20
60.9708
 30
0.0
 11
98.30569
 21
58.841
 31
0.0
  0
LINE
  5
FD
330
1E
100
AcDbEntity
  8
0
100
AcDbLine
 10
100.50569
 20
67.48470000000001
 30
0.0
 11
103.40569
 21
66.5017
 31
0.0
  0
LINE
  5
FE
330
1E
100
AcDbEntity
  8
0
100
AcDbLine
 10
103.40569
 20
66.5017
 30
0.0
 11
106.5056899999999
 21
66.17409999999999
 31
0.0
  0
LINE
  5
FF
330
1E
100
AcDbEntity
  8
0
100
AcDbLine
 10
106.5056899999999
 20
66.17409999999999
 30
0.0
 11
109.6056899999999
 21
66.5017
 31
0.0
  0
LINE
  5
100
330
1E
100
AcDbEntity
  8
0
100
AcDbLine
 10
102.30569
 20
59.2511
 30
0.0
 11
106.5056899999999
 21
58.7596
 31
0.0
  0
LINE
  5
101
330
1E
100
AcDbEntity
  8
0
100
AcDbLine
 10
98.30569
 20
58.841
 30
0.0
 11
102.30569
 21
57.5304
 31
0.0
  0
LINE
  5
102
330
1E
100
AcDbEntity
  8
0
100
AcDbLine
 10
106.5056899999999
 20
58.7596
 30
0.0
 11
110.7056899999999
 21
59.2511
 31
0.0
  0
LINE
  5
104
330
1E
100
AcDbEntity
  8
0
100
AcDbLine
 10
106.5056899999999
 20
57.0389
 30
0.0
 11
110.7056899999999
 21
57.5304
 31
0.0
  0
LINE
  5
108
330
1E
100
AcDbEntity
  8
0
100
AcDbLine
 10
91.50569
 20
18.0
 30
0.0
 11
91.50569
 21
65.0451764705882
 31
0.0
  0
LINE
  5
10A
330
1E
100
AcDbEntity
  8
0
100
AcDbLine
 10
118.9056899999999
 20
-0.0000000000000106
 30
0.0
 11
124.10569
 21
-0.0000000000000109
 31
0.0
  0
LINE
  5
10B
330
1E
100
AcDbEntity
  8
0
100
AcDbLine
 10
124.10569
 20
-0.0000000000000109
 30
0.0
 11
128.20569
 21
-0.0000000000000111
 31
0.0
  0
LINE
  5
10C
330
1E
100
AcDbEntity
  8
0
100
AcDbLine
 10
128.20569
 20
-0.0000000000000111
 30
0.0
 11
130.6056899999999
 21
-0.0000000000000113
 31
0.0
  0
LINE
  5
10D
330
1E
100
AcDbEntity
  8
0
100
AcDbLine
 10
130.6056899999999
 20
-0.0000000000000113
 30
0.0
 11
131.5056899999999
 21
-0.0000000000000113
 31
0.0
  0
LINE
  5
10E
330
1E
100
AcDbEntity
  8
0
100
AcDbLine
 10
121.2056899999999
 20
15.0
 30
0.0
 11
122.90569
 21
15.0
 31
0.0
  0
LINE
  5
10F
330
1E
100
AcDbEntity
  8
0
100
AcDbLine
 10
122.90569
 20
15.0
 30
0.0
 11
123.5056899999999
 21
15.0
 31
0.0
  0
LINE
  5
115
330
1E
100
AcDbEntity
  8
0
100
AcDbLine
 10
110.6646899999999
 20
59.8656
 30
0.0
 11
110.6646899999999
 21
63.307
 31
0.0
  0
LINE
  5
116
330
1E
100
AcDbEntity
  8
0
100
AcDbLine
 10
110.6646899999999
 20
59.8656
 30
0.0
 11
122.0056899999999
 21
69.15600000000001
 31
0.0
  0
LINE
  5
117
330
1E
100
AcDbEntity
  8
0
100
AcDbLine
 10
110.6646899999999
 20
63.307
 30
0.0
 11
122.0056899999999
 21
72.59739999999999
 31
0.0
  0
LINE
  5
118
330
1E
100
AcDbEntity
  8
0
100
AcDbLine
 10
110.6646899999999
 20
63.307
 30
0.0
 11
110.6646899999999
 21
59.8656
 31
0.0
  0
LINE
  5
119
330
1E
100
AcDbEntity
  8
0
100
AcDbLine
 10
110.7056899999999
 20
59.2511
 30
0.0
 11
114.7056899999999
 21
60.5618
 31
0.0
  0
LINE
  5
11D
330
1E
100
AcDbEntity
  8
0
100
AcDbLine
 10
118.2056899999999
 20
62.6916
 30
0.0
 11
120.8056899999999
 21
65.5586
 31
0.0
  0
LINE
  5
11E
330
1E
100
AcDbEntity
  8
0
100
AcDbLine
 10
118.2056899999999
 20
60.9708
 30
0.0
 11
120.8056899999999
 21
63.8379
 31
0.0
  0
LINE
  5
11F
330
1E
100
AcDbEntity
  8
0
100
AcDbLine
 10
114.7056899999999
 20
60.5618
 30
0.0
 11
118.2056899999999
 21
62.6916
 31
0.0
  0
LINE
  5
120
330
1E
100
AcDbEntity
  8
0
100
AcDbLine
 10
114.7056899999999
 20
58.841
 30
0.0
 11
118.2056899999999
 21
60.9708
 31
0.0
  0
LINE
  5
121
330
1E
100
AcDbEntity
  8
0
100
AcDbLine
 10
110.7056899999999
 20
57.5304
 30
0.0
 11
114.7056899999999
 21
58.841
 31
0.0
  0
LINE
  5
123
330
1E
100
AcDbEntity
  8
0
100
AcDbLine
 10
121.5007052230909
 20
18.7327622056672
 30
0.0
 11
129.234770840205
 21
32.1628038984169
 31
0.0
  0
LINE
  5
124
330
1E
100
AcDbEntity
  8
0
100
AcDbLine
 10
121.5056899999999
 20
28.6907247775306
 30
0.0
 11
124.9346899999999
 21
34.6451
 31
0.0
  0
LINE
  5
125
330
1E
100
AcDbEntity
  8
0
100
AcDbLine
 10
121.5056899999999
 20
18.74141816555099
 30
0.0
 11
121.5056899999999
 21
18.0
 31
0.0
  0
LINE
  5
126
330
1E
100
AcDbEntity
  8
0
100
AcDbLine
 10
121.5056899999999
 20
28.6907247775306
 30
0.0
 11
121.5056899999999
 21
65.0451764705882
 31
0.0
  0
LINE
  5
127
330
1E
100
AcDbEntity
  8
0
100
AcDbLine
 10
121.2056899999999
 20
64.4525
 30
0.0
 11
122.90569
 21
67.81100000000001
 31
0.0
  0
LINE
  5
128
330
1E
100
AcDbEntity
  8
0
100
AcDbLine
 10
120.8056899999999
 20
63.8379
 30
0.0
 11
121.2056899999999
 21
64.4525
 31
0.0
  0
LINE
  5
12A
330
1E
100
AcDbEntity
  8
0
100
AcDbLine
 10
112.5056899999999
 20
67.48470000000001
 30
0.0
 11
115.0056899999999
 21
69.0411
 31
0.0
  0
LINE
  5
12B
330
1E
100
AcDbEntity
  8
0
100
AcDbLine
 10
109.6056899999999
 20
66.5017
 30
0.0
 11
112.5056899999999
 21
67.48470000000001
 31
0.0
  0
LINE
  5
12C
330
1E
100
AcDbEntity
  8
0
100
AcDbLine
 10
120.8056899999999
 20
65.5586
 30
0.0
 11
122.4056899999999
 21
68.8352
 31
0.0
  0
LINE
  5
12D
330
1E
100
AcDbEntity
  8
0
100
AcDbLine
 10
121.5056899999999
 20
65.0451764705882
 30
0.0
 11
122.90569
 21
67.81100000000001
 31
0.0
  0
LINE
  5
12E
330
1E
100
AcDbEntity
  8
0
100
AcDbLine
 10
121.5056899999999
 20
65.0451764705882
 30
0.0
 11
121.5056899999999
 21
28.6907247775306
 31
0.0
  0
LINE
  5
12F
330
1E
100
AcDbEntity
  8
0
100
AcDbLine
 10
121.5056899999999
 20
18.0
 30
0.0
 11
122.0056899999999
 21
16.0
 31
0.0
  0
LINE
  5
130
330
1E
100
AcDbEntity
  8
0
100
AcDbLine
 10
121.5056899999999
 20
18.0
 30
0.0
 11
121.5056899999999
 21
18.74141816555099
 31
0.0
  0
LINE
  5
131
330
1E
100
AcDbEntity
  8
0
100
AcDbLine
 10
122.0056899999999
 20
16.0
 30
0.0
 11
122.50569
 21
15.5
 31
0.0
  0
LINE
  5
132
330
1E
100
AcDbEntity
  8
0
100
AcDbLine
 10
122.90569
 20
67.81100000000001
 30
0.0
 11
123.5056899999999
 21
71.4153
 31
0.0
  0
LINE
  5
133
330
1E
100
AcDbEntity
  8
0
100
AcDbLine
 10
122.50569
 20
15.5
 30
0.0
 11
123.5056899999999
 21
15.0
 31
0.0
  0
LINE
  5
134
330
1E
100
AcDbEntity
  8
0
100
AcDbLine
 10
123.5056899999999
 20
15.0
 30
0.0
 11
124.0056899999999
 21
14.0
 31
0.0
  0
LINE
  5
135
330
1E
100
AcDbEntity
  8
0
100
AcDbLine
 10
123.5056899999999
 20
12.5
 30
0.0
 11
124.0056899999999
 21
13.5
 31
0.0
  0
LINE
  5
136
330
1E
100
AcDbEntity
  8
0
100
AcDbLine
 10
123.3056899999999
 20
11.4
 30
0.0
 11
123.5056899999999
 21
9.999999999999991
 31
0.0
  0
LINE
  5
137
330
1E
100
AcDbEntity
  8
0
100
AcDbLine
 10
123.3056899999999
 20
11.4
 30
0.0
 11
123.5056899999999
 21
12.5
 31
0.0
  0
LINE
  5
138
330
1E
100
AcDbEntity
  8
0
100
AcDbLine
 10
124.9526899999999
 20
34.63689999999999
 30
0.0
 11
125.6906899999999
 21
35.6141
 31
0.0
  0
LINE
  5
141
330
1E
100
AcDbEntity
  8
0
100
AcDbLine
 10
126.4486899999999
 20
36.2531
 30
0.0
 11
127.31869
 21
36.7287
 31
0.0
  0
LINE
  5
142
330
1E
100
AcDbEntity
  8
0
100
AcDbLine
 10
125.6906899999999
 20
35.6141
 30
0.0
 11
126.4486899999999
 21
36.2531
 31
0.0
  0
LINE
  5
144
330
1E
100
AcDbEntity
  8
0
100
AcDbLine
 10
124.0056899999999
 20
14.0
 30
0.0
 11
124.0056899999999
 21
13.5
 31
0.0
  0
LINE
  5
145
330
1E
100
AcDbEntity
  8
0
100
AcDbLine
 10
124.0056899999999
 20
13.5
 30
0.0
 11
124.0056899999999
 21
14.0
 31
0.0
  0
LINE
  5
146
330
1E
100
AcDbEntity
  8
0
100
AcDbLine
 10
123.5056899999999
 20
9.999999999999991
 30
0.0
 11
124.5056899999999
 21
6.99999999999999
 31
0.0
  0
LINE
  5
147
330
1E
100
AcDbEntity
  8
0
100
AcDbLine
 10
124.5056899999999
 20
6.99999999999999
 30
0.0
 11
126.5056899999999
 21
3.99999999999999
 31
0.0
  0
LINE
  5
14A
330
1E
100
AcDbEntity
  8
0
100
AcDbLine
 10
129.25169
 20
32.1529
 30
0.0
 11
144.14469
 21
32.15279999999999
 31
0.0
  0
LINE
  5
14F
330
1E
100
AcDbEntity
  8
0
100
AcDbLine
 10
129.25169
 20
37.1208
 30
0.0
 11
144.14469
 21
37.1208
 31
0.0
  0
LINE
  5
150
330
1E
100
AcDbEntity
  8
0
100
AcDbLine
 10
128.2656899999999
 20
37.0218
 30
0.0
 11
129.25169
 21
37.1208
 31
0.0
  0
LINE
  5
151
330
1E
100
AcDbEntity
  8
0
100
AcDbLine
 10
127.31869
 20
36.7287
 30
0.0
 11
128.2656899999999
 21
37.0218
 31
0.0
  0
LINE
  5
153
330
1E
100
AcDbEntity
  8
0
100
AcDbLine
 10
126.5056899999999
 20
3.99999999999999
 30
0.0
 11
130.0056899999999
 21
2.49999999999999
 31
0.0
  0
LINE
  5
154
330
1E
100
AcDbEntity
  8
0
100
AcDbLine
 10
130.0056899999999
 20
2.49999999999999
 30
0.0
 11
131.0056899999999
 21
1.499999999999989
 31
0.0
  0
LINE
  5
155
330
1E
100
AcDbEntity
  8
0
100
AcDbLine
 10
144.14469
 20
32.15279999999999
 30
0.0
 11
144.14569
 21
32.3403
 31
0.0
  0
LINE
  5
156
330
1E
100
AcDbEntity
  8
0
100
AcDbLine
 10
144.14369
 20
32.8832
 30
0.0
 11
144.14369
 21
32.3434
 31
0.0
  0
LINE
  5
157
330
1E
100
AcDbEntity
  8
0
100
AcDbLine
 10
144.1426899999999
 20
35.59109999999999
 30
0.0
 11
144.14369
 21
36.39609999999999
 31
0.0
  0
LINE
  5
158
330
1E
100
AcDbEntity
  8
0
100
AcDbLine
 10
144.1426899999999
 20
35.59109999999999
 30
0.0
 11
144.1426899999999
 21
34.6408
 31
0.0
  0
LINE
  5
159
330
1E
100
AcDbEntity
  8
0
100
AcDbLine
 10
144.14369
 20
36.9333
 30
0.0
 11
144.14469
 21
37.1208
 31
0.0
  0
LINE
  5
15A
330
1E
100
AcDbEntity
  8
0
100
AcDbLine
 10
144.14369
 20
36.9333
 30
0.0
 11
144.14369
 21
36.39609999999999
 31
0.0
  0
LINE
  5
15B
330
1E
100
AcDbEntity
  8
0
100
AcDbLine
 10
144.14369
 20
36.39609999999999
 30
0.0
 11
144.14369
 21
36.9333
 31
0.0
  0
LINE
  5
15C
330
1E
100
AcDbEntity
  8
0
100
AcDbLine
 10
144.1426899999999
 20
34.6408
 30
0.0
 11
144.1426899999999
 21
35.59109999999999
 31
0.0
  0
LINE
  5
15D
330
1E
100
AcDbEntity
  8
0
100
AcDbLine
 10
144.1426899999999
 20
34.6408
 30
0.0
 11
144.1426899999999
 21
33.6898
 31
0.0
  0
LINE
  5
15E
330
1E
100
AcDbEntity
  8
0
100
AcDbLine
 10
144.1426899999999
 20
33.6898
 30
0.0
 11
144.14369
 21
32.8832
 31
0.0
  0
LINE
  5
15F
330
1E
100
AcDbEntity
  8
0
100
AcDbLine
 10
144.1426899999999
 20
33.6898
 30
0.0
 11
144.1426899999999
 21
34.6408
 31
0.0
  0
LINE
  5
160
330
1E
100
AcDbEntity
  8
0
100
AcDbLine
 10
144.14369
 20
32.3434
 30
0.0
 11
144.14469
 21
32.15279999999999
 31
0.0
  0
LINE
  5
161
330
1E
100
AcDbEntity
  8
0
100
AcDbLine
 10
144.14369
 20
32.3434
 30
0.0
 11
144.14369
 21
32.8832
 31
0.0
  0
LINE
  5
162
330
1E
100
AcDbEntity
  8
0
100
AcDbLine
 10
144.14569
 20
32.3403
 30
0.0
 11
144.1466899999999
 21
32.87749999999999
 31
0.0
  0
LINE
  5
163
330
1E
100
AcDbEntity
  8
0
100
AcDbLine
 10
144.1466899999999
 20
32.87749999999999
 30
0.0
 11
144.1466899999999
 21
33.6826
 31
0.0
  0
LINE
  5
164
330
1E
100
AcDbEntity
  8
0
100
AcDbLine
 10
144.1466899999999
 20
33.6826
 30
0.0
 11
144.1466899999999
 21
32.87749999999999
 31
0.0
  0
LINE
  5
165
330
1E
100
AcDbEntity
  8
0
100
AcDbLine
 10
144.1466899999999
 20
33.6826
 30
0.0
 11
144.1466899999999
 21
34.6328
 31
0.0
  0
LINE
  5
166
330
1E
100
AcDbEntity
  8
0
100
AcDbLine
 10
144.1466899999999
 20
34.6328
 30
0.0
 11
144.1466899999999
 21
33.6826
 31
0.0
  0
LINE
  5
167
330
1E
100
AcDbEntity
  8
0
100
AcDbLine
 10
144.1466899999999
 20
34.6328
 30
0.0
 11
144.1466899999999
 21
35.58379999999999
 31
0.0
  0
LINE
  5
168
330
1E
100
AcDbEntity
  8
0
100
AcDbLine
 10
144.1466899999999
 20
35.58379999999999
 30
0.0
 11
144.1466899999999
 21
34.6328
 31
0.0
  0
LINE
  5
169
330
1E
100
AcDbEntity
  8
0
100
AcDbLine
 10
144.1466899999999
 20
35.58379999999999
 30
0.0
 11
144.1466899999999
 21
36.3904
 31
0.0
  0
LINE
  5
16A
330
1E
100
AcDbEntity
  8
0
100
AcDbLine
 10
144.1466899999999
 20
36.3904
 30
0.0
 11
144.1466899999999
 21
35.58379999999999
 31
0.0
  0
LINE
  5
16B
330
1E
100
AcDbEntity
  8
0
100
AcDbLine
 10
144.14569
 20
36.9302
 30
0.0
 11
144.1466899999999
 21
36.3904
 31
0.0
  0
LINE
  5
16C
330
1E
100
AcDbEntity
  8
0
100
AcDbLine
 10
144.14469
 20
37.1208
 30
0.0
 11
144.14569
 21
36.9302
 31
0.0
  0
LINE
  5
16D
330
1E
100
AcDbEntity
  8
0
100
AcDbLine
 10
131.0056899999999
 20
1.499999999999989
 30
0.0
 11
131.5056899999999
 21
-0.0000000000000113
 31
0.0
  0
LINE
  5
16E
330
1E
100
AcDbEntity
  8
0
100
AcDbLine
 10
131.0056899999999
 20
1.499999999999989
 30
0.0
 11
131.5056899999999
 21
-0.0000000000000112
 31
0.0
  0
LINE
  5
16F
330
1E
100
AcDbEntity
  8
0
100
AcDbLine
 10
112.9056899999999
 20
-0.0000000000000102
 30
0.0
 11
118.9056899999999
 21
-0.0000000000000106
 31
0.0
  0
LINE
  5
170
330
1E
100
AcDbEntity
  8
0
100
AcDbLine
 10
106.5056899999999
 20
-0.0000000000000098
 30
0.0
 11
112.9056899999999
 21
-0.0000000000000102
 31
0.0
  0
LINE
  5
171
330
1E
100
AcDbEntity
  8
0
100
AcDbLine
 10
90.00569
 20
72.2756
 30
0.0
 11
90.60568999999999
 21
68.8352
 31
0.0
  0
LINE
  5
172
330
1E
100
AcDbEntity
  8
0
100
AcDbLine
 10
90.00569
 20
72.2756
 30
0.0
 11
90.60568999999999
 21
75.71609999999999
 31
0.0
  0
LINE
  5
173
330
1E
100
AcDbEntity
  8
0
100
AcDbLine
 10
90.10569
 20
95.0
 30
0.0
 11
90.43662204983009
 21
95.0
 31
0.0
  0
LINE
  5
174
330
1E
100
AcDbEntity
  8
0
100
AcDbLine
 10
90.00569
 20
93.49999999999999
 30
0.0
 11
91.00569
 21
93.0
 31
0.0
  0
LINE
  5
175
330
1E
100
AcDbEntity
  8
0
100
AcDbLine
 10
90.00569
 20
93.49999999999999
 30
0.0
 11
90.60568999999999
 21
93.49999999999999
 31
0.0
  0
LINE
  5
176
330
1E
100
AcDbEntity
  8
0
100
AcDbLine
 10
90.60568999999999
 20
75.71609999999999
 30
0.0
 11
91.00569
 21
76.53525000000001
 31
0.0
  0
LINE
  5
177
330
1E
100
AcDbEntity
  8
0
100
AcDbLine
 10
96.10568999999999
 20
71.089
 30
0.0
 11
98.00569000000001
 21
69.0411
 31
0.0
  0
LINE
  5
178
330
1E
100
AcDbEntity
  8
0
100
AcDbLine
 10
98.00569000000001
 20
69.0411
 30
0.0
 11
100.50569
 21
67.48470000000001
 31
0.0
  0
LINE
  5
179
330
1E
100
AcDbEntity
  8
0
100
AcDbLine
 10
115.0056899999999
 20
69.0411
 30
0.0
 11
116.9056899999999
 21
71.089
 31
0.0
  0
LINE
  5
17A
330
1E
100
AcDbEntity
  8
0
100
AcDbLine
 10
116.9056899999999
 20
71.089
 30
0.0
 11
118.1056899999999
 21
73.4645
 31
0.0
  0
LINE
  5
17B
330
1E
100
AcDbEntity
  8
0
100
AcDbLine
 10
122.0056899999999
 20
69.15600000000001
 30
0.0
 11
122.0056899999999
 21
72.59739999999999
 31
0.0
  0
LINE
  5
17C
330
1E
100
AcDbEntity
  8
0
100
AcDbLine
 10
94.90569
 20
73.4645
 30
0.0
 11
96.10568999999999
 21
71.089
 31
0.0
  0
LINE
  5
17D
330
1E
100
AcDbEntity
  8
0
100
AcDbLine
 10
103.40569
 20
73.38460000000001
 30
0.0
 11
106.5056899999999
 21
73.057
 31
0.0
  0
LINE
  5
17E
330
1E
100
AcDbEntity
  8
0
100
AcDbLine
 10
103.40569
 20
73.9582
 30
0.0
 11
106.5056899999999
 21
73.6306
 31
0.0
  0
LINE
  5
17F
330
1E
100
AcDbEntity
  8
0
100
AcDbLine
 10
100.50569
 20
74.36759999999999
 30
0.0
 11
103.40569
 21
73.38460000000001
 31
0.0
  0
LINE
  5
180
330
1E
100
AcDbEntity
  8
0
100
AcDbLine
 10
105.7056899999999
 20
74.1626
 30
0.0
 11
106.5056899999999
 21
74.1862
 31
0.0
  0
LINE
  5
181
330
1E
100
AcDbEntity
  8
0
100
AcDbLine
 10
105.7056899999999
 20
74.1626
 30
0.0
 11
105.7056899999999
 21
74.3769
 31
0.0
  0
LINE
  5
182
330
1E
100
AcDbEntity
  8
0
100
AcDbLine
 10
100.50569
 20
75.80159999999999
 30
0.0
 11
103.40569
 21
74.81860000000001
 31
0.0
  0
LINE
  5
183
330
1E
100
AcDbEntity
  8
0
100
AcDbLine
 10
103.50569
 20
75.5149
 30
0.0
 11
105.0736362075589
 21
75.3436802741346
 31
0.0
  0
LINE
  5
184
330
1E
100
AcDbEntity
  8
0
100
AcDbLine
 10
103.40569
 20
74.81860000000001
 30
0.0
 11
105.203119783544
 21
74.62859427739759
 31
0.0
  0
LINE
  5
185
330
1E
100
AcDbEntity
  8
0
100
AcDbLine
 10
100.50569
 20
74.94119999999999
 30
0.0
 11
103.40569
 21
73.9582
 31
0.0
  0
LINE
  5
186
330
1E
100
AcDbEntity
  8
0
100
AcDbLine
 10
98.00569000000001
 20
75.92399999999999
 30
0.0
 11
100.50569
 21
74.36759999999999
 31
0.0
  0
LINE
  5
187
330
1E
100
AcDbEntity
  8
0
100
AcDbLine
 10
105.2056899999999
 20
74.6144
 30
0.0
 11
105.7056899999999
 21
74.1626
 31
0.0
  0
LINE
  5
188
330
1E
100
AcDbEntity
  8
0
100
AcDbLine
 10
105.7056899999999
 20
74.3769
 30
0.0
 11
105.7056899999999
 21
74.1626
 31
0.0
  0
LINE
  5
189
330
1E
100
AcDbEntity
  8
0
100
AcDbLine
 10
105.7056899999999
 20
74.3769
 30
0.0
 11
105.7056899999999
 21
75.7651
 31
0.0
  0
LINE
  5
18A
330
1E
100
AcDbEntity
  8
0
100
AcDbLine
 10
106.5056899999999
 20
74.1862
 30
0.0
 11
107.3056899999999
 21
74.1626
 31
0.0
  0
LINE
  5
18B
330
1E
100
AcDbEntity
  8
0
100
AcDbLine
 10
105.7056899999999
 20
75.7651
 30
0.0
 11
105.7056899999999
 21
77.73690000000001
 31
0.0
  0
LINE
  5
18C
330
1E
100
AcDbEntity
  8
0
100
AcDbLine
 10
105.7056899999999
 20
75.7651
 30
0.0
 11
105.7056899999999
 21
74.3769
 31
0.0
  0
LINE
  5
18D
330
1E
100
AcDbEntity
  8
0
100
AcDbLine
 10
106.5056899999999
 20
73.6306
 30
0.0
 11
109.6056899999999
 21
73.9582
 31
0.0
  0
LINE
  5
18E
330
1E
100
AcDbEntity
  8
0
100
AcDbLine
 10
107.3056899999999
 20
74.1626
 30
0.0
 11
107.3056899999999
 21
74.3769
 31
0.0
  0
LINE
  5
18F
330
1E
100
AcDbEntity
  8
0
100
AcDbLine
 10
107.3056899999999
 20
74.1626
 30
0.0
 11
107.8056899999999
 21
74.6144
 31
0.0
  0
LINE
  5
190
330
1E
100
AcDbEntity
  8
0
100
AcDbLine
 10
107.8056899999999
 20
74.6144
 30
0.0
 11
108.3056899999999
 21
77.37569999999999
 31
0.0
  0
LINE
  5
191
330
1E
100
AcDbEntity
  8
0
100
AcDbLine
 10
107.3056899999999
 20
74.3769
 30
0.0
 11
107.3056899999999
 21
75.7651
 31
0.0
  0
LINE
  5
192
330
1E
100
AcDbEntity
  8
0
100
AcDbLine
 10
107.3056899999999
 20
74.3769
 30
0.0
 11
107.3056899999999
 21
74.1626
 31
0.0
  0
LINE
  5
193
330
1E
100
AcDbEntity
  8
0
100
AcDbLine
 10
107.3056899999999
 20
75.7651
 30
0.0
 11
107.3056899999999
 21
74.3769
 31
0.0
  0
LINE
  5
194
330
1E
100
AcDbEntity
  8
0
100
AcDbLine
 10
107.3056899999999
 20
75.7651
 30
0.0
 11
107.3056899999999
 21
77.73690000000001
 31
0.0
  0
LINE
  5
195
330
1E
100
AcDbEntity
  8
0
100
AcDbLine
 10
109.5056899999999
 20
75.5149
 30
0.0
 11
112.20569
 21
76.416
 31
0.0
  0
LINE
  5
196
330
1E
100
AcDbEntity
  8
0
100
AcDbLine
 10
107.937743792441
 20
75.3436802741346
 30
0.0
 11
109.5056899999999
 21
75.5149
 31
0.0
  0
LINE
  5
197
330
1E
100
AcDbEntity
  8
0
100
AcDbLine
 10
112.5056899999999
 20
75.80159999999999
 30
0.0
 11
115.0056899999999
 21
77.3579
 31
0.0
  0
LINE
  5
198
330
1E
100
AcDbEntity
  8
0
100
AcDbLine
 10
109.6056899999999
 20
74.81860000000001
 30
0.0
 11
112.5056899999999
 21
75.80159999999999
 31
0.0
  0
LINE
  5
199
330
1E
100
AcDbEntity
  8
0
100
AcDbLine
 10
107.8082602164559
 20
74.62859427739759
 30
0.0
 11
109.6056899999999
 21
74.81860000000001
 31
0.0
  0
LINE
  5
19A
330
1E
100
AcDbEntity
  8
0
100
AcDbLine
 10
112.5056899999999
 20
74.94119999999999
 30
0.0
 11
115.0056899999999
 21
76.4976
 31
0.0
  0
LINE
  5
19B
330
1E
100
AcDbEntity
  8
0
100
AcDbLine
 10
109.6056899999999
 20
73.9582
 30
0.0
 11
112.5056899999999
 21
74.94119999999999
 31
0.0
  0
LINE
  5
19C
330
1E
100
AcDbEntity
  8
0
100
AcDbLine
 10
112.5056899999999
 20
74.36759999999999
 30
0.0
 11
115.0056899999999
 21
75.92399999999999
 31
0.0
  0
LINE
  5
19D
330
1E
100
AcDbEntity
  8
0
100
AcDbLine
 10
109.6056899999999
 20
73.38460000000001
 30
0.0
 11
112.5056899999999
 21
74.36759999999999
 31
0.0
  0
LINE
  5
19E
330
1E
100
AcDbEntity
  8
0
100
AcDbLine
 10
106.5056899999999
 20
73.057
 30
0.0
 11
109.6056899999999
 21
73.38460000000001
 31
0.0
  0
LINE
  5
19F
330
1E
100
AcDbEntity
  8
0
100
AcDbLine
 10
115.0056899999999
 20
75.92399999999999
 30
0.0
 11
116.9056899999999
 21
77.9719
 31
0.0
  0
LINE
  5
1A0
330
1E
100
AcDbEntity
  8
0
100
AcDbLine
 10
122.4056899999999
 20
75.71609999999999
 30
0.0
 11
123.0056899999999
 21
72.2756
 31
0.0
  0
LINE
  5
1A1
330
1E
100
AcDbEntity
  8
0
100
AcDbLine
 10
118.1056899999999
 20
73.4645
 30
0.0
 11
118.5056899999999
 21
76.0039
 31
0.0
  0
LINE
  5
1A2
330
1E
100
AcDbEntity
  8
0
100
AcDbLine
 10
122.0056899999999
 20
72.59739999999999
 30
0.0
 11
122.0056899999999
 21
69.15600000000001
 31
0.0
  0
LINE
  5
1A3
330
1E
100
AcDbEntity
  8
0
100
AcDbLine
 10
91.00569
 20
75.96890000000001
 30
0.0
 11
95.16419
 21
63.272
 31
0.0
  0
LINE
  5
1A4
330
1E
100
AcDbEntity
  8
0
100
AcDbLine
 10
91.00569
 20
75.96890000000001
 30
0.0
 11
91.00569
 21
79.41030000000001
 31
0.0
  0
LINE
  5
1A5
330
1E
100
AcDbEntity
  8
0
100
AcDbLine
 10
118.5056899999999
 20
76.0039
 30
0.0
 11
118.5056899999999
 21
82.88679999999999
 31
0.0
  0
LINE
  5
1A6
330
1E
100
AcDbEntity
  8
0
100
AcDbLine
 10
90.60568999999999
 20
68.8352
 30
0.0
 11
92.20569000000001
 21
65.5586
 31
0.0
  0
LINE
  5
1A7
330
1E
100
AcDbEntity
  8
0
100
AcDbLine
 10
100.8056899999999
 20
76.416
 30
0.0
 11
103.50569
 21
75.5149
 31
0.0
  0
LINE
  5
1A8
330
1E
100
AcDbEntity
  8
0
100
AcDbLine
 10
98.00569000000001
 20
76.4976
 30
0.0
 11
100.50569
 21
74.94119999999999
 31
0.0
  0
LINE
  5
1A9
330
1E
100
AcDbEntity
  8
0
100
AcDbLine
 10
112.20569
 20
76.416
 30
0.0
 11
114.60569
 21
77.97239999999999
 31
0.0
  0
LINE
  5
1AA
330
1E
100
AcDbEntity
  8
0
100
AcDbLine
 10
115.0056899999999
 20
76.4976
 30
0.0
 11
116.9056899999999
 21
78.5455
 31
0.0
  0
LINE
  5
1AB
330
1E
100
AcDbEntity
  8
0
100
AcDbLine
 10
94.50568999999999
 20
76.0039
 30
0.0
 11
94.50568999999999
 21
82.88679999999999
 31
0.0
  0
LINE
  5
1AC
330
1E
100
AcDbEntity
  8
0
100
AcDbLine
 10
94.50568999999999
 20
76.0039
 30
0.0
 11
94.90569
 21
73.4645
 31
0.0
  0
LINE
  5
1AD
330
1E
100
AcDbEntity
  8
0
100
AcDbLine
 10
122.90569
 20
75.01949999999999
 30
0.0
 11
123.5056899999999
 21
71.4153
 31
0.0
  0
LINE
  5
1AE
330
1E
100
AcDbEntity
  8
0
100
AcDbLine
 10
122.4056899999999
 20
68.8352
 30
0.0
 11
123.0056899999999
 21
72.2756
 31
0.0
  0
LINE
  5
1AF
330
1E
100
AcDbEntity
  8
0
100
AcDbLine
 10
90.73349
 20
94.9516
 30
0.0
 11
93.54708999999999
 21
93.78159999999999
 31
0.0
  0
LINE
  5
1B0
330
1E
100
AcDbEntity
  8
0
100
AcDbLine
 10
90.60568999999999
 20
93.49999999999999
 30
0.0
 11
92.20569000000001
 21
93.49999999999999
 31
0.0
  0
LINE
  5
1B1
330
1E
100
AcDbEntity
  8
0
100
AcDbLine
 10
90.11079
 20
137.0
 30
0.0
 11
92.65639
 21
131.8379999999999
 31
0.0
  0
LINE
  5
1B2
330
1E
100
AcDbEntity
  8
0
100
AcDbLine
 10
90.73349
 20
104.089
 30
0.0
 11
93.54708999999999
 21
105.2589999999999
 31
0.0
  0
LINE
  5
1B3
330
1E
100
AcDbEntity
  8
0
100
AcDbLine
 10
98.00569000000001
 20
77.3579
 30
0.0
 11
100.50569
 21
75.80159999999999
 31
0.0
  0
LINE
  5
1B4
330
1E
100
AcDbEntity
  8
0
100
AcDbLine
 10
104.70569
 20
77.2925
 30
0.0
 11
104.70569
 21
77.37569999999999
 31
0.0
  0
LINE
  5
1B5
330
1E
100
AcDbEntity
  8
0
100
AcDbLine
 10
107.3056899999999
 20
77.73690000000001
 30
0.0
 11
107.3056899999999
 21
78.80169999999999
 31
0.0
  0
LINE
  5
1B6
330
1E
100
AcDbEntity
  8
0
100
AcDbLine
 10
107.3056899999999
 20
77.73690000000001
 30
0.0
 11
107.3056899999999
 21
75.7651
 31
0.0
  0
LINE
  5
1B7
330
1E
100
AcDbEntity
  8
0
100
AcDbLine
 10
108.3056899999999
 20
77.37569999999999
 30
0.0
 11
108.3056899999999
 21
77.2925
 31
0.0
  0
LINE
  5
1B8
330
1E
100
AcDbEntity
  8
0
100
AcDbLine
 10
108.3056899999999
 20
77.2925
 30
0.0
 11
108.3056899999999
 21
77.37569999999999
 31
0.0
  0
LINE
  5
1B9
330
1E
100
AcDbEntity
  8
0
100
AcDbLine
 10
108.3056899999999
 20
77.2925
 30
0.0
 11
108.5056899999999
 21
80.68000000000001
 31
0.0
  0
LINE
  5
1BA
330
1E
100
AcDbEntity
  8
0
100
AcDbLine
 10
104.70569
 20
77.37569999999999
 30
0.0
 11
105.2056899999999
 21
74.6144
 31
0.0
  0
LINE
  5
1BB
330
1E
100
AcDbEntity
  8
0
100
AcDbLine
 10
104.70569
 20
77.37569999999999
 30
0.0
 11
104.70569
 21
77.2925
 31
0.0
  0
LINE
  5
1BC
330
1E
100
AcDbEntity
  8
0
100
AcDbLine
 10
96.10568999999999
 20
77.9719
 30
0.0
 11
98.00569000000001
 21
75.92399999999999
 31
0.0
  0
LINE
  5
1BD
330
1E
100
AcDbEntity
  8
0
100
AcDbLine
 10
105.7056899999999
 20
77.73690000000001
 30
0.0
 11
105.7056899999999
 21
75.7651
 31
0.0
  0
LINE
  5
1BE
330
1E
100
AcDbEntity
  8
0
100
AcDbLine
 10
105.7056899999999
 20
77.73690000000001
 30
0.0
 11
105.7056899999999
 21
78.80169999999999
 31
0.0
  0
LINE
  5
1BF
330
1E
100
AcDbEntity
  8
0
100
AcDbLine
 10
115.0056899999999
 20
77.3579
 30
0.0
 11
116.9056899999999
 21
79.4058
 31
0.0
  0
LINE
  5
1C0
330
1E
100
AcDbEntity
  8
0
100
AcDbLine
 10
96.10568999999999
 20
78.5455
 30
0.0
 11
98.00569000000001
 21
76.4976
 31
0.0
  0
LINE
  5
1C1
330
1E
100
AcDbEntity
  8
0
100
AcDbLine
 10
98.40569000000002
 20
77.97239999999999
 30
0.0
 11
100.8056899999999
 21
76.416
 31
0.0
  0
LINE
  5
1C2
330
1E
100
AcDbEntity
  8
0
100
AcDbLine
 10
114.60569
 20
77.97239999999999
 30
0.0
 11
116.5056899999999
 21
79.9384
 31
0.0
  0
LINE
  5
1C3
330
1E
100
AcDbEntity
  8
0
100
AcDbLine
 10
96.10568999999999
 20
79.4058
 30
0.0
 11
98.00569000000001
 21
77.3579
 31
0.0
  0
LINE
  5
1C6
330
1E
100
AcDbEntity
  8
0
100
AcDbLine
 10
107.3056899999999
 20
78.80169999999999
 30
0.0
 11
107.3056899999999
 21
79.7784
 31
0.0
  0
LINE
  5
1C7
330
1E
100
AcDbEntity
  8
0
100
AcDbLine
 10
107.3056899999999
 20
78.80169999999999
 30
0.0
 11
107.3056899999999
 21
77.73690000000001
 31
0.0
  0
LINE
  5
1C8
330
1E
100
AcDbEntity
  8
0
100
AcDbLine
 10
105.7056899999999
 20
78.80169999999999
 30
0.0
 11
105.7056899999999
 21
77.73690000000001
 31
0.0
  0
LINE
  5
1C9
330
1E
100
AcDbEntity
  8
0
100
AcDbLine
 10
105.7056899999999
 20
78.80169999999999
 30
0.0
 11
105.7056899999999
 21
79.7784
 31
0.0
  0
LINE
  5
1CA
330
1E
100
AcDbEntity
  8
0
100
AcDbLine
 10
96.50569
 20
79.9384
 30
0.0
 11
98.40569000000002
 21
77.97239999999999
 31
0.0
  0
LINE
  5
1CF
330
1E
100
AcDbEntity
  8
0
100
AcDbLine
 10
107.3056899999999
 20
79.7784
 30
0.0
 11
107.3056899999999
 21
81.08400000000001
 31
0.0
  0
LINE
  5
1D0
330
1E
100
AcDbEntity
  8
0
100
AcDbLine
 10
107.3056899999999
 20
79.7784
 30
0.0
 11
107.3056899999999
 21
78.80169999999999
 31
0.0
  0
LINE
  5
1D1
330
1E
100
AcDbEntity
  8
0
100
AcDbLine
 10
105.7056899999999
 20
79.7784
 30
0.0
 11
105.7056899999999
 21
78.80169999999999
 31
0.0
  0
LINE
  5
1D2
330
1E
100
AcDbEntity
  8
0
100
AcDbLine
 10
105.7056899999999
 20
79.7784
 30
0.0
 11
105.7056899999999
 21
81.08400000000001
 31
0.0
  0
LINE
  5
1D3
330
1E
100
AcDbEntity
  8
0
100
AcDbLine
 10
94.90569
 20
80.34739999999999
 30
0.0
 11
96.10568999999999
 21
77.9719
 31
0.0
  0
LINE
  5
1D4
330
1E
100
AcDbEntity
  8
0
100
AcDbLine
 10
94.90569
 20
81.7814
 30
0.0
 11
96.10568999999999
 21
79.4058
 31
0.0
  0
LINE
  5
1D5
330
1E
100
AcDbEntity
  8
0
100
AcDbLine
 10
95.40569000000001
 20
82.15009999999999
 30
0.0
 11
96.50569
 21
79.9384
 31
0.0
  0
LINE
  5
1D6
330
1E
100
AcDbEntity
  8
0
100
AcDbLine
 10
94.90569
 20
80.921
 30
0.0
 11
96.10568999999999
 21
78.5455
 31
0.0
  0
LINE
  5
1D7
330
1E
100
AcDbEntity
  8
0
100
AcDbLine
 10
101.30569
 20
82.15009999999999
 30
0.0
 11
102.30569
 21
81.16710000000001
 31
0.0
  0
LINE
  5
1D8
330
1E
100
AcDbEntity
  8
0
100
AcDbLine
 10
102.30569
 20
81.16710000000001
 30
0.0
 11
103.50569
 21
80.34789999999999
 31
0.0
  0
LINE
  5
1D9
330
1E
100
AcDbEntity
  8
0
100
AcDbLine
 10
103.50569
 20
80.34789999999999
 30
0.0
 11
104.5454114501449
 21
80.00721793816909
 31
0.0
  0
LINE
  5
1DA
330
1E
100
AcDbEntity
  8
0
100
AcDbLine
 10
104.50569
 20
80.68000000000001
 30
0.0
 11
104.70569
 21
77.2925
 31
0.0
  0
LINE
  5
1DE
330
1E
100
AcDbEntity
  8
0
100
AcDbLine
 10
105.7056899999999
 20
82.53299999999999
 30
0.0
 11
105.7056899999999
 21
81.08400000000001
 31
0.0
  0
LINE
  5
1DF
330
1E
100
AcDbEntity
  8
0
100
AcDbLine
 10
105.7056899999999
 20
82.53299999999999
 30
0.0
 11
105.7056899999999
 21
84.0186
 31
0.0
  0
LINE
  5
1E0
330
1E
100
AcDbEntity
  8
0
100
AcDbLine
 10
109.5056899999999
 20
80.34789999999999
 30
0.0
 11
110.7056899999999
 21
81.16710000000001
 31
0.0
  0
LINE
  5
1E1
330
1E
100
AcDbEntity
  8
0
100
AcDbLine
 10
108.465968549855
 20
80.00721793816909
 30
0.0
 11
109.5056899999999
 21
80.34789999999999
 31
0.0
  0
LINE
  5
1E2
330
1E
100
AcDbEntity
  8
0
100
AcDbLine
 10
107.3056899999999
 20
82.53299999999999
 30
0.0
 11
107.3056899999999
 21
84.0186
 31
0.0
  0
LINE
  5
1E3
330
1E
100
AcDbEntity
  8
0
100
AcDbLine
 10
107.3056899999999
 20
82.53299999999999
 30
0.0
 11
107.3056899999999
 21
81.08400000000001
 31
0.0
  0
LINE
  5
1E4
330
1E
100
AcDbEntity
  8
0
100
AcDbLine
 10
110.7056899999999
 20
81.16710000000001
 30
0.0
 11
111.7056899999999
 21
82.15009999999999
 31
0.0
  0
LINE
  5
1E5
330
1E
100
AcDbEntity
  8
0
100
AcDbLine
 10
111.7056899999999
 20
82.15009999999999
 30
0.0
 11
112.3056899999999
 21
83.3788
 31
0.0
  0
LINE
  5
1E9
330
1E
100
AcDbEntity
  8
0
100
AcDbLine
 10
107.3056899999999
 20
81.08400000000001
 30
0.0
 11
107.3056899999999
 21
82.53299999999999
 31
0.0
  0
LINE
  5
1EA
330
1E
100
AcDbEntity
  8
0
100
AcDbLine
 10
107.3056899999999
 20
81.08400000000001
 30
0.0
 11
107.3056899999999
 21
79.7784
 31
0.0
  0
LINE
  5
1EB
330
1E
100
AcDbEntity
  8
0
100
AcDbLine
 10
108.5056899999999
 20
80.68000000000001
 30
0.0
 11
108.7084298572375
 21
82.89432472074919
 31
0.0
  0
LINE
  5
1EC
330
1E
100
AcDbEntity
  8
0
100
AcDbLine
 10
105.7056899999999
 20
81.08400000000001
 30
0.0
 11
105.7056899999999
 21
79.7784
 31
0.0
  0
LINE
  5
1ED
330
1E
100
AcDbEntity
  8
0
100
AcDbLine
 10
105.7056899999999
 20
81.08400000000001
 30
0.0
 11
105.7056899999999
 21
82.53299999999999
 31
0.0
  0
LINE
  5
1EE
330
1E
100
AcDbEntity
  8
0
100
AcDbLine
 10
116.5056899999999
 20
79.9384
 30
0.0
 11
117.60569
 21
82.15009999999999
 31
0.0
  0
LINE
  5
1EF
330
1E
100
AcDbEntity
  8
0
100
AcDbLine
 10
117.60569
 20
82.15009999999999
 30
0.0
 11
118.0056899999999
 21
84.6075
 31
0.0
  0
LINE
  5
1F0
330
1E
100
AcDbEntity
  8
0
100
AcDbLine
 10
116.9056899999999
 20
79.4058
 30
0.0
 11
118.1056899999999
 21
81.7814
 31
0.0
  0
LINE
  5
1F1
330
1E
100
AcDbEntity
  8
0
100
AcDbLine
 10
118.1056899999999
 20
81.7814
 30
0.0
 11
118.5056899999999
 21
84.32070000000001
 31
0.0
  0
LINE
  5
1F2
330
1E
100
AcDbEntity
  8
0
100
AcDbLine
 10
116.9056899999999
 20
78.5455
 30
0.0
 11
118.1056899999999
 21
80.921
 31
0.0
  0
LINE
  5
1F3
330
1E
100
AcDbEntity
  8
0
100
AcDbLine
 10
118.1056899999999
 20
80.921
 30
0.0
 11
118.5056899999999
 21
83.4604
 31
0.0
  0
LINE
  5
1F4
330
1E
100
AcDbEntity
  8
0
100
AcDbLine
 10
116.9056899999999
 20
77.9719
 30
0.0
 11
118.1056899999999
 21
80.34739999999999
 31
0.0
  0
LINE
  5
1F5
330
1E
100
AcDbEntity
  8
0
100
AcDbLine
 10
121.5056899999999
 20
77.78540588235291
 30
0.0
 11
121.5056899999999
 21
91.5
 31
0.0
  0
LINE
  5
1F6
330
1E
100
AcDbEntity
  8
0
100
AcDbLine
 10
119.4048702376379
 20
80.53737317641941
 30
0.0
 11
120.8056899999999
 21
78.9927
 31
0.0
  0
LINE
  5
1F7
330
1E
100
AcDbEntity
  8
0
100
AcDbLine
 10
120.8056899999999
 20
78.9927
 30
0.0
 11
122.4056899999999
 21
75.71609999999999
 31
0.0
  0
LINE
  5
1F8
330
1E
100
AcDbEntity
  8
0
100
AcDbLine
 10
120.8056899999999
 20
78.9927
 30
0.0
 11
121.2056899999999
 21
78.37810000000001
 31
0.0
  0
LINE
  5
1F9
330
1E
100
AcDbEntity
  8
0
100
AcDbLine
 10
121.2056899999999
 20
78.37810000000001
 30
0.0
 11
122.90569
 21
75.01949999999999
 31
0.0
  0
LINE
  5
1FA
330
1E
100
AcDbEntity
  8
0
100
AcDbLine
 10
118.1056899999999
 20
80.34739999999999
 30
0.0
 11
118.5056899999999
 21
82.88679999999999
 31
0.0
  0
LINE
  5
1FB
330
1E
100
AcDbEntity
  8
0
100
AcDbLine
 10
94.50568999999999
 20
84.32070000000001
 30
0.0
 11
94.90569
 21
86.86010000000001
 31
0.0
  0
LINE
  5
1FC
330
1E
100
AcDbEntity
  8
0
100
AcDbLine
 10
94.50568999999999
 20
84.32070000000001
 30
0.0
 11
94.50568999999999
 21
83.4604
 31
0.0
  0
LINE
  5
1FD
330
1E
100
AcDbEntity
  8
0
100
AcDbLine
 10
94.50568999999999
 20
84.32070000000001
 30
0.0
 11
94.90569
 21
81.7814
 31
0.0
  0
LINE
  5
1FE
330
1E
100
AcDbEntity
  8
0
100
AcDbLine
 10
108.7084298572369
 20
82.8943247207475
 30
0.0
 11
109.223331259505
 21
84.3318043405276
 31
0.0
  0
LINE
  5
1FF
330
1E
100
AcDbEntity
  8
0
100
AcDbLine
 10
100.70569
 20
83.3788
 30
0.0
 11
101.30569
 21
82.15009999999999
 31
0.0
  0
LINE
  5
200
330
1E
100
AcDbEntity
  8
0
100
AcDbLine
 10
112.3056899999999
 20
83.3788
 30
0.0
 11
112.5056899999999
 21
84.6075
 31
0.0
  0
LINE
  5
201
330
1E
100
AcDbEntity
  8
0
100
AcDbLine
 10
107.3056899999999
 20
84.0186
 30
0.0
 11
107.6056899999999
 21
87.0007
 31
0.0
  0
LINE
  5
202
330
1E
100
AcDbEntity
  8
0
100
AcDbLine
 10
107.3056899999999
 20
84.0186
 30
0.0
 11
107.3056899999999
 21
82.53299999999999
 31
0.0
  0
LINE
  5
203
330
1E
100
AcDbEntity
  8
0
100
AcDbLine
 10
104.3029501427623
 20
82.89432472074924
 30
0.0
 11
104.50569
 21
80.68000000000001
 31
0.0
  0
LINE
  5
204
330
1E
100
AcDbEntity
  8
0
100
AcDbLine
 10
100.50569
 20
84.6075
 30
0.0
 11
100.70569
 21
83.3788
 31
0.0
  0
LINE
  5
205
330
1E
100
AcDbEntity
  8
0
100
AcDbLine
 10
100.50569
 20
84.6075
 30
0.0
 11
100.50569
 21
88.38275572571671
 31
0.0
  0
LINE
  5
206
330
1E
100
AcDbEntity
  8
0
100
AcDbLine
 10
102.19279
 20
86.6995
 30
0.0
 11
103.7880413789139
 21
84.33182489227229
 31
0.0
  0
LINE
  5
207
330
1E
100
AcDbEntity
  8
0
100
AcDbLine
 10
112.5056899999999
 20
84.6075
 30
0.0
 11
112.5056899999999
 21
88.38274515103341
 31
0.0
  0
LINE
  5
208
330
1E
100
AcDbEntity
  8
0
100
AcDbLine
 10
110.8186899999999
 20
86.6995
 30
0.0
 11
112.7056899999999
 21
88.5823
 31
0.0
  0
LINE
  5
209
330
1E
100
AcDbEntity
  8
0
100
AcDbLine
 10
109.223331259506
 20
84.331804340529
 30
0.0
 11
110.8186899999999
 21
86.6995
 31
0.0
  0
LINE
  5
20A
330
1E
100
AcDbEntity
  8
0
100
AcDbLine
 10
103.7880413789146
 20
84.33182489227133
 30
0.0
 11
104.302950142763
 21
82.8943247207475
 31
0.0
  0
LINE
  5
20B
330
1E
100
AcDbEntity
  8
0
100
AcDbLine
 10
105.7056899999999
 20
84.0186
 30
0.0
 11
105.7056899999999
 21
82.53299999999999
 31
0.0
  0
LINE
  5
20C
330
1E
100
AcDbEntity
  8
0
100
AcDbLine
 10
118.5056899999999
 20
83.4604
 30
0.0
 11
118.5056899999999
 21
84.32070000000001
 31
0.0
  0
LINE
  5
20D
330
1E
100
AcDbEntity
  8
0
100
AcDbLine
 10
118.4867626060329
 20
83.34023943939941
 30
0.0
 11
122.0056899999999
 21
72.59739999999999
 31
0.0
  0
LINE
  5
20E
330
1E
100
AcDbEntity
  8
0
100
AcDbLine
 10
118.1056899999999
 20
86.86010000000001
 30
0.0
 11
118.5056899999999
 21
84.32070000000001
 31
0.0
  0
LINE
  5
20F
330
1E
100
AcDbEntity
  8
0
100
AcDbLine
 10
118.5056899999999
 20
84.32070000000001
 30
0.0
 11
118.5056899999999
 21
83.4604
 31
0.0
  0
LINE
  5
210
330
1E
100
AcDbEntity
  8
0
100
AcDbLine
 10
118.4605139741669
 20
83.17359999999998
 30
0.0
 11
118.5056899999999
 21
82.88679999999999
 31
0.0
  0
LINE
  5
211
330
1E
100
AcDbEntity
  8
0
100
AcDbLine
 10
95.00569
 20
84.6075
 30
0.0
 11
95.40569000000001
 21
87.065
 31
0.0
  0
LINE
  5
212
330
1E
100
AcDbEntity
  8
0
100
AcDbLine
 10
95.00569
 20
84.6075
 30
0.0
 11
95.40569000000001
 21
82.15009999999999
 31
0.0
  0
LINE
  5
213
330
1E
100
AcDbEntity
  8
0
100
AcDbLine
 10
95.40569000000001
 20
87.065
 30
0.0
 11
96.50569
 21
89.2767
 31
0.0
  0
LINE
  5
214
330
1E
100
AcDbEntity
  8
0
100
AcDbLine
 10
100.50569
 20
88.38275572571671
 30
0.0
 11
100.50569
 21
84.6075
 31
0.0
  0
LINE
  5
215
330
1E
100
AcDbEntity
  8
0
100
AcDbLine
 10
100.30569
 20
88.5823
 30
0.0
 11
102.19279
 21
86.6995
 31
0.0
  0
LINE
  5
216
330
1E
100
AcDbEntity
  8
0
100
AcDbLine
 10
112.5056899999999
 20
88.38274515103341
 30
0.0
 11
112.5056899999999
 21
84.6075
 31
0.0
  0
LINE
  5
217
330
1E
100
AcDbEntity
  8
0
100
AcDbLine
 10
112.7056899999999
 20
88.5823
 30
0.0
 11
115.3056899999999
 21
90.3045
 31
0.0
  0
LINE
  5
218
330
1E
100
AcDbEntity
  8
0
100
AcDbLine
 10
107.6056899999999
 20
87.0007
 30
0.0
 11
108.6516899999999
 21
89.6016
 31
0.0
  0
LINE
  5
219
330
1E
100
AcDbEntity
  8
0
100
AcDbLine
 10
105.4056899999999
 20
87.0007
 30
0.0
 11
105.7056899999999
 21
84.0186
 31
0.0
  0
LINE
  5
21A
330
1E
100
AcDbEntity
  8
0
100
AcDbLine
 10
116.5056899999999
 20
89.2767
 30
0.0
 11
117.60569
 21
87.065
 31
0.0
  0
LINE
  5
21B
330
1E
100
AcDbEntity
  8
0
100
AcDbLine
 10
117.60569
 20
87.065
 30
0.0
 11
118.0056899999999
 21
84.6075
 31
0.0
  0
LINE
  5
21C
330
1E
100
AcDbEntity
  8
0
100
AcDbLine
 10
116.9056899999999
 20
89.23569999999999
 30
0.0
 11
118.1056899999999
 21
86.86010000000001
 31
0.0
  0
LINE
  5
21D
330
1E
100
AcDbEntity
  8
0
100
AcDbLine
 10
97.70569000000001
 20
90.3045
 30
0.0
 11
100.30569
 21
88.5823
 31
0.0
  0
LINE
  5
21E
330
1E
100
AcDbEntity
  8
0
100
AcDbLine
 10
115.3056899999999
 20
90.3045
 30
0.0
 11
117.3046899999999
 21
92.34939999999999
 31
0.0
  0
LINE
  5
21F
330
1E
100
AcDbEntity
  8
0
100
AcDbLine
 10
108.6516899999999
 20
89.6016
 30
0.0
 11
110.4956899999999
 21
91.66529999999999
 31
0.0
  0
LINE
  5
220
330
1E
100
AcDbEntity
  8
0
100
AcDbLine
 10
104.35969
 20
89.6016
 30
0.0
 11
105.4056899999999
 21
87.0007
 31
0.0
  0
LINE
  5
221
330
1E
100
AcDbEntity
  8
0
100
AcDbLine
 10
115.409633424627
 20
90.4108301195699
 30
0.0
 11
116.5056899999999
 21
89.2767
 31
0.0
  0
LINE
  5
222
330
1E
100
AcDbEntity
  8
0
100
AcDbLine
 10
115.6177989420489
 20
90.62377542551121
 30
0.0
 11
116.9056899999999
 21
89.23569999999999
 31
0.0
  0
LINE
  5
223
330
1E
100
AcDbEntity
  8
0
100
AcDbLine
 10
96.50569
 20
89.2767
 30
0.0
 11
97.60175174564791
 21
90.41083546944401
 31
0.0
  0
LINE
  5
224
330
1E
100
AcDbEntity
  8
0
100
AcDbLine
 10
96.10568999999999
 20
89.23569999999999
 30
0.0
 11
97.39359626449092
 21
90.62379181496019
 31
0.0
  0
LINE
  5
225
330
1E
100
AcDbEntity
  8
0
100
AcDbLine
 10
94.90569
 20
86.86010000000001
 30
0.0
 11
96.10568999999999
 21
89.23569999999999
 31
0.0
  0
LINE
  5
226
330
1E
100
AcDbEntity
  8
0
100
AcDbLine
 10
94.50568999999999
 20
83.4604
 30
0.0
 11
94.50568999999999
 21
84.32070000000001
 31
0.0
  0
LINE
  5
227
330
1E
100
AcDbEntity
  8
0
100
AcDbLine
 10
94.50568999999999
 20
83.4604
 30
0.0
 11
94.90569
 21
80.921
 31
0.0
  0
LINE
  5
228
330
1E
100
AcDbEntity
  8
0
100
AcDbLine
 10
94.50568999999999
 20
82.88679999999999
 30
0.0
 11
94.55086602583291
 21
83.17359999999998
 31
0.0
  0
LINE
  5
229
330
1E
100
AcDbEntity
  8
0
100
AcDbLine
 10
94.50568999999999
 20
82.88679999999999
 30
0.0
 11
94.50568999999999
 21
76.0039
 31
0.0
  0
LINE
  5
22A
330
1E
100
AcDbEntity
  8
0
100
AcDbLine
 10
94.50568999999999
 20
82.88679999999999
 30
0.0
 11
94.90569
 21
80.34739999999999
 31
0.0
  0
LINE
  5
22B
330
1E
100
AcDbEntity
  8
0
100
AcDbLine
 10
91.50569
 20
79.8198754529824
 30
0.0
 11
91.50569
 21
91.5
 31
0.0
  0
LINE
  5
22C
330
1E
100
AcDbEntity
  8
0
100
AcDbLine
 10
110.4956899999999
 20
91.66529999999999
 30
0.0
 11
112.5056899999999
 21
93.35939999999999
 31
0.0
  0
LINE
  5
22D
330
1E
100
AcDbEntity
  8
0
100
AcDbLine
 10
117.3046899999999
 20
92.34939999999999
 30
0.0
 11
119.4646899999999
 21
93.78159999999999
 31
0.0
  0
LINE
  5
22E
330
1E
100
AcDbEntity
  8
0
100
AcDbLine
 10
95.70688999999999
 20
92.34939999999999
 30
0.0
 11
97.70569000000001
 21
90.3045
 31
0.0
  0
LINE
  5
22F
330
1E
100
AcDbEntity
  8
0
100
AcDbLine
 10
102.51569
 20
91.66529999999999
 30
0.0
 11
104.35969
 21
89.6016
 31
0.0
  0
LINE
  5
230
330
1E
100
AcDbEntity
  8
0
100
AcDbLine
 10
93.10568999999999
 20
93.0
 30
0.0
 11
94.72576593911471
 21
93.0
 31
0.0
  0
LINE
  5
231
330
1E
100
AcDbEntity
  8
0
100
AcDbLine
 10
91.60569
 20
93.0
 30
0.0
 11
93.10568999999999
 21
93.0
 31
0.0
  0
LINE
  5
232
330
1E
100
AcDbEntity
  8
0
100
AcDbLine
 10
91.00569
 20
93.0
 30
0.0
 11
91.50569
 21
91.5
 31
0.0
  0
LINE
  5
233
330
1E
100
AcDbEntity
  8
0
100
AcDbLine
 10
91.00569
 20
93.0
 30
0.0
 11
91.60569
 21
93.0
 31
0.0
  0
LINE
  5
234
330
1E
100
AcDbEntity
  8
0
100
AcDbLine
 10
118.285904914118
 20
93.0
 30
0.0
 11
119.9056899999999
 21
93.0
 31
0.0
  0
LINE
  5
235
330
1E
100
AcDbEntity
  8
0
100
AcDbLine
 10
119.9056899999999
 20
93.0
 30
0.0
 11
121.4056899999999
 21
93.0
 31
0.0
  0
LINE
  5
236
330
1E
100
AcDbEntity
  8
0
100
AcDbLine
 10
112.5056899999999
 20
93.35939999999999
 30
0.0
 11
115.0056899999999
 21
94.852
 31
0.0
  0
LINE
  5
237
330
1E
100
AcDbEntity
  8
0
100
AcDbLine
 10
100.50569
 20
93.35939999999999
 30
0.0
 11
102.51569
 21
91.66529999999999
 31
0.0
  0
LINE
  5
238
330
1E
100
AcDbEntity
  8
0
100
AcDbLine
 10
92.20569000000001
 20
93.49999999999999
 30
0.0
 11
93.97175113671279
 21
93.49999999999999
 31
0.0
  0
LINE
  5
239
330
1E
100
AcDbEntity
  8
0
100
AcDbLine
 10
93.54708999999999
 20
93.78159999999999
 30
0.0
 11
95.70688999999999
 21
92.34939999999999
 31
0.0
  0
LINE
  5
23A
330
1E
100
AcDbEntity
  8
0
100
AcDbLine
 10
98.00569000000001
 20
94.852
 30
0.0
 11
100.50569
 21
93.35939999999999
 31
0.0
  0
LINE
  5
23B
330
1E
100
AcDbEntity
  8
0
100
AcDbLine
 10
96.08339
 20
96.9819
 30
0.0
 11
98.00569000000001
 21
94.852
 31
0.0
  0
LINE
  5
23C
330
1E
100
AcDbEntity
  8
0
100
AcDbLine
 10
93.80169
 20
98.80320000000001
 30
0.0
 11
96.08339
 21
96.9819
 31
0.0
  0
LINE
  5
23D
330
1E
100
AcDbEntity
  8
0
100
AcDbLine
 10
97.40569
 20
98.41560000000001
 30
0.0
 11
99.10569
 21
96.6135
 31
0.0
  0
LINE
  5
23F
330
1E
100
AcDbEntity
  8
0
100
AcDbLine
 10
96.40569000000001
 20
100.4629999999999
 30
0.0
 11
97.40569
 21
98.41560000000001
 31
0.0
  0
LINE
  5
240
330
1E
100
AcDbEntity
  8
0
100
AcDbLine
 10
91.04779
 20
104.022
 30
0.0
 11
93.80169
 21
105.34
 31
0.0
  0
LINE
  5
241
330
1E
100
AcDbEntity
  8
0
100
AcDbLine
 10
96.00569
 20
102.675
 30
0.0
 11
96.40569000000001
 21
100.4629999999999
 31
0.0
  0
LINE
  5
242
330
1E
100
AcDbEntity
  8
0
100
AcDbLine
 10
96.00569
 20
102.675
 30
0.0
 11
96.40569000000001
 21
104.8869999999999
 31
0.0
  0
LINE
  5
243
330
1E
100
AcDbEntity
  8
0
100
AcDbLine
 10
91.04779
 20
100.506
 30
0.0
 11
93.80169
 21
98.80320000000001
 31
0.0
  0
LINE
  5
244
330
1E
100
AcDbEntity
  8
0
100
AcDbLine
 10
99.10569
 20
96.6135
 30
0.0
 11
101.30569
 21
95.2209
 31
0.0
  0
LINE
  5
245
330
1E
100
AcDbEntity
  8
0
100
AcDbLine
 10
101.30569
 20
95.2209
 30
0.0
 11
103.8056899999999
 21
94.40179999999999
 31
0.0
  0
LINE
  5
246
330
1E
100
AcDbEntity
  8
0
100
AcDbLine
 10
111.7056899999999
 20
95.2209
 30
0.0
 11
113.9056899999999
 21
96.6135
 31
0.0
  0
LINE
  5
247
330
1E
100
AcDbEntity
  8
0
100
AcDbLine
 10
109.20569
 20
94.40179999999999
 30
0.0
 11
111.7056899999999
 21
95.2209
 31
0.0
  0
LINE
  5
248
330
1E
100
AcDbEntity
  8
0
100
AcDbLine
 10
106.5056899999999
 20
94.0741
 30
0.0
 11
109.20569
 21
94.40179999999999
 31
0.0
  0
LINE
  5
249
330
1E
100
AcDbEntity
  8
0
100
AcDbLine
 10
113.9056899999999
 20
96.6135
 30
0.0
 11
115.60569
 21
98.41560000000001
 31
0.0
  0
LINE
  5
24A
330
1E
100
AcDbEntity
  8
0
100
AcDbLine
 10
115.0056899999999
 20
94.852
 30
0.0
 11
116.9276899999999
 21
96.9819
 31
0.0
  0
LINE
  5
24C
330
1E
100
AcDbEntity
  8
0
100
AcDbLine
 10
115.60569
 20
98.41560000000001
 30
0.0
 11
116.60569
 21
100.4629999999999
 31
0.0
  0
LINE
  5
24D
330
1E
100
AcDbEntity
  8
0
100
AcDbLine
 10
116.60569
 20
100.4629999999999
 30
0.0
 11
117.0056899999999
 21
102.675
 31
0.0
  0
LINE
  5
24E
330
1E
100
AcDbEntity
  8
0
100
AcDbLine
 10
116.9276899999999
 20
96.9819
 30
0.0
 11
119.2096899999999
 21
98.80320000000001
 31
0.0
  0
LINE
  5
24F
330
1E
100
AcDbEntity
  8
0
100
AcDbLine
 10
119.2096899999999
 20
98.80320000000001
 30
0.0
 11
121.9636899999999
 21
100.506
 31
0.0
  0
LINE
  5
250
330
1E
100
AcDbEntity
  8
0
100
AcDbLine
 10
119.4646899999999
 20
93.78159999999999
 30
0.0
 11
122.2776899999999
 21
94.9516
 31
0.0
  0
LINE
  5
251
330
1E
100
AcDbEntity
  8
0
100
AcDbLine
 10
103.8056899999999
 20
94.40179999999999
 30
0.0
 11
106.5056899999999
 21
94.0741
 31
0.0
  0
LINE
  5
252
330
1E
100
AcDbEntity
  8
0
100
AcDbLine
 10
119.0399895391699
 20
93.49999999999999
 30
0.0
 11
120.8056899999999
 21
93.49999999999999
 31
0.0
  0
LINE
  5
253
330
1E
100
AcDbEntity
  8
0
100
AcDbLine
 10
121.9636899999999
 20
100.506
 30
0.0
 11
125.5076899999999
 21
101.665
 31
0.0
  0
LINE
  5
254
330
1E
100
AcDbEntity
  8
0
100
AcDbLine
 10
121.9636899999999
 20
104.022
 30
0.0
 11
125.5076899999999
 21
103.467
 31
0.0
  0
LINE
  5
255
330
1E
100
AcDbEntity
  8
0
100
AcDbLine
 10
120.8056899999999
 20
93.49999999999999
 30
0.0
 11
122.4056899999999
 21
93.49999999999999
 31
0.0
  0
LINE
  5
256
330
1E
100
AcDbEntity
  8
0
100
AcDbLine
 10
121.4056899999999
 20
93.0
 30
0.0
 11
122.0056899999999
 21
93.0
 31
0.0
  0
LINE
  5
257
330
1E
100
AcDbEntity
  8
0
100
AcDbLine
 10
122.4056899999999
 20
93.49999999999999
 30
0.0
 11
123.0056899999999
 21
93.49999999999999
 31
0.0
  0
LINE
  5
258
330
1E
100
AcDbEntity
  8
0
100
AcDbLine
 10
122.2776899999999
 20
94.9516
 30
0.0
 11
125.5276899999999
 21
95.4814
 31
0.0
  0
LINE
  5
259
330
1E
100
AcDbEntity
  8
0
100
AcDbLine
 10
122.574594492261
 20
95.0
 30
0.0
 11
122.90569
 21
95.0
 31
0.0
  0
LINE
  5
25A
330
1E
100
AcDbEntity
  8
0
100
AcDbLine
 10
122.90569
 20
95.0
 30
0.0
 11
123.5056899999999
 21
95.0
 31
0.0
  0
LINE
  5
25B
330
1E
100
AcDbEntity
  8
0
100
AcDbLine
 10
125.5076899999999
 20
101.665
 30
0.0
 11
129.4826899999999
 21
102.185
 31
0.0
  0
LINE
  5
25C
330
1E
100
AcDbEntity
  8
0
100
AcDbLine
 10
125.5076899999999
 20
103.467
 30
0.0
 11
129.4826899999999
 21
103.496
 31
0.0
  0
LINE
  5
25D
330
1E
100
AcDbEntity
  8
0
100
AcDbLine
 10
125.5276899999999
 20
103.56
 30
0.0
 11
129.5066899999999
 21
103.631
 31
0.0
  0
LINE
  5
25E
330
1E
100
AcDbEntity
  8
0
100
AcDbLine
 10
123.457703229829
 20
95.14396031051191
 30
0.0
 11
123.5056899999999
 21
95.0
 31
0.0
  0
LINE
  5
25F
330
1E
100
AcDbEntity
  8
0
100
AcDbLine
 10
123.0056899999999
 20
93.49999999999999
 30
0.0
 11
123.5056899999999
 21
95.0
 31
0.0
  0
LINE
  5
260
330
1E
100
AcDbEntity
  8
0
100
AcDbLine
 10
122.0056899999999
 20
93.0
 30
0.0
 11
123.0056899999999
 21
93.49999999999999
 31
0.0
  0
LINE
  5
261
330
1E
100
AcDbEntity
  8
0
100
AcDbLine
 10
121.5056899999999
 20
91.5
 30
0.0
 11
122.0056899999999
 21
93.0
 31
0.0
  0
LINE
  5
262
330
1E
100
AcDbEntity
  8
0
100
AcDbLine
 10
121.5056899999999
 20
91.5
 30
0.0
 11
121.5056899999999
 21
77.78540588235291
 31
0.0
  0
LINE
  5
263
330
1E
100
AcDbEntity
  8
0
100
AcDbLine
 10
129.5066899999999
 20
95.40989999999998
 30
0.0
 11
131.39969
 21
95.3531
 31
0.0
  0
LINE
  5
264
330
1E
100
AcDbEntity
  8
0
100
AcDbLine
 10
131.39969
 20
95.3531
 30
0.0
 11
132.68769
 21
95.5189
 31
0.0
  0
LINE
  5
265
330
1E
100
AcDbEntity
  8
0
100
AcDbLine
 10
132.68769
 20
95.5189
 30
0.0
 11
133.6496899999999
 21
95.8826
 31
0.0
  0
LINE
  5
266
330
1E
100
AcDbEntity
  8
0
100
AcDbLine
 10
134.22669
 20
96.25709999999999
 30
0.0
 11
134.6306899999999
 21
96.54569999999999
 31
0.0
  0
LINE
  5
267
330
1E
100
AcDbEntity
  8
0
100
AcDbLine
 10
133.6496899999999
 20
95.8826
 30
0.0
 11
134.22669
 21
96.25709999999999
 31
0.0
  0
LINE
  5
26B
330
1E
100
AcDbEntity
  8
0
100
AcDbLine
 10
133.9766899999999
 20
101.626
 30
0.0
 11
134.6306899999999
 21
101.185
 31
0.0
  0
LINE
  5
26C
330
1E
100
AcDbEntity
  8
0
100
AcDbLine
 10
134.6306899999999
 20
101.185
 30
0.0
 11
135.1496899999999
 21
100.5449999999999
 31
0.0
  0
LINE
  5
26D
330
1E
100
AcDbEntity
  8
0
100
AcDbLine
 10
135.1496899999999
 20
100.5449999999999
 30
0.0
 11
135.5056899999999
 21
98.8652
 31
0.0
  0
LINE
  5
26E
330
1E
100
AcDbEntity
  8
0
100
AcDbLine
 10
134.6306899999999
 20
96.54569999999999
 30
0.0
 11
135.1496899999999
 21
97.18519999999999
 31
0.0
  0
LINE
  5
26F
330
1E
100
AcDbEntity
  8
0
100
AcDbLine
 10
135.5056899999999
 20
98.8652
 30
0.0
 11
135.5056899999999
 21
99.52049999999999
 31
0.0
  0
LINE
  5
270
330
1E
100
AcDbEntity
  8
0
100
AcDbLine
 10
135.5056899999999
 20
99.52049999999999
 30
0.0
 11
135.5056899999999
 21
100.1759999999999
 31
0.0
  0
LINE
  5
271
330
1E
100
AcDbEntity
  8
0
100
AcDbLine
 10
135.5056899999999
 20
99.52049999999999
 30
0.0
 11
135.5056899999999
 21
98.8652
 31
0.0
  0
LINE
  5
272
330
1E
100
AcDbEntity
  8
0
100
AcDbLine
 10
135.5056899999999
 20
100.1759999999999
 30
0.0
 11
135.5056899999999
 21
99.52049999999999
 31
0.0
  0
LINE
  5
273
330
1E
100
AcDbEntity
  8
0
100
AcDbLine
 10
135.1496899999999
 20
97.18519999999999
 30
0.0
 11
135.5056899999999
 21
98.8652
 31
0.0
  0
LINE
  5
274
330
1E
100
AcDbEntity
  8
0
100
AcDbLine
 10
129.4826899999999
 20
102.185
 30
0.0
 11
131.3806899999999
 21
102.254
 31
0.0
  0
LINE
  5
275
330
1E
100
AcDbEntity
  8
0
100
AcDbLine
 10
131.3806899999999
 20
102.254
 30
0.0
 11
132.8806899999999
 21
102.034
 31
0.0
  0
LINE
  5
276
330
1E
100
AcDbEntity
  8
0
100
AcDbLine
 10
132.8806899999999
 20
102.034
 30
0.0
 11
133.9766899999999
 21
101.626
 31
0.0
  0
LINE
  5
277
330
1E
100
AcDbEntity
  8
0
100
AcDbLine
 10
129.4826899999999
 20
103.496
 30
0.0
 11
131.3806899999999
 21
103.5649999999999
 31
0.0
  0
LINE
  5
278
330
1E
100
AcDbEntity
  8
0
100
AcDbLine
 10
132.8806899999999
 20
103.3439999999999
 30
0.0
 11
133.9766899999999
 21
102.936
 31
0.0
  0
LINE
  5
279
330
1E
100
AcDbEntity
  8
0
100
AcDbLine
 10
131.39969
 20
103.6879999999999
 30
0.0
 11
132.68769
 21
103.522
 31
0.0
  0
LINE
  5
27A
330
1E
100
AcDbEntity
  8
0
100
AcDbLine
 10
131.3806899999999
 20
103.5649999999999
 30
0.0
 11
132.8806899999999
 21
103.3439999999999
 31
0.0
  0
LINE
  5
27B
330
1E
100
AcDbEntity
  8
0
100
AcDbLine
 10
129.5066899999999
 20
103.631
 30
0.0
 11
131.39969
 21
103.6879999999999
 31
0.0
  0
LINE
  5
27C
330
1E
100
AcDbEntity
  8
0
100
AcDbLine
 10
132.68769
 20
103.522
 30
0.0
 11
133.6496899999999
 21
103.1579999999999
 31
0.0
  0
LINE
  5
27D
330
1E
100
AcDbEntity
  8
0
100
AcDbLine
 10
134.22669
 20
102.7839999999999
 30
0.0
 11
134.6306899999999
 21
102.495
 31
0.0
  0
LINE
  5
27E
330
1E
100
AcDbEntity
  8
0
100
AcDbLine
 10
133.9766899999999
 20
102.936
 30
0.0
 11
134.6306899999999
 21
102.495
 31
0.0
  0
LINE
  5
27F
330
1E
100
AcDbEntity
  8
0
100
AcDbLine
 10
134.6306899999999
 20
102.495
 30
0.0
 11
135.1496899999999
 21
101.856
 31
0.0
  0
LINE
  5
280
330
1E
100
AcDbEntity
  8
0
100
AcDbLine
 10
133.6496899999999
 20
103.1579999999999
 30
0.0
 11
134.22669
 21
102.7839999999999
 31
0.0
  0
LINE
  5
281
330
1E
100
AcDbEntity
  8
0
100
AcDbLine
 10
135.1496899999999
 20
101.856
 30
0.0
 11
135.5056899999999
 21
100.1759999999999
 31
0.0
  0
LINE
  5
282
330
1E
100
AcDbEntity
  8
0
100
AcDbLine
 10
125.5276899999999
 20
95.4814
 30
0.0
 11
129.5066899999999
 21
95.40989999999998
 31
0.0
  0
LINE
  5
283
330
1E
100
AcDbEntity
  8
0
100
AcDbLine
 10
96.40569000000001
 20
104.8869999999999
 30
0.0
 11
97.40569
 21
106.935
 31
0.0
  0
LINE
  5
284
330
1E
100
AcDbEntity
  8
0
100
AcDbLine
 10
96.00569
 20
106.997706423854
 30
0.0
 11
96.00569
 21
115.0
 31
0.0
  0
LINE
  5
285
330
1E
100
AcDbEntity
  8
0
100
AcDbLine
 10
96.08339
 20
106.812
 30
0.0
 11
98.00569000000001
 21
108.7779999999999
 31
0.0
  0
LINE
  5
286
330
1E
100
AcDbEntity
  8
0
100
AcDbLine
 10
95.70688999999999
 20
106.692
 30
0.0
 11
97.70569000000001
 21
108.737
 31
0.0
  0
LINE
  5
287
330
1E
100
AcDbEntity
  8
0
100
AcDbLine
 10
98.00569000000001
 20
108.7779999999999
 30
0.0
 11
100.50569
 21
110.434
 31
0.0
  0
LINE
  5
288
330
1E
100
AcDbEntity
  8
0
100
AcDbLine
 10
97.70569000000001
 20
108.737
 30
0.0
 11
100.30569
 21
110.4589999999999
 31
0.0
  0
LINE
  5
289
330
1E
100
AcDbEntity
  8
0
100
AcDbLine
 10
99.10569
 20
108.737
 30
0.0
 11
101.30569
 21
110.1289999999999
 31
0.0
  0
LINE
  5
28A
330
1E
100
AcDbEntity
  8
0
100
AcDbLine
 10
100.50569
 20
110.434
 30
0.0
 11
102.51569
 21
112.4779999999999
 31
0.0
  0
LINE
  5
28B
330
1E
100
AcDbEntity
  8
0
100
AcDbLine
 10
100.30569
 20
110.4589999999999
 30
0.0
 11
102.19279
 21
112.342
 31
0.0
  0
LINE
  5
28C
330
1E
100
AcDbEntity
  8
0
100
AcDbLine
 10
101.30569
 20
110.1289999999999
 30
0.0
 11
103.8056899999999
 21
110.949
 31
0.0
  0
LINE
  5
28D
330
1E
100
AcDbEntity
  8
0
100
AcDbLine
 10
97.40569
 20
106.935
 30
0.0
 11
99.10569
 21
108.737
 31
0.0
  0
LINE
  5
28F
330
1E
100
AcDbEntity
  8
0
100
AcDbLine
 10
93.80169
 20
105.34
 30
0.0
 11
96.08339
 21
106.812
 31
0.0
  0
LINE
  5
290
330
1E
100
AcDbEntity
  8
0
100
AcDbLine
 10
93.54708999999999
 20
105.2589999999999
 30
0.0
 11
95.70688999999999
 21
106.692
 31
0.0
  0
LINE
  5
291
330
1E
100
AcDbEntity
  8
0
100
AcDbLine
 10
103.8056899999999
 20
110.949
 30
0.0
 11
106.5056899999999
 21
111.276
 31
0.0
  0
LINE
  5
292
330
1E
100
AcDbEntity
  8
0
100
AcDbLine
 10
102.51569
 20
112.4779999999999
 30
0.0
 11
104.35969
 21
114.9259999999999
 31
0.0
  0
LINE
  5
293
330
1E
100
AcDbEntity
  8
0
100
AcDbLine
 10
102.19279
 20
112.342
 30
0.0
 11
103.7873979762529
 21
114.7078788838129
 31
0.0
  0
LINE
  5
294
330
1E
100
AcDbEntity
  8
0
100
AcDbLine
 10
96.00569
 20
115.0
 30
0.0
 11
96.00569
 21
106.997706423854
 31
0.0
  0
LINE
  5
295
330
1E
100
AcDbEntity
  8
0
100
AcDbLine
 10
103.7873979762529
 20
114.7078788838129
 30
0.0
 11
104.3030448746801
 21
116.1474397477512
 31
0.0
  0
LINE
  5
296
330
1E
100
AcDbEntity
  8
0
100
AcDbLine
 10
115.3056899999999
 20
108.737
 30
0.0
 11
117.3046899999999
 21
106.692
 31
0.0
  0
LINE
  5
297
330
1E
100
AcDbEntity
  8
0
100
AcDbLine
 10
112.5056899999999
 20
110.434
 30
0.0
 11
115.0056899999999
 21
108.7779999999999
 31
0.0
  0
LINE
  5
298
330
1E
100
AcDbEntity
  8
0
100
AcDbLine
 10
112.7056899999999
 20
110.4589999999999
 30
0.0
 11
115.3056899999999
 21
108.737
 31
0.0
  0
LINE
  5
299
330
1E
100
AcDbEntity
  8
0
100
AcDbLine
 10
115.0056899999999
 20
108.7779999999999
 30
0.0
 11
116.9276899999999
 21
106.812
 31
0.0
  0
LINE
  5
29A
330
1E
100
AcDbEntity
  8
0
100
AcDbLine
 10
113.9056899999999
 20
108.737
 30
0.0
 11
115.60569
 21
106.935
 31
0.0
  0
LINE
  5
29B
330
1E
100
AcDbEntity
  8
0
100
AcDbLine
 10
117.0056899999999
 20
106.9978804402199
 30
0.0
 11
117.0056899999999
 21
115.0
 31
0.0
  0
LINE
  5
29C
330
1E
100
AcDbEntity
  8
0
100
AcDbLine
 10
116.9276899999999
 20
106.812
 30
0.0
 11
119.2096899999999
 21
105.34
 31
0.0
  0
LINE
  5
29D
330
1E
100
AcDbEntity
  8
0
100
AcDbLine
 10
117.3046899999999
 20
106.692
 30
0.0
 11
119.4646899999999
 21
105.2589999999999
 31
0.0
  0
LINE
  5
29F
330
1E
100
AcDbEntity
  8
0
100
AcDbLine
 10
115.60569
 20
106.935
 30
0.0
 11
116.60569
 21
104.8869999999999
 31
0.0
  0
LINE
  5
2A0
330
1E
100
AcDbEntity
  8
0
100
AcDbLine
 10
116.60569
 20
104.8869999999999
 30
0.0
 11
117.0056899999999
 21
102.675
 31
0.0
  0
LINE
  5
2A1
330
1E
100
AcDbEntity
  8
0
100
AcDbLine
 10
111.7056899999999
 20
110.1289999999999
 30
0.0
 11
113.9056899999999
 21
108.737
 31
0.0
  0
LINE
  5
2A2
330
1E
100
AcDbEntity
  8
0
100
AcDbLine
 10
110.4956899999999
 20
112.4779999999999
 30
0.0
 11
112.5056899999999
 21
110.434
 31
0.0
  0
LINE
  5
2A3
330
1E
100
AcDbEntity
  8
0
100
AcDbLine
 10
110.8186899999999
 20
112.342
 30
0.0
 11
112.7056899999999
 21
110.4589999999999
 31
0.0
  0
LINE
  5
2A4
330
1E
100
AcDbEntity
  8
0
100
AcDbLine
 10
109.20569
 20
110.949
 30
0.0
 11
111.7056899999999
 21
110.1289999999999
 31
0.0
  0
LINE
  5
2A5
330
1E
100
AcDbEntity
  8
0
100
AcDbLine
 10
106.5056899999999
 20
111.276
 30
0.0
 11
109.20569
 21
110.949
 31
0.0
  0
LINE
  5
2A6
330
1E
100
AcDbEntity
  8
0
100
AcDbLine
 10
108.6516899999999
 20
114.9259999999999
 30
0.0
 11
110.4956899999999
 21
112.4779999999999
 31
0.0
  0
LINE
  5
2A7
330
1E
100
AcDbEntity
  8
0
100
AcDbLine
 10
109.223974624977
 20
114.7078995393799
 30
0.0
 11
110.8186899999999
 21
112.342
 31
0.0
  0
LINE
  5
2A8
330
1E
100
AcDbEntity
  8
0
100
AcDbLine
 10
119.2096899999999
 20
105.34
 30
0.0
 11
121.9636899999999
 21
104.022
 31
0.0
  0
LINE
  5
2A9
330
1E
100
AcDbEntity
  8
0
100
AcDbLine
 10
117.0056899999999
 20
115.0
 30
0.0
 11
117.0056899999999
 21
106.9978804402199
 31
0.0
  0
LINE
  5
2AA
330
1E
100
AcDbEntity
  8
0
100
AcDbLine
 10
104.35969
 20
114.9259999999999
 30
0.0
 11
105.4056899999999
 21
118.132
 31
0.0
  0
LINE
  5
2AB
330
1E
100
AcDbEntity
  8
0
100
AcDbLine
 10
104.30304487468
 20
116.1474397477499
 30
0.0
 11
104.50569
 21
118.361
 31
0.0
  0
LINE
  5
2AC
330
1E
100
AcDbEntity
  8
0
100
AcDbLine
 10
95.62929
 20
120.743
 30
0.0
 11
96.00569
 21
115.0
 31
0.0
  0
LINE
  5
2AD
330
1E
100
AcDbEntity
  8
0
100
AcDbLine
 10
104.50569
 20
118.361
 30
0.0
 11
104.70569
 21
121.7489999999999
 31
0.0
  0
LINE
  5
2AE
330
1E
100
AcDbEntity
  8
0
100
AcDbLine
 10
104.70569
 20
121.7489999999999
 30
0.0
 11
104.70569
 21
121.665
 31
0.0
  0
LINE
  5
2AF
330
1E
100
AcDbEntity
  8
0
100
AcDbLine
 10
104.70569
 20
121.665
 30
0.0
 11
104.70569
 21
121.7489999999999
 31
0.0
  0
LINE
  5
2B1
330
1E
100
AcDbEntity
  8
0
100
AcDbLine
 10
104.9364592307689
 20
122.939769230769
 30
0.0
 11
105.2056899999999
 21
124.4269999999999
 31
0.0
  0
LINE
  5
2B6
330
1E
100
AcDbEntity
  8
0
100
AcDbLine
 10
91.57519
 20
166.5679999999999
 30
0.0
 11
97.96759000000001
 21
160.962
 31
0.0
  0
LINE
  5
2B7
330
1E
100
AcDbEntity
  8
0
100
AcDbLine
 10
92.65639
 20
131.8379999999999
 30
0.0
 11
94.50639
 21
126.3879999999999
 31
0.0
  0
LINE
  5
2B8
330
1E
100
AcDbEntity
  8
0
100
AcDbLine
 10
97.96759000000001
 20
160.962
 30
0.0
 11
103.57369
 21
154.569
 31
0.0
  0
LINE
  5
2B9
330
1E
100
AcDbEntity
  8
0
100
AcDbLine
 10
103.57369
 20
154.569
 30
0.0
 11
108.29769
 21
147.5
 31
0.0
  0
LINE
  5
2BA
330
1E
100
AcDbEntity
  8
0
100
AcDbLine
 10
94.50639
 20
126.3879999999999
 30
0.0
 11
95.62929
 21
120.743
 31
0.0
  0
LINE
  5
2BB
330
1E
100
AcDbEntity
  8
0
100
AcDbLine
 10
105.2056899999999
 20
124.4269999999999
 30
0.0
 11
105.7056899999999
 21
124.8779999999999
 31
0.0
  0
LINE
  5
2BD
330
1E
100
AcDbEntity
  8
0
100
AcDbLine
 10
105.7056899999999
 20
121.662
 30
0.0
 11
105.7056899999999
 21
123.285
 31
0.0
  0
LINE
  5
2BE
330
1E
100
AcDbEntity
  8
0
100
AcDbLine
 10
105.7056899999999
 20
123.285
 30
0.0
 11
105.7056899999999
 21
121.662
 31
0.0
  0
LINE
  5
2BF
330
1E
100
AcDbEntity
  8
0
100
AcDbLine
 10
105.7056899999999
 20
123.285
 30
0.0
 11
105.7056899999999
 21
124.2939999999999
 31
0.0
  0
LINE
  5
2C0
330
1E
100
AcDbEntity
  8
0
100
AcDbLine
 10
105.7056899999999
 20
124.2939999999999
 30
0.0
 11
105.7056899999999
 21
123.285
 31
0.0
  0
LINE
  5
2C1
330
1E
100
AcDbEntity
  8
0
100
AcDbLine
 10
105.7056899999999
 20
124.2939999999999
 30
0.0
 11
105.7056899999999
 21
124.7839999999999
 31
0.0
  0
LINE
  5
2C2
330
1E
100
AcDbEntity
  8
0
100
AcDbLine
 10
107.6056899999999
 20
118.132
 30
0.0
 11
108.6516899999999
 21
114.9259999999999
 31
0.0
  0
LINE
  5
2C4
330
1E
100
AcDbEntity
  8
0
100
AcDbLine
 10
108.7083351253198
 20
116.147439747751
 30
0.0
 11
109.223974624977
 21
114.7078995393799
 31
0.0
  0
LINE
  5
2C5
330
1E
100
AcDbEntity
  8
0
100
AcDbLine
 10
107.3056899999999
 20
123.285
 30
0.0
 11
107.3056899999999
 21
124.2939999999999
 31
0.0
  0
LINE
  5
2C6
330
1E
100
AcDbEntity
  8
0
100
AcDbLine
 10
107.3056899999999
 20
123.285
 30
0.0
 11
107.3056899999999
 21
121.662
 31
0.0
  0
LINE
  5
2C7
330
1E
100
AcDbEntity
  8
0
100
AcDbLine
 10
107.3056899999999
 20
124.2939999999999
 30
0.0
 11
107.3056899999999
 21
124.7839999999999
 31
0.0
  0
LINE
  5
2C8
330
1E
100
AcDbEntity
  8
0
100
AcDbLine
 10
107.3056899999999
 20
124.2939999999999
 30
0.0
 11
107.3056899999999
 21
123.285
 31
0.0
  0
LINE
  5
2C9
330
1E
100
AcDbEntity
  8
0
100
AcDbLine
 10
107.3056899999999
 20
124.7839999999999
 30
0.0
 11
107.3056899999999
 21
124.8779999999999
 31
0.0
  0
LINE
  5
2CA
330
1E
100
AcDbEntity
  8
0
100
AcDbLine
 10
107.3056899999999
 20
124.7839999999999
 30
0.0
 11
107.3056899999999
 21
124.2939999999999
 31
0.0
  0
LINE
  5
2CB
330
1E
100
AcDbEntity
  8
0
100
AcDbLine
 10
107.3056899999999
 20
124.8779999999999
 30
0.0
 11
107.8056899999999
 21
124.4269999999999
 31
0.0
  0
LINE
  5
2CC
330
1E
100
AcDbEntity
  8
0
100
AcDbLine
 10
107.3056899999999
 20
124.8779999999999
 30
0.0
 11
107.3056899999999
 21
124.7839999999999
 31
0.0
  0
LINE
  5
2CD
330
1E
100
AcDbEntity
  8
0
100
AcDbLine
 10
106.5056899999999
 20
124.855
 30
0.0
 11
107.3056899999999
 21
124.8779999999999
 31
0.0
  0
LINE
  5
2CF
330
1E
100
AcDbEntity
  8
0
100
AcDbLine
 10
116.4496899999999
 20
123.4839999999999
 30
0.0
 11
117.0056899999999
 21
115.0
 31
0.0
  0
LINE
  5
2D0
330
1E
100
AcDbEntity
  8
0
100
AcDbLine
 10
108.3056899999999
 20
121.7489999999999
 30
0.0
 11
108.5056899999999
 21
118.361
 31
0.0
  0
LINE
  5
2D3
330
1E
100
AcDbEntity
  8
0
100
AcDbLine
 10
107.8056899999999
 20
124.4269999999999
 30
0.0
 11
108.0749207692309
 21
122.939769230769
 31
0.0
  0
LINE
  5
2D7
330
1E
100
AcDbEntity
  8
0
100
AcDbLine
 10
107.3056899999999
 20
121.662
 30
0.0
 11
107.6056899999999
 21
118.132
 31
0.0
  0
LINE
  5
2D8
330
1E
100
AcDbEntity
  8
0
100
AcDbLine
 10
107.3056899999999
 20
121.662
 30
0.0
 11
107.3056899999999
 21
123.285
 31
0.0
  0
LINE
  5
2D9
330
1E
100
AcDbEntity
  8
0
100
AcDbLine
 10
108.5056899999999
 20
118.361
 30
0.0
 11
108.7083351253199
 21
116.1474397477499
 31
0.0
  0
LINE
  5
2DA
330
1E
100
AcDbEntity
  8
0
100
AcDbLine
 10
105.7056899999999
 20
124.7839999999999
 30
0.0
 11
105.7056899999999
 21
124.2939999999999
 31
0.0
  0
LINE
  5
2DB
330
1E
100
AcDbEntity
  8
0
100
AcDbLine
 10
105.7056899999999
 20
124.7839999999999
 30
0.0
 11
105.7056899999999
 21
124.8779999999999
 31
0.0
  0
LINE
  5
2DC
330
1E
100
AcDbEntity
  8
0
100
AcDbLine
 10
114.7906899999999
 20
131.8229999999999
 30
0.0
 11
116.4496899999999
 21
123.4839999999999
 31
0.0
  0
LINE
  5
2DD
330
1E
100
AcDbEntity
  8
0
100
AcDbLine
 10
112.0576899999999
 20
139.8739999999999
 30
0.0
 11
114.7906899999999
 21
131.8229999999999
 31
0.0
  0
LINE
  5
2DE
330
1E
100
AcDbEntity
  8
0
100
AcDbLine
 10
108.29769
 20
147.5
 30
0.0
 11
112.0576899999999
 21
139.8739999999999
 31
0.0
  0
LINE
  5
2DF
330
1E
100
AcDbEntity
  8
0
100
AcDbLine
 10
105.7056899999999
 20
124.8779999999999
 30
0.0
 11
106.5056899999999
 21
124.855
 31
0.0
  0
LINE
  5
2E0
330
1E
100
AcDbEntity
  8
0
100
AcDbLine
 10
105.7056899999999
 20
124.8779999999999
 30
0.0
 11
105.7056899999999
 21
124.7839999999999
 31
0.0
  0
LINE
  5
2E1
330
1E
100
AcDbEntity
  8
0
100
AcDbLine
 10
105.4056899999999
 20
118.132
 30
0.0
 11
105.7056899999999
 21
121.662
 31
0.0
  0
LINE
  5
2E3
330
1E
100
AcDbEntity
  8
0
100
AcDbLine
 10
119.4646899999999
 20
105.2589999999999
 30
0.0
 11
122.2776899999999
 21
104.089
 31
0.0
  0
LINE
  5
2E4
330
1E
100
AcDbEntity
  8
0
100
AcDbLine
 10
122.2776899999999
 20
104.089
 30
0.0
 11
125.5276899999999
 21
103.56
 31
0.0
  0
LINE
  5
2E5
330
1E
100
AcDbEntity
  8
0
100
AcDbLine
 10
91.00569
 20
79.41030000000001
 30
0.0
 11
91.00569
 21
76.7975823529412
 31
0.0
  0
LINE
  5
2E6
330
1E
100
AcDbEntity
  8
0
100
AcDbLine
 10
91.00569
 20
79.41030000000001
 30
0.0
 11
95.16419
 21
66.7135
 31
0.0
  0
LINE
  5
2E7
330
1E
100
AcDbEntity
  8
0
100
AcDbLine
 10
91.00569
 20
79.41030000000001
 30
0.0
 11
91.00569
 21
75.96890000000001
 31
0.0
  0
LINE
  5
2E8
330
1E
100
AcDbEntity
  8
0
100
AcDbLine
 10
91.00569
 20
79.41030000000001
 30
0.0
 11
94.50568999999999
 21
82.27732817087689
 31
0.0
  0
LINE
  5
2E9
330
1E
100
AcDbEntity
  8
0
100
AcDbLine
 10
91.00569
 20
76.7975823529412
 30
0.0
 11
91.00569
 21
79.41030000000001
 31
0.0
  0
LINE
  5
2EA
330
1E
100
AcDbEntity
  8
0
100
AcDbLine
 10
90.10569
 20
75.01949999999999
 30
0.0
 11
91.00569
 21
76.7975823529412
 31
0.0
  0
LINE
  5
2EB
330
1E
100
AcDbEntity
  8
0
100
AcDbLine
 10
90.10569
 20
67.81100000000001
 30
0.0
 11
91.50569
 21
65.0451764705882
 31
0.0
  0
LINE
  5
2EC
330
1E
100
AcDbEntity
  8
0
100
AcDbLine
 10
90.10569
 20
67.81100000000001
 30
0.0
 11
91.80569
 21
64.4525
 31
0.0
  0
LINE
  5
2ED
330
1E
100
AcDbEntity
  8
0
100
AcDbLine
 10
89.50568999999999
 20
71.4153
 30
0.0
 11
90.10569
 21
67.81100000000001
 31
0.0
  0
LINE
  5
2EE
330
1E
100
AcDbEntity
  8
0
100
AcDbLine
 10
89.50568999999999
 20
71.4153
 30
0.0
 11
90.10569
 21
75.01949999999999
 31
0.0
  0
LINE
  5
2F3
330
1E
100
AcDbEntity
  8
0
100
AcDbLine
 10
108.0749207692309
 20
122.939769230769
 30
0.0
 11
108.3056899999999
 21
121.7489999999999
 31
0.0
  0
LINE
  5
2F4
330
1E
100
AcDbEntity
  8
0
100
AcDbLine
 10
104.70569
 20
121.7489999999999
 30
0.0
 11
104.9364592307689
 21
122.939769230769
 31
0.0
  0
LINE
  5
2F5
330
1E
100
AcDbEntity
  8
0
100
AcDbLine
 10
121.5056899999999
 20
28.6907247775306
 30
0.0
 11
121.5007052230909
 21
18.7327622056672
 31
0.0
  0
ENDSEC
  0
SECTION
  2
OBJECTS
  0
DICTIONARY
  5
C
330
0
100
AcDbDictionary
281
     1
  3
ACAD_GROUP
350
D
  3
ACAD_LAYOUT
350
19
  3
ACAD_MLINESTYLE
350
16
  3
ACAD_PLOTSETTINGS
350
18
  3
ACAD_PLOTSTYLENAME
350
E
  3
AcDbVariableDictionary
350
2F6
  0
DICTIONARY
  5
D
102
{ACAD_REACTORS
330
C
102
}
330
C
100
AcDbDictionary
281
     1
  0
DICTIONARY
  5
19
102
{ACAD_REACTORS
330
C
102
}
330
C
100
AcDbDictionary
281
     1
  3
Layout1
350
1D
  3
Model
350
21
  0
DICTIONARY
  5
16
102
{ACAD_REACTORS
330
C
102
}
330
C
100
AcDbDictionary
281
     1
  3
Standard
350
17
  0
DICTIONARY
  5
18
102
{ACAD_REACTORS
330
C
102
}
330
C
100
AcDbDictionary
281
     1
  0
ACDBDICTIONARYWDFLT
  5
E
102
{ACAD_REACTORS
330
C
102
}
330
C
100
AcDbDictionary
281
     1
  3
Normal
350
F
100
AcDbDictionaryWithDefault
340
F
  0
DICTIONARY
  5
2F6
102
{ACAD_REACTORS
330
C
102
}
330
C
100
AcDbDictionary
281
     1
  3
DIMASSOC
350
2F7
  0
LAYOUT
  5
1D
102
{ACAD_REACTORS
330
19
102
}
330
19
100
AcDbPlotSettings
  1

  2
hp deskjet 980c series
  4

  6

 40
0.0
 41
0.0
 42
0.0
 43
0.0
 44
0.0
 45
0.0
 46
0.0
 47
0.0
 48
0.0
 49
0.0
140
0.0
141
0.0
142
1.0
143
1.0
 70
   688
 72
     0
 73
     0
 74
     5
  7

 75
    16
147
1.0
148
0.0
149
0.0
100
AcDbLayout
  1
Layout1
 70
     1
 71
     1
 10
0.0
 20
0.0
 11
12.0
 21
9.0
 12
0.0
 22
0.0
 32
0.0
 14
1.000000000000000E+20
 24
1.000000000000000E+20
 34
1.000000000000000E+20
 15
-1.000000000000000E+20
 25
-1.000000000000000E+20
 35
-1.000000000000000E+20
146
0.0
 13
0.0
 23
0.0
 33
0.0
 16
1.0
 26
0.0
 36
0.0
 17
0.0
 27
1.0
 37
0.0
 76
     0
330
1A
  0
LAYOUT
  5
21
102
{ACAD_REACTORS
330
19
102
}
330
19
100
AcDbPlotSettings
  1

  2
hp deskjet 980c series
  4

  6

 40
0.0
 41
0.0
 42
0.0
 43
0.0
 44
0.0
 45
0.0
 46
0.0
 47
0.0
 48
0.0
 49
0.0
140
0.0
141
0.0
142
1.0
143
1.0
 70
  1712
 72
     0
 73
     0
 74
     0
  7

 75
     0
147
1.0
148
0.0
149
0.0
100
AcDbLayout
  1
Model
 70
     1
 71
     0
 10
0.0
 20
0.0
 11
12.0
 21
9.0
 12
0.0
 22
0.0
 32
0.0
 14
0.0
 24
0.0
 34
0.0
 15
0.0
 25
0.0
 35
0.0
146
0.0
 13
0.0
 23
0.0
 33
0.0
 16
1.0
 26
0.0
 36
0.0
 17
0.0
 27
1.0
 37
0.0
 76
     0
330
1E
  0
MLINESTYLE
  5
17
102
{ACAD_REACTORS
330
16
102
}
330
16
100
AcDbMlineStyle
  2
STANDARD
 70
     0
  3

 62
   256
 51
90.0
 52
90.0
 71
     2
 49
0.5
 62
   256
  6
BYLAYER
 49
-0.5
 62
   256
  6
BYLAYER
  0
ACDBPLACEHOLDER
  5
F
102
{ACAD_REACTORS
330
E
102
}
330
E
  0
DICTIONARYVAR
  5
2F7
102
{ACAD_REACTORS
330
2F6
102
}
330
2F6
100
DictionaryVariables
280
     0
  1
1
  0
ENDSEC
  0
EOF
