  0
SECTION
  2
HEADER
  9
$ACADVER
  1
AC1015
  9
$ACADMAINTVER
 70
    13
  9
$DWGCODEPAGE
  3
ANSI_1252
  9
$INSBASE
 10
0.0
 20
0.0
 30
0.0
  9
$EXTMIN
 10
0.0000000000000018
 20
-0.0000000000000029
 30
0.0
  9
$EXTMAX
 10
258.0
 20
336.0
 30
0.0
  9
$LIMMIN
 10
0.0
 20
0.0
  9
$LIMMAX
 10
12.0
 20
9.0
  9
$ORTHOMODE
 70
     0
  9
$REGENMODE
 70
     1
  9
$FILLMODE
 70
     1
  9
$QTEXTMODE
 70
     0
  9
$MIRRTEXT
 70
     1
  9
$LTSCALE
 40
1.0
  9
$ATTMODE
 70
     1
  9
$TEXTSIZE
 40
0.2
  9
$TRACEWID
 40
0.05
  9
$TEXTSTYLE
  7
Standard
  9
$CLAYER
  8
0
  9
$CELTYPE
  6
Continuous
  9
$CECOLOR
 62
   256
  9
$CELTSCALE
 40
1.0
  9
$DISPSILH
 70
     0
  9
$DIMSCALE
 40
1.0
  9
$DIMASZ
 40
0.18
  9
$DIMEXO
 40
0.0625
  9
$DIMDLI
 40
0.38
  9
$DIMRND
 40
0.0
  9
$DIMDLE
 40
0.0
  9
$DIMEXE
 40
0.18
  9
$DIMTP
 40
0.0
  9
$DIMTM
 40
0.0
  9
$DIMTXT
 40
0.18
  9
$DIMCEN
 40
0.09
  9
$DIMTSZ
 40
0.0
  9
$DIMTOL
 70
     0
  9
$DIMLIM
 70
     0
  9
$DIMTIH
 70
     1
  9
$DIMTOH
 70
     1
  9
$DIMSE1
 70
     0
  9
$DIMSE2
 70
     0
  9
$DIMTAD
 70
     0
  9
$DIMZIN
 70
     0
  9
$DIMBLK
  1

  9
$DIMASO
 70
     1
  9
$DIMSHO
 70
     1
  9
$DIMPOST
  1

  9
$DIMAPOST
  1

  9
$DIMALT
 70
     0
  9
$DIMALTD
 70
     2
  9
$DIMALTF
 40
25.4
  9
$DIMLFAC
 40
1.0
  9
$DIMTOFL
 70
     0
  9
$DIMTVP
 40
0.0
  9
$DIMTIX
 70
     0
  9
$DIMSOXD
 70
     0
  9
$DIMSAH
 70
     0
  9
$DIMBLK1
  1

  9
$DIMBLK2
  1

  9
$DIMSTYLE
  2
Standard
  9
$DIMCLRD
 70
     0
  9
$DIMCLRE
 70
     0
  9
$DIMCLRT
 70
     0
  9
$DIMTFAC
 40
1.0
  9
$DIMGAP
 40
0.09
  9
$DIMJUST
 70
     0
  9
$DIMSD1
 70
     0
  9
$DIMSD2
 70
     0
  9
$DIMTOLJ
 70
     1
  9
$DIMTZIN
 70
     0
  9
$DIMALTZ
 70
     0
  9
$DIMALTTZ
 70
     0
  9
$DIMUPT
 70
     0
  9
$DIMDEC
 70
     4
  9
$DIMTDEC
 70
     4
  9
$DIMALTU
 70
     2
  9
$DIMALTTD
 70
     2
  9
$DIMTXSTY
  7
Standard
  9
$DIMAUNIT
 70
     0
  9
$DIMADEC
 70
     0
  9
$DIMALTRND
 40
0.0
  9
$DIMAZIN
 70
     0
  9
$DIMDSEP
 70
    46
  9
$DIMATFIT
 70
     3
  9
$DIMFRAC
 70
     0
  9
$DIMLDRBLK
  1

  9
$DIMLUNIT
 70
     2
  9
$DIMLWD
 70
    -2
  9
$DIMLWE
 70
    -2
  9
$DIMTMOVE
 70
     0
  9
$LUNITS
 70
     2
  9
$LUPREC
 70
     4
  9
$SKETCHINC
 40
0.1
  9
$FILLETRAD
 40
0.0
  9
$AUNITS
 70
     0
  9
$AUPREC
 70
     0
  9
$MENU
  1
.
  9
$ELEVATION
 40
0.0
  9
$PELEVATION
 40
0.0
  9
$THICKNESS
 40
0.0
  9
$LIMCHECK
 70
     0
  9
$CHAMFERA
 40
0.0
  9
$CHAMFERB
 40
0.0
  9
$CHAMFERC
 40
0.0
  9
$CHAMFERD
 40
0.0
  9
$SKPOLY
 70
     0
  9
$TDCREATE
 40
2454750.870548322
  9
$TDUCREATE
 40
2454750.787214988
  9
$TDUPDATE
 40
2454750.873104201
  9
$TDUUPDATE
 40
2454750.789770868
  9
$TDINDWG
 40
0.0025558796
  9
$TDUSRTIMER
 40
0.0025558796
  9
$USRTIMER
 70
     1
  9
$ANGBASE
 50
0.0
  9
$ANGDIR
 70
     0
  9
$PDMODE
 70
     0
  9
$PDSIZE
 40
0.0
  9
$PLINEWID
 40
0.0
  9
$SPLFRAME
 70
     0
  9
$SPLINETYPE
 70
     6
  9
$SPLINESEGS
 70
     8
  9
$HANDSEED
  5
A97
  9
$SURFTAB1
 70
     6
  9
$SURFTAB2
 70
     6
  9
$SURFTYPE
 70
     6
  9
$SURFU
 70
     6
  9
$SURFV
 70
     6
  9
$UCSBASE
  2

  9
$UCSNAME
  2

  9
$UCSORG
 10
0.0
 20
0.0
 30
0.0
  9
$UCSXDIR
 10
1.0
 20
0.0
 30
0.0
  9
$UCSYDIR
 10
0.0
 20
1.0
 30
0.0
  9
$UCSORTHOREF
  2

  9
$UCSORTHOVIEW
 70
     1
  9
$UCSORGTOP
 10
0.0
 20
0.0
 30
0.0
  9
$UCSORGBOTTOM
 10
0.0
 20
0.0
 30
0.0
  9
$UCSORGLEFT
 10
0.0
 20
0.0
 30
0.0
  9
$UCSORGRIGHT
 10
0.0
 20
0.0
 30
0.0
  9
$UCSORGFRONT
 10
0.0
 20
0.0
 30
0.0
  9
$UCSORGBACK
 10
0.0
 20
0.0
 30
0.0
  9
$PUCSBASE
  2

  9
$PUCSNAME
  2

  9
$PUCSORG
 10
0.0
 20
0.0
 30
0.0
  9
$PUCSXDIR
 10
1.0
 20
0.0
 30
0.0
  9
$PUCSYDIR
 10
0.0
 20
1.0
 30
0.0
  9
$PUCSORTHOREF
  2

  9
$PUCSORTHOVIEW
 70
     0
  9
$PUCSORGTOP
 10
0.0
 20
0.0
 30
0.0
  9
$PUCSORGBOTTOM
 10
0.0
 20
0.0
 30
0.0
  9
$PUCSORGLEFT
 10
0.0
 20
0.0
 30
0.0
  9
$PUCSORGRIGHT
 10
0.0
 20
0.0
 30
0.0
  9
$PUCSORGFRONT
 10
0.0
 20
0.0
 30
0.0
  9
$PUCSORGBACK
 10
0.0
 20
0.0
 30
0.0
  9
$USERI1
 70
     0
  9
$USERI2
 70
     0
  9
$USERI3
 70
     0
  9
$USERI4
 70
     0
  9
$USERI5
 70
     0
  9
$USERR1
 40
0.0
  9
$USERR2
 40
0.0
  9
$USERR3
 40
0.0
  9
$USERR4
 40
0.0
  9
$USERR5
 40
0.0
  9
$WORLDVIEW
 70
     1
  9
$SHADEDGE
 70
     3
  9
$SHADEDIF
 70
    70
  9
$TILEMODE
 70
     1
  9
$MAXACTVP
 70
    64
  9
$PINSBASE
 10
0.0
 20
0.0
 30
0.0
  9
$PLIMCHECK
 70
     0
  9
$PEXTMIN
 10
1.000000000000000E+20
 20
1.000000000000000E+20
 30
1.000000000000000E+20
  9
$PEXTMAX
 10
-1.000000000000000E+20
 20
-1.000000000000000E+20
 30
-1.000000000000000E+20
  9
$PLIMMIN
 10
0.0
 20
0.0
  9
$PLIMMAX
 10
12.0
 20
9.0
  9
$UNITMODE
 70
     0
  9
$VISRETAIN
 70
     1
  9
$PLINEGEN
 70
     0
  9
$PSLTSCALE
 70
     1
  9
$TREEDEPTH
 70
  3020
  9
$CMLSTYLE
  2
Standard
  9
$CMLJUST
 70
     0
  9
$CMLSCALE
 40
1.0
  9
$PROXYGRAPHICS
 70
     1
  9
$MEASUREMENT
 70
     0
  9
$CELWEIGHT
370
    -1
  9
$ENDCAPS
280
     0
  9
$JOINSTYLE
280
     0
  9
$LWDISPLAY
290
     0
  9
$INSUNITS
 70
     0
  9
$HYPERLINKBASE
  1

  9
$STYLESHEET
  1

  9
$XEDIT
290
     1
  9
$CEPSNTYPE
380
     0
  9
$PSTYLEMODE
290
     1
  9
$FINGERPRINTGUID
  2
{404A79FF-831F-4BAF-A8D3-B77076232210}
  9
$VERSIONGUID
  2
{4FD090BF-D7F2-433A-902D-E9CE9AFAA0A5}
  9
$EXTNAMES
290
     1
  9
$PSVPSCALE
 40
0.0
  9
$OLESTARTUP
290
     0
  0
ENDSEC
  0
SECTION
  2
CLASSES
  0
CLASS
  1
ACDBDICTIONARYWDFLT
  2
AcDbDictionaryWithDefault
  3
AutoCAD 2000
 90
        0
280
     0
281
     0
  0
CLASS
  1
ACDBPLACEHOLDER
  2
AcDbPlaceHolder
  3
AutoCAD 2000
 90
        0
280
     0
281
     0
  0
CLASS
  1
LAYOUT
  2
AcDbLayout
  3
AutoCAD 2000
 90
        0
280
     0
281
     0
  0
CLASS
  1
DICTIONARYVAR
  2
AcDbDictionaryVar
  3
AutoCAD 2000
 90
        0
280
     0
281
     0
  0
ENDSEC
  0
SECTION
  2
TABLES
  0
TABLE
  2
VPORT
  5
8
330
0
100
AcDbSymbolTable
 70
     2
  0
VPORT
  5
A96
330
8
100
AcDbSymbolTableRecord
100
AcDbViewportTableRecord
  2
*Active
 70
     0
 10
0.0
 20
0.0
 11
1.0
 21
1.0
 12
129.0
 22
168.0
 13
0.0
 23
0.0
 14
1.0
 24
1.0
 15
0.0
 25
0.0
 16
0.0
 26
0.0
 36
1.0
 17
0.0
 27
0.0
 37
0.0
 40
338.5780051150895
 41
2.078104993597951
 42
50.0
 43
0.0
 44
0.0
 50
0.0
 51
0.0
 71
     0
 72
   100
 73
     1
 74
     3
 75
     0
 76
     0
 77
     0
 78
     0
281
     0
 65
     1
110
0.0
120
0.0
130
0.0
111
1.0
121
0.0
131
0.0
112
0.0
122
1.0
132
0.0
 79
     1
146
0.0
  0
ENDTAB
  0
TABLE
  2
LTYPE
  5
5
330
0
100
AcDbSymbolTable
 70
     1
  0
LTYPE
  5
13
330
5
100
AcDbSymbolTableRecord
100
AcDbLinetypeTableRecord
  2
ByBlock
 70
     0
  3

 72
    65
 73
     0
 40
0.0
  0
LTYPE
  5
14
330
5
100
AcDbSymbolTableRecord
100
AcDbLinetypeTableRecord
  2
ByLayer
 70
     0
  3

 72
    65
 73
     0
 40
0.0
  0
LTYPE
  5
15
330
5
100
AcDbSymbolTableRecord
100
AcDbLinetypeTableRecord
  2
Continuous
 70
     0
  3
Solid line
 72
    65
 73
     0
 40
0.0
  0
ENDTAB
  0
TABLE
  2
LAYER
  5
2
330
0
100
AcDbSymbolTable
 70
     1
  0
LAYER
  5
10
330
2
100
AcDbSymbolTableRecord
100
AcDbLayerTableRecord
  2
0
 70
     0
 62
     7
  6
Continuous
370
    -3
390
F
  0
ENDTAB
  0
TABLE
  2
STYLE
  5
3
330
0
100
AcDbSymbolTable
 70
     1
  0
STYLE
  5
11
330
3
100
AcDbSymbolTableRecord
100
AcDbTextStyleTableRecord
  2
Standard
 70
     0
 40
0.0
 41
1.0
 50
0.0
 71
     0
 42
0.2
  3
txt
  4

  0
ENDTAB
  0
TABLE
  2
VIEW
  5
6
330
0
100
AcDbSymbolTable
 70
     0
  0
ENDTAB
  0
TABLE
  2
UCS
  5
7
330
0
100
AcDbSymbolTable
 70
     0
  0
ENDTAB
  0
TABLE
  2
APPID
  5
9
330
0
100
AcDbSymbolTable
 70
     1
  0
APPID
  5
12
330
9
100
AcDbSymbolTableRecord
100
AcDbRegAppTableRecord
  2
ACAD
 70
     0
  0
ENDTAB
  0
TABLE
  2
DIMSTYLE
  5
A
330
0
100
AcDbSymbolTable
 70
     1
100
AcDbDimStyleTable
 71
     0
  0
DIMSTYLE
105
82A
330
A
100
AcDbSymbolTableRecord
100
AcDbDimStyleTableRecord
  2
Standard
 70
     0
340
11
  0
ENDTAB
  0
TABLE
  2
BLOCK_RECORD
  5
1
330
0
100
AcDbSymbolTable
 70
     0
  0
BLOCK_RECORD
  5
1E
330
1
100
AcDbSymbolTableRecord
100
AcDbBlockTableRecord
  2
*Model_Space
340
21
  0
BLOCK_RECORD
  5
1A
330
1
100
AcDbSymbolTableRecord
100
AcDbBlockTableRecord
  2
*Paper_Space
340
1D
  0
ENDTAB
  0
ENDSEC
  0
SECTION
  2
BLOCKS
  0
BLOCK
  5
1F
330
1E
100
AcDbEntity
  8
0
100
AcDbBlockBegin
  2
*Model_Space
 70
     0
 10
0.0
 20
0.0
 30
0.0
  3
*Model_Space
  1

  0
ENDBLK
  5
20
330
1E
100
AcDbEntity
  8
0
100
AcDbBlockEnd
  0
BLOCK
  5
1B
330
1A
100
AcDbEntity
 67
     1
  8
0
100
AcDbBlockBegin
  2
*Paper_Space
 70
     0
 10
0.0
 20
0.0
 30
0.0
  3
*Paper_Space
  1

  0
ENDBLK
  5
1C
330
1A
100
AcDbEntity
 67
     1
  8
0
100
AcDbBlockEnd
  0
ENDSEC
  0
SECTION
  2
ENTITIES
  0
LINE
  5
22
330
1E
100
AcDbEntity
  8
0
100
AcDbLine
 10
4.0
 20
-0.0000000000000015
 30
0.0
 11
4.5
 21
1.5
 31
0.0
  0
LINE
  5
23
330
1E
100
AcDbEntity
  8
0
100
AcDbLine
 10
7.299999999999999
 20
-0.0000000000000021
 30
0.0
 11
11.4
 21
-0.0000000000000025
 31
0.0
  0
LINE
  5
24
330
1E
100
AcDbEntity
  8
0
100
AcDbLine
 10
4.9
 20
-0.0000000000000018
 30
0.0
 11
7.299999999999999
 21
-0.0000000000000021
 31
0.0
  0
LINE
  5
25
330
1E
100
AcDbEntity
  8
0
100
AcDbLine
 10
11.4
 20
-0.0000000000000025
 30
0.0
 11
16.6
 21
-0.0000000000000027
 31
0.0
  0
LINE
  5
26
330
1E
100
AcDbEntity
  8
0
100
AcDbLine
 10
5.5
 20
2.5
 30
0.0
 11
9.0
 21
4.0
 31
0.0
  0
LINE
  5
27
330
1E
100
AcDbEntity
  8
0
100
AcDbLine
 10
4.5
 20
1.5
 30
0.0
 11
5.5
 21
2.5
 31
0.0
  0
LINE
  5
28
330
1E
100
AcDbEntity
  8
0
100
AcDbLine
 10
11.4
 20
-0.0000000000000003
 30
0.0
 11
16.6
 21
-0.0000000000000001
 31
0.0
  0
LINE
  5
29
330
1E
100
AcDbEntity
  8
0
100
AcDbLine
 10
11.4
 20
-0.0000000000000003
 30
0.0
 11
16.6
 21
-0.0000000000000001
 31
0.0
  0
LINE
  5
2A
330
1E
100
AcDbEntity
  8
0
100
AcDbLine
 10
12.0
 20
15.0
 30
0.0
 11
12.6
 21
15.0
 31
0.0
  0
LINE
  5
2B
330
1E
100
AcDbEntity
  8
0
100
AcDbLine
 10
12.0
 20
15.0
 30
0.0
 11
13.0
 21
15.5
 31
0.0
  0
LINE
  5
2C
330
1E
100
AcDbEntity
  8
0
100
AcDbLine
 10
11.5
 20
14.0
 30
0.0
 11
11.5
 21
13.5
 31
0.0
  0
LINE
  5
2D
330
1E
100
AcDbEntity
  8
0
100
AcDbLine
 10
11.5
 20
14.0
 30
0.0
 11
12.0
 21
15.0
 31
0.0
  0
LINE
  5
2E
330
1E
100
AcDbEntity
  8
0
100
AcDbLine
 10
11.5
 20
13.5
 30
0.0
 11
12.0
 21
12.5
 31
0.0
  0
LINE
  5
2F
330
1E
100
AcDbEntity
  8
0
100
AcDbLine
 10
11.5
 20
13.5
 30
0.0
 11
11.5
 21
14.0
 31
0.0
  0
LINE
  5
30
330
1E
100
AcDbEntity
  8
0
100
AcDbLine
 10
14.0
 20
18.0
 30
0.0
 11
14.0
 21
64.5
 31
0.0
  0
LINE
  5
31
330
1E
100
AcDbEntity
  8
0
100
AcDbLine
 10
13.5
 20
16.0
 30
0.0
 11
14.0
 21
18.0
 31
0.0
  0
LINE
  5
32
330
1E
100
AcDbEntity
  8
0
100
AcDbLine
 10
13.0
 20
15.5
 30
0.0
 11
13.5
 21
16.0
 31
0.0
  0
LINE
  5
33
330
1E
100
AcDbEntity
  8
0
100
AcDbLine
 10
12.6
 20
15.0
 30
0.0
 11
43.7
 21
15.0
 31
0.0
  0
LINE
  5
34
330
1E
100
AcDbEntity
  8
0
100
AcDbLine
 10
12.0
 20
12.5
 30
0.0
 11
12.19999999999999
 21
11.4
 31
0.0
  0
LINE
  5
35
330
1E
100
AcDbEntity
  8
0
100
AcDbLine
 10
12.0
 20
10.0
 30
0.0
 11
12.19999999999999
 21
11.4
 31
0.0
  0
LINE
  5
36
330
1E
100
AcDbEntity
  8
0
100
AcDbLine
 10
11.0
 20
7.0
 30
0.0
 11
12.0
 21
10.0
 31
0.0
  0
LINE
  5
37
330
1E
100
AcDbEntity
  8
0
100
AcDbLine
 10
9.0
 20
4.0
 30
0.0
 11
11.0
 21
7.0
 31
0.0
  0
LINE
  5
38
330
1E
100
AcDbEntity
  8
0
100
AcDbLine
 10
7.299999999999999
 20
-0.0000000000000006
 30
0.0
 11
11.4
 21
-0.0000000000000003
 31
0.0
  0
LINE
  5
39
330
1E
100
AcDbEntity
  8
0
100
AcDbLine
 10
4.9
 20
-0.000000000000001
 30
0.0
 11
7.299999999999999
 21
-0.0000000000000006
 31
0.0
  0
LINE
  5
3A
330
1E
100
AcDbEntity
  8
0
100
AcDbLine
 10
4.0
 20
-0.0000000000000014
 30
0.0
 11
4.9
 21
-0.000000000000001
 31
0.0
  0
LINE
  5
3B
330
1E
100
AcDbEntity
  8
0
100
AcDbLine
 10
4.0
 20
-0.0000000000000014
 30
0.0
 11
4.9
 21
-0.0000000000000018
 31
0.0
  0
LINE
  5
3C
330
1E
100
AcDbEntity
  8
0
100
AcDbLine
 10
4.0
 20
-0.0000000000000014
 30
0.0
 11
4.5
 21
1.5
 31
0.0
  0
LINE
  5
3D
330
1E
100
AcDbEntity
  8
0
100
AcDbLine
 10
13.1
 20
66.5
 30
0.0
 11
14.69999999999999
 21
66.5
 31
0.0
  0
LINE
  5
3E
330
1E
100
AcDbEntity
  8
0
100
AcDbLine
 10
13.1
 20
69.5
 30
0.0
 11
14.69999999999999
 21
69.5
 31
0.0
  0
LINE
  5
3F
330
1E
100
AcDbEntity
  8
0
100
AcDbLine
 10
12.5
 20
69.5
 30
0.0
 11
13.1
 21
69.5
 31
0.0
  0
LINE
  5
40
330
1E
100
AcDbEntity
  8
0
100
AcDbLine
 10
12.5
 20
69.5
 30
0.0
 11
14.0
 21
70.0
 31
0.0
  0
LINE
  5
42
330
1E
100
AcDbEntity
  8
0
100
AcDbLine
 10
12.0
 20
68.0
 30
0.0
 11
12.5
 21
66.5
 31
0.0
  0
LINE
  5
44
330
1E
100
AcDbEntity
  8
0
100
AcDbLine
 10
12.0
 20
68.0
 30
0.0
 11
12.5
 21
69.5
 31
0.0
  0
LINE
  5
45
330
1E
100
AcDbEntity
  8
0
100
AcDbLine
 10
12.5
 20
66.5
 30
0.0
 11
13.1
 21
66.5
 31
0.0
  0
LINE
  5
46
330
1E
100
AcDbEntity
  8
0
100
AcDbLine
 10
12.5
 20
66.5
 30
0.0
 11
13.5
 21
66.0
 31
0.0
  0
LINE
  5
47
330
1E
100
AcDbEntity
  8
0
100
AcDbLine
 10
13.5
 20
66.0
 30
0.0
 11
14.0
 21
64.5
 31
0.0
  0
LINE
  5
48
330
1E
100
AcDbEntity
  8
0
100
AcDbLine
 10
13.5
 20
66.0
 30
0.0
 11
14.1
 21
66.0
 31
0.0
  0
LINE
  5
49
330
1E
100
AcDbEntity
  8
0
100
AcDbLine
 10
14.0
 20
64.5
 30
0.0
 11
14.0
 21
18.0
 31
0.0
  0
LINE
  5
4A
330
1E
100
AcDbEntity
  8
0
100
AcDbLine
 10
14.0
 20
70.0
 30
0.0
 11
14.0
 21
115.5
 31
0.0
  0
LINE
  5
4B
330
1E
100
AcDbEntity
  8
0
100
AcDbLine
 10
14.0
 20
70.0
 30
0.0
 11
14.5
 21
70.0
 31
0.0
  0
LINE
  5
4C
330
1E
100
AcDbEntity
  8
0
100
AcDbLine
 10
5.896399999999999
 20
162.1929999999999
 30
0.0
 11
6.536167870491691
 21
162.2737197157539
 31
0.0
  0
LINE
  5
4D
330
1E
100
AcDbEntity
  8
0
100
AcDbLine
 10
5.33995900373801
 20
162.1688146073919
 30
0.0
 11
5.896399999999999
 21
162.1929999999999
 31
0.0
  0
LINE
  5
4E
330
1E
100
AcDbEntity
  8
0
100
AcDbLine
 10
4.1252
 20
162.092
 30
0.0
 11
6.022899999999999
 21
162.212
 31
0.0
  0
LINE
  5
4F
330
1E
100
AcDbEntity
  8
0
100
AcDbLine
 10
3.737118965516839
 20
162.191355368519
 30
0.0
 11
4.0098
 21
162.1109999999999
 31
0.0
  0
LINE
  5
51
330
1E
100
AcDbEntity
  8
0
100
AcDbLine
 10
2.6253
 20
162.476
 30
0.0
 11
4.1252
 21
162.092
 31
0.0
  0
LINE
  5
52
330
1E
100
AcDbEntity
  8
0
100
AcDbLine
 10
1.529199999999999
 20
163.187
 30
0.0
 11
2.6253
 21
162.476
 31
0.0
  0
LINE
  5
55
330
1E
100
AcDbEntity
  8
0
100
AcDbLine
 10
1.282360525835239
 20
163.477332755633
 30
0.0
 11
1.433
 21
163.283
 31
0.0
  0
LINE
  5
56
330
1E
100
AcDbEntity
  8
0
100
AcDbLine
 10
1.282360525835239
 20
163.477332755633
 30
0.0
 11
1.467416027550469
 21
163.2596703499749
 31
0.0
  0
LINE
  5
57
330
1E
100
AcDbEntity
  8
0
100
AcDbLine
 10
0.875400000000001
 20
163.9559999999999
 30
0.0
 11
1.529199999999999
 21
163.187
 31
0.0
  0
LINE
  5
58
330
1E
100
AcDbEntity
  8
0
100
AcDbLine
 10
0.356199999999999
 20
165.071
 30
0.0
 11
0.875400000000001
 21
163.9559999999999
 31
0.0
  0
LINE
  5
59
330
1E
100
AcDbEntity
  8
0
100
AcDbLine
 10
9.997999999999999
 20
162.69
 30
0.0
 11
13.5421
 21
163.217
 31
0.0
  0
LINE
  5
5A
330
1E
100
AcDbEntity
  8
0
100
AcDbLine
 10
6.022899999999999
 20
162.212
 30
0.0
 11
9.997999999999999
 21
162.69
 31
0.0
  0
LINE
  5
5D
330
1E
100
AcDbEntity
  8
0
100
AcDbLine
 10
9.997999999999999
 20
173.31
 30
0.0
 11
13.5421
 21
172.7829999999999
 31
0.0
  0
LINE
  5
5E
330
1E
100
AcDbEntity
  8
0
100
AcDbLine
 10
5.896399999999999
 20
173.807
 30
0.0
 11
6.536167870492169
 21
173.7262802842459
 31
0.0
  0
LINE
  5
5F
330
1E
100
AcDbEntity
  8
0
100
AcDbLine
 10
5.896399999999999
 20
173.807
 30
0.0
 11
6.536167870492169
 21
173.7262802842459
 31
0.0
  0
LINE
  5
60
330
1E
100
AcDbEntity
  8
0
100
AcDbLine
 10
6.022899999999999
 20
173.7879999999999
 30
0.0
 11
9.997999999999999
 21
173.31
 31
0.0
  0
LINE
  5
62
330
1E
100
AcDbEntity
  8
0
100
AcDbLine
 10
5.33995900373903
 20
173.831185392608
 30
0.0
 11
5.896399999999999
 21
173.807
 31
0.0
  0
LINE
  5
63
330
1E
100
AcDbEntity
  8
0
100
AcDbLine
 10
4.1252
 20
173.9079999999999
 30
0.0
 11
6.022899999999999
 21
173.7879999999999
 31
0.0
  0
LINE
  5
64
330
1E
100
AcDbEntity
  8
0
100
AcDbLine
 10
3.73711896551803
 20
173.808644631481
 30
0.0
 11
4.0098
 21
173.889
 31
0.0
  0
LINE
  5
65
330
1E
100
AcDbEntity
  8
0
100
AcDbLine
 10
2.6253
 20
173.524
 30
0.0
 11
4.1252
 21
173.9079999999999
 31
0.0
  0
LINE
  5
66
330
1E
100
AcDbEntity
  8
0
100
AcDbLine
 10
2.6253
 20
173.524
 30
0.0
 11
4.044237516461129
 21
173.887272222362
 31
0.0
  0
LINE
  5
67
330
1E
100
AcDbEntity
  8
0
100
AcDbLine
 10
1.529199999999999
 20
172.8129999999999
 30
0.0
 11
2.6253
 21
173.524
 31
0.0
  0
LINE
  5
68
330
1E
100
AcDbEntity
  8
0
100
AcDbLine
 10
1.28236052583512
 20
172.5226672443669
 30
0.0
 11
1.433
 21
172.717
 31
0.0
  0
LINE
  5
69
330
1E
100
AcDbEntity
  8
0
100
AcDbLine
 10
0.875400000000001
 20
172.044
 30
0.0
 11
1.529199999999999
 21
172.8129999999999
 31
0.0
  0
LINE
  5
6A
330
1E
100
AcDbEntity
  8
0
100
AcDbLine
 10
0.875400000000001
 20
172.044
 30
0.0
 11
1.46734513634905
 21
172.740246267746
 31
0.0
  0
LINE
  5
6B
330
1E
100
AcDbEntity
  8
0
100
AcDbLine
 10
0.356199999999999
 20
170.929
 30
0.0
 11
0.875400000000001
 21
172.044
 31
0.0
  0
LINE
  5
6C
330
1E
100
AcDbEntity
  8
0
100
AcDbLine
 10
0.0000000000000018
 20
168.0
 30
0.0
 11
0.356199999999999
 21
170.929
 31
0.0
  0
LINE
  5
6D
330
1E
100
AcDbEntity
  8
0
100
AcDbLine
 10
0.0000000000000018
 20
168.0
 30
0.0
 11
0.356199999999999
 21
165.071
 31
0.0
  0
LINE
  5
6E
330
1E
100
AcDbEntity
  8
0
100
AcDbLine
 10
12.5
 20
120.5
 30
0.0
 11
13.1
 21
120.5
 31
0.0
  0
LINE
  5
6F
330
1E
100
AcDbEntity
  8
0
100
AcDbLine
 10
12.5
 20
120.5
 30
0.0
 11
14.0
 21
121.0
 31
0.0
  0
LINE
  5
70
330
1E
100
AcDbEntity
  8
0
100
AcDbLine
 10
12.0
 20
119.0
 30
0.0
 11
12.5
 21
117.5
 31
0.0
  0
LINE
  5
72
330
1E
100
AcDbEntity
  8
0
100
AcDbLine
 10
12.0
 20
119.0
 30
0.0
 11
12.5
 21
120.5
 31
0.0
  0
LINE
  5
73
330
1E
100
AcDbEntity
  8
0
100
AcDbLine
 10
13.5421
 20
163.217
 30
0.0
 11
16.29599999999999
 21
163.552
 31
0.0
  0
LINE
  5
74
330
1E
100
AcDbEntity
  8
0
100
AcDbLine
 10
13.5421
 20
163.217
 30
0.0
 11
13.8618
 21
163.243
 31
0.0
  0
LINE
  5
75
330
1E
100
AcDbEntity
  8
0
100
AcDbLine
 10
13.8618
 20
163.243
 30
0.0
 11
14.6138050184552
 21
163.3473682708819
 31
0.0
  0
LINE
  5
76
330
1E
100
AcDbEntity
  8
0
100
AcDbLine
 10
13.5421
 20
172.7829999999999
 30
0.0
 11
16.29599999999999
 21
172.4479999999999
 31
0.0
  0
LINE
  5
77
330
1E
100
AcDbEntity
  8
0
100
AcDbLine
 10
13.5421
 20
172.7829999999999
 30
0.0
 11
13.8618
 21
172.757
 31
0.0
  0
LINE
  5
78
330
1E
100
AcDbEntity
  8
0
100
AcDbLine
 10
13.5
 20
127.0
 30
0.0
 11
13.5
 21
121.0
 31
0.0
  0
LINE
  5
79
330
1E
100
AcDbEntity
  8
0
100
AcDbLine
 10
13.5
 20
127.0
 30
0.0
 11
17.6585
 21
127.0
 31
0.0
  0
LINE
  5
7A
330
1E
100
AcDbEntity
  8
0
100
AcDbLine
 10
13.5
 20
121.0
 30
0.0
 11
13.5
 21
127.0
 31
0.0
  0
LINE
  5
7B
330
1E
100
AcDbEntity
  8
0
100
AcDbLine
 10
13.5
 20
121.0
 30
0.0
 11
14.0
 21
121.0
 31
0.0
  0
LINE
  5
7C
330
1E
100
AcDbEntity
  8
0
100
AcDbLine
 10
14.0
 20
121.0
 30
0.0
 11
14.5
 21
121.0
 31
0.0
  0
LINE
  5
7D
330
1E
100
AcDbEntity
  8
0
100
AcDbLine
 10
13.1
 20
120.5
 30
0.0
 11
14.69999999999999
 21
120.5
 31
0.0
  0
LINE
  5
7F
330
1E
100
AcDbEntity
  8
0
100
AcDbLine
 10
13.1
 20
117.5
 30
0.0
 11
14.69999999999999
 21
117.5
 31
0.0
  0
LINE
  5
80
330
1E
100
AcDbEntity
  8
0
100
AcDbLine
 10
12.5
 20
117.5
 30
0.0
 11
13.1
 21
117.5
 31
0.0
  0
LINE
  5
81
330
1E
100
AcDbEntity
  8
0
100
AcDbLine
 10
12.5
 20
117.5
 30
0.0
 11
13.5
 21
117.0
 31
0.0
  0
LINE
  5
82
330
1E
100
AcDbEntity
  8
0
100
AcDbLine
 10
13.5
 20
117.0
 30
0.0
 11
14.0
 21
115.5
 31
0.0
  0
LINE
  5
83
330
1E
100
AcDbEntity
  8
0
100
AcDbLine
 10
13.5
 20
117.0
 30
0.0
 11
14.1
 21
117.0
 31
0.0
  0
LINE
  5
84
330
1E
100
AcDbEntity
  8
0
100
AcDbLine
 10
15.6
 20
16.0
 30
0.0
 11
44.5
 21
16.0
 31
0.0
  0
LINE
  5
85
330
1E
100
AcDbEntity
  8
0
100
AcDbLine
 10
14.5
 20
70.0
 30
0.0
 11
29.0
 21
70.0
 31
0.0
  0
LINE
  5
86
330
1E
100
AcDbEntity
  8
0
100
AcDbLine
 10
14.69999999999999
 20
69.5
 30
0.0
 11
17.3
 21
69.5
 31
0.0
  0
LINE
  5
87
330
1E
100
AcDbEntity
  8
0
100
AcDbLine
 10
14.69999999999999
 20
66.5
 30
0.0
 11
17.3
 21
66.5
 31
0.0
  0
LINE
  5
88
330
1E
100
AcDbEntity
  8
0
100
AcDbLine
 10
15.6
 20
66.0
 30
0.0
 11
18.1
 21
66.0
 31
0.0
  0
LINE
  5
89
330
1E
100
AcDbEntity
  8
0
100
AcDbLine
 10
14.1
 20
66.0
 30
0.0
 11
15.6
 21
66.0
 31
0.0
  0
LINE
  5
8A
330
1E
100
AcDbEntity
  8
0
100
AcDbLine
 10
13.5
 20
16.0
 30
0.0
 11
15.6
 21
16.0
 31
0.0
  0
LINE
  5
8B
330
1E
100
AcDbEntity
  8
0
100
AcDbLine
 10
16.6
 20
-0.0000000000000027
 30
0.0
 11
22.6
 21
-0.0000000000000029
 31
0.0
  0
LINE
  5
8C
330
1E
100
AcDbEntity
  8
0
100
AcDbLine
 10
16.6
 20
-0.0000000000000001
 30
0.0
 11
22.6
 21
0.0000000000000001
 31
0.0
  0
LINE
  5
8E
330
1E
100
AcDbEntity
  8
0
100
AcDbLine
 10
17.3
 20
69.5
 30
0.0
 11
20.8
 21
69.5
 31
0.0
  0
LINE
  5
8F
330
1E
100
AcDbEntity
  8
0
100
AcDbLine
 10
20.8
 20
69.5
 30
0.0
 11
24.8
 21
69.5
 31
0.0
  0
LINE
  5
91
330
1E
100
AcDbEntity
  8
0
100
AcDbLine
 10
17.3
 20
66.5
 30
0.0
 11
20.8
 21
66.5
 31
0.0
  0
LINE
  5
92
330
1E
100
AcDbEntity
  8
0
100
AcDbLine
 10
20.8
 20
66.5
 30
0.0
 11
24.8
 21
66.5
 31
0.0
  0
LINE
  5
93
330
1E
100
AcDbEntity
  8
0
100
AcDbLine
 10
18.1
 20
66.0
 30
0.0
 11
21.3
 21
66.0
 31
0.0
  0
LINE
  5
94
330
1E
100
AcDbEntity
  8
0
100
AcDbLine
 10
21.3
 20
66.0
 30
0.0
 11
25.0
 21
66.0
 31
0.0
  0
LINE
  5
98
330
1E
100
AcDbEntity
  8
0
100
AcDbLine
 10
16.6
 20
-0.0000000000000001
 30
0.0
 11
22.6
 21
0.0000000000000001
 31
0.0
  0
LINE
  5
99
330
1E
100
AcDbEntity
  8
0
100
AcDbLine
 10
18.1
 20
117.0
 30
0.0
 11
21.3
 21
117.0
 31
0.0
  0
LINE
  5
9A
330
1E
100
AcDbEntity
  8
0
100
AcDbLine
 10
35.4
 20
-0.0000000000000029
 30
0.0
 11
41.39999999999999
 21
-0.0000000000000027
 31
0.0
  0
LINE
  5
9B
330
1E
100
AcDbEntity
  8
0
100
AcDbLine
 10
29.0
 20
-0.0000000000000029
 30
0.0
 11
35.4
 21
-0.0000000000000029
 31
0.0
  0
LINE
  5
9C
330
1E
100
AcDbEntity
  8
0
100
AcDbLine
 10
22.6
 20
-0.0000000000000029
 30
0.0
 11
29.0
 21
-0.0000000000000029
 31
0.0
  0
LINE
  5
9D
330
1E
100
AcDbEntity
  8
0
100
AcDbLine
 10
35.4
 20
0.0000000000000001
 30
0.0
 11
41.39999999999999
 21
-0.0000000000000001
 31
0.0
  0
LINE
  5
9E
330
1E
100
AcDbEntity
  8
0
100
AcDbLine
 10
35.4
 20
0.0000000000000001
 30
0.0
 11
41.39999999999999
 21
-0.0000000000000001
 31
0.0
  0
LINE
  5
A3
330
1E
100
AcDbEntity
  8
0
100
AcDbLine
 10
29.0
 20
0.0000000000000001
 30
0.0
 11
35.4
 21
0.0000000000000001
 31
0.0
  0
LINE
  5
A5
330
1E
100
AcDbEntity
  8
0
100
AcDbLine
 10
22.6
 20
0.0000000000000001
 30
0.0
 11
29.0
 21
0.0000000000000001
 31
0.0
  0
LINE
  5
A6
330
1E
100
AcDbEntity
  8
0
100
AcDbLine
 10
41.39999999999999
 20
-0.0000000000000027
 30
0.0
 11
46.6
 21
-0.0000000000000025
 31
0.0
  0
LINE
  5
A7
330
1E
100
AcDbEntity
  8
0
100
AcDbLine
 10
41.39999999999999
 20
-0.0000000000000001
 30
0.0
 11
46.6
 21
-0.0000000000000003
 31
0.0
  0
LINE
  5
A8
330
1E
100
AcDbEntity
  8
0
100
AcDbLine
 10
41.39999999999999
 20
-0.0000000000000001
 30
0.0
 11
46.6
 21
-0.0000000000000003
 31
0.0
  0
LINE
  5
AB
330
1E
100
AcDbEntity
  8
0
100
AcDbLine
 10
43.7
 20
15.0
 30
0.0
 11
45.4
 21
15.0
 31
0.0
  0
LINE
  5
AC
330
1E
100
AcDbEntity
  8
0
100
AcDbLine
 10
36.7
 20
66.0
 30
0.0
 11
39.9
 21
66.0
 31
0.0
  0
LINE
  5
AD
330
1E
100
AcDbEntity
  8
0
100
AcDbLine
 10
33.0
 20
66.0
 30
0.0
 11
36.7
 21
66.0
 31
0.0
  0
LINE
  5
AE
330
1E
100
AcDbEntity
  8
0
100
AcDbLine
 10
29.0
 20
66.0
 30
0.0
 11
33.0
 21
66.0
 31
0.0
  0
LINE
  5
AF
330
1E
100
AcDbEntity
  8
0
100
AcDbLine
 10
39.9
 20
66.0
 30
0.0
 11
42.4
 21
66.0
 31
0.0
  0
LINE
  5
B0
330
1E
100
AcDbEntity
  8
0
100
AcDbLine
 10
42.4
 20
66.0
 30
0.0
 11
43.89999999999999
 21
66.0
 31
0.0
  0
LINE
  5
B1
330
1E
100
AcDbEntity
  8
0
100
AcDbLine
 10
43.89999999999999
 20
66.0
 30
0.0
 11
44.5
 21
66.0
 31
0.0
  0
LINE
  5
B2
330
1E
100
AcDbEntity
  8
0
100
AcDbLine
 10
24.8
 20
69.5
 30
0.0
 11
29.0
 21
69.5
 31
0.0
  0
LINE
  5
B4
330
1E
100
AcDbEntity
  8
0
100
AcDbLine
 10
37.2
 20
66.5
 30
0.0
 11
40.7
 21
66.5
 31
0.0
  0
LINE
  5
B5
330
1E
100
AcDbEntity
  8
0
100
AcDbLine
 10
33.2
 20
66.5
 30
0.0
 11
37.2
 21
66.5
 31
0.0
  0
LINE
  5
B6
330
1E
100
AcDbEntity
  8
0
100
AcDbLine
 10
29.0
 20
66.5
 30
0.0
 11
33.2
 21
66.5
 31
0.0
  0
LINE
  5
B7
330
1E
100
AcDbEntity
  8
0
100
AcDbLine
 10
40.7
 20
66.5
 30
0.0
 11
43.3
 21
66.5
 31
0.0
  0
LINE
  5
B9
330
1E
100
AcDbEntity
  8
0
100
AcDbLine
 10
37.2
 20
69.5
 30
0.0
 11
40.7
 21
69.5
 31
0.0
  0
LINE
  5
BA
330
1E
100
AcDbEntity
  8
0
100
AcDbLine
 10
33.2
 20
69.5
 30
0.0
 11
37.2
 21
69.5
 31
0.0
  0
LINE
  5
BB
330
1E
100
AcDbEntity
  8
0
100
AcDbLine
 10
29.0
 20
69.5
 30
0.0
 11
33.2
 21
69.5
 31
0.0
  0
LINE
  5
BD
330
1E
100
AcDbEntity
  8
0
100
AcDbLine
 10
40.7
 20
69.5
 30
0.0
 11
43.3
 21
69.5
 31
0.0
  0
LINE
  5
BE
330
1E
100
AcDbEntity
  8
0
100
AcDbLine
 10
36.5
 20
70.0
 30
0.0
 11
39.6
 21
70.0
 31
0.0
  0
LINE
  5
BF
330
1E
100
AcDbEntity
  8
0
100
AcDbLine
 10
32.9
 20
70.0
 30
0.0
 11
36.5
 21
70.0
 31
0.0
  0
LINE
  5
C0
330
1E
100
AcDbEntity
  8
0
100
AcDbLine
 10
29.0
 20
70.0
 30
0.0
 11
32.9
 21
70.0
 31
0.0
  0
LINE
  5
C1
330
1E
100
AcDbEntity
  8
0
100
AcDbLine
 10
39.6
 20
70.0
 30
0.0
 11
42.0
 21
70.0
 31
0.0
  0
LINE
  5
C2
330
1E
100
AcDbEntity
  8
0
100
AcDbLine
 10
42.0
 20
70.0
 30
0.0
 11
43.5
 21
70.0
 31
0.0
  0
LINE
  5
C3
330
1E
100
AcDbEntity
  8
0
100
AcDbLine
 10
43.5
 20
70.0
 30
0.0
 11
44.0
 21
70.0
 31
0.0
  0
LINE
  5
C4
330
1E
100
AcDbEntity
  8
0
100
AcDbLine
 10
43.3
 20
69.5
 30
0.0
 11
44.9
 21
69.5
 31
0.0
  0
LINE
  5
C6
330
1E
100
AcDbEntity
  8
0
100
AcDbLine
 10
43.3
 20
66.5
 30
0.0
 11
44.9
 21
66.5
 31
0.0
  0
LINE
  5
C7
330
1E
100
AcDbEntity
  8
0
100
AcDbLine
 10
24.8
 20
66.5
 30
0.0
 11
29.0
 21
66.5
 31
0.0
  0
LINE
  5
C8
330
1E
100
AcDbEntity
  8
0
100
AcDbLine
 10
25.0
 20
66.0
 30
0.0
 11
29.0
 21
66.0
 31
0.0
  0
LINE
  5
C9
330
1E
100
AcDbEntity
  8
0
100
AcDbLine
 10
44.0
 20
64.5
 30
0.0
 11
44.0
 21
18.0
 31
0.0
  0
LINE
  5
CA
330
1E
100
AcDbEntity
  8
0
100
AcDbLine
 10
44.0
 20
64.5
 30
0.0
 11
44.5
 21
66.0
 31
0.0
  0
LINE
  5
CB
330
1E
100
AcDbEntity
  8
0
100
AcDbLine
 10
44.0
 20
18.0
 30
0.0
 11
44.5
 21
16.0
 31
0.0
  0
LINE
  5
CC
330
1E
100
AcDbEntity
  8
0
100
AcDbLine
 10
44.0
 20
18.0
 30
0.0
 11
44.0
 21
64.5
 31
0.0
  0
LINE
  5
CD
330
1E
100
AcDbEntity
  8
0
100
AcDbLine
 10
44.0
 20
75.4504773075231
 30
0.0
 11
44.0
 21
70.0
 31
0.0
  0
LINE
  5
CE
330
1E
100
AcDbEntity
  8
0
100
AcDbLine
 10
44.0
 20
75.4504773075231
 30
0.0
 11
45.8352
 21
78.40019999999999
 31
0.0
  0
LINE
  5
CF
330
1E
100
AcDbEntity
  8
0
100
AcDbLine
 10
44.0
 20
108.549399736032
 30
0.0
 11
44.0
 21
115.5
 31
0.0
  0
LINE
  5
D0
330
1E
100
AcDbEntity
  8
0
100
AcDbLine
 10
44.0
 20
108.549399736032
 30
0.0
 11
45.8352
 21
105.6
 31
0.0
  0
LINE
  5
D1
330
1E
100
AcDbEntity
  8
0
100
AcDbLine
 10
46.6
 20
-0.0000000000000025
 30
0.0
 11
50.7
 21
-0.0000000000000021
 31
0.0
  0
LINE
  5
D2
330
1E
100
AcDbEntity
  8
0
100
AcDbLine
 10
46.6
 20
-0.0000000000000003
 30
0.0
 11
50.7
 21
-0.0000000000000006
 31
0.0
  0
LINE
  5
D3
330
1E
100
AcDbEntity
  8
0
100
AcDbLine
 10
50.7
 20
-0.0000000000000006
 30
0.0
 11
53.1
 21
-0.000000000000001
 31
0.0
  0
LINE
  5
D4
330
1E
100
AcDbEntity
  8
0
100
AcDbLine
 10
45.4
 20
15.0
 30
0.0
 11
46.0
 21
15.0
 31
0.0
  0
LINE
  5
D5
330
1E
100
AcDbEntity
  8
0
100
AcDbLine
 10
44.5
 20
66.0
 30
0.0
 11
45.49999999999999
 21
66.5
 31
0.0
  0
LINE
  5
D6
330
1E
100
AcDbEntity
  8
0
100
AcDbLine
 10
45.49999999999999
 20
66.5
 30
0.0
 11
46.0
 21
68.0
 31
0.0
  0
LINE
  5
D9
330
1E
100
AcDbEntity
  8
0
100
AcDbLine
 10
44.9
 20
69.5
 30
0.0
 11
45.49999999999999
 21
69.5
 31
0.0
  0
LINE
  5
DC
330
1E
100
AcDbEntity
  8
0
100
AcDbLine
 10
45.49999999999999
 20
69.5
 30
0.0
 11
46.0
 21
68.0
 31
0.0
  0
LINE
  5
DE
330
1E
100
AcDbEntity
  8
0
100
AcDbLine
 10
44.9
 20
66.5
 30
0.0
 11
45.49999999999999
 21
66.5
 31
0.0
  0
LINE
  5
DF
330
1E
100
AcDbEntity
  8
0
100
AcDbLine
 10
44.5
 20
16.0
 30
0.0
 11
45.0
 21
15.5
 31
0.0
  0
LINE
  5
E0
330
1E
100
AcDbEntity
  8
0
100
AcDbLine
 10
45.0
 20
15.5
 30
0.0
 11
46.0
 21
15.0
 31
0.0
  0
LINE
  5
E1
330
1E
100
AcDbEntity
  8
0
100
AcDbLine
 10
46.5
 20
13.5
 30
0.0
 11
46.5
 21
14.0
 31
0.0
  0
LINE
  5
E2
330
1E
100
AcDbEntity
  8
0
100
AcDbLine
 10
45.8352
 20
78.40019999999999
 30
0.0
 11
48.5
 21
79.0
 31
0.0
  0
LINE
  5
E3
330
1E
100
AcDbEntity
  8
0
100
AcDbLine
 10
45.8352
 20
105.6
 30
0.0
 11
48.5
 21
105.0
 31
0.0
  0
LINE
  5
E4
330
1E
100
AcDbEntity
  8
0
100
AcDbLine
 10
46.0
 20
15.0
 30
0.0
 11
46.5
 21
14.0
 31
0.0
  0
LINE
  5
E5
330
1E
100
AcDbEntity
  8
0
100
AcDbLine
 10
46.5
 20
14.0
 30
0.0
 11
46.5
 21
13.5
 31
0.0
  0
LINE
  5
E6
330
1E
100
AcDbEntity
  8
0
100
AcDbLine
 10
46.0
 20
12.5
 30
0.0
 11
46.5
 21
13.5
 31
0.0
  0
LINE
  5
E7
330
1E
100
AcDbEntity
  8
0
100
AcDbLine
 10
45.8
 20
11.4
 30
0.0
 11
46.0
 21
10.0
 31
0.0
  0
LINE
  5
E8
330
1E
100
AcDbEntity
  8
0
100
AcDbLine
 10
45.8
 20
11.4
 30
0.0
 11
46.0
 21
12.5
 31
0.0
  0
LINE
  5
E9
330
1E
100
AcDbEntity
  8
0
100
AcDbLine
 10
46.0
 20
10.0
 30
0.0
 11
47.0
 21
7.0
 31
0.0
  0
LINE
  5
EA
330
1E
100
AcDbEntity
  8
0
100
AcDbLine
 10
48.5
 20
82.79999999999999
 30
0.0
 11
48.5
 21
80.7
 31
0.0
  0
LINE
  5
EB
330
1E
100
AcDbEntity
  8
0
100
AcDbLine
 10
48.5
 20
82.79999999999999
 30
0.0
 11
48.5
 21
85.5
 31
0.0
  0
LINE
  5
EC
330
1E
100
AcDbEntity
  8
0
100
AcDbLine
 10
48.5
 20
80.7
 30
0.0
 11
48.5
 21
79.5
 31
0.0
  0
LINE
  5
ED
330
1E
100
AcDbEntity
  8
0
100
AcDbLine
 10
48.5
 20
80.7
 30
0.0
 11
48.5
 21
82.79999999999999
 31
0.0
  0
LINE
  5
EE
330
1E
100
AcDbEntity
  8
0
100
AcDbLine
 10
48.5
 20
79.5
 30
0.0
 11
48.5
 21
79.0
 31
0.0
  0
LINE
  5
EF
330
1E
100
AcDbEntity
  8
0
100
AcDbLine
 10
48.5
 20
79.5
 30
0.0
 11
48.5
 21
80.7
 31
0.0
  0
LINE
  5
F0
330
1E
100
AcDbEntity
  8
0
100
AcDbLine
 10
48.5
 20
79.0
 30
0.0
 11
49.0
 21
77.5
 31
0.0
  0
LINE
  5
F1
330
1E
100
AcDbEntity
  8
0
100
AcDbLine
 10
48.5
 20
79.0
 30
0.0
 11
48.5
 21
79.5
 31
0.0
  0
LINE
  5
F2
330
1E
100
AcDbEntity
  8
0
100
AcDbLine
 10
48.5
 20
85.5
 30
0.0
 11
48.5
 21
82.79999999999999
 31
0.0
  0
LINE
  5
F3
330
1E
100
AcDbEntity
  8
0
100
AcDbLine
 10
48.5
 20
85.5
 30
0.0
 11
48.5
 21
88.7
 31
0.0
  0
LINE
  5
F4
330
1E
100
AcDbEntity
  8
0
100
AcDbLine
 10
48.5
 20
88.7
 30
0.0
 11
48.5
 21
85.5
 31
0.0
  0
LINE
  5
F5
330
1E
100
AcDbEntity
  8
0
100
AcDbLine
 10
48.5
 20
88.7
 30
0.0
 11
48.5
 21
92.0
 31
0.0
  0
LINE
  5
F6
330
1E
100
AcDbEntity
  8
0
100
AcDbLine
 10
48.5
 20
92.0
 30
0.0
 11
48.5
 21
88.7
 31
0.0
  0
LINE
  5
F7
330
1E
100
AcDbEntity
  8
0
100
AcDbLine
 10
48.5
 20
92.0
 30
0.0
 11
48.5
 21
95.29999999999999
 31
0.0
  0
LINE
  5
F8
330
1E
100
AcDbEntity
  8
0
100
AcDbLine
 10
48.5
 20
101.2
 30
0.0
 11
48.5
 21
98.50000000000001
 31
0.0
  0
LINE
  5
F9
330
1E
100
AcDbEntity
  8
0
100
AcDbLine
 10
48.5
 20
101.2
 30
0.0
 11
48.5
 21
103.2999999999999
 31
0.0
  0
LINE
  5
FA
330
1E
100
AcDbEntity
  8
0
100
AcDbLine
 10
48.5
 20
98.50000000000001
 30
0.0
 11
48.5
 21
95.29999999999999
 31
0.0
  0
LINE
  5
FB
330
1E
100
AcDbEntity
  8
0
100
AcDbLine
 10
48.5
 20
98.50000000000001
 30
0.0
 11
48.5
 21
101.2
 31
0.0
  0
LINE
  5
FC
330
1E
100
AcDbEntity
  8
0
100
AcDbLine
 10
48.5
 20
95.29999999999999
 30
0.0
 11
48.5
 21
92.0
 31
0.0
  0
LINE
  5
FD
330
1E
100
AcDbEntity
  8
0
100
AcDbLine
 10
48.5
 20
95.29999999999999
 30
0.0
 11
48.5
 21
98.50000000000001
 31
0.0
  0
LINE
  5
FE
330
1E
100
AcDbEntity
  8
0
100
AcDbLine
 10
48.5
 20
103.2999999999999
 30
0.0
 11
48.5
 21
101.2
 31
0.0
  0
LINE
  5
FF
330
1E
100
AcDbEntity
  8
0
100
AcDbLine
 10
48.5
 20
103.2999999999999
 30
0.0
 11
48.5
 21
104.4999999999999
 31
0.0
  0
LINE
  5
100
330
1E
100
AcDbEntity
  8
0
100
AcDbLine
 10
49.0
 20
79.40000000000001
 30
0.0
 11
49.0
 21
81.79999999999999
 31
0.0
  0
LINE
  5
101
330
1E
100
AcDbEntity
  8
0
100
AcDbLine
 10
49.0
 20
79.40000000000001
 30
0.0
 11
49.0
 21
78.0
 31
0.0
  0
LINE
  5
102
330
1E
100
AcDbEntity
  8
0
100
AcDbLine
 10
49.0
 20
78.0
 30
0.0
 11
49.0
 21
79.40000000000001
 31
0.0
  0
LINE
  5
103
330
1E
100
AcDbEntity
  8
0
100
AcDbLine
 10
49.0
 20
78.0
 30
0.0
 11
49.0
 21
77.5
 31
0.0
  0
LINE
  5
104
330
1E
100
AcDbEntity
  8
0
100
AcDbLine
 10
49.0
 20
77.5
 30
0.0
 11
49.0
 21
78.0
 31
0.0
  0
LINE
  5
105
330
1E
100
AcDbEntity
  8
0
100
AcDbLine
 10
49.0
 20
77.5
 30
0.0
 11
50.5
 21
77.0
 31
0.0
  0
LINE
  5
106
330
1E
100
AcDbEntity
  8
0
100
AcDbLine
 10
49.0
 20
81.79999999999999
 30
0.0
 11
49.0
 21
84.8
 31
0.0
  0
LINE
  5
107
330
1E
100
AcDbEntity
  8
0
100
AcDbLine
 10
49.0
 20
81.79999999999999
 30
0.0
 11
49.0
 21
79.40000000000001
 31
0.0
  0
LINE
  5
108
330
1E
100
AcDbEntity
  8
0
100
AcDbLine
 10
49.0
 20
84.8
 30
0.0
 11
49.0
 21
88.3
 31
0.0
  0
LINE
  5
109
330
1E
100
AcDbEntity
  8
0
100
AcDbLine
 10
49.0
 20
84.8
 30
0.0
 11
49.0
 21
81.79999999999999
 31
0.0
  0
LINE
  5
10A
330
1E
100
AcDbEntity
  8
0
100
AcDbLine
 10
49.0
 20
88.3
 30
0.0
 11
49.0
 21
92.0
 31
0.0
  0
LINE
  5
10B
330
1E
100
AcDbEntity
  8
0
100
AcDbLine
 10
49.0
 20
88.3
 30
0.0
 11
49.0
 21
84.8
 31
0.0
  0
LINE
  5
10C
330
1E
100
AcDbEntity
  8
0
100
AcDbLine
 10
49.0
 20
99.20000000000001
 30
0.0
 11
49.0
 21
102.2
 31
0.0
  0
LINE
  5
10D
330
1E
100
AcDbEntity
  8
0
100
AcDbLine
 10
49.0
 20
99.20000000000001
 30
0.0
 11
49.0
 21
95.7
 31
0.0
  0
LINE
  5
10E
330
1E
100
AcDbEntity
  8
0
100
AcDbLine
 10
49.0
 20
95.7
 30
0.0
 11
49.0
 21
99.20000000000001
 31
0.0
  0
LINE
  5
10F
330
1E
100
AcDbEntity
  8
0
100
AcDbLine
 10
49.0
 20
95.7
 30
0.0
 11
49.0
 21
92.0
 31
0.0
  0
LINE
  5
110
330
1E
100
AcDbEntity
  8
0
100
AcDbLine
 10
49.0
 20
92.0
 30
0.0
 11
49.0
 21
95.7
 31
0.0
  0
LINE
  5
111
330
1E
100
AcDbEntity
  8
0
100
AcDbLine
 10
49.0
 20
92.0
 30
0.0
 11
49.0
 21
88.3
 31
0.0
  0
LINE
  5
117
330
1E
100
AcDbEntity
  8
0
100
AcDbLine
 10
50.5
 20
77.0
 30
0.0
 11
52.0
 21
77.5
 31
0.0
  0
LINE
  5
11A
330
1E
100
AcDbEntity
  8
0
100
AcDbLine
 10
52.0
 20
79.40000000000001
 30
0.0
 11
52.0
 21
81.79999999999999
 31
0.0
  0
LINE
  5
11B
330
1E
100
AcDbEntity
  8
0
100
AcDbLine
 10
52.0
 20
79.40000000000001
 30
0.0
 11
52.0
 21
78.0
 31
0.0
  0
LINE
  5
11C
330
1E
100
AcDbEntity
  8
0
100
AcDbLine
 10
52.0
 20
78.0
 30
0.0
 11
52.0
 21
79.40000000000001
 31
0.0
  0
LINE
  5
11D
330
1E
100
AcDbEntity
  8
0
100
AcDbLine
 10
52.0
 20
78.0
 30
0.0
 11
52.0
 21
77.5
 31
0.0
  0
LINE
  5
11E
330
1E
100
AcDbEntity
  8
0
100
AcDbLine
 10
52.0
 20
77.5
 30
0.0
 11
52.0
 21
78.0
 31
0.0
  0
LINE
  5
11F
330
1E
100
AcDbEntity
  8
0
100
AcDbLine
 10
52.0
 20
77.5
 30
0.0
 11
52.5
 21
78.5
 31
0.0
  0
LINE
  5
120
330
1E
100
AcDbEntity
  8
0
100
AcDbLine
 10
52.0
 20
81.79999999999999
 30
0.0
 11
52.0
 21
84.8
 31
0.0
  0
LINE
  5
121
330
1E
100
AcDbEntity
  8
0
100
AcDbLine
 10
52.0
 20
81.79999999999999
 30
0.0
 11
52.0
 21
79.40000000000001
 31
0.0
  0
LINE
  5
122
330
1E
100
AcDbEntity
  8
0
100
AcDbLine
 10
52.0
 20
84.8
 30
0.0
 11
52.0
 21
88.3
 31
0.0
  0
LINE
  5
123
330
1E
100
AcDbEntity
  8
0
100
AcDbLine
 10
52.0
 20
84.8
 30
0.0
 11
52.0
 21
81.79999999999999
 31
0.0
  0
LINE
  5
126
330
1E
100
AcDbEntity
  8
0
100
AcDbLine
 10
52.0
 20
88.3
 30
0.0
 11
52.0
 21
92.0
 31
0.0
  0
LINE
  5
127
330
1E
100
AcDbEntity
  8
0
100
AcDbLine
 10
52.0
 20
88.3
 30
0.0
 11
52.0
 21
84.8
 31
0.0
  0
LINE
  5
12A
330
1E
100
AcDbEntity
  8
0
100
AcDbLine
 10
52.0
 20
92.0
 30
0.0
 11
52.0
 21
95.7
 31
0.0
  0
LINE
  5
12B
330
1E
100
AcDbEntity
  8
0
100
AcDbLine
 10
52.0
 20
92.0
 30
0.0
 11
52.0
 21
88.3
 31
0.0
  0
LINE
  5
12E
330
1E
100
AcDbEntity
  8
0
100
AcDbLine
 10
52.0
 20
99.20000000000001
 30
0.0
 11
52.0
 21
102.2
 31
0.0
  0
LINE
  5
12F
330
1E
100
AcDbEntity
  8
0
100
AcDbLine
 10
52.0
 20
99.20000000000001
 30
0.0
 11
52.0
 21
95.7
 31
0.0
  0
LINE
  5
130
330
1E
100
AcDbEntity
  8
0
100
AcDbLine
 10
52.0
 20
95.7
 30
0.0
 11
52.0
 21
99.20000000000001
 31
0.0
  0
LINE
  5
131
330
1E
100
AcDbEntity
  8
0
100
AcDbLine
 10
52.0
 20
95.7
 30
0.0
 11
52.0
 21
92.0
 31
0.0
  0
LINE
  5
136
330
1E
100
AcDbEntity
  8
0
100
AcDbLine
 10
52.5
 20
80.29999999999999
 30
0.0
 11
52.5
 21
82.5
 31
0.0
  0
LINE
  5
137
330
1E
100
AcDbEntity
  8
0
100
AcDbLine
 10
52.5
 20
80.29999999999999
 30
0.0
 11
52.5
 21
79.0
 31
0.0
  0
LINE
  5
138
330
1E
100
AcDbEntity
  8
0
100
AcDbLine
 10
52.5
 20
79.0
 30
0.0
 11
52.5
 21
80.29999999999999
 31
0.0
  0
LINE
  5
139
330
1E
100
AcDbEntity
  8
0
100
AcDbLine
 10
52.5
 20
79.0
 30
0.0
 11
52.5
 21
78.5
 31
0.0
  0
LINE
  5
13A
330
1E
100
AcDbEntity
  8
0
100
AcDbLine
 10
52.5
 20
78.5
 30
0.0
 11
52.5
 21
79.0
 31
0.0
  0
LINE
  5
13B
330
1E
100
AcDbEntity
  8
0
100
AcDbLine
 10
52.5
 20
78.5
 30
0.0
 11
53.5
 21
79.0
 31
0.0
  0
LINE
  5
13C
330
1E
100
AcDbEntity
  8
0
100
AcDbLine
 10
52.5
 20
82.5
 30
0.0
 11
52.5
 21
85.29999999999999
 31
0.0
  0
LINE
  5
13D
330
1E
100
AcDbEntity
  8
0
100
AcDbLine
 10
52.5
 20
82.5
 30
0.0
 11
52.5
 21
80.29999999999999
 31
0.0
  0
LINE
  5
13E
330
1E
100
AcDbEntity
  8
0
100
AcDbLine
 10
52.5
 20
85.29999999999999
 30
0.0
 11
52.5
 21
88.49999999999999
 31
0.0
  0
LINE
  5
13F
330
1E
100
AcDbEntity
  8
0
100
AcDbLine
 10
52.5
 20
85.29999999999999
 30
0.0
 11
52.5
 21
82.5
 31
0.0
  0
LINE
  5
140
330
1E
100
AcDbEntity
  8
0
100
AcDbLine
 10
52.5
 20
88.49999999999999
 30
0.0
 11
52.5
 21
92.0
 31
0.0
  0
LINE
  5
141
330
1E
100
AcDbEntity
  8
0
100
AcDbLine
 10
52.5
 20
88.49999999999999
 30
0.0
 11
52.5
 21
85.29999999999999
 31
0.0
  0
LINE
  5
142
330
1E
100
AcDbEntity
  8
0
100
AcDbLine
 10
52.5
 20
98.7
 30
0.0
 11
52.5
 21
101.5
 31
0.0
  0
LINE
  5
143
330
1E
100
AcDbEntity
  8
0
100
AcDbLine
 10
52.5
 20
98.7
 30
0.0
 11
52.5
 21
95.5
 31
0.0
  0
LINE
  5
144
330
1E
100
AcDbEntity
  8
0
100
AcDbLine
 10
52.5
 20
95.5
 30
0.0
 11
52.5
 21
98.7
 31
0.0
  0
LINE
  5
145
330
1E
100
AcDbEntity
  8
0
100
AcDbLine
 10
52.5
 20
95.5
 30
0.0
 11
52.5
 21
92.0
 31
0.0
  0
LINE
  5
146
330
1E
100
AcDbEntity
  8
0
100
AcDbLine
 10
52.5
 20
92.0
 30
0.0
 11
52.5
 21
95.5
 31
0.0
  0
LINE
  5
147
330
1E
100
AcDbEntity
  8
0
100
AcDbLine
 10
52.5
 20
92.0
 30
0.0
 11
52.5
 21
88.49999999999999
 31
0.0
  0
LINE
  5
148
330
1E
100
AcDbEntity
  8
0
100
AcDbLine
 10
52.5
 20
101.5
 30
0.0
 11
52.5
 21
103.7
 31
0.0
  0
LINE
  5
149
330
1E
100
AcDbEntity
  8
0
100
AcDbLine
 10
52.5
 20
101.5
 30
0.0
 11
52.5
 21
98.7
 31
0.0
  0
LINE
  5
14A
330
1E
100
AcDbEntity
  8
0
100
AcDbLine
 10
52.0
 20
102.2
 30
0.0
 11
52.0
 21
104.6
 31
0.0
  0
LINE
  5
14B
330
1E
100
AcDbEntity
  8
0
100
AcDbLine
 10
52.0
 20
102.2
 30
0.0
 11
52.0
 21
99.20000000000001
 31
0.0
  0
LINE
  5
14C
330
1E
100
AcDbEntity
  8
0
100
AcDbLine
 10
52.5
 20
103.7
 30
0.0
 11
52.5
 21
105.0
 31
0.0
  0
LINE
  5
14D
330
1E
100
AcDbEntity
  8
0
100
AcDbLine
 10
52.5
 20
103.7
 30
0.0
 11
52.5
 21
101.5
 31
0.0
  0
LINE
  5
14E
330
1E
100
AcDbEntity
  8
0
100
AcDbLine
 10
52.0
 20
104.6
 30
0.0
 11
52.0
 21
106.0
 31
0.0
  0
LINE
  5
14F
330
1E
100
AcDbEntity
  8
0
100
AcDbLine
 10
52.0
 20
104.6
 30
0.0
 11
52.0
 21
102.2
 31
0.0
  0
LINE
  5
152
330
1E
100
AcDbEntity
  8
0
100
AcDbLine
 10
49.0
 20
102.2
 30
0.0
 11
49.0
 21
104.6
 31
0.0
  0
LINE
  5
153
330
1E
100
AcDbEntity
  8
0
100
AcDbLine
 10
49.0
 20
102.2
 30
0.0
 11
49.0
 21
99.20000000000001
 31
0.0
  0
LINE
  5
154
330
1E
100
AcDbEntity
  8
0
100
AcDbLine
 10
52.5
 20
105.0
 30
0.0
 11
52.5
 21
105.4999999999999
 31
0.0
  0
LINE
  5
155
330
1E
100
AcDbEntity
  8
0
100
AcDbLine
 10
52.5
 20
105.0
 30
0.0
 11
52.5
 21
103.7
 31
0.0
  0
LINE
  5
158
330
1E
100
AcDbEntity
  8
0
100
AcDbLine
 10
49.0
 20
104.6
 30
0.0
 11
49.0
 21
106.0
 31
0.0
  0
LINE
  5
159
330
1E
100
AcDbEntity
  8
0
100
AcDbLine
 10
49.0
 20
104.6
 30
0.0
 11
49.0
 21
102.2
 31
0.0
  0
LINE
  5
15A
330
1E
100
AcDbEntity
  8
0
100
AcDbLine
 10
48.5
 20
104.4999999999999
 30
0.0
 11
48.5
 21
103.2999999999999
 31
0.0
  0
LINE
  5
15B
330
1E
100
AcDbEntity
  8
0
100
AcDbLine
 10
48.5
 20
104.4999999999999
 30
0.0
 11
48.5
 21
105.0
 31
0.0
  0
LINE
  5
15C
330
1E
100
AcDbEntity
  8
0
100
AcDbLine
 10
49.0
 20
106.4999999999999
 30
0.0
 11
49.0
 21
106.0
 31
0.0
  0
LINE
  5
15D
330
1E
100
AcDbEntity
  8
0
100
AcDbLine
 10
49.0
 20
106.4999999999999
 30
0.0
 11
50.5
 21
107.0
 31
0.0
  0
LINE
  5
15E
330
1E
100
AcDbEntity
  8
0
100
AcDbLine
 10
52.0
 20
106.4999999999999
 30
0.0
 11
52.0
 21
106.0
 31
0.0
  0
LINE
  5
15F
330
1E
100
AcDbEntity
  8
0
100
AcDbLine
 10
52.0
 20
106.4999999999999
 30
0.0
 11
52.5
 21
105.4999999999999
 31
0.0
  0
LINE
  5
160
330
1E
100
AcDbEntity
  8
0
100
AcDbLine
 10
52.5
 20
105.4999999999999
 30
0.0
 11
52.5
 21
105.0
 31
0.0
  0
LINE
  5
161
330
1E
100
AcDbEntity
  8
0
100
AcDbLine
 10
52.5
 20
105.4999999999999
 30
0.0
 11
53.5
 21
105.0
 31
0.0
  0
LINE
  5
162
330
1E
100
AcDbEntity
  8
0
100
AcDbLine
 10
52.0
 20
106.0
 30
0.0
 11
52.0
 21
106.4999999999999
 31
0.0
  0
LINE
  5
163
330
1E
100
AcDbEntity
  8
0
100
AcDbLine
 10
52.0
 20
106.0
 30
0.0
 11
52.0
 21
104.6
 31
0.0
  0
LINE
  5
165
330
1E
100
AcDbEntity
  8
0
100
AcDbLine
 10
50.5
 20
107.0
 30
0.0
 11
52.0
 21
106.4999999999999
 31
0.0
  0
LINE
  5
168
330
1E
100
AcDbEntity
  8
0
100
AcDbLine
 10
49.0
 20
106.0
 30
0.0
 11
49.0
 21
106.4999999999999
 31
0.0
  0
LINE
  5
169
330
1E
100
AcDbEntity
  8
0
100
AcDbLine
 10
49.0
 20
106.0
 30
0.0
 11
49.0
 21
104.6
 31
0.0
  0
LINE
  5
16A
330
1E
100
AcDbEntity
  8
0
100
AcDbLine
 10
48.5
 20
105.0
 30
0.0
 11
48.5
 21
104.4999999999999
 31
0.0
  0
LINE
  5
16B
330
1E
100
AcDbEntity
  8
0
100
AcDbLine
 10
48.5
 20
105.0
 30
0.0
 11
49.0
 21
106.4999999999999
 31
0.0
  0
LINE
  5
16C
330
1E
100
AcDbEntity
  8
0
100
AcDbLine
 10
47.0
 20
7.0
 30
0.0
 11
49.0
 21
4.0
 31
0.0
  0
LINE
  5
16D
330
1E
100
AcDbEntity
  8
0
100
AcDbLine
 10
49.0
 20
4.0
 30
0.0
 11
52.5
 21
2.5
 31
0.0
  0
LINE
  5
16E
330
1E
100
AcDbEntity
  8
0
100
AcDbLine
 10
53.1
 20
-0.000000000000001
 30
0.0
 11
54.0
 21
-0.0000000000000014
 31
0.0
  0
LINE
  5
16F
330
1E
100
AcDbEntity
  8
0
100
AcDbLine
 10
52.5
 20
2.5
 30
0.0
 11
53.5
 21
1.5
 31
0.0
  0
LINE
  5
170
330
1E
100
AcDbEntity
  8
0
100
AcDbLine
 10
50.7
 20
-0.0000000000000021
 30
0.0
 11
53.1
 21
-0.0000000000000018
 31
0.0
  0
LINE
  5
171
330
1E
100
AcDbEntity
  8
0
100
AcDbLine
 10
106.0
 20
-0.0000000000000015
 30
0.0
 11
106.4999999999999
 21
1.5
 31
0.0
  0
LINE
  5
172
330
1E
100
AcDbEntity
  8
0
100
AcDbLine
 10
109.0999999999999
 20
-0.0000000000000021
 30
0.0
 11
112.7999999999999
 21
-0.0000000000000024
 31
0.0
  0
LINE
  5
173
330
1E
100
AcDbEntity
  8
0
100
AcDbLine
 10
106.8
 20
-0.0000000000000018
 30
0.0
 11
109.0999999999999
 21
-0.0000000000000021
 31
0.0
  0
LINE
  5
174
330
1E
100
AcDbEntity
  8
0
100
AcDbLine
 10
112.7999999999999
 20
-0.0000000000000024
 30
0.0
 11
117.5999999999999
 21
-0.0000000000000026
 31
0.0
  0
LINE
  5
175
330
1E
100
AcDbEntity
  8
0
100
AcDbLine
 10
117.5999999999999
 20
-0.0000000000000026
 30
0.0
 11
123.0999999999999
 21
-0.0000000000000027
 31
0.0
  0
LINE
  5
176
330
1E
100
AcDbEntity
  8
0
100
AcDbLine
 10
123.0999999999999
 20
-0.0000000000000027
 30
0.0
 11
129.0
 21
-0.0000000000000028
 31
0.0
  0
LINE
  5
177
330
1E
100
AcDbEntity
  8
0
100
AcDbLine
 10
134.8999999999999
 20
-0.0000000000000027
 30
0.0
 11
140.4
 21
-0.0000000000000026
 31
0.0
  0
LINE
  5
178
330
1E
100
AcDbEntity
  8
0
100
AcDbLine
 10
129.0
 20
-0.0000000000000028
 30
0.0
 11
134.8999999999999
 21
-0.0000000000000027
 31
0.0
  0
LINE
  5
179
330
1E
100
AcDbEntity
  8
0
100
AcDbLine
 10
106.4999999999999
 20
1.5
 30
0.0
 11
107.4999999999999
 21
2.5
 31
0.0
  0
LINE
  5
17A
330
1E
100
AcDbEntity
  8
0
100
AcDbLine
 10
112.7999999999999
 20
-0.0000000000000004
 30
0.0
 11
117.5999999999999
 21
-0.0000000000000002
 31
0.0
  0
LINE
  5
17B
330
1E
100
AcDbEntity
  8
0
100
AcDbLine
 10
134.8999999999999
 20
0.0
 30
0.0
 11
140.4
 21
-0.0000000000000002
 31
0.0
  0
LINE
  5
17C
330
1E
100
AcDbEntity
  8
0
100
AcDbLine
 10
134.8999999999999
 20
0.0
 30
0.0
 11
140.4
 21
-0.0000000000000002
 31
0.0
  0
LINE
  5
17D
330
1E
100
AcDbEntity
  8
0
100
AcDbLine
 10
123.0999999999999
 20
0.0
 30
0.0
 11
129.0
 21
0.0
 31
0.0
  0
LINE
  5
17E
330
1E
100
AcDbEntity
  8
0
100
AcDbLine
 10
117.5999999999999
 20
-0.0000000000000002
 30
0.0
 11
123.0999999999999
 21
0.0
 31
0.0
  0
LINE
  5
17F
330
1E
100
AcDbEntity
  8
0
100
AcDbLine
 10
117.5999999999999
 20
-0.0000000000000002
 30
0.0
 11
123.0999999999999
 21
0.0
 31
0.0
  0
LINE
  5
180
330
1E
100
AcDbEntity
  8
0
100
AcDbLine
 10
129.0
 20
0.0
 30
0.0
 11
134.8999999999999
 21
0.0
 31
0.0
  0
LINE
  5
181
330
1E
100
AcDbEntity
  8
0
100
AcDbLine
 10
129.0
 20
0.0
 30
0.0
 11
134.8999999999999
 21
0.0
 31
0.0
  0
LINE
  5
182
330
1E
100
AcDbEntity
  8
0
100
AcDbLine
 10
123.0999999999999
 20
0.0
 30
0.0
 11
129.0
 21
0.0
 31
0.0
  0
LINE
  5
183
330
1E
100
AcDbEntity
  8
0
100
AcDbLine
 10
109.0999999999999
 20
-0.0000000000000007
 30
0.0
 11
112.7999999999999
 21
-0.0000000000000004
 31
0.0
  0
LINE
  5
184
330
1E
100
AcDbEntity
  8
0
100
AcDbLine
 10
106.8
 20
-0.000000000000001
 30
0.0
 11
109.0999999999999
 21
-0.0000000000000007
 31
0.0
  0
LINE
  5
185
330
1E
100
AcDbEntity
  8
0
100
AcDbLine
 10
106.0
 20
-0.0000000000000014
 30
0.0
 11
106.8
 21
-0.000000000000001
 31
0.0
  0
LINE
  5
186
330
1E
100
AcDbEntity
  8
0
100
AcDbLine
 10
106.0
 20
-0.0000000000000014
 30
0.0
 11
106.8
 21
-0.0000000000000018
 31
0.0
  0
LINE
  5
187
330
1E
100
AcDbEntity
  8
0
100
AcDbLine
 10
106.0
 20
-0.0000000000000014
 30
0.0
 11
106.4999999999999
 21
1.5
 31
0.0
  0
LINE
  5
188
330
1E
100
AcDbEntity
  8
0
100
AcDbLine
 10
53.5
 20
79.0
 30
0.0
 11
103.4999999999999
 21
79.0
 31
0.0
  0
LINE
  5
189
330
1E
100
AcDbEntity
  8
0
100
AcDbLine
 10
103.4999999999999
 20
79.0
 30
0.0
 11
104.5099
 21
78.5
 31
0.0
  0
LINE
  5
18A
330
1E
100
AcDbEntity
  8
0
100
AcDbLine
 10
104.5099
 20
78.09999999999999
 30
0.0
 11
104.5099
 21
80.7
 31
0.0
  0
LINE
  5
18B
330
1E
100
AcDbEntity
  8
0
100
AcDbLine
 10
104.5099
 20
78.09999999999999
 30
0.0
 11
104.5099
 21
76.6
 31
0.0
  0
LINE
  5
18C
330
1E
100
AcDbEntity
  8
0
100
AcDbLine
 10
104.5099
 20
76.6
 30
0.0
 11
104.5099
 21
78.09999999999999
 31
0.0
  0
LINE
  5
18D
330
1E
100
AcDbEntity
  8
0
100
AcDbLine
 10
104.5099
 20
76.6
 30
0.0
 11
104.5099
 21
76.0
 31
0.0
  0
LINE
  5
18E
330
1E
100
AcDbEntity
  8
0
100
AcDbLine
 10
104.5099
 20
80.29999999999999
 30
0.0
 11
104.5099
 21
82.5
 31
0.0
  0
LINE
  5
18F
330
1E
100
AcDbEntity
  8
0
100
AcDbLine
 10
104.5099
 20
80.29999999999999
 30
0.0
 11
104.5099
 21
79.0
 31
0.0
  0
LINE
  5
190
330
1E
100
AcDbEntity
  8
0
100
AcDbLine
 10
104.5099
 20
79.0
 30
0.0
 11
104.5099
 21
80.29999999999999
 31
0.0
  0
LINE
  5
191
330
1E
100
AcDbEntity
  8
0
100
AcDbLine
 10
104.5099
 20
79.0
 30
0.0
 11
104.5099
 21
78.5
 31
0.0
  0
LINE
  5
192
330
1E
100
AcDbEntity
  8
0
100
AcDbLine
 10
104.5099
 20
78.5
 30
0.0
 11
104.5099
 21
79.0
 31
0.0
  0
LINE
  5
193
330
1E
100
AcDbEntity
  8
0
100
AcDbLine
 10
104.5099
 20
76.0
 30
0.0
 11
105.0147999999999
 21
74.5
 31
0.0
  0
LINE
  5
194
330
1E
100
AcDbEntity
  8
0
100
AcDbLine
 10
104.5099
 20
76.0
 30
0.0
 11
104.5099
 21
76.6
 31
0.0
  0
LINE
  5
195
330
1E
100
AcDbEntity
  8
0
100
AcDbLine
 10
104.5099
 20
80.7
 30
0.0
 11
104.5099
 21
84.0
 31
0.0
  0
LINE
  5
196
330
1E
100
AcDbEntity
  8
0
100
AcDbLine
 10
104.5099
 20
80.7
 30
0.0
 11
104.5099
 21
78.09999999999999
 31
0.0
  0
LINE
  5
197
330
1E
100
AcDbEntity
  8
0
100
AcDbLine
 10
104.5099
 20
84.0
 30
0.0
 11
104.5099
 21
87.9
 31
0.0
  0
LINE
  5
198
330
1E
100
AcDbEntity
  8
0
100
AcDbLine
 10
104.5099
 20
84.0
 30
0.0
 11
104.5099
 21
80.7
 31
0.0
  0
LINE
  5
199
330
1E
100
AcDbEntity
  8
0
100
AcDbLine
 10
104.5099
 20
82.5
 30
0.0
 11
104.5099
 21
85.29999999999999
 31
0.0
  0
LINE
  5
19A
330
1E
100
AcDbEntity
  8
0
100
AcDbLine
 10
104.5099
 20
82.5
 30
0.0
 11
104.5099
 21
80.29999999999999
 31
0.0
  0
LINE
  5
19B
330
1E
100
AcDbEntity
  8
0
100
AcDbLine
 10
104.5099
 20
87.9
 30
0.0
 11
104.5099
 21
92.0
 31
0.0
  0
LINE
  5
19C
330
1E
100
AcDbEntity
  8
0
100
AcDbLine
 10
104.5099
 20
87.9
 30
0.0
 11
104.5099
 21
84.0
 31
0.0
  0
LINE
  5
19D
330
1E
100
AcDbEntity
  8
0
100
AcDbLine
 10
104.5099
 20
85.29999999999999
 30
0.0
 11
104.5099
 21
88.49999999999999
 31
0.0
  0
LINE
  5
19E
330
1E
100
AcDbEntity
  8
0
100
AcDbLine
 10
104.5099
 20
85.29999999999999
 30
0.0
 11
104.5099
 21
82.5
 31
0.0
  0
LINE
  5
19F
330
1E
100
AcDbEntity
  8
0
100
AcDbLine
 10
104.5099
 20
88.49999999999999
 30
0.0
 11
104.5099
 21
92.0
 31
0.0
  0
LINE
  5
1A0
330
1E
100
AcDbEntity
  8
0
100
AcDbLine
 10
104.5099
 20
88.49999999999999
 30
0.0
 11
104.5099
 21
85.29999999999999
 31
0.0
  0
LINE
  5
1A1
330
1E
100
AcDbEntity
  8
0
100
AcDbLine
 10
104.5099
 20
100.0
 30
0.0
 11
104.5099
 21
103.2999999999999
 31
0.0
  0
LINE
  5
1A2
330
1E
100
AcDbEntity
  8
0
100
AcDbLine
 10
104.5099
 20
100.0
 30
0.0
 11
104.5099
 21
96.09999999999999
 31
0.0
  0
LINE
  5
1A3
330
1E
100
AcDbEntity
  8
0
100
AcDbLine
 10
104.5099
 20
96.09999999999999
 30
0.0
 11
104.5099
 21
100.0
 31
0.0
  0
LINE
  5
1A4
330
1E
100
AcDbEntity
  8
0
100
AcDbLine
 10
104.5099
 20
96.09999999999999
 30
0.0
 11
104.5099
 21
92.0
 31
0.0
  0
LINE
  5
1A5
330
1E
100
AcDbEntity
  8
0
100
AcDbLine
 10
104.5099
 20
98.7
 30
0.0
 11
104.5099
 21
101.5
 31
0.0
  0
LINE
  5
1A6
330
1E
100
AcDbEntity
  8
0
100
AcDbLine
 10
104.5099
 20
98.7
 30
0.0
 11
104.5099
 21
95.5
 31
0.0
  0
LINE
  5
1A7
330
1E
100
AcDbEntity
  8
0
100
AcDbLine
 10
104.5099
 20
95.5
 30
0.0
 11
104.5099
 21
98.7
 31
0.0
  0
LINE
  5
1A8
330
1E
100
AcDbEntity
  8
0
100
AcDbLine
 10
104.5099
 20
95.5
 30
0.0
 11
104.5099
 21
92.0
 31
0.0
  0
LINE
  5
1A9
330
1E
100
AcDbEntity
  8
0
100
AcDbLine
 10
104.5099
 20
92.0
 30
0.0
 11
104.5099
 21
95.5
 31
0.0
  0
LINE
  5
1AA
330
1E
100
AcDbEntity
  8
0
100
AcDbLine
 10
104.5099
 20
92.0
 30
0.0
 11
104.5099
 21
96.09999999999999
 31
0.0
  0
LINE
  5
1AB
330
1E
100
AcDbEntity
  8
0
100
AcDbLine
 10
104.5099
 20
92.0
 30
0.0
 11
104.5099
 21
88.49999999999999
 31
0.0
  0
LINE
  5
1AC
330
1E
100
AcDbEntity
  8
0
100
AcDbLine
 10
104.5099
 20
92.0
 30
0.0
 11
104.5099
 21
87.9
 31
0.0
  0
LINE
  5
1AD
330
1E
100
AcDbEntity
  8
0
100
AcDbLine
 10
104.5099
 20
103.2999999999999
 30
0.0
 11
104.5099
 21
105.9
 31
0.0
  0
LINE
  5
1AE
330
1E
100
AcDbEntity
  8
0
100
AcDbLine
 10
104.5099
 20
103.2999999999999
 30
0.0
 11
104.5099
 21
100.0
 31
0.0
  0
LINE
  5
1AF
330
1E
100
AcDbEntity
  8
0
100
AcDbLine
 10
105.0147999999999
 20
76.79999999999999
 30
0.0
 11
105.0147999999999
 21
79.59999999999999
 31
0.0
  0
LINE
  5
1B0
330
1E
100
AcDbEntity
  8
0
100
AcDbLine
 10
105.0147999999999
 20
76.79999999999999
 30
0.0
 11
105.0147999999999
 21
75.09999999999999
 31
0.0
  0
LINE
  5
1B1
330
1E
100
AcDbEntity
  8
0
100
AcDbLine
 10
105.0147999999999
 20
75.09999999999999
 30
0.0
 11
105.0147999999999
 21
76.79999999999999
 31
0.0
  0
LINE
  5
1B2
330
1E
100
AcDbEntity
  8
0
100
AcDbLine
 10
105.0147999999999
 20
75.09999999999999
 30
0.0
 11
105.0147999999999
 21
74.5
 31
0.0
  0
LINE
  5
1B3
330
1E
100
AcDbEntity
  8
0
100
AcDbLine
 10
105.0147999999999
 20
74.5
 30
0.0
 11
106.5297
 21
74.0
 31
0.0
  0
LINE
  5
1B4
330
1E
100
AcDbEntity
  8
0
100
AcDbLine
 10
105.0147999999999
 20
74.5
 30
0.0
 11
105.0147999999999
 21
75.09999999999999
 31
0.0
  0
LINE
  5
1B5
330
1E
100
AcDbEntity
  8
0
100
AcDbLine
 10
105.0147999999999
 20
79.59999999999999
 30
0.0
 11
105.0147999999999
 21
83.3
 31
0.0
  0
LINE
  5
1B6
330
1E
100
AcDbEntity
  8
0
100
AcDbLine
 10
105.0147999999999
 20
79.59999999999999
 30
0.0
 11
105.0147999999999
 21
76.79999999999999
 31
0.0
  0
LINE
  5
1B7
330
1E
100
AcDbEntity
  8
0
100
AcDbLine
 10
105.0147999999999
 20
83.3
 30
0.0
 11
105.0147999999999
 21
87.5
 31
0.0
  0
LINE
  5
1B8
330
1E
100
AcDbEntity
  8
0
100
AcDbLine
 10
105.0147999999999
 20
83.3
 30
0.0
 11
105.0147999999999
 21
79.59999999999999
 31
0.0
  0
LINE
  5
1B9
330
1E
100
AcDbEntity
  8
0
100
AcDbLine
 10
105.0147999999999
 20
87.5
 30
0.0
 11
105.0147999999999
 21
92.0
 31
0.0
  0
LINE
  5
1BA
330
1E
100
AcDbEntity
  8
0
100
AcDbLine
 10
105.0147999999999
 20
87.5
 30
0.0
 11
105.0147999999999
 21
83.3
 31
0.0
  0
LINE
  5
1BB
330
1E
100
AcDbEntity
  8
0
100
AcDbLine
 10
105.0147999999999
 20
100.7
 30
0.0
 11
105.0147999999999
 21
104.4
 31
0.0
  0
LINE
  5
1BC
330
1E
100
AcDbEntity
  8
0
100
AcDbLine
 10
105.0147999999999
 20
100.7
 30
0.0
 11
105.0147999999999
 21
96.5
 31
0.0
  0
LINE
  5
1BD
330
1E
100
AcDbEntity
  8
0
100
AcDbLine
 10
105.0147999999999
 20
96.5
 30
0.0
 11
105.0147999999999
 21
100.7
 31
0.0
  0
LINE
  5
1BE
330
1E
100
AcDbEntity
  8
0
100
AcDbLine
 10
105.0147999999999
 20
96.5
 30
0.0
 11
105.0147999999999
 21
92.0
 31
0.0
  0
LINE
  5
1BF
330
1E
100
AcDbEntity
  8
0
100
AcDbLine
 10
107.4999999999999
 20
2.5
 30
0.0
 11
109.0
 21
3.0
 31
0.0
  0
LINE
  5
1C0
330
1E
100
AcDbEntity
  8
0
100
AcDbLine
 10
108.5494999999999
 20
76.79999999999999
 30
0.0
 11
108.5494999999999
 21
79.59999999999999
 31
0.0
  0
LINE
  5
1C1
330
1E
100
AcDbEntity
  8
0
100
AcDbLine
 10
108.5494999999999
 20
76.79999999999999
 30
0.0
 11
108.5494999999999
 21
75.09999999999999
 31
0.0
  0
LINE
  5
1C2
330
1E
100
AcDbEntity
  8
0
100
AcDbLine
 10
108.5494999999999
 20
75.09999999999999
 30
0.0
 11
108.5494999999999
 21
76.79999999999999
 31
0.0
  0
LINE
  5
1C3
330
1E
100
AcDbEntity
  8
0
100
AcDbLine
 10
108.5494999999999
 20
75.09999999999999
 30
0.0
 11
108.5494999999999
 21
74.5
 31
0.0
  0
LINE
  5
1C4
330
1E
100
AcDbEntity
  8
0
100
AcDbLine
 10
108.5494999999999
 20
74.5
 30
0.0
 11
109.0545
 21
75.5
 31
0.0
  0
LINE
  5
1C5
330
1E
100
AcDbEntity
  8
0
100
AcDbLine
 10
108.5494999999999
 20
74.5
 30
0.0
 11
108.5494999999999
 21
75.09999999999999
 31
0.0
  0
LINE
  5
1C6
330
1E
100
AcDbEntity
  8
0
100
AcDbLine
 10
107.0346999999999
 20
74.0
 30
0.0
 11
108.5494999999999
 21
74.5
 31
0.0
  0
LINE
  5
1C7
330
1E
100
AcDbEntity
  8
0
100
AcDbLine
 10
106.5297
 20
74.0
 30
0.0
 11
107.0346999999999
 21
74.0
 31
0.0
  0
LINE
  5
1C8
330
1E
100
AcDbEntity
  8
0
100
AcDbLine
 10
108.5494999999999
 20
79.59999999999999
 30
0.0
 11
108.5494999999999
 21
83.3
 31
0.0
  0
LINE
  5
1C9
330
1E
100
AcDbEntity
  8
0
100
AcDbLine
 10
108.5494999999999
 20
79.59999999999999
 30
0.0
 11
108.5494999999999
 21
76.79999999999999
 31
0.0
  0
LINE
  5
1CA
330
1E
100
AcDbEntity
  8
0
100
AcDbLine
 10
109.0
 20
3.0
 30
0.0
 11
114.5
 21
4.0
 31
0.0
  0
LINE
  5
1CB
330
1E
100
AcDbEntity
  8
0
100
AcDbLine
 10
109.0545
 20
77.7
 30
0.0
 11
109.0545
 21
80.4
 31
0.0
  0
LINE
  5
1CC
330
1E
100
AcDbEntity
  8
0
100
AcDbLine
 10
109.0545
 20
77.7
 30
0.0
 11
109.0545
 21
76.09999999999999
 31
0.0
  0
LINE
  5
1CD
330
1E
100
AcDbEntity
  8
0
100
AcDbLine
 10
109.0545
 20
76.09999999999999
 30
0.0
 11
109.0545
 21
77.7
 31
0.0
  0
LINE
  5
1CE
330
1E
100
AcDbEntity
  8
0
100
AcDbLine
 10
109.0545
 20
76.09999999999999
 30
0.0
 11
109.0545
 21
75.5
 31
0.0
  0
LINE
  5
1CF
330
1E
100
AcDbEntity
  8
0
100
AcDbLine
 10
109.0545
 20
75.5
 30
0.0
 11
110.0644
 21
76.0
 31
0.0
  0
LINE
  5
1D0
330
1E
100
AcDbEntity
  8
0
100
AcDbLine
 10
109.0545
 20
75.5
 30
0.0
 11
109.0545
 21
76.09999999999999
 31
0.0
  0
LINE
  5
1D1
330
1E
100
AcDbEntity
  8
0
100
AcDbLine
 10
109.0545
 20
80.4
 30
0.0
 11
109.0545
 21
83.8
 31
0.0
  0
LINE
  5
1D2
330
1E
100
AcDbEntity
  8
0
100
AcDbLine
 10
109.0545
 20
80.4
 30
0.0
 11
109.0545
 21
77.7
 31
0.0
  0
LINE
  5
1D3
330
1E
100
AcDbEntity
  8
0
100
AcDbLine
 10
109.0545
 20
83.8
 30
0.0
 11
109.0545
 21
87.79999999999999
 31
0.0
  0
LINE
  5
1D4
330
1E
100
AcDbEntity
  8
0
100
AcDbLine
 10
109.0545
 20
83.8
 30
0.0
 11
109.0545
 21
80.4
 31
0.0
  0
LINE
  5
1D5
330
1E
100
AcDbEntity
  8
0
100
AcDbLine
 10
108.5494999999999
 20
83.3
 30
0.0
 11
108.5494999999999
 21
87.5
 31
0.0
  0
LINE
  5
1D6
330
1E
100
AcDbEntity
  8
0
100
AcDbLine
 10
108.5494999999999
 20
83.3
 30
0.0
 11
108.5494999999999
 21
79.59999999999999
 31
0.0
  0
LINE
  5
1D7
330
1E
100
AcDbEntity
  8
0
100
AcDbLine
 10
109.0545
 20
87.79999999999999
 30
0.0
 11
109.0545
 21
92.0
 31
0.0
  0
LINE
  5
1D8
330
1E
100
AcDbEntity
  8
0
100
AcDbLine
 10
109.0545
 20
87.79999999999999
 30
0.0
 11
109.0545
 21
83.8
 31
0.0
  0
LINE
  5
1D9
330
1E
100
AcDbEntity
  8
0
100
AcDbLine
 10
108.5494999999999
 20
87.5
 30
0.0
 11
108.5494999999999
 21
92.0
 31
0.0
  0
LINE
  5
1DA
330
1E
100
AcDbEntity
  8
0
100
AcDbLine
 10
108.5494999999999
 20
87.5
 30
0.0
 11
108.5494999999999
 21
83.3
 31
0.0
  0
LINE
  5
1DB
330
1E
100
AcDbEntity
  8
0
100
AcDbLine
 10
118.0
 20
7.0
 30
0.0
 11
118.0
 21
8.0
 31
0.0
  0
LINE
  5
1DC
330
1E
100
AcDbEntity
  8
0
100
AcDbLine
 10
115.5
 20
32.5
 30
0.0
 11
116.0
 21
32.5
 31
0.0
  0
LINE
  5
1DD
330
1E
100
AcDbEntity
  8
0
100
AcDbLine
 10
115.5
 20
32.5
 30
0.0
 11
117.0
 21
33.0
 31
0.0
  0
LINE
  5
1DE
330
1E
100
AcDbEntity
  8
0
100
AcDbLine
 10
115.0
 20
31.0
 30
0.0
 11
115.0
 21
27.5
 31
0.0
  0
LINE
  5
1DF
330
1E
100
AcDbEntity
  8
0
100
AcDbLine
 10
115.0
 20
31.0
 30
0.0
 11
115.5
 21
32.5
 31
0.0
  0
LINE
  5
1E0
330
1E
100
AcDbEntity
  8
0
100
AcDbLine
 10
115.0
 20
27.5
 30
0.0
 11
115.5
 21
26.0
 31
0.0
  0
LINE
  5
1E1
330
1E
100
AcDbEntity
  8
0
100
AcDbLine
 10
115.0
 20
27.5
 30
0.0
 11
115.0
 21
31.0
 31
0.0
  0
LINE
  5
1E2
330
1E
100
AcDbEntity
  8
0
100
AcDbLine
 10
117.3
 20
26.0
 30
0.0
 11
119.5
 21
26.0
 31
0.0
  0
LINE
  5
1E3
330
1E
100
AcDbEntity
  8
0
100
AcDbLine
 10
117.9
 20
34.5
 30
0.0
 11
119.0
 21
34.5
 31
0.0
  0
LINE
  5
1E4
330
1E
100
AcDbEntity
  8
0
100
AcDbLine
 10
117.5
 20
34.5
 30
0.0
 11
117.9
 21
34.5
 31
0.0
  0
LINE
  5
1E5
330
1E
100
AcDbEntity
  8
0
100
AcDbLine
 10
117.5
 20
34.5
 30
0.0
 11
119.0
 21
35.0
 31
0.0
  0
LINE
  5
1E6
330
1E
100
AcDbEntity
  8
0
100
AcDbLine
 10
117.4
 20
33.0
 30
0.0
 11
118.5999999999999
 21
33.0
 31
0.0
  0
LINE
  5
1E7
330
1E
100
AcDbEntity
  8
0
100
AcDbLine
 10
117.0
 20
33.0
 30
0.0
 11
117.4
 21
33.0
 31
0.0
  0
LINE
  5
1E8
330
1E
100
AcDbEntity
  8
0
100
AcDbLine
 10
117.0
 20
33.0
 30
0.0
 11
117.5
 21
34.5
 31
0.0
  0
LINE
  5
1E9
330
1E
100
AcDbEntity
  8
0
100
AcDbLine
 10
117.3
 20
32.5
 30
0.0
 11
119.5
 21
32.5
 31
0.0
  0
LINE
  5
1EA
330
1E
100
AcDbEntity
  8
0
100
AcDbLine
 10
116.0
 20
32.5
 30
0.0
 11
117.3
 21
32.5
 31
0.0
  0
LINE
  5
1EB
330
1E
100
AcDbEntity
  8
0
100
AcDbLine
 10
116.0
 20
26.0
 30
0.0
 11
117.3
 21
26.0
 31
0.0
  0
LINE
  5
1EC
330
1E
100
AcDbEntity
  8
0
100
AcDbLine
 10
115.5
 20
26.0
 30
0.0
 11
116.0
 21
26.0
 31
0.0
  0
LINE
  5
1ED
330
1E
100
AcDbEntity
  8
0
100
AcDbLine
 10
115.5
 20
26.0
 30
0.0
 11
117.0
 21
25.5
 31
0.0
  0
LINE
  5
1EE
330
1E
100
AcDbEntity
  8
0
100
AcDbLine
 10
117.0
 20
25.5
 30
0.0
 11
119.0
 21
24.0
 31
0.0
  0
LINE
  5
1EF
330
1E
100
AcDbEntity
  8
0
100
AcDbLine
 10
139.1
 20
9.5
 30
0.0
 11
139.5
 21
9.5
 31
0.0
  0
LINE
  5
1F0
330
1E
100
AcDbEntity
  8
0
100
AcDbLine
 10
139.5
 20
9.5
 30
0.0
 11
140.0
 21
8.0
 31
0.0
  0
LINE
  5
1F1
330
1E
100
AcDbEntity
  8
0
100
AcDbLine
 10
118.9
 20
9.5
 30
0.0
 11
119.9
 21
9.5
 31
0.0
  0
LINE
  5
1F2
330
1E
100
AcDbEntity
  8
0
100
AcDbLine
 10
119.5
 20
32.5
 30
0.0
 11
122.3
 21
32.5
 31
0.0
  0
LINE
  5
1F3
330
1E
100
AcDbEntity
  8
0
100
AcDbLine
 10
119.5
 20
26.0
 30
0.0
 11
122.3
 21
26.0
 31
0.0
  0
LINE
  5
1F4
330
1E
100
AcDbEntity
  8
0
100
AcDbLine
 10
119.4
 20
35.0
 30
0.0
 11
120.3
 21
35.0
 31
0.0
  0
LINE
  5
1F5
330
1E
100
AcDbEntity
  8
0
100
AcDbLine
 10
119.0
 20
35.0
 30
0.0
 11
119.4
 21
35.0
 31
0.0
  0
LINE
  5
1F6
330
1E
100
AcDbEntity
  8
0
100
AcDbLine
 10
119.0
 20
34.5
 30
0.0
 11
120.9
 21
34.5
 31
0.0
  0
LINE
  5
1F7
330
1E
100
AcDbEntity
  8
0
100
AcDbLine
 10
118.5999999999999
 20
33.0
 30
0.0
 11
120.5
 21
33.0
 31
0.0
  0
LINE
  5
1F8
330
1E
100
AcDbEntity
  8
0
100
AcDbLine
 10
119.0
 20
24.0
 30
0.0
 11
120.5
 21
21.49999999999999
 31
0.0
  0
LINE
  5
1F9
330
1E
100
AcDbEntity
  8
0
100
AcDbLine
 10
121.5999999999999
 20
9.5
 30
0.0
 11
123.7999999999999
 21
9.5
 31
0.0
  0
LINE
  5
1FA
330
1E
100
AcDbEntity
  8
0
100
AcDbLine
 10
123.7999999999999
 20
9.5
 30
0.0
 11
126.2999999999999
 21
9.5
 31
0.0
  0
LINE
  5
1FB
330
1E
100
AcDbEntity
  8
0
100
AcDbLine
 10
136.4
 20
9.5
 30
0.0
 11
138.1
 21
9.5
 31
0.0
  0
LINE
  5
1FC
330
1E
100
AcDbEntity
  8
0
100
AcDbLine
 10
138.1
 20
9.5
 30
0.0
 11
139.1
 21
9.5
 31
0.0
  0
LINE
  5
1FD
330
1E
100
AcDbEntity
  8
0
100
AcDbLine
 10
134.1999999999999
 20
9.5
 30
0.0
 11
136.4
 21
9.5
 31
0.0
  0
LINE
  5
1FE
330
1E
100
AcDbEntity
  8
0
100
AcDbLine
 10
131.6999999999999
 20
9.5
 30
0.0
 11
134.1999999999999
 21
9.5
 31
0.0
  0
LINE
  5
1FF
330
1E
100
AcDbEntity
  8
0
100
AcDbLine
 10
138.0
 20
10.0
 30
0.0
 11
139.5
 21
9.5
 31
0.0
  0
LINE
  5
200
330
1E
100
AcDbEntity
  8
0
100
AcDbLine
 10
129.0
 20
9.5
 30
0.0
 11
131.6999999999999
 21
9.5
 31
0.0
  0
LINE
  5
201
330
1E
100
AcDbEntity
  8
0
100
AcDbLine
 10
126.2999999999999
 20
9.5
 30
0.0
 11
129.0
 21
9.5
 31
0.0
  0
LINE
  5
202
330
1E
100
AcDbEntity
  8
0
100
AcDbLine
 10
120.9
 20
34.5
 30
0.0
 11
123.3
 21
34.5
 31
0.0
  0
LINE
  5
203
330
1E
100
AcDbEntity
  8
0
100
AcDbLine
 10
120.5
 20
33.0
 30
0.0
 11
123.0
 21
33.0
 31
0.0
  0
LINE
  5
204
330
1E
100
AcDbEntity
  8
0
100
AcDbLine
 10
120.5
 20
21.49999999999999
 30
0.0
 11
121.5
 21
18.5
 31
0.0
  0
LINE
  5
205
330
1E
100
AcDbEntity
  8
0
100
AcDbLine
 10
121.5
 20
13.0
 30
0.0
 11
121.5
 21
15.5
 31
0.0
  0
LINE
  5
206
330
1E
100
AcDbEntity
  8
0
100
AcDbLine
 10
123.7
 20
15.5
 30
0.0
 11
125.2999999999999
 21
15.5
 31
0.0
  0
LINE
  5
207
330
1E
100
AcDbEntity
  8
0
100
AcDbLine
 10
125.2999999999999
 20
15.5
 30
0.0
 11
127.0999999999999
 21
15.5
 31
0.0
  0
LINE
  5
208
330
1E
100
AcDbEntity
  8
0
100
AcDbLine
 10
134.3
 20
15.5
 30
0.0
 11
135.4999999999999
 21
15.5
 31
0.0
  0
LINE
  5
209
330
1E
100
AcDbEntity
  8
0
100
AcDbLine
 10
135.4999999999999
 20
15.5
 30
0.0
 11
136.1999999999999
 21
15.5
 31
0.0
  0
LINE
  5
20A
330
1E
100
AcDbEntity
  8
0
100
AcDbLine
 10
136.4999999999999
 20
15.5
 30
0.0
 11
136.4999999999999
 21
13.0
 31
0.0
  0
LINE
  5
20B
330
1E
100
AcDbEntity
  8
0
100
AcDbLine
 10
136.1999999999999
 20
15.5
 30
0.0
 11
136.4999999999999
 21
15.5
 31
0.0
  0
LINE
  5
20C
330
1E
100
AcDbEntity
  8
0
100
AcDbLine
 10
136.4999999999999
 20
13.0
 30
0.0
 11
137.0
 21
11.0
 31
0.0
  0
LINE
  5
20D
330
1E
100
AcDbEntity
  8
0
100
AcDbLine
 10
136.4999999999999
 20
13.0
 30
0.0
 11
136.4999999999999
 21
15.5
 31
0.0
  0
LINE
  5
20E
330
1E
100
AcDbEntity
  8
0
100
AcDbLine
 10
137.0
 20
11.0
 30
0.0
 11
138.0
 21
10.0
 31
0.0
  0
LINE
  5
20F
330
1E
100
AcDbEntity
  8
0
100
AcDbLine
 10
132.6999999999999
 20
15.5
 30
0.0
 11
134.3
 21
15.5
 31
0.0
  0
LINE
  5
210
330
1E
100
AcDbEntity
  8
0
100
AcDbLine
 10
130.9
 20
15.5
 30
0.0
 11
132.6999999999999
 21
15.5
 31
0.0
  0
LINE
  5
211
330
1E
100
AcDbEntity
  8
0
100
AcDbLine
 10
129.0
 20
15.5
 30
0.0
 11
130.9
 21
15.5
 31
0.0
  0
LINE
  5
212
330
1E
100
AcDbEntity
  8
0
100
AcDbLine
 10
127.0999999999999
 20
15.5
 30
0.0
 11
129.0
 21
15.5
 31
0.0
  0
LINE
  5
213
330
1E
100
AcDbEntity
  8
0
100
AcDbLine
 10
122.5
 20
15.5
 30
0.0
 11
123.7
 21
15.5
 31
0.0
  0
LINE
  5
214
330
1E
100
AcDbEntity
  8
0
100
AcDbLine
 10
121.7999999999999
 20
15.5
 30
0.0
 11
122.5
 21
15.5
 31
0.0
  0
LINE
  5
215
330
1E
100
AcDbEntity
  8
0
100
AcDbLine
 10
121.7999999999999
 20
16.5
 30
0.0
 11
122.5
 21
16.5
 31
0.0
  0
LINE
  5
216
330
1E
100
AcDbEntity
  8
0
100
AcDbLine
 10
120.3
 20
35.0
 30
0.0
 11
124.0
 21
35.0
 31
0.0
  0
LINE
  5
217
330
1E
100
AcDbEntity
  8
0
100
AcDbLine
 10
121.5
 20
18.5
 30
0.0
 11
121.5
 21
16.5
 31
0.0
  0
LINE
  5
218
330
1E
100
AcDbEntity
  8
0
100
AcDbLine
 10
121.5
 20
16.5
 30
0.0
 11
121.7999999999999
 21
16.5
 31
0.0
  0
LINE
  5
219
330
1E
100
AcDbEntity
  8
0
100
AcDbLine
 10
121.5
 20
16.5
 30
0.0
 11
122.0
 21
16.0
 31
0.0
  0
LINE
  5
21A
330
1E
100
AcDbEntity
  8
0
100
AcDbLine
 10
121.5
 20
16.5
 30
0.0
 11
121.5
 21
18.5
 31
0.0
  0
LINE
  5
21B
330
1E
100
AcDbEntity
  8
0
100
AcDbLine
 10
135.0999999999999
 20
16.0
 30
0.0
 11
135.6999999999999
 21
16.0
 31
0.0
  0
LINE
  5
21C
330
1E
100
AcDbEntity
  8
0
100
AcDbLine
 10
136.0
 20
16.0
 30
0.0
 11
136.4999999999999
 21
15.5
 31
0.0
  0
LINE
  5
21D
330
1E
100
AcDbEntity
  8
0
100
AcDbLine
 10
136.0
 20
16.0
 30
0.0
 11
136.4999999999999
 21
16.5
 31
0.0
  0
LINE
  5
21E
330
1E
100
AcDbEntity
  8
0
100
AcDbLine
 10
135.6999999999999
 20
16.0
 30
0.0
 11
136.0
 21
16.0
 31
0.0
  0
LINE
  5
21F
330
1E
100
AcDbEntity
  8
0
100
AcDbLine
 10
122.9
 20
16.0
 30
0.0
 11
124.0
 21
16.0
 31
0.0
  0
LINE
  5
220
330
1E
100
AcDbEntity
  8
0
100
AcDbLine
 10
122.3
 20
32.5
 30
0.0
 11
125.5
 21
32.5
 31
0.0
  0
LINE
  5
221
330
1E
100
AcDbEntity
  8
0
100
AcDbLine
 10
122.3
 20
26.0
 30
0.0
 11
125.5
 21
26.0
 31
0.0
  0
LINE
  5
222
330
1E
100
AcDbEntity
  8
0
100
AcDbLine
 10
124.0
 20
16.0
 30
0.0
 11
125.5
 21
16.0
 31
0.0
  0
LINE
  5
223
330
1E
100
AcDbEntity
  8
0
100
AcDbLine
 10
134.0
 20
16.0
 30
0.0
 11
135.0999999999999
 21
16.0
 31
0.0
  0
LINE
  5
224
330
1E
100
AcDbEntity
  8
0
100
AcDbLine
 10
132.4999999999999
 20
16.0
 30
0.0
 11
134.0
 21
16.0
 31
0.0
  0
LINE
  5
225
330
1E
100
AcDbEntity
  8
0
100
AcDbLine
 10
130.8
 20
16.0
 30
0.0
 11
132.4999999999999
 21
16.0
 31
0.0
  0
LINE
  5
226
330
1E
100
AcDbEntity
  8
0
100
AcDbLine
 10
129.0
 20
16.0
 30
0.0
 11
130.8
 21
16.0
 31
0.0
  0
LINE
  5
227
330
1E
100
AcDbEntity
  8
0
100
AcDbLine
 10
125.5
 20
16.0
 30
0.0
 11
127.2
 21
16.0
 31
0.0
  0
LINE
  5
228
330
1E
100
AcDbEntity
  8
0
100
AcDbLine
 10
123.7
 20
16.5
 30
0.0
 11
125.2999999999999
 21
16.5
 31
0.0
  0
LINE
  5
229
330
1E
100
AcDbEntity
  8
0
100
AcDbLine
 10
124.0
 20
35.0
 30
0.0
 11
126.4
 21
35.0
 31
0.0
  0
LINE
  5
22A
330
1E
100
AcDbEntity
  8
0
100
AcDbLine
 10
123.3
 20
34.5
 30
0.0
 11
126.0
 21
34.5
 31
0.0
  0
LINE
  5
22B
330
1E
100
AcDbEntity
  8
0
100
AcDbLine
 10
123.0
 20
33.0
 30
0.0
 11
125.9
 21
33.0
 31
0.0
  0
LINE
  5
22C
330
1E
100
AcDbEntity
  8
0
100
AcDbLine
 10
125.5
 20
32.5
 30
0.0
 11
129.0
 21
32.5
 31
0.0
  0
LINE
  5
22D
330
1E
100
AcDbEntity
  8
0
100
AcDbLine
 10
126.4
 20
35.0
 30
0.0
 11
129.0
 21
35.0
 31
0.0
  0
LINE
  5
22E
330
1E
100
AcDbEntity
  8
0
100
AcDbLine
 10
126.0
 20
34.5
 30
0.0
 11
129.0
 21
34.5
 31
0.0
  0
LINE
  5
22F
330
1E
100
AcDbEntity
  8
0
100
AcDbLine
 10
125.9
 20
33.0
 30
0.0
 11
129.0
 21
33.0
 31
0.0
  0
LINE
  5
230
330
1E
100
AcDbEntity
  8
0
100
AcDbLine
 10
125.5
 20
26.0
 30
0.0
 11
129.0
 21
26.0
 31
0.0
  0
LINE
  5
231
330
1E
100
AcDbEntity
  8
0
100
AcDbLine
 10
125.2999999999999
 20
16.5
 30
0.0
 11
127.0999999999999
 21
16.5
 31
0.0
  0
LINE
  5
232
330
1E
100
AcDbEntity
  8
0
100
AcDbLine
 10
134.3
 20
16.5
 30
0.0
 11
135.4999999999999
 21
16.5
 31
0.0
  0
LINE
  5
233
330
1E
100
AcDbEntity
  8
0
100
AcDbLine
 10
135.4999999999999
 20
16.5
 30
0.0
 11
136.1999999999999
 21
16.5
 31
0.0
  0
LINE
  5
234
330
1E
100
AcDbEntity
  8
0
100
AcDbLine
 10
136.4999999999999
 20
16.5
 30
0.0
 11
136.4999999999999
 21
18.5
 31
0.0
  0
LINE
  5
235
330
1E
100
AcDbEntity
  8
0
100
AcDbLine
 10
136.1999999999999
 20
16.5
 30
0.0
 11
136.4999999999999
 21
16.5
 31
0.0
  0
LINE
  5
236
330
1E
100
AcDbEntity
  8
0
100
AcDbLine
 10
132.6999999999999
 20
16.5
 30
0.0
 11
134.3
 21
16.5
 31
0.0
  0
LINE
  5
237
330
1E
100
AcDbEntity
  8
0
100
AcDbLine
 10
130.9
 20
16.5
 30
0.0
 11
132.6999999999999
 21
16.5
 31
0.0
  0
LINE
  5
238
330
1E
100
AcDbEntity
  8
0
100
AcDbLine
 10
129.0
 20
35.0
 30
0.0
 11
131.6
 21
35.0
 31
0.0
  0
LINE
  5
239
330
1E
100
AcDbEntity
  8
0
100
AcDbLine
 10
129.0
 20
34.5
 30
0.0
 11
132.0
 21
34.5
 31
0.0
  0
LINE
  5
23A
330
1E
100
AcDbEntity
  8
0
100
AcDbLine
 10
129.0
 20
33.0
 30
0.0
 11
132.0999999999999
 21
33.0
 31
0.0
  0
LINE
  5
23B
330
1E
100
AcDbEntity
  8
0
100
AcDbLine
 10
129.0
 20
32.5
 30
0.0
 11
132.4999999999999
 21
32.5
 31
0.0
  0
LINE
  5
23C
330
1E
100
AcDbEntity
  8
0
100
AcDbLine
 10
138.5
 20
26.0
 30
0.0
 11
140.6999999999999
 21
26.0
 31
0.0
  0
LINE
  5
23D
330
1E
100
AcDbEntity
  8
0
100
AcDbLine
 10
139.0
 20
24.0
 30
0.0
 11
141.0
 21
25.5
 31
0.0
  0
LINE
  5
23E
330
1E
100
AcDbEntity
  8
0
100
AcDbLine
 10
137.5
 20
21.49999999999999
 30
0.0
 11
139.0
 21
24.0
 31
0.0
  0
LINE
  5
23F
330
1E
100
AcDbEntity
  8
0
100
AcDbLine
 10
136.4999999999999
 20
18.5
 30
0.0
 11
137.5
 21
21.49999999999999
 31
0.0
  0
LINE
  5
240
330
1E
100
AcDbEntity
  8
0
100
AcDbLine
 10
136.4999999999999
 20
18.5
 30
0.0
 11
136.4999999999999
 21
16.5
 31
0.0
  0
LINE
  5
241
330
1E
100
AcDbEntity
  8
0
100
AcDbLine
 10
135.6999999999999
 20
26.0
 30
0.0
 11
138.5
 21
26.0
 31
0.0
  0
LINE
  5
242
330
1E
100
AcDbEntity
  8
0
100
AcDbLine
 10
131.6
 20
35.0
 30
0.0
 11
134.0
 21
35.0
 31
0.0
  0
LINE
  5
243
330
1E
100
AcDbEntity
  8
0
100
AcDbLine
 10
132.0
 20
34.5
 30
0.0
 11
134.6999999999999
 21
34.5
 31
0.0
  0
LINE
  5
244
330
1E
100
AcDbEntity
  8
0
100
AcDbLine
 10
132.0999999999999
 20
33.0
 30
0.0
 11
135.0
 21
33.0
 31
0.0
  0
LINE
  5
245
330
1E
100
AcDbEntity
  8
0
100
AcDbLine
 10
138.5
 20
32.5
 30
0.0
 11
140.6999999999999
 21
32.5
 31
0.0
  0
LINE
  5
246
330
1E
100
AcDbEntity
  8
0
100
AcDbLine
 10
134.0
 20
35.0
 30
0.0
 11
136.0999999999999
 21
35.0
 31
0.0
  0
LINE
  5
247
330
1E
100
AcDbEntity
  8
0
100
AcDbLine
 10
134.6999999999999
 20
34.5
 30
0.0
 11
137.0999999999999
 21
34.5
 31
0.0
  0
LINE
  5
248
330
1E
100
AcDbEntity
  8
0
100
AcDbLine
 10
137.5
 20
33.0
 30
0.0
 11
139.4
 21
33.0
 31
0.0
  0
LINE
  5
249
330
1E
100
AcDbEntity
  8
0
100
AcDbLine
 10
136.0999999999999
 20
35.0
 30
0.0
 11
137.7
 21
35.0
 31
0.0
  0
LINE
  5
24A
330
1E
100
AcDbEntity
  8
0
100
AcDbLine
 10
137.7
 20
35.0
 30
0.0
 11
138.5999999999999
 21
35.0
 31
0.0
  0
LINE
  5
24B
330
1E
100
AcDbEntity
  8
0
100
AcDbLine
 10
139.0
 20
35.0
 30
0.0
 11
140.5
 21
34.5
 31
0.0
  0
LINE
  5
24C
330
1E
100
AcDbEntity
  8
0
100
AcDbLine
 10
138.5999999999999
 20
35.0
 30
0.0
 11
139.0
 21
35.0
 31
0.0
  0
LINE
  5
24D
330
1E
100
AcDbEntity
  8
0
100
AcDbLine
 10
137.0999999999999
 20
34.5
 30
0.0
 11
139.0
 21
34.5
 31
0.0
  0
LINE
  5
24E
330
1E
100
AcDbEntity
  8
0
100
AcDbLine
 10
139.0
 20
34.5
 30
0.0
 11
140.0999999999999
 21
34.5
 31
0.0
  0
LINE
  5
24F
330
1E
100
AcDbEntity
  8
0
100
AcDbLine
 10
139.4
 20
33.0
 30
0.0
 11
140.5999999999999
 21
33.0
 31
0.0
  0
LINE
  5
250
330
1E
100
AcDbEntity
  8
0
100
AcDbLine
 10
135.0
 20
33.0
 30
0.0
 11
137.5
 21
33.0
 31
0.0
  0
LINE
  5
251
330
1E
100
AcDbEntity
  8
0
100
AcDbLine
 10
135.6999999999999
 20
32.5
 30
0.0
 11
138.5
 21
32.5
 31
0.0
  0
LINE
  5
252
330
1E
100
AcDbEntity
  8
0
100
AcDbLine
 10
132.4999999999999
 20
32.5
 30
0.0
 11
135.6999999999999
 21
32.5
 31
0.0
  0
LINE
  5
253
330
1E
100
AcDbEntity
  8
0
100
AcDbLine
 10
132.4999999999999
 20
26.0
 30
0.0
 11
135.6999999999999
 21
26.0
 31
0.0
  0
LINE
  5
254
330
1E
100
AcDbEntity
  8
0
100
AcDbLine
 10
129.0
 20
26.0
 30
0.0
 11
132.4999999999999
 21
26.0
 31
0.0
  0
LINE
  5
255
330
1E
100
AcDbEntity
  8
0
100
AcDbLine
 10
129.0
 20
16.5
 30
0.0
 11
130.9
 21
16.5
 31
0.0
  0
LINE
  5
256
330
1E
100
AcDbEntity
  8
0
100
AcDbLine
 10
127.0999999999999
 20
16.5
 30
0.0
 11
129.0
 21
16.5
 31
0.0
  0
LINE
  5
257
330
1E
100
AcDbEntity
  8
0
100
AcDbLine
 10
127.2
 20
16.0
 30
0.0
 11
129.0
 21
16.0
 31
0.0
  0
LINE
  5
258
330
1E
100
AcDbEntity
  8
0
100
AcDbLine
 10
122.5
 20
16.5
 30
0.0
 11
123.7
 21
16.5
 31
0.0
  0
LINE
  5
259
330
1E
100
AcDbEntity
  8
0
100
AcDbLine
 10
122.3
 20
16.0
 30
0.0
 11
122.9
 21
16.0
 31
0.0
  0
LINE
  5
25A
330
1E
100
AcDbEntity
  8
0
100
AcDbLine
 10
122.0
 20
16.0
 30
0.0
 11
122.3
 21
16.0
 31
0.0
  0
LINE
  5
25B
330
1E
100
AcDbEntity
  8
0
100
AcDbLine
 10
121.5
 20
15.5
 30
0.0
 11
121.5
 21
13.0
 31
0.0
  0
LINE
  5
25C
330
1E
100
AcDbEntity
  8
0
100
AcDbLine
 10
121.5
 20
15.5
 30
0.0
 11
121.7999999999999
 21
15.5
 31
0.0
  0
LINE
  5
25D
330
1E
100
AcDbEntity
  8
0
100
AcDbLine
 10
121.5
 20
15.5
 30
0.0
 11
122.0
 21
16.0
 31
0.0
  0
LINE
  5
25E
330
1E
100
AcDbEntity
  8
0
100
AcDbLine
 10
121.0
 20
11.0
 30
0.0
 11
121.5
 21
13.0
 31
0.0
  0
LINE
  5
25F
330
1E
100
AcDbEntity
  8
0
100
AcDbLine
 10
120.0
 20
10.0
 30
0.0
 11
121.0
 21
11.0
 31
0.0
  0
LINE
  5
260
330
1E
100
AcDbEntity
  8
0
100
AcDbLine
 10
119.9
 20
9.5
 30
0.0
 11
121.5999999999999
 21
9.5
 31
0.0
  0
LINE
  5
261
330
1E
100
AcDbEntity
  8
0
100
AcDbLine
 10
118.5
 20
9.5
 30
0.0
 11
118.9
 21
9.5
 31
0.0
  0
LINE
  5
262
330
1E
100
AcDbEntity
  8
0
100
AcDbLine
 10
118.5
 20
9.5
 30
0.0
 11
120.0
 21
10.0
 31
0.0
  0
LINE
  5
263
330
1E
100
AcDbEntity
  8
0
100
AcDbLine
 10
118.0
 20
8.0
 30
0.0
 11
118.0
 21
7.0
 31
0.0
  0
LINE
  5
264
330
1E
100
AcDbEntity
  8
0
100
AcDbLine
 10
118.0
 20
8.0
 30
0.0
 11
118.5
 21
9.5
 31
0.0
  0
LINE
  5
265
330
1E
100
AcDbEntity
  8
0
100
AcDbLine
 10
117.0
 20
5.5
 30
0.0
 11
118.0
 21
7.0
 31
0.0
  0
LINE
  5
266
330
1E
100
AcDbEntity
  8
0
100
AcDbLine
 10
114.5
 20
4.0
 30
0.0
 11
117.0
 21
5.5
 31
0.0
  0
LINE
  5
267
330
1E
100
AcDbEntity
  8
0
100
AcDbLine
 10
110.0644
 20
76.0
 30
0.0
 11
147.9359999999999
 21
76.0
 31
0.0
  0
LINE
  5
268
330
1E
100
AcDbEntity
  8
0
100
AcDbLine
 10
109.0545
 20
92.0
 30
0.0
 11
109.0545
 21
96.2
 31
0.0
  0
LINE
  5
269
330
1E
100
AcDbEntity
  8
0
100
AcDbLine
 10
109.0545
 20
92.0
 30
0.0
 11
109.0545
 21
87.79999999999999
 31
0.0
  0
LINE
  5
26A
330
1E
100
AcDbEntity
  8
0
100
AcDbLine
 10
108.5494999999999
 20
100.7
 30
0.0
 11
108.5494999999999
 21
104.4
 31
0.0
  0
LINE
  5
26B
330
1E
100
AcDbEntity
  8
0
100
AcDbLine
 10
108.5494999999999
 20
100.7
 30
0.0
 11
108.5494999999999
 21
96.5
 31
0.0
  0
LINE
  5
26C
330
1E
100
AcDbEntity
  8
0
100
AcDbLine
 10
109.0545
 20
100.2
 30
0.0
 11
109.0545
 21
103.6
 31
0.0
  0
LINE
  5
26D
330
1E
100
AcDbEntity
  8
0
100
AcDbLine
 10
109.0545
 20
100.2
 30
0.0
 11
109.0545
 21
96.2
 31
0.0
  0
LINE
  5
26E
330
1E
100
AcDbEntity
  8
0
100
AcDbLine
 10
109.0545
 20
96.2
 30
0.0
 11
109.0545
 21
100.2
 31
0.0
  0
LINE
  5
26F
330
1E
100
AcDbEntity
  8
0
100
AcDbLine
 10
109.0545
 20
96.2
 30
0.0
 11
109.0545
 21
92.0
 31
0.0
  0
LINE
  5
270
330
1E
100
AcDbEntity
  8
0
100
AcDbLine
 10
108.5494999999999
 20
96.5
 30
0.0
 11
108.5494999999999
 21
100.7
 31
0.0
  0
LINE
  5
271
330
1E
100
AcDbEntity
  8
0
100
AcDbLine
 10
108.5494999999999
 20
96.5
 30
0.0
 11
108.5494999999999
 21
92.0
 31
0.0
  0
LINE
  5
272
330
1E
100
AcDbEntity
  8
0
100
AcDbLine
 10
108.5494999999999
 20
92.0
 30
0.0
 11
108.5494999999999
 21
96.5
 31
0.0
  0
LINE
  5
273
330
1E
100
AcDbEntity
  8
0
100
AcDbLine
 10
108.5494999999999
 20
92.0
 30
0.0
 11
108.5494999999999
 21
87.5
 31
0.0
  0
LINE
  5
274
330
1E
100
AcDbEntity
  8
0
100
AcDbLine
 10
105.0147999999999
 20
92.0
 30
0.0
 11
105.0147999999999
 21
96.5
 31
0.0
  0
LINE
  5
275
330
1E
100
AcDbEntity
  8
0
100
AcDbLine
 10
105.0147999999999
 20
92.0
 30
0.0
 11
105.0147999999999
 21
87.5
 31
0.0
  0
LINE
  5
276
330
1E
100
AcDbEntity
  8
0
100
AcDbLine
 10
109.0545
 20
103.6
 30
0.0
 11
109.0545
 21
106.2999999999999
 31
0.0
  0
LINE
  5
277
330
1E
100
AcDbEntity
  8
0
100
AcDbLine
 10
109.0545
 20
103.6
 30
0.0
 11
109.0545
 21
100.2
 31
0.0
  0
LINE
  5
278
330
1E
100
AcDbEntity
  8
0
100
AcDbLine
 10
104.5099
 20
101.5
 30
0.0
 11
104.5099
 21
103.7
 31
0.0
  0
LINE
  5
279
330
1E
100
AcDbEntity
  8
0
100
AcDbLine
 10
104.5099
 20
101.5
 30
0.0
 11
104.5099
 21
98.7
 31
0.0
  0
LINE
  5
27A
330
1E
100
AcDbEntity
  8
0
100
AcDbLine
 10
108.5494999999999
 20
104.4
 30
0.0
 11
108.5494999999999
 21
107.2
 31
0.0
  0
LINE
  5
27B
330
1E
100
AcDbEntity
  8
0
100
AcDbLine
 10
108.5494999999999
 20
104.4
 30
0.0
 11
108.5494999999999
 21
100.7
 31
0.0
  0
LINE
  5
27C
330
1E
100
AcDbEntity
  8
0
100
AcDbLine
 10
105.0147999999999
 20
104.4
 30
0.0
 11
105.0147999999999
 21
107.2
 31
0.0
  0
LINE
  5
27D
330
1E
100
AcDbEntity
  8
0
100
AcDbLine
 10
105.0147999999999
 20
104.4
 30
0.0
 11
105.0147999999999
 21
100.7
 31
0.0
  0
LINE
  5
27E
330
1E
100
AcDbEntity
  8
0
100
AcDbLine
 10
104.5099
 20
103.7
 30
0.0
 11
104.5099
 21
105.0
 31
0.0
  0
LINE
  5
27F
330
1E
100
AcDbEntity
  8
0
100
AcDbLine
 10
104.5099
 20
103.7
 30
0.0
 11
104.5099
 21
101.5
 31
0.0
  0
LINE
  5
280
330
1E
100
AcDbEntity
  8
0
100
AcDbLine
 10
103.4999999999999
 20
105.0
 30
0.0
 11
104.5099
 21
105.4999999999999
 31
0.0
  0
LINE
  5
281
330
1E
100
AcDbEntity
  8
0
100
AcDbLine
 10
104.5099
 20
105.9
 30
0.0
 11
104.5099
 21
107.4
 31
0.0
  0
LINE
  5
282
330
1E
100
AcDbEntity
  8
0
100
AcDbLine
 10
104.5099
 20
105.9
 30
0.0
 11
104.5099
 21
103.2999999999999
 31
0.0
  0
LINE
  5
283
330
1E
100
AcDbEntity
  8
0
100
AcDbLine
 10
104.5099
 20
108.0
 30
0.0
 11
104.5099
 21
107.4
 31
0.0
  0
LINE
  5
284
330
1E
100
AcDbEntity
  8
0
100
AcDbLine
 10
104.5099
 20
108.0
 30
0.0
 11
105.0147999999999
 21
109.4999999999999
 31
0.0
  0
LINE
  5
285
330
1E
100
AcDbEntity
  8
0
100
AcDbLine
 10
104.5099
 20
107.4
 30
0.0
 11
104.5099
 21
108.0
 31
0.0
  0
LINE
  5
286
330
1E
100
AcDbEntity
  8
0
100
AcDbLine
 10
104.5099
 20
107.4
 30
0.0
 11
104.5099
 21
105.9
 31
0.0
  0
LINE
  5
287
330
1E
100
AcDbEntity
  8
0
100
AcDbLine
 10
109.0545
 20
106.2999999999999
 30
0.0
 11
109.0545
 21
107.9
 31
0.0
  0
LINE
  5
288
330
1E
100
AcDbEntity
  8
0
100
AcDbLine
 10
109.0545
 20
106.2999999999999
 30
0.0
 11
109.0545
 21
103.6
 31
0.0
  0
LINE
  5
289
330
1E
100
AcDbEntity
  8
0
100
AcDbLine
 10
114.0
 20
108.0
 30
0.0
 11
114.0
 21
109.4
 31
0.0
  0
LINE
  5
28A
330
1E
100
AcDbEntity
  8
0
100
AcDbLine
 10
110.0644
 20
108.0
 30
0.0
 11
114.046097560976
 21
108.0
 31
0.0
  0
LINE
  5
28B
330
1E
100
AcDbEntity
  8
0
100
AcDbLine
 10
109.0545
 20
108.4999999999999
 30
0.0
 11
109.0545
 21
107.9
 31
0.0
  0
LINE
  5
28C
330
1E
100
AcDbEntity
  8
0
100
AcDbLine
 10
109.0545
 20
108.4999999999999
 30
0.0
 11
110.0644
 21
108.0
 31
0.0
  0
LINE
  5
28D
330
1E
100
AcDbEntity
  8
0
100
AcDbLine
 10
109.0545
 20
107.9
 30
0.0
 11
109.0545
 21
108.4999999999999
 31
0.0
  0
LINE
  5
28E
330
1E
100
AcDbEntity
  8
0
100
AcDbLine
 10
109.0545
 20
107.9
 30
0.0
 11
109.0545
 21
106.2999999999999
 31
0.0
  0
LINE
  5
28F
330
1E
100
AcDbEntity
  8
0
100
AcDbLine
 10
108.5494999999999
 20
107.2
 30
0.0
 11
108.5494999999999
 21
108.9
 31
0.0
  0
LINE
  5
290
330
1E
100
AcDbEntity
  8
0
100
AcDbLine
 10
108.5494999999999
 20
107.2
 30
0.0
 11
108.5494999999999
 21
104.4
 31
0.0
  0
LINE
  5
291
330
1E
100
AcDbEntity
  8
0
100
AcDbLine
 10
108.5494999999999
 20
108.9
 30
0.0
 11
108.5494999999999
 21
109.4999999999999
 31
0.0
  0
LINE
  5
292
330
1E
100
AcDbEntity
  8
0
100
AcDbLine
 10
108.5494999999999
 20
108.9
 30
0.0
 11
108.5494999999999
 21
107.2
 31
0.0
  0
LINE
  5
293
330
1E
100
AcDbEntity
  8
0
100
AcDbLine
 10
105.0147999999999
 20
107.2
 30
0.0
 11
105.0147999999999
 21
108.9
 31
0.0
  0
LINE
  5
294
330
1E
100
AcDbEntity
  8
0
100
AcDbLine
 10
105.0147999999999
 20
107.2
 30
0.0
 11
105.0147999999999
 21
104.4
 31
0.0
  0
LINE
  5
295
330
1E
100
AcDbEntity
  8
0
100
AcDbLine
 10
114.0
 20
109.4
 30
0.0
 11
114.3599999999999
 21
110.0
 31
0.0
  0
LINE
  5
296
330
1E
100
AcDbEntity
  8
0
100
AcDbLine
 10
114.0
 20
109.4
 30
0.0
 11
114.0
 21
108.0
 31
0.0
  0
LINE
  5
297
330
1E
100
AcDbEntity
  8
0
100
AcDbLine
 10
129.0
 20
110.0
 30
0.0
 11
132.78
 21
110.0
 31
0.0
  0
LINE
  5
298
330
1E
100
AcDbEntity
  8
0
100
AcDbLine
 10
132.78
 20
110.0
 30
0.0
 11
136.26
 21
110.0
 31
0.0
  0
LINE
  5
299
330
1E
100
AcDbEntity
  8
0
100
AcDbLine
 10
136.26
 20
110.0
 30
0.0
 11
139.32
 21
110.0
 31
0.0
  0
LINE
  5
29A
330
1E
100
AcDbEntity
  8
0
100
AcDbLine
 10
139.32
 20
110.0
 30
0.0
 11
141.66
 21
110.0
 31
0.0
  0
LINE
  5
29B
330
1E
100
AcDbEntity
  8
0
100
AcDbLine
 10
125.2199999999999
 20
110.0
 30
0.0
 11
129.0
 21
110.0
 31
0.0
  0
LINE
  5
29C
330
1E
100
AcDbEntity
  8
0
100
AcDbLine
 10
121.74
 20
110.0
 30
0.0
 11
125.2199999999999
 21
110.0
 31
0.0
  0
LINE
  5
29D
330
1E
100
AcDbEntity
  8
0
100
AcDbLine
 10
118.68
 20
110.0
 30
0.0
 11
121.74
 21
110.0
 31
0.0
  0
LINE
  5
29E
330
1E
100
AcDbEntity
  8
0
100
AcDbLine
 10
116.3399999999999
 20
110.0
 30
0.0
 11
118.68
 21
110.0
 31
0.0
  0
LINE
  5
29F
330
1E
100
AcDbEntity
  8
0
100
AcDbLine
 10
114.9
 20
110.0
 30
0.0
 11
116.3399999999999
 21
110.0
 31
0.0
  0
LINE
  5
2A0
330
1E
100
AcDbEntity
  8
0
100
AcDbLine
 10
114.3599999999999
 20
110.0
 30
0.0
 11
114.9
 21
110.0
 31
0.0
  0
LINE
  5
2A1
330
1E
100
AcDbEntity
  8
0
100
AcDbLine
 10
108.5494999999999
 20
109.4999999999999
 30
0.0
 11
108.5494999999999
 21
108.9
 31
0.0
  0
LINE
  5
2A2
330
1E
100
AcDbEntity
  8
0
100
AcDbLine
 10
108.5494999999999
 20
109.4999999999999
 30
0.0
 11
109.0545
 21
108.4999999999999
 31
0.0
  0
LINE
  5
2A3
330
1E
100
AcDbEntity
  8
0
100
AcDbLine
 10
107.0346999999999
 20
110.0
 30
0.0
 11
108.5494999999999
 21
109.4999999999999
 31
0.0
  0
LINE
  5
2A4
330
1E
100
AcDbEntity
  8
0
100
AcDbLine
 10
106.5297
 20
110.0
 30
0.0
 11
107.0346999999999
 21
110.0
 31
0.0
  0
LINE
  5
2A5
330
1E
100
AcDbEntity
  8
0
100
AcDbLine
 10
105.0147999999999
 20
109.4999999999999
 30
0.0
 11
105.0147999999999
 21
108.9
 31
0.0
  0
LINE
  5
2A6
330
1E
100
AcDbEntity
  8
0
100
AcDbLine
 10
105.0147999999999
 20
109.4999999999999
 30
0.0
 11
106.5297
 21
110.0
 31
0.0
  0
LINE
  5
2A7
330
1E
100
AcDbEntity
  8
0
100
AcDbLine
 10
105.0147999999999
 20
108.9
 30
0.0
 11
105.0147999999999
 21
109.4999999999999
 31
0.0
  0
LINE
  5
2A8
330
1E
100
AcDbEntity
  8
0
100
AcDbLine
 10
105.0147999999999
 20
108.9
 30
0.0
 11
105.0147999999999
 21
107.2
 31
0.0
  0
LINE
  5
2A9
330
1E
100
AcDbEntity
  8
0
100
AcDbLine
 10
104.5099
 20
105.4999999999999
 30
0.0
 11
104.5099
 21
105.0
 31
0.0
  0
LINE
  5
2AA
330
1E
100
AcDbEntity
  8
0
100
AcDbLine
 10
104.5099
 20
105.0
 30
0.0
 11
104.5099
 21
105.4999999999999
 31
0.0
  0
LINE
  5
2AB
330
1E
100
AcDbEntity
  8
0
100
AcDbLine
 10
104.5099
 20
105.0
 30
0.0
 11
104.5099
 21
103.7
 31
0.0
  0
LINE
  5
2AC
330
1E
100
AcDbEntity
  8
0
100
AcDbLine
 10
53.5
 20
105.0
 30
0.0
 11
103.4999999999999
 21
105.0
 31
0.0
  0
LINE
  5
2AD
330
1E
100
AcDbEntity
  8
0
100
AcDbLine
 10
53.5
 20
1.5
 30
0.0
 11
54.0
 21
-0.0000000000000015
 31
0.0
  0
LINE
  5
2AE
330
1E
100
AcDbEntity
  8
0
100
AcDbLine
 10
53.5
 20
1.5
 30
0.0
 11
54.0
 21
-0.0000000000000014
 31
0.0
  0
LINE
  5
2AF
330
1E
100
AcDbEntity
  8
0
100
AcDbLine
 10
53.1
 20
-0.0000000000000018
 30
0.0
 11
54.0
 21
-0.0000000000000014
 31
0.0
  0
LINE
  5
2B0
330
1E
100
AcDbEntity
  8
0
100
AcDbLine
 10
120.5909
 20
111.4999999999999
 30
0.0
 11
123.0909
 21
111.4999999999999
 31
0.0
  0
LINE
  5
2B1
330
1E
100
AcDbEntity
  8
0
100
AcDbLine
 10
137.409
 20
111.4999999999999
 30
0.0
 11
139.341
 21
111.4999999999999
 31
0.0
  0
LINE
  5
2B2
330
1E
100
AcDbEntity
  8
0
100
AcDbLine
 10
139.341
 20
111.4999999999999
 30
0.0
 11
140.477
 21
111.4999999999999
 31
0.0
  0
LINE
  5
2B3
330
1E
100
AcDbEntity
  8
0
100
AcDbLine
 10
134.9089999999999
 20
111.4999999999999
 30
0.0
 11
137.409
 21
111.4999999999999
 31
0.0
  0
LINE
  5
2B4
330
1E
100
AcDbEntity
  8
0
100
AcDbLine
 10
132.0679999999999
 20
111.4999999999999
 30
0.0
 11
134.9089999999999
 21
111.4999999999999
 31
0.0
  0
LINE
  5
2B5
330
1E
100
AcDbEntity
  8
0
100
AcDbLine
 10
129.0
 20
111.4999999999999
 30
0.0
 11
132.0679999999999
 21
111.4999999999999
 31
0.0
  0
LINE
  5
2B6
330
1E
100
AcDbEntity
  8
0
100
AcDbLine
 10
123.0909
 20
111.4999999999999
 30
0.0
 11
125.9317999999999
 21
111.4999999999999
 31
0.0
  0
LINE
  5
2B7
330
1E
100
AcDbEntity
  8
0
100
AcDbLine
 10
125.9317999999999
 20
111.4999999999999
 30
0.0
 11
129.0
 21
111.4999999999999
 31
0.0
  0
LINE
  5
2B8
330
1E
100
AcDbEntity
  8
0
100
AcDbLine
 10
118.6590999999999
 20
111.4999999999999
 30
0.0
 11
120.5909
 21
111.4999999999999
 31
0.0
  0
LINE
  5
2B9
330
1E
100
AcDbEntity
  8
0
100
AcDbLine
 10
117.5227
 20
111.4999999999999
 30
0.0
 11
118.6590999999999
 21
111.4999999999999
 31
0.0
  0
LINE
  5
2BA
330
1E
100
AcDbEntity
  8
0
100
AcDbLine
 10
117.0682
 20
111.4999999999999
 30
0.0
 11
117.5227
 21
111.4999999999999
 31
0.0
  0
LINE
  5
2BB
330
1E
100
AcDbEntity
  8
0
100
AcDbLine
 10
117.0682
 20
111.4999999999999
 30
0.0
 11
118.501329314813
 21
111.920395809567
 31
0.0
  0
LINE
  5
2BC
330
1E
100
AcDbEntity
  8
0
100
AcDbLine
 10
116.5
 20
110.0
 30
0.0
 11
117.0682
 21
111.4999999999999
 31
0.0
  0
LINE
  5
2BD
330
1E
100
AcDbEntity
  8
0
100
AcDbLine
 10
140.4
 20
-0.0000000000000026
 30
0.0
 11
145.1999999999999
 21
-0.0000000000000024
 31
0.0
  0
LINE
  5
2BE
330
1E
100
AcDbEntity
  8
0
100
AcDbLine
 10
140.0
 20
8.0
 30
0.0
 11
140.0
 21
7.0
 31
0.0
  0
LINE
  5
2BF
330
1E
100
AcDbEntity
  8
0
100
AcDbLine
 10
140.0999999999999
 20
34.5
 30
0.0
 11
140.5
 21
34.5
 31
0.0
  0
LINE
  5
2C0
330
1E
100
AcDbEntity
  8
0
100
AcDbLine
 10
140.0
 20
7.0
 30
0.0
 11
141.0
 21
5.5
 31
0.0
  0
LINE
  5
2C1
330
1E
100
AcDbEntity
  8
0
100
AcDbLine
 10
140.0
 20
7.0
 30
0.0
 11
140.0
 21
8.0
 31
0.0
  0
LINE
  5
2C2
330
1E
100
AcDbEntity
  8
0
100
AcDbLine
 10
140.4
 20
-0.0000000000000002
 30
0.0
 11
145.1999999999999
 21
-0.0000000000000004
 31
0.0
  0
LINE
  5
2C3
330
1E
100
AcDbEntity
  8
0
100
AcDbLine
 10
145.1999999999999
 20
-0.0000000000000024
 30
0.0
 11
148.9
 21
-0.0000000000000021
 31
0.0
  0
LINE
  5
2CC
330
1E
100
AcDbEntity
  8
0
100
AcDbLine
 10
148.9
 20
-0.0000000000000021
 30
0.0
 11
151.2
 21
-0.0000000000000018
 31
0.0
  0
LINE
  5
2CD
330
1E
100
AcDbEntity
  8
0
100
AcDbLine
 10
151.2
 20
-0.0000000000000018
 30
0.0
 11
152.0
 21
-0.0000000000000014
 31
0.0
  0
LINE
  5
2CE
330
1E
100
AcDbEntity
  8
0
100
AcDbLine
 10
151.2
 20
-0.000000000000001
 30
0.0
 11
152.0
 21
-0.0000000000000014
 31
0.0
  0
LINE
  5
2D7
330
1E
100
AcDbEntity
  8
0
100
AcDbLine
 10
148.9
 20
-0.0000000000000007
 30
0.0
 11
151.2
 21
-0.000000000000001
 31
0.0
  0
LINE
  5
2D8
330
1E
100
AcDbEntity
  8
0
100
AcDbLine
 10
145.1999999999999
 20
-0.0000000000000004
 30
0.0
 11
148.9
 21
-0.0000000000000007
 31
0.0
  0
LINE
  5
2DE
330
1E
100
AcDbEntity
  8
0
100
AcDbLine
 10
141.0
 20
5.5
 30
0.0
 11
143.5
 21
4.0
 31
0.0
  0
LINE
  5
2DF
330
1E
100
AcDbEntity
  8
0
100
AcDbLine
 10
143.5
 20
4.0
 30
0.0
 11
149.0
 21
3.0
 31
0.0
  0
LINE
  5
2E0
330
1E
100
AcDbEntity
  8
0
100
AcDbLine
 10
149.0
 20
3.0
 30
0.0
 11
150.5
 21
2.5
 31
0.0
  0
LINE
  5
2E1
330
1E
100
AcDbEntity
  8
0
100
AcDbLine
 10
150.5
 20
2.5
 30
0.0
 11
151.5
 21
1.5
 31
0.0
  0
LINE
  5
2E2
330
1E
100
AcDbEntity
  8
0
100
AcDbLine
 10
151.5
 20
1.5
 30
0.0
 11
152.0
 21
-0.0000000000000014
 31
0.0
  0
LINE
  5
2E3
330
1E
100
AcDbEntity
  8
0
100
AcDbLine
 10
151.5
 20
1.5
 30
0.0
 11
152.0
 21
-0.0000000000000015
 31
0.0
  0
LINE
  5
305
330
1E
100
AcDbEntity
  8
0
100
AcDbLine
 10
140.6999999999999
 20
26.0
 30
0.0
 11
142.0
 21
26.0
 31
0.0
  0
LINE
  5
306
330
1E
100
AcDbEntity
  8
0
100
AcDbLine
 10
142.5
 20
26.0
 30
0.0
 11
143.0
 21
27.5
 31
0.0
  0
LINE
  5
307
330
1E
100
AcDbEntity
  8
0
100
AcDbLine
 10
141.0
 20
25.5
 30
0.0
 11
142.5
 21
26.0
 31
0.0
  0
LINE
  5
308
330
1E
100
AcDbEntity
  8
0
100
AcDbLine
 10
140.6999999999999
 20
32.5
 30
0.0
 11
142.0
 21
32.5
 31
0.0
  0
LINE
  5
309
330
1E
100
AcDbEntity
  8
0
100
AcDbLine
 10
143.0
 20
31.0
 30
0.0
 11
143.0
 21
27.5
 31
0.0
  0
LINE
  5
30A
330
1E
100
AcDbEntity
  8
0
100
AcDbLine
 10
142.0
 20
32.5
 30
0.0
 11
142.5
 21
32.5
 31
0.0
  0
LINE
  5
30B
330
1E
100
AcDbEntity
  8
0
100
AcDbLine
 10
140.5
 20
34.5
 30
0.0
 11
141.0
 21
33.0
 31
0.0
  0
LINE
  5
30C
330
1E
100
AcDbEntity
  8
0
100
AcDbLine
 10
141.0
 20
33.0
 30
0.0
 11
142.5
 21
32.5
 31
0.0
  0
LINE
  5
30D
330
1E
100
AcDbEntity
  8
0
100
AcDbLine
 10
140.5999999999999
 20
33.0
 30
0.0
 11
141.0
 21
33.0
 31
0.0
  0
LINE
  5
30E
330
1E
100
AcDbEntity
  8
0
100
AcDbLine
 10
142.5
 20
32.5
 30
0.0
 11
143.0
 21
31.0
 31
0.0
  0
LINE
  5
30F
330
1E
100
AcDbEntity
  8
0
100
AcDbLine
 10
143.0
 20
27.5
 30
0.0
 11
143.0
 21
31.0
 31
0.0
  0
LINE
  5
310
330
1E
100
AcDbEntity
  8
0
100
AcDbLine
 10
142.0
 20
26.0
 30
0.0
 11
142.5
 21
26.0
 31
0.0
  0
LINE
  5
341
330
1E
100
AcDbEntity
  8
0
100
AcDbLine
 10
149.451
 20
75.09999999999999
 30
0.0
 11
149.451
 21
74.5
 31
0.0
  0
LINE
  5
342
330
1E
100
AcDbEntity
  8
0
100
AcDbLine
 10
149.451
 20
75.09999999999999
 30
0.0
 11
149.451
 21
76.79999999999999
 31
0.0
  0
LINE
  5
343
330
1E
100
AcDbEntity
  8
0
100
AcDbLine
 10
149.451
 20
74.5
 30
0.0
 11
150.965
 21
74.0
 31
0.0
  0
LINE
  5
344
330
1E
100
AcDbEntity
  8
0
100
AcDbLine
 10
149.451
 20
74.5
 30
0.0
 11
149.451
 21
75.09999999999999
 31
0.0
  0
LINE
  5
345
330
1E
100
AcDbEntity
  8
0
100
AcDbLine
 10
150.965
 20
74.0
 30
0.0
 11
151.4699999999999
 21
74.0
 31
0.0
  0
LINE
  5
346
330
1E
100
AcDbEntity
  8
0
100
AcDbLine
 10
151.4699999999999
 20
74.0
 30
0.0
 11
152.985
 21
74.5
 31
0.0
  0
LINE
  5
347
330
1E
100
AcDbEntity
  8
0
100
AcDbLine
 10
147.9359999999999
 20
76.0
 30
0.0
 11
148.946
 21
75.5
 31
0.0
  0
LINE
  5
348
330
1E
100
AcDbEntity
  8
0
100
AcDbLine
 10
148.946
 20
76.09999999999999
 30
0.0
 11
148.946
 21
75.5
 31
0.0
  0
LINE
  5
349
330
1E
100
AcDbEntity
  8
0
100
AcDbLine
 10
148.946
 20
76.09999999999999
 30
0.0
 11
148.946
 21
77.7
 31
0.0
  0
LINE
  5
34A
330
1E
100
AcDbEntity
  8
0
100
AcDbLine
 10
148.946
 20
75.5
 30
0.0
 11
149.451
 21
74.5
 31
0.0
  0
LINE
  5
34B
330
1E
100
AcDbEntity
  8
0
100
AcDbLine
 10
148.946
 20
75.5
 30
0.0
 11
148.946
 21
76.09999999999999
 31
0.0
  0
LINE
  5
34C
330
1E
100
AcDbEntity
  8
0
100
AcDbLine
 10
148.946
 20
77.7
 30
0.0
 11
148.946
 21
76.09999999999999
 31
0.0
  0
LINE
  5
34D
330
1E
100
AcDbEntity
  8
0
100
AcDbLine
 10
148.946
 20
77.7
 30
0.0
 11
148.946
 21
80.4
 31
0.0
  0
LINE
  5
34E
330
1E
100
AcDbEntity
  8
0
100
AcDbLine
 10
149.451
 20
76.79999999999999
 30
0.0
 11
149.451
 21
75.09999999999999
 31
0.0
  0
LINE
  5
34F
330
1E
100
AcDbEntity
  8
0
100
AcDbLine
 10
149.451
 20
76.79999999999999
 30
0.0
 11
149.451
 21
79.59999999999999
 31
0.0
  0
LINE
  5
350
330
1E
100
AcDbEntity
  8
0
100
AcDbLine
 10
152.985
 20
76.79999999999999
 30
0.0
 11
152.985
 21
75.09999999999999
 31
0.0
  0
LINE
  5
351
330
1E
100
AcDbEntity
  8
0
100
AcDbLine
 10
152.985
 20
76.79999999999999
 30
0.0
 11
152.985
 21
79.59999999999999
 31
0.0
  0
LINE
  5
352
330
1E
100
AcDbEntity
  8
0
100
AcDbLine
 10
152.985
 20
75.09999999999999
 30
0.0
 11
152.985
 21
74.5
 31
0.0
  0
LINE
  5
353
330
1E
100
AcDbEntity
  8
0
100
AcDbLine
 10
152.985
 20
75.09999999999999
 30
0.0
 11
152.985
 21
76.79999999999999
 31
0.0
  0
LINE
  5
354
330
1E
100
AcDbEntity
  8
0
100
AcDbLine
 10
153.49
 20
76.0
 30
0.0
 11
153.49
 21
76.6
 31
0.0
  0
LINE
  5
355
330
1E
100
AcDbEntity
  8
0
100
AcDbLine
 10
152.985
 20
74.5
 30
0.0
 11
153.49
 21
76.0
 31
0.0
  0
LINE
  5
356
330
1E
100
AcDbEntity
  8
0
100
AcDbLine
 10
152.985
 20
74.5
 30
0.0
 11
152.985
 21
75.09999999999999
 31
0.0
  0
LINE
  5
357
330
1E
100
AcDbEntity
  8
0
100
AcDbLine
 10
153.49
 20
78.09999999999999
 30
0.0
 11
153.49
 21
76.6
 31
0.0
  0
LINE
  5
358
330
1E
100
AcDbEntity
  8
0
100
AcDbLine
 10
153.49
 20
78.09999999999999
 30
0.0
 11
153.49
 21
80.7
 31
0.0
  0
LINE
  5
359
330
1E
100
AcDbEntity
  8
0
100
AcDbLine
 10
153.49
 20
76.6
 30
0.0
 11
153.49
 21
76.0
 31
0.0
  0
LINE
  5
35A
330
1E
100
AcDbEntity
  8
0
100
AcDbLine
 10
153.49
 20
76.6
 30
0.0
 11
153.49
 21
78.09999999999999
 31
0.0
  0
LINE
  5
35C
330
1E
100
AcDbEntity
  8
0
100
AcDbLine
 10
153.49
 20
78.5
 30
0.0
 11
154.4999999999999
 21
79.0
 31
0.0
  0
LINE
  5
35E
330
1E
100
AcDbEntity
  8
0
100
AcDbLine
 10
148.946
 20
80.4
 30
0.0
 11
148.946
 21
77.7
 31
0.0
  0
LINE
  5
35F
330
1E
100
AcDbEntity
  8
0
100
AcDbLine
 10
148.946
 20
80.4
 30
0.0
 11
148.946
 21
83.8
 31
0.0
  0
LINE
  5
360
330
1E
100
AcDbEntity
  8
0
100
AcDbLine
 10
149.451
 20
79.59999999999999
 30
0.0
 11
149.451
 21
76.79999999999999
 31
0.0
  0
LINE
  5
361
330
1E
100
AcDbEntity
  8
0
100
AcDbLine
 10
149.451
 20
79.59999999999999
 30
0.0
 11
149.451
 21
83.3
 31
0.0
  0
LINE
  5
362
330
1E
100
AcDbEntity
  8
0
100
AcDbLine
 10
152.985
 20
79.59999999999999
 30
0.0
 11
152.985
 21
76.79999999999999
 31
0.0
  0
LINE
  5
363
330
1E
100
AcDbEntity
  8
0
100
AcDbLine
 10
152.985
 20
79.59999999999999
 30
0.0
 11
152.985
 21
83.3
 31
0.0
  0
LINE
  5
364
330
1E
100
AcDbEntity
  8
0
100
AcDbLine
 10
153.49
 20
80.7
 30
0.0
 11
153.49
 21
78.09999999999999
 31
0.0
  0
LINE
  5
365
330
1E
100
AcDbEntity
  8
0
100
AcDbLine
 10
153.49
 20
80.7
 30
0.0
 11
153.49
 21
84.0
 31
0.0
  0
LINE
  5
36C
330
1E
100
AcDbEntity
  8
0
100
AcDbLine
 10
148.946
 20
83.8
 30
0.0
 11
148.946
 21
80.4
 31
0.0
  0
LINE
  5
36D
330
1E
100
AcDbEntity
  8
0
100
AcDbLine
 10
148.946
 20
83.8
 30
0.0
 11
148.946
 21
87.79999999999999
 31
0.0
  0
LINE
  5
36E
330
1E
100
AcDbEntity
  8
0
100
AcDbLine
 10
149.451
 20
83.3
 30
0.0
 11
149.451
 21
79.59999999999999
 31
0.0
  0
LINE
  5
36F
330
1E
100
AcDbEntity
  8
0
100
AcDbLine
 10
149.451
 20
83.3
 30
0.0
 11
149.451
 21
87.5
 31
0.0
  0
LINE
  5
370
330
1E
100
AcDbEntity
  8
0
100
AcDbLine
 10
152.985
 20
83.3
 30
0.0
 11
152.985
 21
79.59999999999999
 31
0.0
  0
LINE
  5
371
330
1E
100
AcDbEntity
  8
0
100
AcDbLine
 10
152.985
 20
83.3
 30
0.0
 11
152.985
 21
87.5
 31
0.0
  0
LINE
  5
372
330
1E
100
AcDbEntity
  8
0
100
AcDbLine
 10
148.946
 20
87.79999999999999
 30
0.0
 11
148.946
 21
83.8
 31
0.0
  0
LINE
  5
373
330
1E
100
AcDbEntity
  8
0
100
AcDbLine
 10
148.946
 20
87.79999999999999
 30
0.0
 11
148.946
 21
92.0
 31
0.0
  0
LINE
  5
374
330
1E
100
AcDbEntity
  8
0
100
AcDbLine
 10
149.451
 20
87.5
 30
0.0
 11
149.451
 21
83.3
 31
0.0
  0
LINE
  5
375
330
1E
100
AcDbEntity
  8
0
100
AcDbLine
 10
149.451
 20
87.5
 30
0.0
 11
149.451
 21
92.0
 31
0.0
  0
LINE
  5
376
330
1E
100
AcDbEntity
  8
0
100
AcDbLine
 10
152.985
 20
87.5
 30
0.0
 11
152.985
 21
83.3
 31
0.0
  0
LINE
  5
377
330
1E
100
AcDbEntity
  8
0
100
AcDbLine
 10
152.985
 20
87.5
 30
0.0
 11
152.985
 21
92.0
 31
0.0
  0
LINE
  5
378
330
1E
100
AcDbEntity
  8
0
100
AcDbLine
 10
153.49
 20
84.0
 30
0.0
 11
153.49
 21
80.7
 31
0.0
  0
LINE
  5
379
330
1E
100
AcDbEntity
  8
0
100
AcDbLine
 10
153.49
 20
84.0
 30
0.0
 11
153.49
 21
87.9
 31
0.0
  0
LINE
  5
37A
330
1E
100
AcDbEntity
  8
0
100
AcDbLine
 10
153.49
 20
87.9
 30
0.0
 11
153.49
 21
84.0
 31
0.0
  0
LINE
  5
37B
330
1E
100
AcDbEntity
  8
0
100
AcDbLine
 10
153.49
 20
87.9
 30
0.0
 11
153.49
 21
92.0
 31
0.0
  0
LINE
  5
380
330
1E
100
AcDbEntity
  8
0
100
AcDbLine
 10
148.946
 20
92.0
 30
0.0
 11
148.946
 21
87.79999999999999
 31
0.0
  0
LINE
  5
381
330
1E
100
AcDbEntity
  8
0
100
AcDbLine
 10
148.946
 20
92.0
 30
0.0
 11
148.946
 21
96.2
 31
0.0
  0
LINE
  5
382
330
1E
100
AcDbEntity
  8
0
100
AcDbLine
 10
149.451
 20
92.0
 30
0.0
 11
149.451
 21
87.5
 31
0.0
  0
LINE
  5
383
330
1E
100
AcDbEntity
  8
0
100
AcDbLine
 10
149.451
 20
92.0
 30
0.0
 11
149.451
 21
96.5
 31
0.0
  0
LINE
  5
384
330
1E
100
AcDbEntity
  8
0
100
AcDbLine
 10
152.985
 20
92.0
 30
0.0
 11
152.985
 21
87.5
 31
0.0
  0
LINE
  5
385
330
1E
100
AcDbEntity
  8
0
100
AcDbLine
 10
152.985
 20
92.0
 30
0.0
 11
152.985
 21
96.5
 31
0.0
  0
LINE
  5
386
330
1E
100
AcDbEntity
  8
0
100
AcDbLine
 10
153.49
 20
92.0
 30
0.0
 11
153.49
 21
87.9
 31
0.0
  0
LINE
  5
387
330
1E
100
AcDbEntity
  8
0
100
AcDbLine
 10
153.49
 20
92.0
 30
0.0
 11
153.49
 21
96.09999999999999
 31
0.0
  0
LINE
  5
3C8
330
1E
100
AcDbEntity
  8
0
100
AcDbLine
 10
148.946
 20
96.2
 30
0.0
 11
148.946
 21
92.0
 31
0.0
  0
LINE
  5
3C9
330
1E
100
AcDbEntity
  8
0
100
AcDbLine
 10
148.946
 20
96.2
 30
0.0
 11
148.946
 21
100.2
 31
0.0
  0
LINE
  5
3CA
330
1E
100
AcDbEntity
  8
0
100
AcDbLine
 10
149.451
 20
96.5
 30
0.0
 11
149.451
 21
92.0
 31
0.0
  0
LINE
  5
3CB
330
1E
100
AcDbEntity
  8
0
100
AcDbLine
 10
149.451
 20
96.5
 30
0.0
 11
149.451
 21
100.7
 31
0.0
  0
LINE
  5
3CC
330
1E
100
AcDbEntity
  8
0
100
AcDbLine
 10
152.985
 20
96.5
 30
0.0
 11
152.985
 21
92.0
 31
0.0
  0
LINE
  5
3CD
330
1E
100
AcDbEntity
  8
0
100
AcDbLine
 10
152.985
 20
96.5
 30
0.0
 11
152.985
 21
100.7
 31
0.0
  0
LINE
  5
3CE
330
1E
100
AcDbEntity
  8
0
100
AcDbLine
 10
153.49
 20
96.09999999999999
 30
0.0
 11
153.49
 21
92.0
 31
0.0
  0
LINE
  5
3CF
330
1E
100
AcDbEntity
  8
0
100
AcDbLine
 10
153.49
 20
96.09999999999999
 30
0.0
 11
153.49
 21
100.0
 31
0.0
  0
LINE
  5
3D4
330
1E
100
AcDbEntity
  8
0
100
AcDbLine
 10
148.946
 20
100.2
 30
0.0
 11
148.946
 21
96.2
 31
0.0
  0
LINE
  5
3D5
330
1E
100
AcDbEntity
  8
0
100
AcDbLine
 10
148.946
 20
100.2
 30
0.0
 11
148.946
 21
103.6
 31
0.0
  0
LINE
  5
3D6
330
1E
100
AcDbEntity
  8
0
100
AcDbLine
 10
149.451
 20
100.7
 30
0.0
 11
149.451
 21
96.5
 31
0.0
  0
LINE
  5
3D7
330
1E
100
AcDbEntity
  8
0
100
AcDbLine
 10
149.451
 20
100.7
 30
0.0
 11
149.451
 21
104.4
 31
0.0
  0
LINE
  5
3D8
330
1E
100
AcDbEntity
  8
0
100
AcDbLine
 10
152.985
 20
100.7
 30
0.0
 11
152.985
 21
96.5
 31
0.0
  0
LINE
  5
3D9
330
1E
100
AcDbEntity
  8
0
100
AcDbLine
 10
152.985
 20
100.7
 30
0.0
 11
152.985
 21
104.4
 31
0.0
  0
LINE
  5
3DA
330
1E
100
AcDbEntity
  8
0
100
AcDbLine
 10
153.49
 20
100.0
 30
0.0
 11
153.49
 21
96.09999999999999
 31
0.0
  0
LINE
  5
3DB
330
1E
100
AcDbEntity
  8
0
100
AcDbLine
 10
153.49
 20
100.0
 30
0.0
 11
153.49
 21
103.2999999999999
 31
0.0
  0
LINE
  5
3E4
330
1E
100
AcDbEntity
  8
0
100
AcDbLine
 10
148.946
 20
103.6
 30
0.0
 11
148.946
 21
106.2999999999999
 31
0.0
  0
LINE
  5
3E5
330
1E
100
AcDbEntity
  8
0
100
AcDbLine
 10
148.946
 20
103.6
 30
0.0
 11
148.946
 21
100.2
 31
0.0
  0
LINE
  5
3E6
330
1E
100
AcDbEntity
  8
0
100
AcDbLine
 10
149.451
 20
104.4
 30
0.0
 11
149.451
 21
107.2
 31
0.0
  0
LINE
  5
3E7
330
1E
100
AcDbEntity
  8
0
100
AcDbLine
 10
149.451
 20
104.4
 30
0.0
 11
149.451
 21
100.7
 31
0.0
  0
LINE
  5
3E8
330
1E
100
AcDbEntity
  8
0
100
AcDbLine
 10
152.985
 20
104.4
 30
0.0
 11
152.985
 21
107.2
 31
0.0
  0
LINE
  5
3E9
330
1E
100
AcDbEntity
  8
0
100
AcDbLine
 10
152.985
 20
104.4
 30
0.0
 11
152.985
 21
100.7
 31
0.0
  0
LINE
  5
3EB
330
1E
100
AcDbEntity
  8
0
100
AcDbLine
 10
153.49
 20
103.2999999999999
 30
0.0
 11
153.49
 21
105.9
 31
0.0
  0
LINE
  5
3EC
330
1E
100
AcDbEntity
  8
0
100
AcDbLine
 10
153.49
 20
103.2999999999999
 30
0.0
 11
153.49
 21
100.0
 31
0.0
  0
LINE
  5
3F4
330
1E
100
AcDbEntity
  8
0
100
AcDbLine
 10
153.49
 20
105.9
 30
0.0
 11
153.49
 21
103.2999999999999
 31
0.0
  0
LINE
  5
3F5
330
1E
100
AcDbEntity
  8
0
100
AcDbLine
 10
153.49
 20
105.9
 30
0.0
 11
153.49
 21
107.4
 31
0.0
  0
LINE
  5
3F6
330
1E
100
AcDbEntity
  8
0
100
AcDbLine
 10
153.49
 20
105.4999999999999
 30
0.0
 11
154.4999999999999
 21
105.0
 31
0.0
  0
LINE
  5
3F9
330
1E
100
AcDbEntity
  8
0
100
AcDbLine
 10
148.946
 20
106.2999999999999
 30
0.0
 11
148.946
 21
103.6
 31
0.0
  0
LINE
  5
3FA
330
1E
100
AcDbEntity
  8
0
100
AcDbLine
 10
148.946
 20
106.2999999999999
 30
0.0
 11
148.946
 21
107.9
 31
0.0
  0
LINE
  5
403
330
1E
100
AcDbEntity
  8
0
100
AcDbLine
 10
144.0
 20
107.9376419269319
 30
0.0
 11
144.0
 21
109.4
 31
0.0
  0
LINE
  5
404
330
1E
100
AcDbEntity
  8
0
100
AcDbLine
 10
141.66
 20
110.0
 30
0.0
 11
143.1
 21
110.0
 31
0.0
  0
LINE
  5
405
330
1E
100
AcDbEntity
  8
0
100
AcDbLine
 10
143.1
 20
110.0
 30
0.0
 11
143.6399999999999
 21
110.0
 31
0.0
  0
LINE
  5
406
330
1E
100
AcDbEntity
  8
0
100
AcDbLine
 10
143.6399999999999
 20
110.0
 30
0.0
 11
144.0
 21
109.4
 31
0.0
  0
LINE
  5
407
330
1E
100
AcDbEntity
  8
0
100
AcDbLine
 10
144.0
 20
109.4
 30
0.0
 11
144.0
 21
107.9376419269319
 31
0.0
  0
LINE
  5
408
330
1E
100
AcDbEntity
  8
0
100
AcDbLine
 10
148.946
 20
107.9
 30
0.0
 11
148.946
 21
106.2999999999999
 31
0.0
  0
LINE
  5
409
330
1E
100
AcDbEntity
  8
0
100
AcDbLine
 10
148.946
 20
107.9
 30
0.0
 11
148.946
 21
108.4999999999999
 31
0.0
  0
LINE
  5
40A
330
1E
100
AcDbEntity
  8
0
100
AcDbLine
 10
149.451
 20
107.2
 30
0.0
 11
149.451
 21
104.4
 31
0.0
  0
LINE
  5
40B
330
1E
100
AcDbEntity
  8
0
100
AcDbLine
 10
149.451
 20
107.2
 30
0.0
 11
149.451
 21
108.9
 31
0.0
  0
LINE
  5
40C
330
1E
100
AcDbEntity
  8
0
100
AcDbLine
 10
147.9359999999999
 20
108.0
 30
0.0
 11
148.946
 21
108.4999999999999
 31
0.0
  0
LINE
  5
40D
330
1E
100
AcDbEntity
  8
0
100
AcDbLine
 10
149.451
 20
108.9
 30
0.0
 11
149.451
 21
107.2
 31
0.0
  0
LINE
  5
40E
330
1E
100
AcDbEntity
  8
0
100
AcDbLine
 10
149.451
 20
108.9
 30
0.0
 11
149.451
 21
109.4999999999999
 31
0.0
  0
LINE
  5
40F
330
1E
100
AcDbEntity
  8
0
100
AcDbLine
 10
148.946
 20
108.4999999999999
 30
0.0
 11
149.451
 21
109.4999999999999
 31
0.0
  0
LINE
  5
410
330
1E
100
AcDbEntity
  8
0
100
AcDbLine
 10
148.946
 20
108.4999999999999
 30
0.0
 11
148.946
 21
107.9
 31
0.0
  0
LINE
  5
411
330
1E
100
AcDbEntity
  8
0
100
AcDbLine
 10
152.985
 20
107.2
 30
0.0
 11
152.985
 21
104.4
 31
0.0
  0
LINE
  5
412
330
1E
100
AcDbEntity
  8
0
100
AcDbLine
 10
152.985
 20
107.2
 30
0.0
 11
152.985
 21
108.9
 31
0.0
  0
LINE
  5
413
330
1E
100
AcDbEntity
  8
0
100
AcDbLine
 10
153.49
 20
107.4
 30
0.0
 11
153.49
 21
105.9
 31
0.0
  0
LINE
  5
414
330
1E
100
AcDbEntity
  8
0
100
AcDbLine
 10
153.49
 20
107.4
 30
0.0
 11
153.49
 21
108.0
 31
0.0
  0
LINE
  5
415
330
1E
100
AcDbEntity
  8
0
100
AcDbLine
 10
152.985
 20
108.9
 30
0.0
 11
152.985
 21
107.2
 31
0.0
  0
LINE
  5
416
330
1E
100
AcDbEntity
  8
0
100
AcDbLine
 10
152.985
 20
108.9
 30
0.0
 11
152.985
 21
109.4999999999999
 31
0.0
  0
LINE
  5
417
330
1E
100
AcDbEntity
  8
0
100
AcDbLine
 10
153.49
 20
108.0
 30
0.0
 11
153.49
 21
107.4
 31
0.0
  0
LINE
  5
418
330
1E
100
AcDbEntity
  8
0
100
AcDbLine
 10
149.451
 20
109.4999999999999
 30
0.0
 11
150.965
 21
110.0
 31
0.0
  0
LINE
  5
419
330
1E
100
AcDbEntity
  8
0
100
AcDbLine
 10
149.451
 20
109.4999999999999
 30
0.0
 11
149.451
 21
108.9
 31
0.0
  0
LINE
  5
41A
330
1E
100
AcDbEntity
  8
0
100
AcDbLine
 10
150.965
 20
110.0
 30
0.0
 11
151.4699999999999
 21
110.0
 31
0.0
  0
LINE
  5
41B
330
1E
100
AcDbEntity
  8
0
100
AcDbLine
 10
151.4699999999999
 20
110.0
 30
0.0
 11
152.985
 21
109.4999999999999
 31
0.0
  0
LINE
  5
41C
330
1E
100
AcDbEntity
  8
0
100
AcDbLine
 10
152.985
 20
109.4999999999999
 30
0.0
 11
153.49
 21
108.0
 31
0.0
  0
LINE
  5
41D
330
1E
100
AcDbEntity
  8
0
100
AcDbLine
 10
152.985
 20
109.4999999999999
 30
0.0
 11
152.985
 21
108.9
 31
0.0
  0
LINE
  5
41E
330
1E
100
AcDbEntity
  8
0
100
AcDbLine
 10
144.0
 20
108.0
 30
0.0
 11
147.9359999999999
 21
108.0
 31
0.0
  0
LINE
  5
46E
330
1E
100
AcDbEntity
  8
0
100
AcDbLine
 10
140.477
 20
111.4999999999999
 30
0.0
 11
140.932
 21
111.4999999999999
 31
0.0
  0
LINE
  5
46F
330
1E
100
AcDbEntity
  8
0
100
AcDbLine
 10
140.932
 20
111.4999999999999
 30
0.0
 11
141.5
 21
110.0
 31
0.0
  0
LINE
  5
470
330
1E
100
AcDbEntity
  8
0
100
AcDbLine
 10
139.5
 20
111.919941348974
 30
0.0
 11
139.5
 21
224.4592727272729
 31
0.0
  0
LINE
  5
471
330
1E
100
AcDbEntity
  8
0
100
AcDbLine
 10
139.5
 20
111.919941348974
 30
0.0
 11
140.932
 21
111.4999999999999
 31
0.0
  0
LINE
  5
475
330
1E
100
AcDbEntity
  8
0
100
AcDbLine
 10
118.5
 20
111.920005866823
 30
0.0
 11
118.5
 21
224.4592727272729
 31
0.0
  0
LINE
  5
476
330
1E
100
AcDbEntity
  8
0
100
AcDbLine
 10
44.0
 20
70.0
 30
0.0
 11
44.0
 21
75.4504773075231
 31
0.0
  0
LINE
  5
477
330
1E
100
AcDbEntity
  8
0
100
AcDbLine
 10
44.0
 20
70.0
 30
0.0
 11
45.49999999999999
 21
69.5
 31
0.0
  0
LINE
  5
478
330
1E
100
AcDbEntity
  8
0
100
AcDbLine
 10
36.7
 20
117.0
 30
0.0
 11
39.9
 21
117.0
 31
0.0
  0
LINE
  5
479
330
1E
100
AcDbEntity
  8
0
100
AcDbLine
 10
33.0
 20
117.0
 30
0.0
 11
36.7
 21
117.0
 31
0.0
  0
LINE
  5
47A
330
1E
100
AcDbEntity
  8
0
100
AcDbLine
 10
29.0
 20
117.0
 30
0.0
 11
33.0
 21
117.0
 31
0.0
  0
LINE
  5
47B
330
1E
100
AcDbEntity
  8
0
100
AcDbLine
 10
39.9
 20
117.0
 30
0.0
 11
42.4
 21
117.0
 31
0.0
  0
LINE
  5
47C
330
1E
100
AcDbEntity
  8
0
100
AcDbLine
 10
42.4
 20
117.0
 30
0.0
 11
43.89999999999999
 21
117.0
 31
0.0
  0
LINE
  5
48B
330
1E
100
AcDbEntity
  8
0
100
AcDbLine
 10
44.5
 20
117.0
 30
0.0
 11
45.49999999999999
 21
117.5
 31
0.0
  0
LINE
  5
48C
330
1E
100
AcDbEntity
  8
0
100
AcDbLine
 10
43.89999999999999
 20
117.0
 30
0.0
 11
44.5
 21
117.0
 31
0.0
  0
LINE
  5
48D
330
1E
100
AcDbEntity
  8
0
100
AcDbLine
 10
44.0
 20
115.5
 30
0.0
 11
44.5
 21
117.0
 31
0.0
  0
LINE
  5
48E
330
1E
100
AcDbEntity
  8
0
100
AcDbLine
 10
44.0
 20
115.5
 30
0.0
 11
44.0
 21
108.549399736032
 31
0.0
  0
LINE
  5
48F
330
1E
100
AcDbEntity
  8
0
100
AcDbLine
 10
21.3
 20
117.0
 30
0.0
 11
25.0
 21
117.0
 31
0.0
  0
LINE
  5
490
330
1E
100
AcDbEntity
  8
0
100
AcDbLine
 10
25.0
 20
117.0
 30
0.0
 11
29.0
 21
117.0
 31
0.0
  0
LINE
  5
491
330
1E
100
AcDbEntity
  8
0
100
AcDbLine
 10
15.6
 20
117.0
 30
0.0
 11
18.1
 21
117.0
 31
0.0
  0
LINE
  5
492
330
1E
100
AcDbEntity
  8
0
100
AcDbLine
 10
14.6138050184552
 20
163.3473682708819
 30
0.0
 11
16.29599999999999
 21
163.552
 31
0.0
  0
LINE
  5
493
330
1E
100
AcDbEntity
  8
0
100
AcDbLine
 10
14.5
 20
121.0
 30
0.0
 11
16.0
 21
121.0
 31
0.0
  0
LINE
  5
494
330
1E
100
AcDbEntity
  8
0
100
AcDbLine
 10
14.69999999999999
 20
120.5
 30
0.0
 11
17.3
 21
120.5
 31
0.0
  0
LINE
  5
495
330
1E
100
AcDbEntity
  8
0
100
AcDbLine
 10
17.3
 20
117.5
 30
0.0
 11
20.8
 21
117.5
 31
0.0
  0
LINE
  5
496
330
1E
100
AcDbEntity
  8
0
100
AcDbLine
 10
17.6585
 20
121.0
 30
0.0
 11
21.49999999999999
 21
121.0
 31
0.0
  0
LINE
  5
498
330
1E
100
AcDbEntity
  8
0
100
AcDbLine
 10
18.39999999999999
 20
121.0
 30
0.0
 11
21.49999999999999
 21
121.0
 31
0.0
  0
LINE
  5
499
330
1E
100
AcDbEntity
  8
0
100
AcDbLine
 10
17.3
 20
120.5
 30
0.0
 11
20.8
 21
120.5
 31
0.0
  0
LINE
  5
49A
330
1E
100
AcDbEntity
  8
0
100
AcDbLine
 10
21.49999999999999
 20
121.0
 30
0.0
 11
25.1
 21
121.0
 31
0.0
  0
LINE
  5
49B
330
1E
100
AcDbEntity
  8
0
100
AcDbLine
 10
20.8
 20
120.5
 30
0.0
 11
24.8
 21
120.5
 31
0.0
  0
LINE
  5
49D
330
1E
100
AcDbEntity
  8
0
100
AcDbLine
 10
24.8
 20
120.5
 30
0.0
 11
29.0
 21
120.5
 31
0.0
  0
LINE
  5
49F
330
1E
100
AcDbEntity
  8
0
100
AcDbLine
 10
20.8
 20
117.5
 30
0.0
 11
24.8
 21
117.5
 31
0.0
  0
LINE
  5
4A0
330
1E
100
AcDbEntity
  8
0
100
AcDbLine
 10
37.2
 20
117.5
 30
0.0
 11
40.7
 21
117.5
 31
0.0
  0
LINE
  5
4A1
330
1E
100
AcDbEntity
  8
0
100
AcDbLine
 10
33.2
 20
117.5
 30
0.0
 11
37.2
 21
117.5
 31
0.0
  0
LINE
  5
4A2
330
1E
100
AcDbEntity
  8
0
100
AcDbLine
 10
29.0
 20
117.5
 30
0.0
 11
33.2
 21
117.5
 31
0.0
  0
LINE
  5
4A3
330
1E
100
AcDbEntity
  8
0
100
AcDbLine
 10
40.7
 20
117.5
 30
0.0
 11
43.3
 21
117.5
 31
0.0
  0
LINE
  5
4A5
330
1E
100
AcDbEntity
  8
0
100
AcDbLine
 10
37.2
 20
120.5
 30
0.0
 11
40.7
 21
120.5
 31
0.0
  0
LINE
  5
4A6
330
1E
100
AcDbEntity
  8
0
100
AcDbLine
 10
33.2
 20
120.5
 30
0.0
 11
37.2
 21
120.5
 31
0.0
  0
LINE
  5
4A7
330
1E
100
AcDbEntity
  8
0
100
AcDbLine
 10
29.0
 20
120.5
 30
0.0
 11
33.2
 21
120.5
 31
0.0
  0
LINE
  5
4A9
330
1E
100
AcDbEntity
  8
0
100
AcDbLine
 10
40.7
 20
120.5
 30
0.0
 11
43.3
 21
120.5
 31
0.0
  0
LINE
  5
4AB
330
1E
100
AcDbEntity
  8
0
100
AcDbLine
 10
33.15849999999999
 20
121.0
 30
0.0
 11
39.6
 21
121.0
 31
0.0
  0
LINE
  5
4AC
330
1E
100
AcDbEntity
  8
0
100
AcDbLine
 10
29.0
 20
121.0
 30
0.0
 11
33.15849999999999
 21
121.0
 31
0.0
  0
LINE
  5
4AD
330
1E
100
AcDbEntity
  8
0
100
AcDbLine
 10
32.9
 20
121.0
 30
0.0
 11
39.6
 21
121.0
 31
0.0
  0
LINE
  5
4AE
330
1E
100
AcDbEntity
  8
0
100
AcDbLine
 10
39.6
 20
121.0
 30
0.0
 11
42.0
 21
121.0
 31
0.0
  0
LINE
  5
4AF
330
1E
100
AcDbEntity
  8
0
100
AcDbLine
 10
42.0
 20
121.0
 30
0.0
 11
43.5
 21
121.0
 31
0.0
  0
LINE
  5
4B0
330
1E
100
AcDbEntity
  8
0
100
AcDbLine
 10
42.0
 20
121.0
 30
0.0
 11
44.5
 21
121.0
 31
0.0
  0
LINE
  5
4B1
330
1E
100
AcDbEntity
  8
0
100
AcDbLine
 10
43.5
 20
121.0
 30
0.0
 11
44.0
 21
121.0
 31
0.0
  0
LINE
  5
4B2
330
1E
100
AcDbEntity
  8
0
100
AcDbLine
 10
43.5
 20
121.0
 30
0.0
 11
44.5
 21
121.0
 31
0.0
  0
LINE
  5
4B3
330
1E
100
AcDbEntity
  8
0
100
AcDbLine
 10
43.3
 20
120.5
 30
0.0
 11
44.9
 21
120.5
 31
0.0
  0
LINE
  5
4B4
330
1E
100
AcDbEntity
  8
0
100
AcDbLine
 10
44.5
 20
121.0
 30
0.0
 11
44.5
 21
127.0
 31
0.0
  0
LINE
  5
4B5
330
1E
100
AcDbEntity
  8
0
100
AcDbLine
 10
44.0
 20
121.0
 30
0.0
 11
45.49999999999999
 21
120.5
 31
0.0
  0
LINE
  5
4B6
330
1E
100
AcDbEntity
  8
0
100
AcDbLine
 10
44.9
 20
120.5
 30
0.0
 11
45.49999999999999
 21
120.5
 31
0.0
  0
LINE
  5
4B8
330
1E
100
AcDbEntity
  8
0
100
AcDbLine
 10
43.3
 20
117.5
 30
0.0
 11
44.9
 21
117.5
 31
0.0
  0
LINE
  5
4F4
330
1E
100
AcDbEntity
  8
0
100
AcDbLine
 10
45.49999999999999
 20
120.5
 30
0.0
 11
46.0
 21
119.0
 31
0.0
  0
LINE
  5
4F6
330
1E
100
AcDbEntity
  8
0
100
AcDbLine
 10
45.49999999999999
 20
117.5
 30
0.0
 11
46.0
 21
119.0
 31
0.0
  0
LINE
  5
4F7
330
1E
100
AcDbEntity
  8
0
100
AcDbLine
 10
44.9
 20
117.5
 30
0.0
 11
45.49999999999999
 21
117.5
 31
0.0
  0
LINE
  5
4F8
330
1E
100
AcDbEntity
  8
0
100
AcDbLine
 10
25.1
 20
121.0
 30
0.0
 11
29.0
 21
121.0
 31
0.0
  0
LINE
  5
4F9
330
1E
100
AcDbEntity
  8
0
100
AcDbLine
 10
24.8
 20
117.5
 30
0.0
 11
29.0
 21
117.5
 31
0.0
  0
LINE
  5
4FA
330
1E
100
AcDbEntity
  8
0
100
AcDbLine
 10
17.0
 20
127.0
 30
0.0
 11
17.0
 21
139.0
 31
0.0
  0
LINE
  5
4FB
330
1E
100
AcDbEntity
  8
0
100
AcDbLine
 10
16.29599999999999
 20
163.552
 30
0.0
 11
18.5777
 21
163.857
 31
0.0
  0
LINE
  5
4FC
330
1E
100
AcDbEntity
  8
0
100
AcDbLine
 10
16.29599999999999
 20
172.4479999999999
 30
0.0
 11
18.5777
 21
172.1429999999999
 31
0.0
  0
LINE
  5
4FD
330
1E
100
AcDbEntity
  8
0
100
AcDbLine
 10
17.0
 20
141.5
 30
0.0
 11
17.0
 21
140.0
 31
0.0
  0
LINE
  5
4FE
330
1E
100
AcDbEntity
  8
0
100
AcDbLine
 10
17.0
 20
141.5
 30
0.0
 11
17.4
 21
141.5
 31
0.0
  0
LINE
  5
4FF
330
1E
100
AcDbEntity
  8
0
100
AcDbLine
 10
17.0
 20
141.5
 30
0.0
 11
17.5
 21
142.0
 31
0.0
  0
LINE
  5
500
330
1E
100
AcDbEntity
  8
0
100
AcDbLine
 10
17.0
 20
140.0
 30
0.0
 11
17.4
 21
140.0
 31
0.0
  0
LINE
  5
501
330
1E
100
AcDbEntity
  8
0
100
AcDbLine
 10
17.0
 20
140.0
 30
0.0
 11
17.5
 21
139.5
 31
0.0
  0
LINE
  5
502
330
1E
100
AcDbEntity
  8
0
100
AcDbLine
 10
17.0
 20
140.0
 30
0.0
 11
17.0
 21
141.5
 31
0.0
  0
LINE
  5
504
330
1E
100
AcDbEntity
  8
0
100
AcDbLine
 10
17.6585
 20
127.0
 30
0.0
 11
33.15849999999999
 21
127.0
 31
0.0
  0
LINE
  5
505
330
1E
100
AcDbEntity
  8
0
100
AcDbLine
 10
20.5
 20
139.0
 30
0.0
 11
23.0
 21
139.0
 31
0.0
  0
LINE
  5
507
330
1E
100
AcDbEntity
  8
0
100
AcDbLine
 10
33.15849999999999
 20
127.0
 30
0.0
 11
44.5
 21
127.0
 31
0.0
  0
LINE
  5
508
330
1E
100
AcDbEntity
  8
0
100
AcDbLine
 10
37.5
 20
139.0
 30
0.0
 11
39.39999999999999
 21
139.0
 31
0.0
  0
LINE
  5
509
330
1E
100
AcDbEntity
  8
0
100
AcDbLine
 10
41.0
 20
139.0
 30
0.0
 11
41.0
 21
127.0
 31
0.0
  0
LINE
  5
50A
330
1E
100
AcDbEntity
  8
0
100
AcDbLine
 10
39.39999999999999
 20
139.0
 30
0.0
 11
40.6
 21
139.0
 31
0.0
  0
LINE
  5
50B
330
1E
100
AcDbEntity
  8
0
100
AcDbLine
 10
40.6
 20
139.0
 30
0.0
 11
41.0
 21
139.0
 31
0.0
  0
LINE
  5
524
330
1E
100
AcDbEntity
  8
0
100
AcDbLine
 10
44.5
 20
127.0
 30
0.0
 11
44.5
 21
121.0
 31
0.0
  0
LINE
  5
525
330
1E
100
AcDbEntity
  8
0
100
AcDbLine
 10
41.0
 20
127.0
 30
0.0
 11
41.0
 21
139.0
 31
0.0
  0
LINE
  5
526
330
1E
100
AcDbEntity
  8
0
100
AcDbLine
 10
35.0
 20
139.0
 30
0.0
 11
37.5
 21
139.0
 31
0.0
  0
LINE
  5
527
330
1E
100
AcDbEntity
  8
0
100
AcDbLine
 10
32.1
 20
139.0
 30
0.0
 11
35.0
 21
139.0
 31
0.0
  0
LINE
  5
528
330
1E
100
AcDbEntity
  8
0
100
AcDbLine
 10
29.0
 20
139.0
 30
0.0
 11
32.1
 21
139.0
 31
0.0
  0
LINE
  5
529
330
1E
100
AcDbEntity
  8
0
100
AcDbLine
 10
23.0
 20
139.0
 30
0.0
 11
25.89999999999999
 21
139.0
 31
0.0
  0
LINE
  5
52A
330
1E
100
AcDbEntity
  8
0
100
AcDbLine
 10
25.89999999999999
 20
139.0
 30
0.0
 11
29.0
 21
139.0
 31
0.0
  0
LINE
  5
52B
330
1E
100
AcDbEntity
  8
0
100
AcDbLine
 10
18.6
 20
139.0
 30
0.0
 11
20.5
 21
139.0
 31
0.0
  0
LINE
  5
52C
330
1E
100
AcDbEntity
  8
0
100
AcDbLine
 10
17.5
 20
142.0
 30
0.0
 11
17.9
 21
142.0
 31
0.0
  0
LINE
  5
52D
330
1E
100
AcDbEntity
  8
0
100
AcDbLine
 10
17.4
 20
141.5
 30
0.0
 11
18.6
 21
141.5
 31
0.0
  0
LINE
  5
52E
330
1E
100
AcDbEntity
  8
0
100
AcDbLine
 10
17.4
 20
140.0
 30
0.0
 11
18.6
 21
140.0
 31
0.0
  0
LINE
  5
52F
330
1E
100
AcDbEntity
  8
0
100
AcDbLine
 10
20.89999999999999
 20
139.5
 30
0.0
 11
23.3
 21
139.5
 31
0.0
  0
LINE
  5
530
330
1E
100
AcDbEntity
  8
0
100
AcDbLine
 10
37.1
 20
139.5
 30
0.0
 11
39.0
 21
139.5
 31
0.0
  0
LINE
  5
531
330
1E
100
AcDbEntity
  8
0
100
AcDbLine
 10
39.0
 20
139.5
 30
0.0
 11
40.1
 21
139.5
 31
0.0
  0
LINE
  5
540
330
1E
100
AcDbEntity
  8
0
100
AcDbLine
 10
40.49999999999999
 20
139.5
 30
0.0
 11
41.0
 21
139.0
 31
0.0
  0
LINE
  5
541
330
1E
100
AcDbEntity
  8
0
100
AcDbLine
 10
40.49999999999999
 20
139.5
 30
0.0
 11
41.0
 21
140.0
 31
0.0
  0
LINE
  5
542
330
1E
100
AcDbEntity
  8
0
100
AcDbLine
 10
40.1
 20
139.5
 30
0.0
 11
40.49999999999999
 21
139.5
 31
0.0
  0
LINE
  5
543
330
1E
100
AcDbEntity
  8
0
100
AcDbLine
 10
34.7
 20
139.5
 30
0.0
 11
37.1
 21
139.5
 31
0.0
  0
LINE
  5
544
330
1E
100
AcDbEntity
  8
0
100
AcDbLine
 10
32.0
 20
139.5
 30
0.0
 11
34.7
 21
139.5
 31
0.0
  0
LINE
  5
545
330
1E
100
AcDbEntity
  8
0
100
AcDbLine
 10
29.0
 20
139.5
 30
0.0
 11
32.0
 21
139.5
 31
0.0
  0
LINE
  5
546
330
1E
100
AcDbEntity
  8
0
100
AcDbLine
 10
23.3
 20
139.5
 30
0.0
 11
26.0
 21
139.5
 31
0.0
  0
LINE
  5
547
330
1E
100
AcDbEntity
  8
0
100
AcDbLine
 10
26.0
 20
139.5
 30
0.0
 11
29.0
 21
139.5
 31
0.0
  0
LINE
  5
548
330
1E
100
AcDbEntity
  8
0
100
AcDbLine
 10
19.0
 20
139.5
 30
0.0
 11
20.89999999999999
 21
139.5
 31
0.0
  0
LINE
  5
549
330
1E
100
AcDbEntity
  8
0
100
AcDbLine
 10
17.86424858847889
 20
172.2383686639409
 30
0.0
 11
19.172681955212
 21
172.098739260472
 31
0.0
  0
LINE
  5
54A
330
1E
100
AcDbEntity
  8
0
100
AcDbLine
 10
18.5335354046947
 20
163.8221548651019
 30
0.0
 11
21.0
 21
163.0
 31
0.0
  0
LINE
  5
54B
330
1E
100
AcDbEntity
  8
0
100
AcDbLine
 10
18.5777
 20
163.857
 30
0.0
 11
20.5
 21
164.0
 31
0.0
  0
LINE
  5
54C
330
1E
100
AcDbEntity
  8
0
100
AcDbLine
 10
18.5777
 20
172.1429999999999
 30
0.0
 11
20.5
 21
172.0
 31
0.0
  0
LINE
  5
54D
330
1E
100
AcDbEntity
  8
0
100
AcDbLine
 10
18.5
 20
173.5
 30
0.0
 11
18.89999999999999
 21
173.5
 31
0.0
  0
LINE
  5
54E
330
1E
100
AcDbEntity
  8
0
100
AcDbLine
 10
18.5
 20
173.5
 30
0.0
 11
20.0
 21
174.0
 31
0.0
  0
LINE
  5
54F
330
1E
100
AcDbEntity
  8
0
100
AcDbLine
 10
18.07763003273669
 20
172.2328900982099
 30
0.0
 11
18.5
 21
173.5
 31
0.0
  0
LINE
  5
550
330
1E
100
AcDbEntity
  8
0
100
AcDbLine
 10
17.9
 20
142.0
 30
0.0
 11
19.0
 21
142.0
 31
0.0
  0
LINE
  5
551
330
1E
100
AcDbEntity
  8
0
100
AcDbLine
 10
18.6
 20
141.5
 30
0.0
 11
20.5
 21
141.5
 31
0.0
  0
LINE
  5
552
330
1E
100
AcDbEntity
  8
0
100
AcDbLine
 10
20.5
 20
140.0
 30
0.0
 11
23.0
 21
140.0
 31
0.0
  0
LINE
  5
553
330
1E
100
AcDbEntity
  8
0
100
AcDbLine
 10
20.5
 20
141.5
 30
0.0
 11
23.0
 21
141.5
 31
0.0
  0
LINE
  5
554
330
1E
100
AcDbEntity
  8
0
100
AcDbLine
 10
23.0
 20
142.0
 30
0.0
 11
23.0
 21
153.0
 31
0.0
  0
LINE
  5
555
330
1E
100
AcDbEntity
  8
0
100
AcDbLine
 10
20.89999999999999
 20
142.0
 30
0.0
 11
23.3
 21
142.0
 31
0.0
  0
LINE
  5
556
330
1E
100
AcDbEntity
  8
0
100
AcDbLine
 10
23.3
 20
142.0
 30
0.0
 11
26.0
 21
142.0
 31
0.0
  0
LINE
  5
557
330
1E
100
AcDbEntity
  8
0
100
AcDbLine
 10
23.0
 20
141.5
 30
0.0
 11
25.89999999999999
 21
141.5
 31
0.0
  0
LINE
  5
558
330
1E
100
AcDbEntity
  8
0
100
AcDbLine
 10
25.89999999999999
 20
141.5
 30
0.0
 11
29.0
 21
141.5
 31
0.0
  0
LINE
  5
559
330
1E
100
AcDbEntity
  8
0
100
AcDbLine
 10
23.0
 20
140.0
 30
0.0
 11
25.89999999999999
 21
140.0
 31
0.0
  0
LINE
  5
55A
330
1E
100
AcDbEntity
  8
0
100
AcDbLine
 10
29.0
 20
142.0
 30
0.0
 11
32.0
 21
142.0
 31
0.0
  0
LINE
  5
55B
330
1E
100
AcDbEntity
  8
0
100
AcDbLine
 10
29.0
 20
141.5
 30
0.0
 11
32.1
 21
141.5
 31
0.0
  0
LINE
  5
55C
330
1E
100
AcDbEntity
  8
0
100
AcDbLine
 10
37.5
 20
140.0
 30
0.0
 11
39.39999999999999
 21
140.0
 31
0.0
  0
LINE
  5
56C
330
1E
100
AcDbEntity
  8
0
100
AcDbLine
 10
41.0
 20
140.0
 30
0.0
 11
41.0
 21
141.5
 31
0.0
  0
LINE
  5
56D
330
1E
100
AcDbEntity
  8
0
100
AcDbLine
 10
39.39999999999999
 20
140.0
 30
0.0
 11
40.6
 21
140.0
 31
0.0
  0
LINE
  5
56E
330
1E
100
AcDbEntity
  8
0
100
AcDbLine
 10
40.6
 20
140.0
 30
0.0
 11
41.0
 21
140.0
 31
0.0
  0
LINE
  5
56F
330
1E
100
AcDbEntity
  8
0
100
AcDbLine
 10
35.0
 20
140.0
 30
0.0
 11
37.5
 21
140.0
 31
0.0
  0
LINE
  5
570
330
1E
100
AcDbEntity
  8
0
100
AcDbLine
 10
32.0
 20
142.0
 30
0.0
 11
34.7
 21
142.0
 31
0.0
  0
LINE
  5
571
330
1E
100
AcDbEntity
  8
0
100
AcDbLine
 10
37.5
 20
141.5
 30
0.0
 11
39.39999999999999
 21
141.5
 31
0.0
  0
LINE
  5
572
330
1E
100
AcDbEntity
  8
0
100
AcDbLine
 10
39.39999999999999
 20
141.5
 30
0.0
 11
40.6
 21
141.5
 31
0.0
  0
LINE
  5
582
330
1E
100
AcDbEntity
  8
0
100
AcDbLine
 10
41.0
 20
141.5
 30
0.0
 11
41.0
 21
140.0
 31
0.0
  0
LINE
  5
583
330
1E
100
AcDbEntity
  8
0
100
AcDbLine
 10
40.6
 20
141.5
 30
0.0
 11
41.0
 21
141.5
 31
0.0
  0
LINE
  5
584
330
1E
100
AcDbEntity
  8
0
100
AcDbLine
 10
35.0
 20
142.0
 30
0.0
 11
35.0
 21
153.0
 31
0.0
  0
LINE
  5
585
330
1E
100
AcDbEntity
  8
0
100
AcDbLine
 10
37.1
 20
142.0
 30
0.0
 11
39.0
 21
142.0
 31
0.0
  0
LINE
  5
586
330
1E
100
AcDbEntity
  8
0
100
AcDbLine
 10
39.0
 20
142.0
 30
0.0
 11
40.1
 21
142.0
 31
0.0
  0
LINE
  5
596
330
1E
100
AcDbEntity
  8
0
100
AcDbLine
 10
40.49999999999999
 20
142.0
 30
0.0
 11
41.0
 21
141.5
 31
0.0
  0
LINE
  5
597
330
1E
100
AcDbEntity
  8
0
100
AcDbLine
 10
40.1
 20
142.0
 30
0.0
 11
40.49999999999999
 21
142.0
 31
0.0
  0
LINE
  5
598
330
1E
100
AcDbEntity
  8
0
100
AcDbLine
 10
34.7
 20
142.0
 30
0.0
 11
37.1
 21
142.0
 31
0.0
  0
LINE
  5
599
330
1E
100
AcDbEntity
  8
0
100
AcDbLine
 10
35.0
 20
141.5
 30
0.0
 11
37.5
 21
141.5
 31
0.0
  0
LINE
  5
59A
330
1E
100
AcDbEntity
  8
0
100
AcDbLine
 10
32.1
 20
141.5
 30
0.0
 11
35.0
 21
141.5
 31
0.0
  0
LINE
  5
59B
330
1E
100
AcDbEntity
  8
0
100
AcDbLine
 10
32.1
 20
140.0
 30
0.0
 11
35.0
 21
140.0
 31
0.0
  0
LINE
  5
59C
330
1E
100
AcDbEntity
  8
0
100
AcDbLine
 10
29.0
 20
140.0
 30
0.0
 11
32.1
 21
140.0
 31
0.0
  0
LINE
  5
59D
330
1E
100
AcDbEntity
  8
0
100
AcDbLine
 10
26.0
 20
142.0
 30
0.0
 11
29.0
 21
142.0
 31
0.0
  0
LINE
  5
59E
330
1E
100
AcDbEntity
  8
0
100
AcDbLine
 10
25.89999999999999
 20
140.0
 30
0.0
 11
29.0
 21
140.0
 31
0.0
  0
LINE
  5
59F
330
1E
100
AcDbEntity
  8
0
100
AcDbLine
 10
22.7
 20
153.0
 30
0.0
 11
23.39999999999999
 21
153.0
 31
0.0
  0
LINE
  5
5A0
330
1E
100
AcDbEntity
  8
0
100
AcDbLine
 10
22.7
 20
153.0
 30
0.0
 11
23.0
 21
153.0
 31
0.0
  0
LINE
  5
5A1
330
1E
100
AcDbEntity
  8
0
100
AcDbLine
 10
21.3
 20
163.0
 30
0.0
 11
22.1
 21
163.0
 31
0.0
  0
LINE
  5
5A2
330
1E
100
AcDbEntity
  8
0
100
AcDbLine
 10
22.1
 20
163.0
 30
0.0
 11
23.39999999999999
 21
163.0
 31
0.0
  0
LINE
  5
5A3
330
1E
100
AcDbEntity
  8
0
100
AcDbLine
 10
21.0
 20
163.0
 30
0.0
 11
22.5
 21
161.0
 31
0.0
  0
LINE
  5
5A4
330
1E
100
AcDbEntity
  8
0
100
AcDbLine
 10
21.0
 20
163.0
 30
0.0
 11
21.3
 21
163.0
 31
0.0
  0
LINE
  5
5A5
330
1E
100
AcDbEntity
  8
0
100
AcDbLine
 10
22.7
 20
161.0
 30
0.0
 11
23.39999999999999
 21
161.0
 31
0.0
  0
LINE
  5
5A6
330
1E
100
AcDbEntity
  8
0
100
AcDbLine
 10
22.5
 20
161.0
 30
0.0
 11
22.5
 21
153.0
 31
0.0
  0
LINE
  5
5A7
330
1E
100
AcDbEntity
  8
0
100
AcDbLine
 10
22.5
 20
161.0
 30
0.0
 11
22.7
 21
161.0
 31
0.0
  0
LINE
  5
5A8
330
1E
100
AcDbEntity
  8
0
100
AcDbLine
 10
22.5
 20
153.0
 30
0.0
 11
22.7
 21
153.0
 31
0.0
  0
LINE
  5
5A9
330
1E
100
AcDbEntity
  8
0
100
AcDbLine
 10
22.5
 20
153.0
 30
0.0
 11
22.5
 21
161.0
 31
0.0
  0
LINE
  5
5AA
330
1E
100
AcDbEntity
  8
0
100
AcDbLine
 10
23.39999999999999
 20
153.0
 30
0.0
 11
24.39999999999999
 21
153.0
 31
0.0
  0
LINE
  5
5AB
330
1E
100
AcDbEntity
  8
0
100
AcDbLine
 10
24.39999999999999
 20
153.0
 30
0.0
 11
25.8
 21
153.0
 31
0.0
  0
LINE
  5
5AC
330
1E
100
AcDbEntity
  8
0
100
AcDbLine
 10
24.8
 20
153.0
 30
0.0
 11
26.0
 21
153.0
 31
0.0
  0
LINE
  5
5AD
330
1E
100
AcDbEntity
  8
0
100
AcDbLine
 10
23.8
 20
153.0
 30
0.0
 11
24.8
 21
153.0
 31
0.0
  0
LINE
  5
5AE
330
1E
100
AcDbEntity
  8
0
100
AcDbLine
 10
23.39999999999999
 20
163.0
 30
0.0
 11
25.0
 21
163.0
 31
0.0
  0
LINE
  5
5AF
330
1E
100
AcDbEntity
  8
0
100
AcDbLine
 10
25.0
 20
163.0
 30
0.0
 11
26.89999999999999
 21
163.0
 31
0.0
  0
LINE
  5
5B0
330
1E
100
AcDbEntity
  8
0
100
AcDbLine
 10
24.39999999999999
 20
161.0
 30
0.0
 11
25.8
 21
161.0
 31
0.0
  0
LINE
  5
5B1
330
1E
100
AcDbEntity
  8
0
100
AcDbLine
 10
23.39999999999999
 20
161.0
 30
0.0
 11
24.39999999999999
 21
161.0
 31
0.0
  0
LINE
  5
5B2
330
1E
100
AcDbEntity
  8
0
100
AcDbLine
 10
23.19999999999999
 20
153.0
 30
0.0
 11
23.8
 21
153.0
 31
0.0
  0
LINE
  5
5B3
330
1E
100
AcDbEntity
  8
0
100
AcDbLine
 10
23.0
 20
153.0
 30
0.0
 11
23.0
 21
142.0
 31
0.0
  0
LINE
  5
5B4
330
1E
100
AcDbEntity
  8
0
100
AcDbLine
 10
23.0
 20
153.0
 30
0.0
 11
23.19999999999999
 21
153.0
 31
0.0
  0
LINE
  5
5B5
330
1E
100
AcDbEntity
  8
0
100
AcDbLine
 10
20.5
 20
172.0
 30
0.0
 11
23.0
 21
172.1429999999999
 31
0.0
  0
LINE
  5
5B6
330
1E
100
AcDbEntity
  8
0
100
AcDbLine
 10
20.5
 20
164.0
 30
0.0
 11
23.0
 21
163.857
 31
0.0
  0
LINE
  5
5B7
330
1E
100
AcDbEntity
  8
0
100
AcDbLine
 10
23.0
 20
172.1429999999999
 30
0.0
 11
25.0098
 21
172.4479999999999
 31
0.0
  0
LINE
  5
5B8
330
1E
100
AcDbEntity
  8
0
100
AcDbLine
 10
23.0
 20
163.857
 30
0.0
 11
25.0098
 21
163.552
 31
0.0
  0
LINE
  5
5B9
330
1E
100
AcDbEntity
  8
0
100
AcDbLine
 10
25.0098
 20
163.552
 30
0.0
 11
26.8536
 21
163.217
 31
0.0
  0
LINE
  5
5BA
330
1E
100
AcDbEntity
  8
0
100
AcDbLine
 10
25.8
 20
153.0
 30
0.0
 11
27.3
 21
153.0
 31
0.0
  0
LINE
  5
5BB
330
1E
100
AcDbEntity
  8
0
100
AcDbLine
 10
25.8
 20
161.0
 30
0.0
 11
27.3
 21
161.0
 31
0.0
  0
LINE
  5
5BC
330
1E
100
AcDbEntity
  8
0
100
AcDbLine
 10
26.0
 20
153.0
 30
0.0
 11
27.5
 21
153.0
 31
0.0
  0
LINE
  5
5BD
330
1E
100
AcDbEntity
  8
0
100
AcDbLine
 10
26.89999999999999
 20
163.0
 30
0.0
 11
27.28447058823519
 21
163.0
 31
0.0
  0
LINE
  5
5BE
330
1E
100
AcDbEntity
  8
0
100
AcDbLine
 10
27.3
 20
161.0
 30
0.0
 11
29.0
 21
161.0
 31
0.0
  0
LINE
  5
5BF
330
1E
100
AcDbEntity
  8
0
100
AcDbLine
 10
27.3
 20
153.0
 30
0.0
 11
29.0
 21
153.0
 31
0.0
  0
LINE
  5
5C0
330
1E
100
AcDbEntity
  8
0
100
AcDbLine
 10
26.8536
 20
163.217
 30
0.0
 11
27.6248143899836
 21
162.82859214113
 31
0.0
  0
LINE
  5
5C1
330
1E
100
AcDbEntity
  8
0
100
AcDbLine
 10
27.2
 20
170.949
 30
0.0
 11
27.7
 21
173.409
 31
0.0
  0
LINE
  5
5C2
330
1E
100
AcDbEntity
  8
0
100
AcDbLine
 10
27.0
 20
168.0
 30
0.0
 11
27.2
 21
165.0509999999999
 31
0.0
  0
LINE
  5
5C3
330
1E
100
AcDbEntity
  8
0
100
AcDbLine
 10
27.0
 20
168.0
 30
0.0
 11
27.2
 21
170.949
 31
0.0
  0
LINE
  5
5C4
330
1E
100
AcDbEntity
  8
0
100
AcDbLine
 10
27.2
 20
165.0509999999999
 30
0.0
 11
27.7
 21
162.591
 31
0.0
  0
LINE
  5
5C6
330
1E
100
AcDbEntity
  8
0
100
AcDbLine
 10
25.0098
 20
172.4479999999999
 30
0.0
 11
26.8536
 21
172.7829999999999
 31
0.0
  0
LINE
  5
5C7
330
1E
100
AcDbEntity
  8
0
100
AcDbLine
 10
21.6
 20
173.5
 30
0.0
 11
23.8
 21
173.5
 31
0.0
  0
LINE
  5
5C8
330
1E
100
AcDbEntity
  8
0
100
AcDbLine
 10
23.8
 20
173.5
 30
0.0
 11
26.3
 21
173.5
 31
0.0
  0
LINE
  5
5C9
330
1E
100
AcDbEntity
  8
0
100
AcDbLine
 10
26.3
 20
173.5
 30
0.0
 11
27.7911823647295
 21
173.5
 31
0.0
  0
LINE
  5
5CA
330
1E
100
AcDbEntity
  8
0
100
AcDbLine
 10
26.8536
 20
172.7829999999999
 30
0.0
 11
27.6248143899836
 21
173.17140785887
 31
0.0
  0
LINE
  5
5CB
330
1E
100
AcDbEntity
  8
0
100
AcDbLine
 10
27.5
 20
153.0
 30
0.0
 11
29.0
 21
153.0
 31
0.0
  0
LINE
  5
5CD
330
1E
100
AcDbEntity
  8
0
100
AcDbLine
 10
27.7
 20
162.591
 30
0.0
 11
28.2
 21
162.092
 31
0.0
  0
LINE
  5
5D0
330
1E
100
AcDbEntity
  8
0
100
AcDbLine
 10
28.2
 20
162.092
 30
0.0
 11
28.2
 21
162.476
 31
0.0
  0
LINE
  5
5D1
330
1E
100
AcDbEntity
  8
0
100
AcDbLine
 10
28.2
 20
162.092
 30
0.0
 11
29.0
 21
162.1109999999999
 31
0.0
  0
LINE
  5
5D2
330
1E
100
AcDbEntity
  8
0
100
AcDbLine
 10
28.2
 20
162.476
 30
0.0
 11
28.2
 21
163.187
 31
0.0
  0
LINE
  5
5D3
330
1E
100
AcDbEntity
  8
0
100
AcDbLine
 10
28.2
 20
162.476
 30
0.0
 11
28.2
 21
162.092
 31
0.0
  0
LINE
  5
5D7
330
1E
100
AcDbEntity
  8
0
100
AcDbLine
 10
28.2
 20
163.187
 30
0.0
 11
28.2
 21
163.9559999999999
 31
0.0
  0
LINE
  5
5D8
330
1E
100
AcDbEntity
  8
0
100
AcDbLine
 10
28.2
 20
163.187
 30
0.0
 11
28.2
 21
162.476
 31
0.0
  0
LINE
  5
5D9
330
1E
100
AcDbEntity
  8
0
100
AcDbLine
 10
29.0
 20
161.0
 30
0.0
 11
30.7
 21
161.0
 31
0.0
  0
LINE
  5
5DA
330
1E
100
AcDbEntity
  8
0
100
AcDbLine
 10
29.0
 20
153.0
 30
0.0
 11
30.5
 21
153.0
 31
0.0
  0
LINE
  5
5DB
330
1E
100
AcDbEntity
  8
0
100
AcDbLine
 10
29.0
 20
153.0
 30
0.0
 11
30.7
 21
153.0
 31
0.0
  0
LINE
  5
5DC
330
1E
100
AcDbEntity
  8
0
100
AcDbLine
 10
30.7
 20
153.0
 30
0.0
 11
32.2
 21
153.0
 31
0.0
  0
LINE
  5
5DD
330
1E
100
AcDbEntity
  8
0
100
AcDbLine
 10
33.6
 20
153.0
 30
0.0
 11
34.6
 21
153.0
 31
0.0
  0
LINE
  5
5DE
330
1E
100
AcDbEntity
  8
0
100
AcDbLine
 10
34.6
 20
153.0
 30
0.0
 11
35.29999999999999
 21
153.0
 31
0.0
  0
LINE
  5
5DF
330
1E
100
AcDbEntity
  8
0
100
AcDbLine
 10
33.2
 20
153.0
 30
0.0
 11
34.2
 21
153.0
 31
0.0
  0
LINE
  5
5E0
330
1E
100
AcDbEntity
  8
0
100
AcDbLine
 10
34.2
 20
153.0
 30
0.0
 11
34.79999999999999
 21
153.0
 31
0.0
  0
LINE
  5
5E1
330
1E
100
AcDbEntity
  8
0
100
AcDbLine
 10
35.0
 20
153.0
 30
0.0
 11
35.0
 21
142.0
 31
0.0
  0
LINE
  5
5E2
330
1E
100
AcDbEntity
  8
0
100
AcDbLine
 10
35.0
 20
153.0
 30
0.0
 11
35.29999999999999
 21
153.0
 31
0.0
  0
LINE
  5
5E3
330
1E
100
AcDbEntity
  8
0
100
AcDbLine
 10
35.5
 20
153.0
 30
0.0
 11
35.5
 21
161.0
 31
0.0
  0
LINE
  5
5E4
330
1E
100
AcDbEntity
  8
0
100
AcDbLine
 10
35.29999999999999
 20
153.0
 30
0.0
 11
35.5
 21
153.0
 31
0.0
  0
LINE
  5
5E5
330
1E
100
AcDbEntity
  8
0
100
AcDbLine
 10
34.79999999999999
 20
153.0
 30
0.0
 11
35.0
 21
153.0
 31
0.0
  0
LINE
  5
5E6
330
1E
100
AcDbEntity
  8
0
100
AcDbLine
 10
32.2
 20
153.0
 30
0.0
 11
33.6
 21
153.0
 31
0.0
  0
LINE
  5
5E7
330
1E
100
AcDbEntity
  8
0
100
AcDbLine
 10
32.0
 20
153.0
 30
0.0
 11
33.2
 21
153.0
 31
0.0
  0
LINE
  5
5E8
330
1E
100
AcDbEntity
  8
0
100
AcDbLine
 10
33.6
 20
161.0
 30
0.0
 11
34.6
 21
161.0
 31
0.0
  0
LINE
  5
5E9
330
1E
100
AcDbEntity
  8
0
100
AcDbLine
 10
34.6
 20
161.0
 30
0.0
 11
35.29999999999999
 21
161.0
 31
0.0
  0
LINE
  5
5EA
330
1E
100
AcDbEntity
  8
0
100
AcDbLine
 10
35.5
 20
161.0
 30
0.0
 11
37.0
 21
163.0
 31
0.0
  0
LINE
  5
5EB
330
1E
100
AcDbEntity
  8
0
100
AcDbLine
 10
35.5
 20
161.0
 30
0.0
 11
35.5
 21
153.0
 31
0.0
  0
LINE
  5
5EC
330
1E
100
AcDbEntity
  8
0
100
AcDbLine
 10
35.29999999999999
 20
161.0
 30
0.0
 11
35.5
 21
161.0
 31
0.0
  0
LINE
  5
5ED
330
1E
100
AcDbEntity
  8
0
100
AcDbLine
 10
32.2
 20
161.0
 30
0.0
 11
33.6
 21
161.0
 31
0.0
  0
LINE
  5
5EE
330
1E
100
AcDbEntity
  8
0
100
AcDbLine
 10
30.7
 20
161.0
 30
0.0
 11
32.2
 21
161.0
 31
0.0
  0
LINE
  5
5EF
330
1E
100
AcDbEntity
  8
0
100
AcDbLine
 10
30.5
 20
153.0
 30
0.0
 11
32.0
 21
153.0
 31
0.0
  0
LINE
  5
5F0
330
1E
100
AcDbEntity
  8
0
100
AcDbLine
 10
29.8
 20
162.092
 30
0.0
 11
29.8
 21
162.476
 31
0.0
  0
LINE
  5
5F1
330
1E
100
AcDbEntity
  8
0
100
AcDbLine
 10
29.8
 20
162.092
 30
0.0
 11
30.3
 21
162.591
 31
0.0
  0
LINE
  5
5F2
330
1E
100
AcDbEntity
  8
0
100
AcDbLine
 10
29.0
 20
162.1109999999999
 30
0.0
 11
29.8
 21
162.092
 31
0.0
  0
LINE
  5
5F3
330
1E
100
AcDbEntity
  8
0
100
AcDbLine
 10
52.1036
 20
162.1929999999999
 30
0.0
 11
52.660040996262
 21
162.1688146073919
 31
0.0
  0
LINE
  5
5F4
330
1E
100
AcDbEntity
  8
0
100
AcDbLine
 10
51.9771
 20
162.212
 30
0.0
 11
53.8748
 21
162.092
 31
0.0
  0
LINE
  5
631
330
1E
100
AcDbEntity
  8
0
100
AcDbLine
 10
53.9902
 20
162.1109999999999
 30
0.0
 11
54.2628810344831
 21
162.191355368519
 31
0.0
  0
LINE
  5
632
330
1E
100
AcDbEntity
  8
0
100
AcDbLine
 10
53.8748
 20
162.092
 30
0.0
 11
55.37469999999999
 21
162.476
 31
0.0
  0
LINE
  5
634
330
1E
100
AcDbEntity
  8
0
100
AcDbLine
 10
30.3
 20
162.591
 30
0.0
 11
30.8
 21
165.0509999999999
 31
0.0
  0
LINE
  5
637
330
1E
100
AcDbEntity
  8
0
100
AcDbLine
 10
29.8
 20
162.476
 30
0.0
 11
29.8
 21
162.092
 31
0.0
  0
LINE
  5
638
330
1E
100
AcDbEntity
  8
0
100
AcDbLine
 10
29.8
 20
162.476
 30
0.0
 11
29.8
 21
163.187
 31
0.0
  0
LINE
  5
63B
330
1E
100
AcDbEntity
  8
0
100
AcDbLine
 10
29.8
 20
163.187
 30
0.0
 11
29.8
 21
162.476
 31
0.0
  0
LINE
  5
63C
330
1E
100
AcDbEntity
  8
0
100
AcDbLine
 10
29.8
 20
163.187
 30
0.0
 11
29.8
 21
163.9559999999999
 31
0.0
  0
LINE
  5
63D
330
1E
100
AcDbEntity
  8
0
100
AcDbLine
 10
31.1
 20
163.0
 30
0.0
 11
33.0
 21
163.0
 31
0.0
  0
LINE
  5
63E
330
1E
100
AcDbEntity
  8
0
100
AcDbLine
 10
30.7155294117648
 20
163.0
 30
0.0
 11
31.1
 21
163.0
 31
0.0
  0
LINE
  5
63F
330
1E
100
AcDbEntity
  8
0
100
AcDbLine
 10
37.0
 20
163.0
 30
0.0
 11
39.4664645953053
 21
163.8221548651019
 31
0.0
  0
LINE
  5
640
330
1E
100
AcDbEntity
  8
0
100
AcDbLine
 10
34.6
 20
163.0
 30
0.0
 11
35.89999999999999
 21
163.0
 31
0.0
  0
LINE
  5
641
330
1E
100
AcDbEntity
  8
0
100
AcDbLine
 10
35.89999999999999
 20
163.0
 30
0.0
 11
36.7
 21
163.0
 31
0.0
  0
LINE
  5
642
330
1E
100
AcDbEntity
  8
0
100
AcDbLine
 10
36.7
 20
163.0
 30
0.0
 11
37.0
 21
163.0
 31
0.0
  0
LINE
  5
643
330
1E
100
AcDbEntity
  8
0
100
AcDbLine
 10
33.0
 20
163.0
 30
0.0
 11
34.6
 21
163.0
 31
0.0
  0
LINE
  5
644
330
1E
100
AcDbEntity
  8
0
100
AcDbLine
 10
32.9902
 20
163.552
 30
0.0
 11
35.0
 21
163.857
 31
0.0
  0
LINE
  5
645
330
1E
100
AcDbEntity
  8
0
100
AcDbLine
 10
31.1464
 20
163.217
 30
0.0
 11
32.9902
 21
163.552
 31
0.0
  0
LINE
  5
646
330
1E
100
AcDbEntity
  8
0
100
AcDbLine
 10
30.3751856100164
 20
162.82859214113
 30
0.0
 11
31.1464
 21
163.217
 31
0.0
  0
LINE
  5
648
330
1E
100
AcDbEntity
  8
0
100
AcDbLine
 10
29.8
 20
163.9559999999999
 30
0.0
 11
29.8
 21
163.187
 31
0.0
  0
LINE
  5
649
330
1E
100
AcDbEntity
  8
0
100
AcDbLine
 10
29.8
 20
163.9559999999999
 30
0.0
 11
29.8
 21
165.071
 31
0.0
  0
LINE
  5
64A
330
1E
100
AcDbEntity
  8
0
100
AcDbLine
 10
37.5
 20
164.0
 30
0.0
 11
39.4223
 21
163.857
 31
0.0
  0
LINE
  5
64B
330
1E
100
AcDbEntity
  8
0
100
AcDbLine
 10
35.0
 20
163.857
 30
0.0
 11
37.5
 21
164.0
 31
0.0
  0
LINE
  5
64C
330
1E
100
AcDbEntity
  8
0
100
AcDbLine
 10
39.4223
 20
163.857
 30
0.0
 11
41.70399999999999
 21
163.552
 31
0.0
  0
LINE
  5
64D
330
1E
100
AcDbEntity
  8
0
100
AcDbLine
 10
30.8
 20
165.0509999999999
 30
0.0
 11
31.0
 21
168.0
 31
0.0
  0
LINE
  5
64F
330
1E
100
AcDbEntity
  8
0
100
AcDbLine
 10
29.8
 20
165.071
 30
0.0
 11
29.8
 21
163.9559999999999
 31
0.0
  0
LINE
  5
650
330
1E
100
AcDbEntity
  8
0
100
AcDbLine
 10
29.8
 20
165.071
 30
0.0
 11
29.8
 21
168.0
 31
0.0
  0
LINE
  5
651
330
1E
100
AcDbEntity
  8
0
100
AcDbLine
 10
41.70399999999999
 20
163.552
 30
0.0
 11
44.4579
 21
163.217
 31
0.0
  0
LINE
  5
661
330
1E
100
AcDbEntity
  8
0
100
AcDbLine
 10
55.37469999999999
 20
162.476
 30
0.0
 11
56.47079999999999
 21
163.187
 31
0.0
  0
LINE
  5
662
330
1E
100
AcDbEntity
  8
0
100
AcDbLine
 10
44.1382
 20
163.243
 30
0.0
 11
44.4579
 21
163.217
 31
0.0
  0
LINE
  5
665
330
1E
100
AcDbEntity
  8
0
100
AcDbLine
 10
56.567
 20
163.283
 30
0.0
 11
56.7176394741647
 21
163.477332755633
 31
0.0
  0
LINE
  5
666
330
1E
100
AcDbEntity
  8
0
100
AcDbLine
 10
56.47079999999999
 20
163.187
 30
0.0
 11
57.1246
 21
163.9559999999999
 31
0.0
  0
LINE
  5
6AF
330
1E
100
AcDbEntity
  8
0
100
AcDbLine
 10
57.1246
 20
163.9559999999999
 30
0.0
 11
57.6438
 21
165.071
 31
0.0
  0
LINE
  5
6B0
330
1E
100
AcDbEntity
  8
0
100
AcDbLine
 10
57.6438
 20
165.071
 30
0.0
 11
58.0
 21
168.0
 31
0.0
  0
LINE
  5
6B1
330
1E
100
AcDbEntity
  8
0
100
AcDbLine
 10
44.4579
 20
163.217
 30
0.0
 11
48.002
 21
162.69
 31
0.0
  0
LINE
  5
6B2
330
1E
100
AcDbEntity
  8
0
100
AcDbLine
 10
48.002
 20
162.69
 30
0.0
 11
51.9771
 21
162.212
 31
0.0
  0
LINE
  5
6B3
330
1E
100
AcDbEntity
  8
0
100
AcDbLine
 10
43.38619498154479
 20
163.3473682708819
 30
0.0
 11
44.1382
 21
163.243
 31
0.0
  0
LINE
  5
6B4
330
1E
100
AcDbEntity
  8
0
100
AcDbLine
 10
51.4638321295083
 20
162.2737197157539
 30
0.0
 11
52.1036
 21
162.1929999999999
 31
0.0
  0
LINE
  5
6B5
330
1E
100
AcDbEntity
  8
0
100
AcDbLine
 10
28.2
 20
163.9559999999999
 30
0.0
 11
28.2
 21
165.071
 31
0.0
  0
LINE
  5
6B6
330
1E
100
AcDbEntity
  8
0
100
AcDbLine
 10
28.2
 20
163.9559999999999
 30
0.0
 11
28.2
 21
163.187
 31
0.0
  0
LINE
  5
6BC
330
1E
100
AcDbEntity
  8
0
100
AcDbLine
 10
27.7
 20
173.409
 30
0.0
 11
28.2
 21
173.9079999999999
 31
0.0
  0
LINE
  5
6BE
330
1E
100
AcDbEntity
  8
0
100
AcDbLine
 10
28.2
 20
172.8129999999999
 30
0.0
 11
28.2
 21
173.524
 31
0.0
  0
LINE
  5
6BF
330
1E
100
AcDbEntity
  8
0
100
AcDbLine
 10
28.2
 20
172.8129999999999
 30
0.0
 11
28.2
 21
172.044
 31
0.0
  0
LINE
  5
6C0
330
1E
100
AcDbEntity
  8
0
100
AcDbLine
 10
28.2
 20
172.044
 30
0.0
 11
28.2
 21
172.8129999999999
 31
0.0
  0
LINE
  5
6C1
330
1E
100
AcDbEntity
  8
0
100
AcDbLine
 10
28.2
 20
172.044
 30
0.0
 11
28.2
 21
170.929
 31
0.0
  0
LINE
  5
6C2
330
1E
100
AcDbEntity
  8
0
100
AcDbLine
 10
28.2
 20
170.929
 30
0.0
 11
28.2
 21
172.044
 31
0.0
  0
LINE
  5
6C3
330
1E
100
AcDbEntity
  8
0
100
AcDbLine
 10
28.2
 20
170.929
 30
0.0
 11
28.2
 21
168.0
 31
0.0
  0
LINE
  5
6C4
330
1E
100
AcDbEntity
  8
0
100
AcDbLine
 10
29.8
 20
168.0
 30
0.0
 11
29.8
 21
170.929
 31
0.0
  0
LINE
  5
6C5
330
1E
100
AcDbEntity
  8
0
100
AcDbLine
 10
29.8
 20
168.0
 30
0.0
 11
29.8
 21
165.071
 31
0.0
  0
LINE
  5
6C6
330
1E
100
AcDbEntity
  8
0
100
AcDbLine
 10
30.8
 20
170.949
 30
0.0
 11
31.0
 21
168.0
 31
0.0
  0
LINE
  5
6C7
330
1E
100
AcDbEntity
  8
0
100
AcDbLine
 10
35.0
 20
172.1429999999999
 30
0.0
 11
37.5
 21
172.0
 31
0.0
  0
LINE
  5
6C8
330
1E
100
AcDbEntity
  8
0
100
AcDbLine
 10
37.5
 20
172.0
 30
0.0
 11
39.4223
 21
172.1429999999999
 31
0.0
  0
LINE
  5
6C9
330
1E
100
AcDbEntity
  8
0
100
AcDbLine
 10
32.9902
 20
172.4479999999999
 30
0.0
 11
35.0
 21
172.1429999999999
 31
0.0
  0
LINE
  5
6CB
330
1E
100
AcDbEntity
  8
0
100
AcDbLine
 10
29.8
 20
172.044
 30
0.0
 11
29.8
 21
170.929
 31
0.0
  0
LINE
  5
6CC
330
1E
100
AcDbEntity
  8
0
100
AcDbLine
 10
29.8
 20
172.044
 30
0.0
 11
29.8
 21
172.8129999999999
 31
0.0
  0
LINE
  5
6CD
330
1E
100
AcDbEntity
  8
0
100
AcDbLine
 10
29.8
 20
170.929
 30
0.0
 11
29.8
 21
168.0
 31
0.0
  0
LINE
  5
6CE
330
1E
100
AcDbEntity
  8
0
100
AcDbLine
 10
29.8
 20
170.929
 30
0.0
 11
29.8
 21
172.044
 31
0.0
  0
LINE
  5
6CF
330
1E
100
AcDbEntity
  8
0
100
AcDbLine
 10
39.4223
 20
172.1429999999999
 30
0.0
 11
41.70399999999999
 21
172.4479999999999
 31
0.0
  0
LINE
  5
6D0
330
1E
100
AcDbEntity
  8
0
100
AcDbLine
 10
38.827318044788
 20
172.098739260472
 30
0.0
 11
40.13575141152109
 21
172.2383686639409
 31
0.0
  0
LINE
  5
6D5
330
1E
100
AcDbEntity
  8
0
100
AcDbLine
 10
29.8
 20
172.8129999999999
 30
0.0
 11
29.8
 21
172.044
 31
0.0
  0
LINE
  5
6D6
330
1E
100
AcDbEntity
  8
0
100
AcDbLine
 10
29.8
 20
172.8129999999999
 30
0.0
 11
29.8
 21
173.524
 31
0.0
  0
LINE
  5
6D7
330
1E
100
AcDbEntity
  8
0
100
AcDbLine
 10
31.1464
 20
172.7829999999999
 30
0.0
 11
32.9902
 21
172.4479999999999
 31
0.0
  0
LINE
  5
6D8
330
1E
100
AcDbEntity
  8
0
100
AcDbLine
 10
30.3751856100164
 20
173.17140785887
 30
0.0
 11
31.1464
 21
172.7829999999999
 31
0.0
  0
LINE
  5
6DA
330
1E
100
AcDbEntity
  8
0
100
AcDbLine
 10
44.1382
 20
172.757
 30
0.0
 11
44.4579
 21
172.7829999999999
 31
0.0
  0
LINE
  5
6DB
330
1E
100
AcDbEntity
  8
0
100
AcDbLine
 10
41.70399999999999
 20
172.4479999999999
 30
0.0
 11
44.4579
 21
172.7829999999999
 31
0.0
  0
LINE
  5
6EB
330
1E
100
AcDbEntity
  8
0
100
AcDbLine
 10
56.567
 20
172.717
 30
0.0
 11
56.7176394741649
 21
172.5226672443669
 31
0.0
  0
LINE
  5
6ED
330
1E
100
AcDbEntity
  8
0
100
AcDbLine
 10
56.47079999999999
 20
172.8129999999999
 30
0.0
 11
57.1246
 21
172.044
 31
0.0
  0
LINE
  5
725
330
1E
100
AcDbEntity
  8
0
100
AcDbLine
 10
57.1246
 20
172.044
 30
0.0
 11
57.6438
 21
170.929
 31
0.0
  0
LINE
  5
726
330
1E
100
AcDbEntity
  8
0
100
AcDbLine
 10
57.6438
 20
170.929
 30
0.0
 11
58.0
 21
168.0
 31
0.0
  0
LINE
  5
727
330
1E
100
AcDbEntity
  8
0
100
AcDbLine
 10
44.4579
 20
172.7829999999999
 30
0.0
 11
48.002
 21
173.31
 31
0.0
  0
LINE
  5
728
330
1E
100
AcDbEntity
  8
0
100
AcDbLine
 10
36.4
 20
173.5
 30
0.0
 11
38.1
 21
173.5
 31
0.0
  0
LINE
  5
729
330
1E
100
AcDbEntity
  8
0
100
AcDbLine
 10
38.1
 20
173.5
 30
0.0
 11
39.1
 21
173.5
 31
0.0
  0
LINE
  5
72A
330
1E
100
AcDbEntity
  8
0
100
AcDbLine
 10
39.1
 20
173.5
 30
0.0
 11
39.5
 21
173.5
 31
0.0
  0
LINE
  5
72B
330
1E
100
AcDbEntity
  8
0
100
AcDbLine
 10
39.5
 20
173.5
 30
0.0
 11
39.9223699672633
 21
172.2328900982099
 31
0.0
  0
LINE
  5
72C
330
1E
100
AcDbEntity
  8
0
100
AcDbLine
 10
34.2
 20
173.5
 30
0.0
 11
36.4
 21
173.5
 31
0.0
  0
LINE
  5
72D
330
1E
100
AcDbEntity
  8
0
100
AcDbLine
 10
31.69999999999999
 20
173.5
 30
0.0
 11
34.2
 21
173.5
 31
0.0
  0
LINE
  5
72E
330
1E
100
AcDbEntity
  8
0
100
AcDbLine
 10
30.20881763527059
 20
173.5
 30
0.0
 11
31.69999999999999
 21
173.5
 31
0.0
  0
LINE
  5
730
330
1E
100
AcDbEntity
  8
0
100
AcDbLine
 10
30.3
 20
173.409
 30
0.0
 11
30.8
 21
170.949
 31
0.0
  0
LINE
  5
745
330
1E
100
AcDbEntity
  8
0
100
AcDbLine
 10
48.002
 20
173.31
 30
0.0
 11
51.9771
 21
173.7879999999999
 31
0.0
  0
LINE
  5
746
330
1E
100
AcDbEntity
  8
0
100
AcDbLine
 10
28.2
 20
168.0
 30
0.0
 11
28.2
 21
165.071
 31
0.0
  0
LINE
  5
747
330
1E
100
AcDbEntity
  8
0
100
AcDbLine
 10
28.2
 20
168.0
 30
0.0
 11
28.2
 21
170.929
 31
0.0
  0
LINE
  5
748
330
1E
100
AcDbEntity
  8
0
100
AcDbLine
 10
28.2
 20
165.071
 30
0.0
 11
28.2
 21
168.0
 31
0.0
  0
LINE
  5
749
330
1E
100
AcDbEntity
  8
0
100
AcDbLine
 10
28.2
 20
165.071
 30
0.0
 11
28.2
 21
163.9559999999999
 31
0.0
  0
LINE
  5
74B
330
1E
100
AcDbEntity
  8
0
100
AcDbLine
 10
28.2
 20
173.524
 30
0.0
 11
28.2
 21
173.9079999999999
 31
0.0
  0
LINE
  5
74C
330
1E
100
AcDbEntity
  8
0
100
AcDbLine
 10
28.2
 20
173.524
 30
0.0
 11
28.2
 21
172.8129999999999
 31
0.0
  0
LINE
  5
74D
330
1E
100
AcDbEntity
  8
0
100
AcDbLine
 10
29.8
 20
173.524
 30
0.0
 11
29.8
 21
172.8129999999999
 31
0.0
  0
LINE
  5
74E
330
1E
100
AcDbEntity
  8
0
100
AcDbLine
 10
29.8
 20
173.524
 30
0.0
 11
29.8
 21
173.9079999999999
 31
0.0
  0
LINE
  5
755
330
1E
100
AcDbEntity
  8
0
100
AcDbLine
 10
55.37469999999999
 20
173.524
 30
0.0
 11
56.47079999999999
 21
172.8129999999999
 31
0.0
  0
LINE
  5
756
330
1E
100
AcDbEntity
  8
0
100
AcDbLine
 10
29.0
 20
173.889
 30
0.0
 11
29.8
 21
173.9079999999999
 31
0.0
  0
LINE
  5
757
330
1E
100
AcDbEntity
  8
0
100
AcDbLine
 10
35.4
 20
174.0
 30
0.0
 11
36.79999999999999
 21
174.0
 31
0.0
  0
LINE
  5
758
330
1E
100
AcDbEntity
  8
0
100
AcDbLine
 10
36.79999999999999
 20
174.0
 30
0.0
 11
37.7
 21
174.0
 31
0.0
  0
LINE
  5
759
330
1E
100
AcDbEntity
  8
0
100
AcDbLine
 10
38.0
 20
174.0
 30
0.0
 11
39.5
 21
173.5
 31
0.0
  0
LINE
  5
75A
330
1E
100
AcDbEntity
  8
0
100
AcDbLine
 10
37.7
 20
174.0
 30
0.0
 11
38.0
 21
174.0
 31
0.0
  0
LINE
  5
75B
330
1E
100
AcDbEntity
  8
0
100
AcDbLine
 10
33.5
 20
174.0
 30
0.0
 11
35.4
 21
174.0
 31
0.0
  0
LINE
  5
75C
330
1E
100
AcDbEntity
  8
0
100
AcDbLine
 10
31.3
 20
174.0
 30
0.0
 11
33.5
 21
174.0
 31
0.0
  0
LINE
  5
75D
330
1E
100
AcDbEntity
  8
0
100
AcDbLine
 10
20.0
 20
174.0
 30
0.0
 11
31.3
 21
174.0
 31
0.0
  0
LINE
  5
75E
330
1E
100
AcDbEntity
  8
0
100
AcDbLine
 10
29.8
 20
173.9079999999999
 30
0.0
 11
29.8
 21
173.524
 31
0.0
  0
LINE
  5
75F
330
1E
100
AcDbEntity
  8
0
100
AcDbLine
 10
29.8
 20
173.9079999999999
 30
0.0
 11
30.3
 21
173.409
 31
0.0
  0
LINE
  5
760
330
1E
100
AcDbEntity
  8
0
100
AcDbLine
 10
52.1036
 20
173.807
 30
0.0
 11
52.66004099626099
 21
173.831185392608
 31
0.0
  0
LINE
  5
761
330
1E
100
AcDbEntity
  8
0
100
AcDbLine
 10
51.9771
 20
173.7879999999999
 30
0.0
 11
53.8748
 21
173.9079999999999
 31
0.0
  0
LINE
  5
762
330
1E
100
AcDbEntity
  8
0
100
AcDbLine
 10
51.9771
 20
173.7879999999999
 30
0.0
 11
52.66004099626099
 21
173.831185392608
 31
0.0
  0
LINE
  5
76E
330
1E
100
AcDbEntity
  8
0
100
AcDbLine
 10
53.95499124893129
 20
173.8874696715849
 30
0.0
 11
54.262881034482
 21
173.808644631481
 31
0.0
  0
LINE
  5
76F
330
1E
100
AcDbEntity
  8
0
100
AcDbLine
 10
116.0
 20
233.6699999999999
 30
0.0
 11
116.0
 21
233.171
 31
0.0
  0
LINE
  5
770
330
1E
100
AcDbEntity
  8
0
100
AcDbLine
 10
116.0
 20
233.6699999999999
 30
0.0
 11
116.5
 21
235.1669999999999
 31
0.0
  0
LINE
  5
771
330
1E
100
AcDbEntity
  8
0
100
AcDbLine
 10
116.5
 20
235.1669999999999
 30
0.0
 11
118.5
 21
236.6629999999999
 31
0.0
  0
LINE
  5
772
330
1E
100
AcDbEntity
  8
0
100
AcDbLine
 10
116.0
 20
233.171
 30
0.0
 11
116.5
 21
232.173
 31
0.0
  0
LINE
  5
773
330
1E
100
AcDbEntity
  8
0
100
AcDbLine
 10
116.0
 20
233.171
 30
0.0
 11
116.0
 21
233.6699999999999
 31
0.0
  0
LINE
  5
774
330
1E
100
AcDbEntity
  8
0
100
AcDbLine
 10
116.5
 20
232.173
 30
0.0
 11
117.0
 21
231.674
 31
0.0
  0
LINE
  5
775
330
1E
100
AcDbEntity
  8
0
100
AcDbLine
 10
117.4
 20
231.882
 30
0.0
 11
118.5999999999999
 21
232.0769999999999
 31
0.0
  0
LINE
  5
776
330
1E
100
AcDbEntity
  8
0
100
AcDbLine
 10
117.0
 20
231.674
 30
0.0
 11
117.0
 21
225.658
 31
0.0
  0
LINE
  5
777
330
1E
100
AcDbEntity
  8
0
100
AcDbLine
 10
117.0
 20
231.674
 30
0.0
 11
117.4
 21
231.882
 31
0.0
  0
LINE
  5
778
330
1E
100
AcDbEntity
  8
0
100
AcDbLine
 10
117.4
 20
225.8659999999999
 30
0.0
 11
118.5999999999999
 21
226.06
 31
0.0
  0
LINE
  5
779
330
1E
100
AcDbEntity
  8
0
100
AcDbLine
 10
117.0
 20
225.658
 30
0.0
 11
117.4
 21
225.8659999999999
 31
0.0
  0
LINE
  5
77A
330
1E
100
AcDbEntity
  8
0
100
AcDbLine
 10
117.0
 20
225.658
 30
0.0
 11
118.0
 21
224.6599999999999
 31
0.0
  0
LINE
  5
77B
330
1E
100
AcDbEntity
  8
0
100
AcDbLine
 10
117.0
 20
225.658
 30
0.0
 11
117.0
 21
231.674
 31
0.0
  0
LINE
  5
77C
330
1E
100
AcDbEntity
  8
0
100
AcDbLine
 10
129.0
 20
223.923
 30
0.0
 11
131.8
 21
223.95
 31
0.0
  0
LINE
  5
78F
330
1E
100
AcDbEntity
  8
0
100
AcDbLine
 10
131.8
 20
223.95
 30
0.0
 11
134.4999999999999
 21
224.024
 31
0.0
  0
LINE
  5
790
330
1E
100
AcDbEntity
  8
0
100
AcDbLine
 10
134.4999999999999
 20
224.024
 30
0.0
 11
136.8
 21
224.1379999999999
 31
0.0
  0
LINE
  5
791
330
1E
100
AcDbEntity
  8
0
100
AcDbLine
 10
126.2
 20
223.95
 30
0.0
 11
129.0
 21
223.923
 31
0.0
  0
LINE
  5
792
330
1E
100
AcDbEntity
  8
0
100
AcDbLine
 10
136.8
 20
224.1379999999999
 30
0.0
 11
138.5
 21
224.292
 31
0.0
  0
LINE
  5
793
330
1E
100
AcDbEntity
  8
0
100
AcDbLine
 10
138.5
 20
224.292
 30
0.0
 11
139.5999999999999
 21
224.4759999999999
 31
0.0
  0
LINE
  5
794
330
1E
100
AcDbEntity
  8
0
100
AcDbLine
 10
123.5
 20
224.024
 30
0.0
 11
126.2
 21
223.95
 31
0.0
  0
LINE
  5
795
330
1E
100
AcDbEntity
  8
0
100
AcDbLine
 10
121.1999999999999
 20
224.1379999999999
 30
0.0
 11
123.5
 21
224.024
 31
0.0
  0
LINE
  5
796
330
1E
100
AcDbEntity
  8
0
100
AcDbLine
 10
139.5
 20
224.4592727272729
 30
0.0
 11
139.5
 21
111.919941348974
 31
0.0
  0
LINE
  5
797
330
1E
100
AcDbEntity
  8
0
100
AcDbLine
 10
139.5999999999999
 20
224.4759999999999
 30
0.0
 11
140.0
 21
224.6599999999999
 31
0.0
  0
LINE
  5
798
330
1E
100
AcDbEntity
  8
0
100
AcDbLine
 10
140.0
 20
224.6599999999999
 30
0.0
 11
141.0
 21
225.658
 31
0.0
  0
LINE
  5
799
330
1E
100
AcDbEntity
  8
0
100
AcDbLine
 10
139.5999999999999
 20
224.845
 30
0.0
 11
140.0
 21
224.6599999999999
 31
0.0
  0
LINE
  5
79A
330
1E
100
AcDbEntity
  8
0
100
AcDbLine
 10
118.5
 20
224.4592727272729
 30
0.0
 11
118.5
 21
111.920005866823
 31
0.0
  0
LINE
  5
79B
330
1E
100
AcDbEntity
  8
0
100
AcDbLine
 10
119.5
 20
224.292
 30
0.0
 11
121.1999999999999
 21
224.1379999999999
 31
0.0
  0
LINE
  5
79C
330
1E
100
AcDbEntity
  8
0
100
AcDbLine
 10
118.4
 20
224.4759999999999
 30
0.0
 11
119.5
 21
224.292
 31
0.0
  0
LINE
  5
79D
330
1E
100
AcDbEntity
  8
0
100
AcDbLine
 10
118.5
 20
271.485
 30
0.0
 11
118.5
 21
281.7499999999999
 31
0.0
  0
LINE
  5
79E
330
1E
100
AcDbEntity
  8
0
100
AcDbLine
 10
118.5
 20
271.485
 30
0.0
 11
118.5
 21
260.6469999999999
 31
0.0
  0
LINE
  5
79F
330
1E
100
AcDbEntity
  8
0
100
AcDbLine
 10
118.5
 20
260.6469999999999
 30
0.0
 11
118.5
 21
249.4209999999999
 31
0.0
  0
LINE
  5
7A0
330
1E
100
AcDbEntity
  8
0
100
AcDbLine
 10
118.5
 20
260.6469999999999
 30
0.0
 11
118.5
 21
271.485
 31
0.0
  0
LINE
  5
7A1
330
1E
100
AcDbEntity
  8
0
100
AcDbLine
 10
118.5
 20
249.4209999999999
 30
0.0
 11
118.5
 21
260.6469999999999
 31
0.0
  0
LINE
  5
7A2
330
1E
100
AcDbEntity
  8
0
100
AcDbLine
 10
118.5
 20
249.4209999999999
 30
0.0
 11
118.5
 21
238.0
 31
0.0
  0
LINE
  5
7A3
330
1E
100
AcDbEntity
  8
0
100
AcDbLine
 10
118.5
 20
249.4209999999999
 30
0.0
 11
118.5
 21
236.6629999999999
 31
0.0
  0
LINE
  5
7A4
330
1E
100
AcDbEntity
  8
0
100
AcDbLine
 10
118.5
 20
281.7499999999999
 30
0.0
 11
118.5
 21
291.2669999999999
 31
0.0
  0
LINE
  5
7A5
330
1E
100
AcDbEntity
  8
0
100
AcDbLine
 10
118.5
 20
281.7499999999999
 30
0.0
 11
118.5
 21
271.485
 31
0.0
  0
LINE
  5
7A6
330
1E
100
AcDbEntity
  8
0
100
AcDbLine
 10
118.5
 20
299.872
 30
0.0
 11
118.5
 21
307.418
 31
0.0
  0
LINE
  5
7A7
330
1E
100
AcDbEntity
  8
0
100
AcDbLine
 10
118.5
 20
299.872
 30
0.0
 11
118.5
 21
291.2669999999999
 31
0.0
  0
LINE
  5
7A8
330
1E
100
AcDbEntity
  8
0
100
AcDbLine
 10
118.5
 20
307.418
 30
0.0
 11
118.5
 21
299.872
 31
0.0
  0
LINE
  5
7A9
330
1E
100
AcDbEntity
  8
0
100
AcDbLine
 10
118.5
 20
307.418
 30
0.0
 11
118.5
 21
313.7769999999999
 31
0.0
  0
LINE
  5
7AA
330
1E
100
AcDbEntity
  8
0
100
AcDbLine
 10
118.5
 20
307.418
 30
0.0
 11
118.5
 21
313.7769999999999
 31
0.0
  0
LINE
  5
7AB
330
1E
100
AcDbEntity
  8
0
100
AcDbLine
 10
118.5
 20
307.418
 30
0.0
 11
118.5
 21
299.872
 31
0.0
  0
LINE
  5
7AC
330
1E
100
AcDbEntity
  8
0
100
AcDbLine
 10
118.5
 20
325.4999999999999
 30
0.0
 11
118.5
 21
324.7509999999999
 31
0.0
  0
LINE
  5
7AD
330
1E
100
AcDbEntity
  8
0
100
AcDbLine
 10
118.5
 20
325.4999999999999
 30
0.0
 11
118.9
 21
328.2
 31
0.0
  0
LINE
  5
7AE
330
1E
100
AcDbEntity
  8
0
100
AcDbLine
 10
118.5
 20
324.7509999999999
 30
0.0
 11
118.5
 21
322.519
 31
0.0
  0
LINE
  5
7AF
330
1E
100
AcDbEntity
  8
0
100
AcDbLine
 10
118.5
 20
324.7509999999999
 30
0.0
 11
118.5
 21
325.4999999999999
 31
0.0
  0
LINE
  5
7B0
330
1E
100
AcDbEntity
  8
0
100
AcDbLine
 10
118.5
 20
322.519
 30
0.0
 11
118.5
 21
324.7509999999999
 31
0.0
  0
LINE
  5
7B1
330
1E
100
AcDbEntity
  8
0
100
AcDbLine
 10
118.5
 20
322.519
 30
0.0
 11
118.5
 21
318.839
 31
0.0
  0
LINE
  5
7B2
330
1E
100
AcDbEntity
  8
0
100
AcDbLine
 10
118.5
 20
318.839
 30
0.0
 11
118.5
 21
313.7769999999999
 31
0.0
  0
LINE
  5
7B3
330
1E
100
AcDbEntity
  8
0
100
AcDbLine
 10
118.5
 20
318.839
 30
0.0
 11
118.5
 21
322.519
 31
0.0
  0
LINE
  5
7B4
330
1E
100
AcDbEntity
  8
0
100
AcDbLine
 10
118.5
 20
313.7769999999999
 30
0.0
 11
118.5
 21
318.839
 31
0.0
  0
LINE
  5
7B5
330
1E
100
AcDbEntity
  8
0
100
AcDbLine
 10
118.5
 20
313.7769999999999
 30
0.0
 11
118.5
 21
307.418
 31
0.0
  0
LINE
  5
7B6
330
1E
100
AcDbEntity
  8
0
100
AcDbLine
 10
118.5
 20
313.7769999999999
 30
0.0
 11
118.5
 21
307.418
 31
0.0
  0
LINE
  5
7B7
330
1E
100
AcDbEntity
  8
0
100
AcDbLine
 10
118.5
 20
299.872
 30
0.0
 11
118.5
 21
291.2669999999999
 31
0.0
  0
LINE
  5
7B8
330
1E
100
AcDbEntity
  8
0
100
AcDbLine
 10
118.5
 20
299.872
 30
0.0
 11
118.5
 21
307.418
 31
0.0
  0
LINE
  5
7B9
330
1E
100
AcDbEntity
  8
0
100
AcDbLine
 10
118.5
 20
291.2669999999999
 30
0.0
 11
118.5
 21
281.7499999999999
 31
0.0
  0
LINE
  5
7BA
330
1E
100
AcDbEntity
  8
0
100
AcDbLine
 10
118.5
 20
291.2669999999999
 30
0.0
 11
118.5
 21
299.872
 31
0.0
  0
LINE
  5
7BB
330
1E
100
AcDbEntity
  8
0
100
AcDbLine
 10
118.5
 20
291.2669999999999
 30
0.0
 11
118.5
 21
299.872
 31
0.0
  0
LINE
  5
7BC
330
1E
100
AcDbEntity
  8
0
100
AcDbLine
 10
118.5
 20
238.0
 30
0.0
 11
118.5
 21
236.6629999999999
 31
0.0
  0
LINE
  5
7BD
330
1E
100
AcDbEntity
  8
0
100
AcDbLine
 10
118.5
 20
238.0
 30
0.0
 11
118.5
 21
249.4209999999999
 31
0.0
  0
LINE
  5
7BE
330
1E
100
AcDbEntity
  8
0
100
AcDbLine
 10
118.5
 20
236.6629999999999
 30
0.0
 11
118.9
 21
236.844
 31
0.0
  0
LINE
  5
7BF
330
1E
100
AcDbEntity
  8
0
100
AcDbLine
 10
118.5
 20
236.6629999999999
 30
0.0
 11
118.5
 21
238.0
 31
0.0
  0
LINE
  5
7C0
330
1E
100
AcDbEntity
  8
0
100
AcDbLine
 10
118.5
 20
236.6629999999999
 30
0.0
 11
118.5
 21
249.4209999999999
 31
0.0
  0
LINE
  5
7C1
330
1E
100
AcDbEntity
  8
0
100
AcDbLine
 10
118.9
 20
328.2
 30
0.0
 11
119.9
 21
330.6999999999999
 31
0.0
  0
LINE
  5
7C2
330
1E
100
AcDbEntity
  8
0
100
AcDbLine
 10
118.9
 20
236.844
 30
0.0
 11
119.9
 21
237.012
 31
0.0
  0
LINE
  5
7C3
330
1E
100
AcDbEntity
  8
0
100
AcDbLine
 10
118.5999999999999
 20
232.0769999999999
 30
0.0
 11
120.5
 21
232.244
 31
0.0
  0
LINE
  5
7C4
330
1E
100
AcDbEntity
  8
0
100
AcDbLine
 10
118.5999999999999
 20
226.06
 30
0.0
 11
120.5
 21
226.228
 31
0.0
  0
LINE
  5
7C5
330
1E
100
AcDbEntity
  8
0
100
AcDbLine
 10
136.8
 20
225.1829999999999
 30
0.0
 11
138.5
 21
225.029
 31
0.0
  0
LINE
  5
7C6
330
1E
100
AcDbEntity
  8
0
100
AcDbLine
 10
138.5
 20
225.029
 30
0.0
 11
139.5999999999999
 21
224.845
 31
0.0
  0
LINE
  5
7C7
330
1E
100
AcDbEntity
  8
0
100
AcDbLine
 10
121.5999999999999
 20
332.8999999999999
 30
0.0
 11
123.7999999999999
 21
334.6
 31
0.0
  0
LINE
  5
7C8
330
1E
100
AcDbEntity
  8
0
100
AcDbLine
 10
119.9
 20
330.6999999999999
 30
0.0
 11
121.5999999999999
 21
332.8999999999999
 31
0.0
  0
LINE
  5
7C9
330
1E
100
AcDbEntity
  8
0
100
AcDbLine
 10
121.5999999999999
 20
237.159
 30
0.0
 11
123.7999999999999
 21
237.273
 31
0.0
  0
LINE
  5
7CA
330
1E
100
AcDbEntity
  8
0
100
AcDbLine
 10
119.9
 20
237.012
 30
0.0
 11
121.5999999999999
 21
237.159
 31
0.0
  0
LINE
  5
7CB
330
1E
100
AcDbEntity
  8
0
100
AcDbLine
 10
123.0
 20
232.3709999999999
 30
0.0
 11
125.9
 21
232.452
 31
0.0
  0
LINE
  5
7CC
330
1E
100
AcDbEntity
  8
0
100
AcDbLine
 10
120.5
 20
232.244
 30
0.0
 11
123.0
 21
232.3709999999999
 31
0.0
  0
LINE
  5
7CD
330
1E
100
AcDbEntity
  8
0
100
AcDbLine
 10
123.0
 20
226.3549999999999
 30
0.0
 11
125.9
 21
226.4349999999999
 31
0.0
  0
LINE
  5
7CE
330
1E
100
AcDbEntity
  8
0
100
AcDbLine
 10
120.5
 20
226.228
 30
0.0
 11
123.0
 21
226.3549999999999
 31
0.0
  0
LINE
  5
7CF
330
1E
100
AcDbEntity
  8
0
100
AcDbLine
 10
131.8
 20
225.3709999999999
 30
0.0
 11
134.4999999999999
 21
225.2969999999999
 31
0.0
  0
LINE
  5
7D0
330
1E
100
AcDbEntity
  8
0
100
AcDbLine
 10
134.4999999999999
 20
225.2969999999999
 30
0.0
 11
136.8
 21
225.1829999999999
 31
0.0
  0
LINE
  5
7D1
330
1E
100
AcDbEntity
  8
0
100
AcDbLine
 10
123.7999999999999
 20
334.6
 30
0.0
 11
126.2999999999999
 21
335.6
 31
0.0
  0
LINE
  5
7D2
330
1E
100
AcDbEntity
  8
0
100
AcDbLine
 10
123.7999999999999
 20
237.273
 30
0.0
 11
126.2999999999999
 21
237.34
 31
0.0
  0
LINE
  5
7D3
330
1E
100
AcDbEntity
  8
0
100
AcDbLine
 10
125.9
 20
232.452
 30
0.0
 11
129.0
 21
232.479
 31
0.0
  0
LINE
  5
7D4
330
1E
100
AcDbEntity
  8
0
100
AcDbLine
 10
129.0
 20
226.462
 30
0.0
 11
132.0999999999999
 21
226.4349999999999
 31
0.0
  0
LINE
  5
7D5
330
1E
100
AcDbEntity
  8
0
100
AcDbLine
 10
132.0999999999999
 20
226.4349999999999
 30
0.0
 11
135.0
 21
226.3549999999999
 31
0.0
  0
LINE
  5
7D6
330
1E
100
AcDbEntity
  8
0
100
AcDbLine
 10
135.0
 20
226.3549999999999
 30
0.0
 11
137.5
 21
226.228
 31
0.0
  0
LINE
  5
7D7
330
1E
100
AcDbEntity
  8
0
100
AcDbLine
 10
137.5
 20
226.228
 30
0.0
 11
139.4
 21
226.06
 31
0.0
  0
LINE
  5
7D8
330
1E
100
AcDbEntity
  8
0
100
AcDbLine
 10
139.4
 20
226.06
 30
0.0
 11
140.5999999999999
 21
225.8659999999999
 31
0.0
  0
LINE
  5
7D9
330
1E
100
AcDbEntity
  8
0
100
AcDbLine
 10
140.5999999999999
 20
225.8659999999999
 30
0.0
 11
141.0
 21
225.658
 31
0.0
  0
LINE
  5
7DA
330
1E
100
AcDbEntity
  8
0
100
AcDbLine
 10
129.0
 20
225.397
 30
0.0
 11
131.8
 21
225.3709999999999
 31
0.0
  0
LINE
  5
7DB
330
1E
100
AcDbEntity
  8
0
100
AcDbLine
 10
131.6999999999999
 20
237.34
 30
0.0
 11
134.1999999999999
 21
237.273
 31
0.0
  0
LINE
  5
7DC
330
1E
100
AcDbEntity
  8
0
100
AcDbLine
 10
129.0
 20
232.479
 30
0.0
 11
132.0999999999999
 21
232.452
 31
0.0
  0
LINE
  5
7DD
330
1E
100
AcDbEntity
  8
0
100
AcDbLine
 10
134.1999999999999
 20
237.273
 30
0.0
 11
136.4
 21
237.159
 31
0.0
  0
LINE
  5
7DE
330
1E
100
AcDbEntity
  8
0
100
AcDbLine
 10
136.4
 20
237.159
 30
0.0
 11
138.1
 21
237.012
 31
0.0
  0
LINE
  5
7DF
330
1E
100
AcDbEntity
  8
0
100
AcDbLine
 10
132.0999999999999
 20
232.452
 30
0.0
 11
135.0
 21
232.3709999999999
 31
0.0
  0
LINE
  5
7E0
330
1E
100
AcDbEntity
  8
0
100
AcDbLine
 10
135.0
 20
232.3709999999999
 30
0.0
 11
137.5
 21
232.244
 31
0.0
  0
LINE
  5
7E1
330
1E
100
AcDbEntity
  8
0
100
AcDbLine
 10
139.5
 20
236.6629999999999
 30
0.0
 11
141.5
 21
235.1669999999999
 31
0.0
  0
LINE
  5
7E2
330
1E
100
AcDbEntity
  8
0
100
AcDbLine
 10
139.5
 20
236.6629999999999
 30
0.0
 11
139.5
 21
249.4209999999999
 31
0.0
  0
LINE
  5
7E3
330
1E
100
AcDbEntity
  8
0
100
AcDbLine
 10
138.1
 20
237.012
 30
0.0
 11
139.1
 21
236.844
 31
0.0
  0
LINE
  5
7E4
330
1E
100
AcDbEntity
  8
0
100
AcDbLine
 10
139.1
 20
236.844
 30
0.0
 11
139.5
 21
236.6629999999999
 31
0.0
  0
LINE
  5
7E5
330
1E
100
AcDbEntity
  8
0
100
AcDbLine
 10
137.5
 20
232.244
 30
0.0
 11
139.4
 21
232.0769999999999
 31
0.0
  0
LINE
  5
7E6
330
1E
100
AcDbEntity
  8
0
100
AcDbLine
 10
139.4
 20
232.0769999999999
 30
0.0
 11
140.5999999999999
 21
231.882
 31
0.0
  0
LINE
  5
7E7
330
1E
100
AcDbEntity
  8
0
100
AcDbLine
 10
141.0
 20
225.658
 30
0.0
 11
141.0
 21
231.674
 31
0.0
  0
LINE
  5
7E8
330
1E
100
AcDbEntity
  8
0
100
AcDbLine
 10
141.5
 20
235.1669999999999
 30
0.0
 11
142.0
 21
233.6699999999999
 31
0.0
  0
LINE
  5
7E9
330
1E
100
AcDbEntity
  8
0
100
AcDbLine
 10
142.0
 20
233.6699999999999
 30
0.0
 11
142.0
 21
233.171
 31
0.0
  0
LINE
  5
7EA
330
1E
100
AcDbEntity
  8
0
100
AcDbLine
 10
142.0
 20
233.171
 30
0.0
 11
142.0
 21
233.6699999999999
 31
0.0
  0
LINE
  5
7EB
330
1E
100
AcDbEntity
  8
0
100
AcDbLine
 10
141.5
 20
232.173
 30
0.0
 11
142.0
 21
233.171
 31
0.0
  0
LINE
  5
7EC
330
1E
100
AcDbEntity
  8
0
100
AcDbLine
 10
141.0
 20
231.674
 30
0.0
 11
141.5
 21
232.173
 31
0.0
  0
LINE
  5
7ED
330
1E
100
AcDbEntity
  8
0
100
AcDbLine
 10
141.0
 20
231.674
 30
0.0
 11
141.0
 21
225.658
 31
0.0
  0
LINE
  5
7EE
330
1E
100
AcDbEntity
  8
0
100
AcDbLine
 10
140.5999999999999
 20
231.882
 30
0.0
 11
141.0
 21
231.674
 31
0.0
  0
LINE
  5
7EF
330
1E
100
AcDbEntity
  8
0
100
AcDbLine
 10
139.5
 20
260.6469999999999
 30
0.0
 11
139.5
 21
249.4209999999999
 31
0.0
  0
LINE
  5
7F0
330
1E
100
AcDbEntity
  8
0
100
AcDbLine
 10
139.5
 20
260.6469999999999
 30
0.0
 11
139.5
 21
271.485
 31
0.0
  0
LINE
  5
7F1
330
1E
100
AcDbEntity
  8
0
100
AcDbLine
 10
129.0
 20
237.367
 30
0.0
 11
131.6999999999999
 21
237.34
 31
0.0
  0
LINE
  5
7F2
330
1E
100
AcDbEntity
  8
0
100
AcDbLine
 10
139.5
 20
249.4209999999999
 30
0.0
 11
139.5
 21
260.6469999999999
 31
0.0
  0
LINE
  5
7F3
330
1E
100
AcDbEntity
  8
0
100
AcDbLine
 10
139.5
 20
249.4209999999999
 30
0.0
 11
139.5
 21
236.6629999999999
 31
0.0
  0
LINE
  5
7F4
330
1E
100
AcDbEntity
  8
0
100
AcDbLine
 10
139.5
 20
281.7499999999999
 30
0.0
 11
139.5
 21
271.485
 31
0.0
  0
LINE
  5
7F5
330
1E
100
AcDbEntity
  8
0
100
AcDbLine
 10
139.5
 20
281.7499999999999
 30
0.0
 11
139.5
 21
291.2669999999999
 31
0.0
  0
LINE
  5
7F6
330
1E
100
AcDbEntity
  8
0
100
AcDbLine
 10
139.5
 20
271.485
 30
0.0
 11
139.5
 21
281.7499999999999
 31
0.0
  0
LINE
  5
7F7
330
1E
100
AcDbEntity
  8
0
100
AcDbLine
 10
139.5
 20
271.485
 30
0.0
 11
139.5
 21
260.6469999999999
 31
0.0
  0
LINE
  5
7F8
330
1E
100
AcDbEntity
  8
0
100
AcDbLine
 10
139.5
 20
291.2669999999999
 30
0.0
 11
139.5
 21
281.7499999999999
 31
0.0
  0
LINE
  5
7F9
330
1E
100
AcDbEntity
  8
0
100
AcDbLine
 10
139.5
 20
291.2669999999999
 30
0.0
 11
139.5
 21
299.872
 31
0.0
  0
LINE
  5
7FA
330
1E
100
AcDbEntity
  8
0
100
AcDbLine
 10
139.5
 20
313.7769999999999
 30
0.0
 11
139.5
 21
318.839
 31
0.0
  0
LINE
  5
7FB
330
1E
100
AcDbEntity
  8
0
100
AcDbLine
 10
139.5
 20
313.7769999999999
 30
0.0
 11
139.5
 21
307.418
 31
0.0
  0
LINE
  5
7FC
330
1E
100
AcDbEntity
  8
0
100
AcDbLine
 10
139.5
 20
325.4999999999999
 30
0.0
 11
139.5
 21
324.7509999999999
 31
0.0
  0
LINE
  5
7FD
330
1E
100
AcDbEntity
  8
0
100
AcDbLine
 10
139.5
 20
324.7509999999999
 30
0.0
 11
139.5
 21
325.4999999999999
 31
0.0
  0
LINE
  5
7FE
330
1E
100
AcDbEntity
  8
0
100
AcDbLine
 10
139.5
 20
324.7509999999999
 30
0.0
 11
139.5
 21
322.519
 31
0.0
  0
LINE
  5
7FF
330
1E
100
AcDbEntity
  8
0
100
AcDbLine
 10
139.5
 20
322.519
 30
0.0
 11
139.5
 21
318.839
 31
0.0
  0
LINE
  5
800
330
1E
100
AcDbEntity
  8
0
100
AcDbLine
 10
139.5
 20
322.519
 30
0.0
 11
139.5
 21
324.7509999999999
 31
0.0
  0
LINE
  5
801
330
1E
100
AcDbEntity
  8
0
100
AcDbLine
 10
139.5
 20
318.839
 30
0.0
 11
139.5
 21
322.519
 31
0.0
  0
LINE
  5
802
330
1E
100
AcDbEntity
  8
0
100
AcDbLine
 10
139.5
 20
318.839
 30
0.0
 11
139.5
 21
313.7769999999999
 31
0.0
  0
LINE
  5
803
330
1E
100
AcDbEntity
  8
0
100
AcDbLine
 10
139.5
 20
307.418
 30
0.0
 11
139.5
 21
299.872
 31
0.0
  0
LINE
  5
804
330
1E
100
AcDbEntity
  8
0
100
AcDbLine
 10
139.5
 20
307.418
 30
0.0
 11
139.5
 21
313.7769999999999
 31
0.0
  0
LINE
  5
805
330
1E
100
AcDbEntity
  8
0
100
AcDbLine
 10
139.5
 20
299.872
 30
0.0
 11
139.5
 21
291.2669999999999
 31
0.0
  0
LINE
  5
806
330
1E
100
AcDbEntity
  8
0
100
AcDbLine
 10
139.5
 20
299.872
 30
0.0
 11
139.5
 21
307.418
 31
0.0
  0
LINE
  5
807
330
1E
100
AcDbEntity
  8
0
100
AcDbLine
 10
129.0
 20
336.0
 30
0.0
 11
131.6999999999999
 21
335.6
 31
0.0
  0
LINE
  5
808
330
1E
100
AcDbEntity
  8
0
100
AcDbLine
 10
131.6999999999999
 20
335.6
 30
0.0
 11
134.1999999999999
 21
334.6
 31
0.0
  0
LINE
  5
809
330
1E
100
AcDbEntity
  8
0
100
AcDbLine
 10
134.1999999999999
 20
334.6
 30
0.0
 11
136.4
 21
332.8999999999999
 31
0.0
  0
LINE
  5
80A
330
1E
100
AcDbEntity
  8
0
100
AcDbLine
 10
136.4
 20
332.8999999999999
 30
0.0
 11
138.1
 21
330.6999999999999
 31
0.0
  0
LINE
  5
80B
330
1E
100
AcDbEntity
  8
0
100
AcDbLine
 10
138.1
 20
330.6999999999999
 30
0.0
 11
139.1
 21
328.2
 31
0.0
  0
LINE
  5
80C
330
1E
100
AcDbEntity
  8
0
100
AcDbLine
 10
139.1
 20
328.2
 30
0.0
 11
139.5
 21
325.4999999999999
 31
0.0
  0
LINE
  5
80D
330
1E
100
AcDbEntity
  8
0
100
AcDbLine
 10
126.2999999999999
 20
335.6
 30
0.0
 11
129.0
 21
336.0
 31
0.0
  0
LINE
  5
80E
330
1E
100
AcDbEntity
  8
0
100
AcDbLine
 10
126.2999999999999
 20
237.34
 30
0.0
 11
129.0
 21
237.367
 31
0.0
  0
LINE
  5
80F
330
1E
100
AcDbEntity
  8
0
100
AcDbLine
 10
125.9
 20
226.4349999999999
 30
0.0
 11
129.0
 21
226.462
 31
0.0
  0
LINE
  5
810
330
1E
100
AcDbEntity
  8
0
100
AcDbLine
 10
126.2
 20
225.3709999999999
 30
0.0
 11
129.0
 21
225.397
 31
0.0
  0
LINE
  5
811
330
1E
100
AcDbEntity
  8
0
100
AcDbLine
 10
123.5
 20
225.2969999999999
 30
0.0
 11
126.2
 21
225.3709999999999
 31
0.0
  0
LINE
  5
812
330
1E
100
AcDbEntity
  8
0
100
AcDbLine
 10
121.1999999999999
 20
225.1829999999999
 30
0.0
 11
123.5
 21
225.2969999999999
 31
0.0
  0
LINE
  5
813
330
1E
100
AcDbEntity
  8
0
100
AcDbLine
 10
119.5
 20
225.029
 30
0.0
 11
121.1999999999999
 21
225.1829999999999
 31
0.0
  0
LINE
  5
814
330
1E
100
AcDbEntity
  8
0
100
AcDbLine
 10
118.4
 20
224.845
 30
0.0
 11
119.5
 21
225.029
 31
0.0
  0
LINE
  5
815
330
1E
100
AcDbEntity
  8
0
100
AcDbLine
 10
118.0
 20
224.6599999999999
 30
0.0
 11
118.4
 21
224.845
 31
0.0
  0
LINE
  5
816
330
1E
100
AcDbEntity
  8
0
100
AcDbLine
 10
118.0
 20
224.6599999999999
 30
0.0
 11
118.4
 21
224.4759999999999
 31
0.0
  0
LINE
  5
817
330
1E
100
AcDbEntity
  8
0
100
AcDbLine
 10
53.9902
 20
173.889
 30
0.0
 11
54.262881034482
 21
173.808644631481
 31
0.0
  0
LINE
  5
818
330
1E
100
AcDbEntity
  8
0
100
AcDbLine
 10
53.8748
 20
173.9079999999999
 30
0.0
 11
55.37469999999999
 21
173.524
 31
0.0
  0
LINE
  5
819
330
1E
100
AcDbEntity
  8
0
100
AcDbLine
 10
51.4638321295078
 20
173.7262802842459
 30
0.0
 11
52.1036
 21
173.807
 31
0.0
  0
LINE
  5
81A
330
1E
100
AcDbEntity
  8
0
100
AcDbLine
 10
28.2
 20
173.9079999999999
 30
0.0
 11
29.0
 21
173.889
 31
0.0
  0
LINE
  5
81B
330
1E
100
AcDbEntity
  8
0
100
AcDbLine
 10
28.2
 20
173.9079999999999
 30
0.0
 11
28.2
 21
173.524
 31
0.0
  0
LINE
  5
81C
330
1E
100
AcDbEntity
  8
0
100
AcDbLine
 10
19.9
 20
173.5
 30
0.0
 11
21.6
 21
173.5
 31
0.0
  0
LINE
  5
81D
330
1E
100
AcDbEntity
  8
0
100
AcDbLine
 10
18.89999999999999
 20
173.5
 30
0.0
 11
19.9
 21
173.5
 31
0.0
  0
LINE
  5
81E
330
1E
100
AcDbEntity
  8
0
100
AcDbLine
 10
19.0
 20
142.0
 30
0.0
 11
20.89999999999999
 21
142.0
 31
0.0
  0
LINE
  5
81F
330
1E
100
AcDbEntity
  8
0
100
AcDbLine
 10
18.6
 20
140.0
 30
0.0
 11
20.5
 21
140.0
 31
0.0
  0
LINE
  5
820
330
1E
100
AcDbEntity
  8
0
100
AcDbLine
 10
17.9
 20
139.5
 30
0.0
 11
19.0
 21
139.5
 31
0.0
  0
LINE
  5
821
330
1E
100
AcDbEntity
  8
0
100
AcDbLine
 10
17.5
 20
139.5
 30
0.0
 11
17.9
 21
139.5
 31
0.0
  0
LINE
  5
822
330
1E
100
AcDbEntity
  8
0
100
AcDbLine
 10
17.4
 20
139.0
 30
0.0
 11
18.6
 21
139.0
 31
0.0
  0
LINE
  5
823
330
1E
100
AcDbEntity
  8
0
100
AcDbLine
 10
17.0
 20
139.0
 30
0.0
 11
17.0
 21
127.0
 31
0.0
  0
LINE
  5
824
330
1E
100
AcDbEntity
  8
0
100
AcDbLine
 10
17.0
 20
139.0
 30
0.0
 11
17.4
 21
139.0
 31
0.0
  0
LINE
  5
825
330
1E
100
AcDbEntity
  8
0
100
AcDbLine
 10
17.0
 20
139.0
 30
0.0
 11
17.5
 21
139.5
 31
0.0
  0
LINE
  5
826
330
1E
100
AcDbEntity
  8
0
100
AcDbLine
 10
16.0
 20
121.0
 30
0.0
 11
18.39999999999999
 21
121.0
 31
0.0
  0
LINE
  5
827
330
1E
100
AcDbEntity
  8
0
100
AcDbLine
 10
14.69999999999999
 20
117.5
 30
0.0
 11
17.3
 21
117.5
 31
0.0
  0
LINE
  5
828
330
1E
100
AcDbEntity
  8
0
100
AcDbLine
 10
14.1
 20
117.0
 30
0.0
 11
15.6
 21
117.0
 31
0.0
  0
LINE
  5
829
330
1E
100
AcDbEntity
  8
0
100
AcDbLine
 10
14.0
 20
115.5
 30
0.0
 11
14.0
 21
70.0
 31
0.0
  0
LINE
  5
82E
330
1E
100
AcDbEntity
  8
0
100
AcDbLine
 10
204.4999999999999
 20
105.0
 30
0.0
 11
154.4999999999999
 21
105.0
 31
0.0
  0
LINE
  5
82F
330
1E
100
AcDbEntity
  8
0
100
AcDbLine
 10
204.4999999999999
 20
79.0
 30
0.0
 11
154.4999999999999
 21
79.0
 31
0.0
  0
LINE
  5
830
330
1E
100
AcDbEntity
  8
0
100
AcDbLine
 10
229.8
 20
168.0
 30
0.0
 11
229.8
 21
170.929
 31
0.0
  0
LINE
  5
831
330
1E
100
AcDbEntity
  8
0
100
AcDbLine
 10
200.3562
 20
170.929
 30
0.0
 11
200.0
 21
168.0
 31
0.0
  0
LINE
  5
832
330
1E
100
AcDbEntity
  8
0
100
AcDbLine
 10
228.2
 20
170.929
 30
0.0
 11
228.2
 21
168.0
 31
0.0
  0
LINE
  5
833
330
1E
100
AcDbEntity
  8
0
100
AcDbLine
 10
227.1999999999999
 20
170.949
 30
0.0
 11
227.0
 21
168.0
 31
0.0
  0
LINE
  5
834
330
1E
100
AcDbEntity
  8
0
100
AcDbLine
 10
228.2
 20
168.0
 30
0.0
 11
228.2
 21
170.929
 31
0.0
  0
LINE
  5
835
330
1E
100
AcDbEntity
  8
0
100
AcDbLine
 10
229.8
 20
170.929
 30
0.0
 11
229.8
 21
168.0
 31
0.0
  0
LINE
  5
836
330
1E
100
AcDbEntity
  8
0
100
AcDbLine
 10
231.0
 20
168.0
 30
0.0
 11
230.8
 21
170.949
 31
0.0
  0
LINE
  5
837
330
1E
100
AcDbEntity
  8
0
100
AcDbLine
 10
258.0
 20
168.0
 30
0.0
 11
257.6438
 21
170.929
 31
0.0
  0
LINE
  5
838
330
1E
100
AcDbEntity
  8
0
100
AcDbLine
 10
229.8
 20
162.092
 30
0.0
 11
229.0
 21
162.1109999999999
 31
0.0
  0
LINE
  5
839
330
1E
100
AcDbEntity
  8
0
100
AcDbLine
 10
230.5
 20
153.0
 30
0.0
 11
229.0
 21
153.0
 31
0.0
  0
LINE
  5
83A
330
1E
100
AcDbEntity
  8
0
100
AcDbLine
 10
230.6999999999999
 20
153.0
 30
0.0
 11
229.0
 21
153.0
 31
0.0
  0
LINE
  5
83B
330
1E
100
AcDbEntity
  8
0
100
AcDbLine
 10
230.6999999999999
 20
161.0
 30
0.0
 11
229.0
 21
161.0
 31
0.0
  0
LINE
  5
83C
330
1E
100
AcDbEntity
  8
0
100
AcDbLine
 10
232.1
 20
140.0
 30
0.0
 11
229.0
 21
140.0
 31
0.0
  0
LINE
  5
83D
330
1E
100
AcDbEntity
  8
0
100
AcDbLine
 10
232.0
 20
142.0
 30
0.0
 11
229.0
 21
142.0
 31
0.0
  0
LINE
  5
83E
330
1E
100
AcDbEntity
  8
0
100
AcDbLine
 10
232.1
 20
141.5
 30
0.0
 11
229.0
 21
141.5
 31
0.0
  0
LINE
  5
83F
330
1E
100
AcDbEntity
  8
0
100
AcDbLine
 10
232.0
 20
139.5
 30
0.0
 11
229.0
 21
139.5
 31
0.0
  0
LINE
  5
840
330
1E
100
AcDbEntity
  8
0
100
AcDbLine
 10
232.1
 20
139.0
 30
0.0
 11
229.0
 21
139.0
 31
0.0
  0
LINE
  5
841
330
1E
100
AcDbEntity
  8
0
100
AcDbLine
 10
240.3414999999999
 20
127.0
 30
0.0
 11
224.8415
 21
127.0
 31
0.0
  0
LINE
  5
842
330
1E
100
AcDbEntity
  8
0
100
AcDbLine
 10
233.1999999999999
 20
117.5
 30
0.0
 11
229.0
 21
117.5
 31
0.0
  0
LINE
  5
843
330
1E
100
AcDbEntity
  8
0
100
AcDbLine
 10
232.9
 20
121.0
 30
0.0
 11
229.0
 21
121.0
 31
0.0
  0
LINE
  5
844
330
1E
100
AcDbEntity
  8
0
100
AcDbLine
 10
233.1999999999999
 20
120.5
 30
0.0
 11
229.0
 21
120.5
 31
0.0
  0
LINE
  5
845
330
1E
100
AcDbEntity
  8
0
100
AcDbLine
 10
233.0
 20
117.0
 30
0.0
 11
229.0
 21
117.0
 31
0.0
  0
LINE
  5
846
330
1E
100
AcDbEntity
  8
0
100
AcDbLine
 10
243.5
 20
70.0
 30
0.0
 11
229.0
 21
70.0
 31
0.0
  0
LINE
  5
847
330
1E
100
AcDbEntity
  8
0
100
AcDbLine
 10
233.0
 20
66.0
 30
0.0
 11
229.0
 21
66.0
 31
0.0
  0
LINE
  5
848
330
1E
100
AcDbEntity
  8
0
100
AcDbLine
 10
233.1999999999999
 20
66.5
 30
0.0
 11
229.0
 21
66.5
 31
0.0
  0
LINE
  5
849
330
1E
100
AcDbEntity
  8
0
100
AcDbLine
 10
233.1999999999999
 20
69.5
 30
0.0
 11
229.0
 21
69.5
 31
0.0
  0
LINE
  5
84A
330
1E
100
AcDbEntity
  8
0
100
AcDbLine
 10
242.3999999999999
 20
16.0
 30
0.0
 11
213.5
 21
16.0
 31
0.0
  0
LINE
  5
84B
330
1E
100
AcDbEntity
  8
0
100
AcDbLine
 10
245.4
 20
15.0
 30
0.0
 11
214.3
 21
15.0
 31
0.0
  0
LINE
  5
84C
330
1E
100
AcDbEntity
  8
0
100
AcDbLine
 10
235.4
 20
0.0000000000000001
 30
0.0
 11
229.0
 21
0.0000000000000001
 31
0.0
  0
LINE
  5
84D
330
1E
100
AcDbEntity
  8
0
100
AcDbLine
 10
235.4
 20
-0.0000000000000029
 30
0.0
 11
229.0
 21
-0.0000000000000029
 31
0.0
  0
LINE
  5
84E
330
1E
100
AcDbEntity
  8
0
100
AcDbLine
 10
244.0
 20
64.5
 30
0.0
 11
244.0
 21
18.0
 31
0.0
  0
LINE
  5
84F
330
1E
100
AcDbEntity
  8
0
100
AcDbLine
 10
244.0
 20
18.0
 30
0.0
 11
244.0
 21
64.5
 31
0.0
  0
LINE
  5
850
330
1E
100
AcDbEntity
  8
0
100
AcDbLine
 10
254.0
 20
-0.0000000000000014
 30
0.0
 11
253.1
 21
-0.0000000000000018
 31
0.0
  0
LINE
  5
851
330
1E
100
AcDbEntity
  8
0
100
AcDbLine
 10
254.0
 20
-0.0000000000000014
 30
0.0
 11
253.1
 21
-0.000000000000001
 31
0.0
  0
LINE
  5
852
330
1E
100
AcDbEntity
  8
0
100
AcDbLine
 10
253.5
 20
1.5
 30
0.0
 11
252.4999999999999
 21
2.5
 31
0.0
  0
LINE
  5
853
330
1E
100
AcDbEntity
  8
0
100
AcDbLine
 10
254.0
 20
-0.0000000000000014
 30
0.0
 11
253.5
 21
1.5
 31
0.0
  0
LINE
  5
854
330
1E
100
AcDbEntity
  8
0
100
AcDbLine
 10
254.0
 20
-0.0000000000000015
 30
0.0
 11
253.5
 21
1.5
 31
0.0
  0
LINE
  5
855
330
1E
100
AcDbEntity
  8
0
100
AcDbLine
 10
246.0
 20
10.0
 30
0.0
 11
245.8
 21
11.4
 31
0.0
  0
LINE
  5
856
330
1E
100
AcDbEntity
  8
0
100
AcDbLine
 10
241.4
 20
-0.0000000000000001
 30
0.0
 11
235.4
 21
0.0000000000000001
 31
0.0
  0
LINE
  5
857
330
1E
100
AcDbEntity
  8
0
100
AcDbLine
 10
241.4
 20
-0.0000000000000001
 30
0.0
 11
235.4
 21
0.0000000000000001
 31
0.0
  0
LINE
  5
858
330
1E
100
AcDbEntity
  8
0
100
AcDbLine
 10
241.4
 20
-0.0000000000000027
 30
0.0
 11
235.4
 21
-0.0000000000000029
 31
0.0
  0
LINE
  5
859
330
1E
100
AcDbEntity
  8
0
100
AcDbLine
 10
249.0
 20
4.0
 30
0.0
 11
247.0
 21
7.0
 31
0.0
  0
LINE
  5
85A
330
1E
100
AcDbEntity
  8
0
100
AcDbLine
 10
250.7
 20
-0.0000000000000006
 30
0.0
 11
246.6
 21
-0.0000000000000003
 31
0.0
  0
LINE
  5
85B
330
1E
100
AcDbEntity
  8
0
100
AcDbLine
 10
250.7
 20
-0.0000000000000021
 30
0.0
 11
246.6
 21
-0.0000000000000025
 31
0.0
  0
LINE
  5
85C
330
1E
100
AcDbEntity
  8
0
100
AcDbLine
 10
252.4999999999999
 20
2.5
 30
0.0
 11
249.0
 21
4.0
 31
0.0
  0
LINE
  5
85D
330
1E
100
AcDbEntity
  8
0
100
AcDbLine
 10
253.1
 20
-0.000000000000001
 30
0.0
 11
250.7
 21
-0.0000000000000006
 31
0.0
  0
LINE
  5
85E
330
1E
100
AcDbEntity
  8
0
100
AcDbLine
 10
253.1
 20
-0.0000000000000018
 30
0.0
 11
250.7
 21
-0.0000000000000021
 31
0.0
  0
LINE
  5
85F
330
1E
100
AcDbEntity
  8
0
100
AcDbLine
 10
246.6
 20
-0.0000000000000003
 30
0.0
 11
241.4
 21
-0.0000000000000001
 31
0.0
  0
LINE
  5
860
330
1E
100
AcDbEntity
  8
0
100
AcDbLine
 10
246.6
 20
-0.0000000000000003
 30
0.0
 11
241.4
 21
-0.0000000000000001
 31
0.0
  0
LINE
  5
861
330
1E
100
AcDbEntity
  8
0
100
AcDbLine
 10
246.6
 20
-0.0000000000000025
 30
0.0
 11
241.4
 21
-0.0000000000000027
 31
0.0
  0
LINE
  5
862
330
1E
100
AcDbEntity
  8
0
100
AcDbLine
 10
247.0
 20
7.0
 30
0.0
 11
246.0
 21
10.0
 31
0.0
  0
LINE
  5
863
330
1E
100
AcDbEntity
  8
0
100
AcDbLine
 10
244.4999999999999
 20
16.0
 30
0.0
 11
242.3999999999999
 21
16.0
 31
0.0
  0
LINE
  5
864
330
1E
100
AcDbEntity
  8
0
100
AcDbLine
 10
244.4999999999999
 20
16.0
 30
0.0
 11
244.0
 21
18.0
 31
0.0
  0
LINE
  5
865
330
1E
100
AcDbEntity
  8
0
100
AcDbLine
 10
246.0
 20
15.0
 30
0.0
 11
245.0
 21
15.5
 31
0.0
  0
LINE
  5
866
330
1E
100
AcDbEntity
  8
0
100
AcDbLine
 10
246.0
 20
15.0
 30
0.0
 11
245.4
 21
15.0
 31
0.0
  0
LINE
  5
867
330
1E
100
AcDbEntity
  8
0
100
AcDbLine
 10
246.4999999999999
 20
13.5
 30
0.0
 11
246.4999999999999
 21
14.0
 31
0.0
  0
LINE
  5
868
330
1E
100
AcDbEntity
  8
0
100
AcDbLine
 10
246.4999999999999
 20
14.0
 30
0.0
 11
246.4999999999999
 21
13.5
 31
0.0
  0
LINE
  5
869
330
1E
100
AcDbEntity
  8
0
100
AcDbLine
 10
246.4999999999999
 20
14.0
 30
0.0
 11
246.0
 21
15.0
 31
0.0
  0
LINE
  5
86A
330
1E
100
AcDbEntity
  8
0
100
AcDbLine
 10
246.0
 20
12.5
 30
0.0
 11
245.8
 21
11.4
 31
0.0
  0
LINE
  5
86B
330
1E
100
AcDbEntity
  8
0
100
AcDbLine
 10
246.4999999999999
 20
13.5
 30
0.0
 11
246.0
 21
12.5
 31
0.0
  0
LINE
  5
86C
330
1E
100
AcDbEntity
  8
0
100
AcDbLine
 10
245.0
 20
15.5
 30
0.0
 11
244.4999999999999
 21
16.0
 31
0.0
  0
LINE
  5
86D
330
1E
100
AcDbEntity
  8
0
100
AcDbLine
 10
253.8748
 20
162.092
 30
0.0
 11
251.9770999999999
 21
162.212
 31
0.0
  0
LINE
  5
86E
330
1E
100
AcDbEntity
  8
0
100
AcDbLine
 10
256.4707999999999
 20
163.187
 30
0.0
 11
255.3746999999999
 21
162.476
 31
0.0
  0
LINE
  5
86F
330
1E
100
AcDbEntity
  8
0
100
AcDbLine
 10
258.0
 20
168.0
 30
0.0
 11
257.6438
 21
165.071
 31
0.0
  0
LINE
  5
870
330
1E
100
AcDbEntity
  8
0
100
AcDbLine
 10
257.1245999999999
 20
163.9559999999999
 30
0.0
 11
256.4707999999999
 21
163.187
 31
0.0
  0
LINE
  5
871
330
1E
100
AcDbEntity
  8
0
100
AcDbLine
 10
256.7176394741647
 20
163.477332755633
 30
0.0
 11
256.5325839724495
 21
163.2596703499749
 31
0.0
  0
LINE
  5
872
330
1E
100
AcDbEntity
  8
0
100
AcDbLine
 10
256.7176394741647
 20
163.477332755633
 30
0.0
 11
256.567
 21
163.283
 31
0.0
  0
LINE
  5
873
330
1E
100
AcDbEntity
  8
0
100
AcDbLine
 10
257.6438
 20
165.071
 30
0.0
 11
257.1245999999999
 21
163.9559999999999
 31
0.0
  0
LINE
  5
874
330
1E
100
AcDbEntity
  8
0
100
AcDbLine
 10
255.3746999999999
 20
162.476
 30
0.0
 11
253.8748
 21
162.092
 31
0.0
  0
LINE
  5
875
330
1E
100
AcDbEntity
  8
0
100
AcDbLine
 10
254.2628810344831
 20
162.191355368519
 30
0.0
 11
253.9902
 21
162.1109999999999
 31
0.0
  0
LINE
  5
876
330
1E
100
AcDbEntity
  8
0
100
AcDbLine
 10
244.4999999999999
 20
117.0
 30
0.0
 11
244.0
 21
115.5
 31
0.0
  0
LINE
  5
877
330
1E
100
AcDbEntity
  8
0
100
AcDbLine
 10
242.3999999999999
 20
66.0
 30
0.0
 11
239.9
 21
66.0
 31
0.0
  0
LINE
  5
878
330
1E
100
AcDbEntity
  8
0
100
AcDbLine
 10
243.3
 20
66.5
 30
0.0
 11
240.7
 21
66.5
 31
0.0
  0
LINE
  5
879
330
1E
100
AcDbEntity
  8
0
100
AcDbLine
 10
243.3
 20
69.5
 30
0.0
 11
240.7
 21
69.5
 31
0.0
  0
LINE
  5
87A
330
1E
100
AcDbEntity
  8
0
100
AcDbLine
 10
244.0
 20
115.5
 30
0.0
 11
244.0
 21
70.0
 31
0.0
  0
LINE
  5
87B
330
1E
100
AcDbEntity
  8
0
100
AcDbLine
 10
244.0
 20
70.0
 30
0.0
 11
244.0
 21
115.5
 31
0.0
  0
LINE
  5
87C
330
1E
100
AcDbEntity
  8
0
100
AcDbLine
 10
244.4999999999999
 20
66.0
 30
0.0
 11
243.9
 21
66.0
 31
0.0
  0
LINE
  5
87D
330
1E
100
AcDbEntity
  8
0
100
AcDbLine
 10
244.4999999999999
 20
66.0
 30
0.0
 11
244.0
 21
64.5
 31
0.0
  0
LINE
  5
87E
330
1E
100
AcDbEntity
  8
0
100
AcDbLine
 10
245.5
 20
69.5
 30
0.0
 11
244.0
 21
70.0
 31
0.0
  0
LINE
  5
87F
330
1E
100
AcDbEntity
  8
0
100
AcDbLine
 10
244.9
 20
69.5
 30
0.0
 11
243.3
 21
69.5
 31
0.0
  0
LINE
  5
880
330
1E
100
AcDbEntity
  8
0
100
AcDbLine
 10
244.9
 20
66.5
 30
0.0
 11
243.3
 21
66.5
 31
0.0
  0
LINE
  5
881
330
1E
100
AcDbEntity
  8
0
100
AcDbLine
 10
246.0
 20
68.0
 30
0.0
 11
245.5
 21
69.5
 31
0.0
  0
LINE
  5
882
330
1E
100
AcDbEntity
  8
0
100
AcDbLine
 10
246.0
 20
68.0
 30
0.0
 11
245.5
 21
66.5
 31
0.0
  0
LINE
  5
883
330
1E
100
AcDbEntity
  8
0
100
AcDbLine
 10
245.5
 20
66.5
 30
0.0
 11
244.9
 21
66.5
 31
0.0
  0
LINE
  5
884
330
1E
100
AcDbEntity
  8
0
100
AcDbLine
 10
245.5
 20
69.5
 30
0.0
 11
244.9
 21
69.5
 31
0.0
  0
LINE
  5
885
330
1E
100
AcDbEntity
  8
0
100
AcDbLine
 10
245.5
 20
66.5
 30
0.0
 11
244.4999999999999
 21
66.0
 31
0.0
  0
LINE
  5
886
330
1E
100
AcDbEntity
  8
0
100
AcDbLine
 10
243.9
 20
66.0
 30
0.0
 11
242.3999999999999
 21
66.0
 31
0.0
  0
LINE
  5
887
330
1E
100
AcDbEntity
  8
0
100
AcDbLine
 10
244.0
 20
70.0
 30
0.0
 11
243.5
 21
70.0
 31
0.0
  0
LINE
  5
888
330
1E
100
AcDbEntity
  8
0
100
AcDbLine
 10
236.6999999999999
 20
66.0
 30
0.0
 11
233.0
 21
66.0
 31
0.0
  0
LINE
  5
889
330
1E
100
AcDbEntity
  8
0
100
AcDbLine
 10
237.1999999999999
 20
66.5
 30
0.0
 11
233.1999999999999
 21
66.5
 31
0.0
  0
LINE
  5
88A
330
1E
100
AcDbEntity
  8
0
100
AcDbLine
 10
237.1999999999999
 20
69.5
 30
0.0
 11
233.1999999999999
 21
69.5
 31
0.0
  0
LINE
  5
88B
330
1E
100
AcDbEntity
  8
0
100
AcDbLine
 10
239.9
 20
66.0
 30
0.0
 11
236.6999999999999
 21
66.0
 31
0.0
  0
LINE
  5
88C
330
1E
100
AcDbEntity
  8
0
100
AcDbLine
 10
240.7
 20
66.5
 30
0.0
 11
237.1999999999999
 21
66.5
 31
0.0
  0
LINE
  5
88D
330
1E
100
AcDbEntity
  8
0
100
AcDbLine
 10
240.7
 20
69.5
 30
0.0
 11
237.1999999999999
 21
69.5
 31
0.0
  0
LINE
  5
88E
330
1E
100
AcDbEntity
  8
0
100
AcDbLine
 10
241.704
 20
163.552
 30
0.0
 11
239.4223
 21
163.857
 31
0.0
  0
LINE
  5
88F
330
1E
100
AcDbEntity
  8
0
100
AcDbLine
 10
244.4999999999999
 20
127.0
 30
0.0
 11
240.3414999999999
 21
127.0
 31
0.0
  0
LINE
  5
890
330
1E
100
AcDbEntity
  8
0
100
AcDbLine
 10
243.3
 20
117.5
 30
0.0
 11
240.7
 21
117.5
 31
0.0
  0
LINE
  5
891
330
1E
100
AcDbEntity
  8
0
100
AcDbLine
 10
243.3
 20
120.5
 30
0.0
 11
240.7
 21
120.5
 31
0.0
  0
LINE
  5
892
330
1E
100
AcDbEntity
  8
0
100
AcDbLine
 10
242.3999999999999
 20
117.0
 30
0.0
 11
239.9
 21
117.0
 31
0.0
  0
LINE
  5
893
330
1E
100
AcDbEntity
  8
0
100
AcDbLine
 10
242.0
 20
121.0
 30
0.0
 11
239.5999999999999
 21
121.0
 31
0.0
  0
LINE
  5
894
330
1E
100
AcDbEntity
  8
0
100
AcDbLine
 10
244.4999999999999
 20
117.0
 30
0.0
 11
243.9
 21
117.0
 31
0.0
  0
LINE
  5
895
330
1E
100
AcDbEntity
  8
0
100
AcDbLine
 10
244.4999999999999
 20
121.0
 30
0.0
 11
244.0
 21
121.0
 31
0.0
  0
LINE
  5
896
330
1E
100
AcDbEntity
  8
0
100
AcDbLine
 10
244.9
 20
117.5
 30
0.0
 11
243.3
 21
117.5
 31
0.0
  0
LINE
  5
897
330
1E
100
AcDbEntity
  8
0
100
AcDbLine
 10
244.9
 20
120.5
 30
0.0
 11
243.3
 21
120.5
 31
0.0
  0
LINE
  5
898
330
1E
100
AcDbEntity
  8
0
100
AcDbLine
 10
245.5
 20
120.5
 30
0.0
 11
244.0
 21
121.0
 31
0.0
  0
LINE
  5
899
330
1E
100
AcDbEntity
  8
0
100
AcDbLine
 10
244.4999999999999
 20
121.0
 30
0.0
 11
244.4999999999999
 21
127.0
 31
0.0
  0
LINE
  5
89A
330
1E
100
AcDbEntity
  8
0
100
AcDbLine
 10
244.4999999999999
 20
127.0
 30
0.0
 11
244.4999999999999
 21
121.0
 31
0.0
  0
LINE
  5
89B
330
1E
100
AcDbEntity
  8
0
100
AcDbLine
 10
246.0
 20
119.0
 30
0.0
 11
245.5
 21
120.5
 31
0.0
  0
LINE
  5
89C
330
1E
100
AcDbEntity
  8
0
100
AcDbLine
 10
246.0
 20
119.0
 30
0.0
 11
245.5
 21
117.5
 31
0.0
  0
LINE
  5
89D
330
1E
100
AcDbEntity
  8
0
100
AcDbLine
 10
245.5
 20
117.5
 30
0.0
 11
244.9
 21
117.5
 31
0.0
  0
LINE
  5
89E
330
1E
100
AcDbEntity
  8
0
100
AcDbLine
 10
245.5
 20
120.5
 30
0.0
 11
244.9
 21
120.5
 31
0.0
  0
LINE
  5
89F
330
1E
100
AcDbEntity
  8
0
100
AcDbLine
 10
245.5
 20
117.5
 30
0.0
 11
244.4999999999999
 21
117.0
 31
0.0
  0
LINE
  5
8A0
330
1E
100
AcDbEntity
  8
0
100
AcDbLine
 10
243.9
 20
117.0
 30
0.0
 11
242.3999999999999
 21
117.0
 31
0.0
  0
LINE
  5
8A1
330
1E
100
AcDbEntity
  8
0
100
AcDbLine
 10
243.5
 20
121.0
 30
0.0
 11
242.0
 21
121.0
 31
0.0
  0
LINE
  5
8A2
330
1E
100
AcDbEntity
  8
0
100
AcDbLine
 10
244.0
 20
121.0
 30
0.0
 11
243.5
 21
121.0
 31
0.0
  0
LINE
  5
8A3
330
1E
100
AcDbEntity
  8
0
100
AcDbLine
 10
248.002
 20
162.69
 30
0.0
 11
244.4579
 21
163.217
 31
0.0
  0
LINE
  5
8A4
330
1E
100
AcDbEntity
  8
0
100
AcDbLine
 10
251.9770999999999
 20
162.212
 30
0.0
 11
248.002
 21
162.69
 31
0.0
  0
LINE
  5
8A5
330
1E
100
AcDbEntity
  8
0
100
AcDbLine
 10
252.1036
 20
162.1929999999999
 30
0.0
 11
251.4638321295083
 21
162.2737197157539
 31
0.0
  0
LINE
  5
8A6
330
1E
100
AcDbEntity
  8
0
100
AcDbLine
 10
252.660040996262
 20
162.1688146073919
 30
0.0
 11
252.1036
 21
162.1929999999999
 31
0.0
  0
LINE
  5
8A7
330
1E
100
AcDbEntity
  8
0
100
AcDbLine
 10
244.1382
 20
163.243
 30
0.0
 11
243.3861949815447
 21
163.3473682708819
 31
0.0
  0
LINE
  5
8A8
330
1E
100
AcDbEntity
  8
0
100
AcDbLine
 10
244.4579
 20
163.217
 30
0.0
 11
241.704
 21
163.552
 31
0.0
  0
LINE
  5
8A9
330
1E
100
AcDbEntity
  8
0
100
AcDbLine
 10
244.4579
 20
163.217
 30
0.0
 11
244.1382
 21
163.243
 31
0.0
  0
LINE
  5
8AA
330
1E
100
AcDbEntity
  8
0
100
AcDbLine
 10
243.3861949815447
 20
163.3473682708819
 30
0.0
 11
241.704
 21
163.552
 31
0.0
  0
LINE
  5
8AB
330
1E
100
AcDbEntity
  8
0
100
AcDbLine
 10
241.0
 20
141.5
 30
0.0
 11
240.5
 21
142.0
 31
0.0
  0
LINE
  5
8AC
330
1E
100
AcDbEntity
  8
0
100
AcDbLine
 10
237.5
 20
141.5
 30
0.0
 11
235.0
 21
141.5
 31
0.0
  0
LINE
  5
8AD
330
1E
100
AcDbEntity
  8
0
100
AcDbLine
 10
237.5
 20
140.0
 30
0.0
 11
235.0
 21
140.0
 31
0.0
  0
LINE
  5
8AE
330
1E
100
AcDbEntity
  8
0
100
AcDbLine
 10
237.5
 20
139.0
 30
0.0
 11
235.0
 21
139.0
 31
0.0
  0
LINE
  5
8AF
330
1E
100
AcDbEntity
  8
0
100
AcDbLine
 10
237.0999999999999
 20
139.5
 30
0.0
 11
234.6999999999999
 21
139.5
 31
0.0
  0
LINE
  5
8B0
330
1E
100
AcDbEntity
  8
0
100
AcDbLine
 10
237.1999999999999
 20
117.5
 30
0.0
 11
233.1999999999999
 21
117.5
 31
0.0
  0
LINE
  5
8B1
330
1E
100
AcDbEntity
  8
0
100
AcDbLine
 10
237.1999999999999
 20
120.5
 30
0.0
 11
233.1999999999999
 21
120.5
 31
0.0
  0
LINE
  5
8B2
330
1E
100
AcDbEntity
  8
0
100
AcDbLine
 10
236.5
 20
121.0
 30
0.0
 11
232.9
 21
121.0
 31
0.0
  0
LINE
  5
8B3
330
1E
100
AcDbEntity
  8
0
100
AcDbLine
 10
236.6999999999999
 20
117.0
 30
0.0
 11
233.0
 21
117.0
 31
0.0
  0
LINE
  5
8B4
330
1E
100
AcDbEntity
  8
0
100
AcDbLine
 10
241.0
 20
139.0
 30
0.0
 11
241.0
 21
127.0
 31
0.0
  0
LINE
  5
8B5
330
1E
100
AcDbEntity
  8
0
100
AcDbLine
 10
241.0
 20
127.0
 30
0.0
 11
241.0
 21
139.0
 31
0.0
  0
LINE
  5
8B6
330
1E
100
AcDbEntity
  8
0
100
AcDbLine
 10
239.5999999999999
 20
121.0
 30
0.0
 11
236.5
 21
121.0
 31
0.0
  0
LINE
  5
8B7
330
1E
100
AcDbEntity
  8
0
100
AcDbLine
 10
240.7
 20
120.5
 30
0.0
 11
237.1999999999999
 21
120.5
 31
0.0
  0
LINE
  5
8B8
330
1E
100
AcDbEntity
  8
0
100
AcDbLine
 10
240.3414999999999
 20
121.0
 30
0.0
 11
236.5
 21
121.0
 31
0.0
  0
LINE
  5
8B9
330
1E
100
AcDbEntity
  8
0
100
AcDbLine
 10
240.7
 20
117.5
 30
0.0
 11
237.1999999999999
 21
117.5
 31
0.0
  0
LINE
  5
8BA
330
1E
100
AcDbEntity
  8
0
100
AcDbLine
 10
239.9
 20
117.0
 30
0.0
 11
236.6999999999999
 21
117.0
 31
0.0
  0
LINE
  5
8BB
330
1E
100
AcDbEntity
  8
0
100
AcDbLine
 10
239.4
 20
140.0
 30
0.0
 11
237.5
 21
140.0
 31
0.0
  0
LINE
  5
8BC
330
1E
100
AcDbEntity
  8
0
100
AcDbLine
 10
239.4
 20
141.5
 30
0.0
 11
237.5
 21
141.5
 31
0.0
  0
LINE
  5
8BD
330
1E
100
AcDbEntity
  8
0
100
AcDbLine
 10
239.4
 20
139.0
 30
0.0
 11
237.5
 21
139.0
 31
0.0
  0
LINE
  5
8BE
330
1E
100
AcDbEntity
  8
0
100
AcDbLine
 10
239.0
 20
139.5
 30
0.0
 11
237.0999999999999
 21
139.5
 31
0.0
  0
LINE
  5
8BF
330
1E
100
AcDbEntity
  8
0
100
AcDbLine
 10
240.6
 20
139.0
 30
0.0
 11
239.4
 21
139.0
 31
0.0
  0
LINE
  5
8C0
330
1E
100
AcDbEntity
  8
0
100
AcDbLine
 10
240.0999999999999
 20
139.5
 30
0.0
 11
239.0
 21
139.5
 31
0.0
  0
LINE
  5
8C1
330
1E
100
AcDbEntity
  8
0
100
AcDbLine
 10
240.6
 20
140.0
 30
0.0
 11
239.4
 21
140.0
 31
0.0
  0
LINE
  5
8C2
330
1E
100
AcDbEntity
  8
0
100
AcDbLine
 10
240.6
 20
141.5
 30
0.0
 11
239.4
 21
141.5
 31
0.0
  0
LINE
  5
8C3
330
1E
100
AcDbEntity
  8
0
100
AcDbLine
 10
241.0
 20
139.0
 30
0.0
 11
240.5
 21
139.5
 31
0.0
  0
LINE
  5
8C4
330
1E
100
AcDbEntity
  8
0
100
AcDbLine
 10
241.0
 20
139.0
 30
0.0
 11
240.6
 21
139.0
 31
0.0
  0
LINE
  5
8C5
330
1E
100
AcDbEntity
  8
0
100
AcDbLine
 10
240.5
 20
139.5
 30
0.0
 11
240.0999999999999
 21
139.5
 31
0.0
  0
LINE
  5
8C6
330
1E
100
AcDbEntity
  8
0
100
AcDbLine
 10
241.0
 20
140.0
 30
0.0
 11
241.0
 21
141.5
 31
0.0
  0
LINE
  5
8C7
330
1E
100
AcDbEntity
  8
0
100
AcDbLine
 10
241.0
 20
140.0
 30
0.0
 11
240.5
 21
139.5
 31
0.0
  0
LINE
  5
8C8
330
1E
100
AcDbEntity
  8
0
100
AcDbLine
 10
241.0
 20
140.0
 30
0.0
 11
240.6
 21
140.0
 31
0.0
  0
LINE
  5
8C9
330
1E
100
AcDbEntity
  8
0
100
AcDbLine
 10
241.0
 20
141.5
 30
0.0
 11
240.6
 21
141.5
 31
0.0
  0
LINE
  5
8CA
330
1E
100
AcDbEntity
  8
0
100
AcDbLine
 10
241.0
 20
141.5
 30
0.0
 11
241.0
 21
140.0
 31
0.0
  0
LINE
  5
8CB
330
1E
100
AcDbEntity
  8
0
100
AcDbLine
 10
234.6999999999999
 20
139.5
 30
0.0
 11
232.0
 21
139.5
 31
0.0
  0
LINE
  5
8CC
330
1E
100
AcDbEntity
  8
0
100
AcDbLine
 10
235.0
 20
140.0
 30
0.0
 11
232.1
 21
140.0
 31
0.0
  0
LINE
  5
8CD
330
1E
100
AcDbEntity
  8
0
100
AcDbLine
 10
235.0
 20
141.5
 30
0.0
 11
232.1
 21
141.5
 31
0.0
  0
LINE
  5
8CE
330
1E
100
AcDbEntity
  8
0
100
AcDbLine
 10
235.0
 20
139.0
 30
0.0
 11
232.1
 21
139.0
 31
0.0
  0
LINE
  5
8CF
330
1E
100
AcDbEntity
  8
0
100
AcDbLine
 10
237.5
 20
164.0
 30
0.0
 11
235.0
 21
163.857
 31
0.0
  0
LINE
  5
8D0
330
1E
100
AcDbEntity
  8
0
100
AcDbLine
 10
235.3
 20
161.0
 30
0.0
 11
234.6
 21
161.0
 31
0.0
  0
LINE
  5
8D1
330
1E
100
AcDbEntity
  8
0
100
AcDbLine
 10
235.8999999999999
 20
163.0
 30
0.0
 11
234.6
 21
163.0
 31
0.0
  0
LINE
  5
8D2
330
1E
100
AcDbEntity
  8
0
100
AcDbLine
 10
235.3
 20
153.0
 30
0.0
 11
235.0
 21
153.0
 31
0.0
  0
LINE
  5
8D3
330
1E
100
AcDbEntity
  8
0
100
AcDbLine
 10
235.3
 20
153.0
 30
0.0
 11
234.6
 21
153.0
 31
0.0
  0
LINE
  5
8D4
330
1E
100
AcDbEntity
  8
0
100
AcDbLine
 10
237.0999999999999
 20
142.0
 30
0.0
 11
234.6999999999999
 21
142.0
 31
0.0
  0
LINE
  5
8D5
330
1E
100
AcDbEntity
  8
0
100
AcDbLine
 10
235.4999999999999
 20
153.0
 30
0.0
 11
235.4999999999999
 21
161.0
 31
0.0
  0
LINE
  5
8D6
330
1E
100
AcDbEntity
  8
0
100
AcDbLine
 10
235.4999999999999
 20
161.0
 30
0.0
 11
235.4999999999999
 21
153.0
 31
0.0
  0
LINE
  5
8D7
330
1E
100
AcDbEntity
  8
0
100
AcDbLine
 10
239.0
 20
142.0
 30
0.0
 11
237.0999999999999
 21
142.0
 31
0.0
  0
LINE
  5
8D8
330
1E
100
AcDbEntity
  8
0
100
AcDbLine
 10
240.0999999999999
 20
142.0
 30
0.0
 11
239.0
 21
142.0
 31
0.0
  0
LINE
  5
8D9
330
1E
100
AcDbEntity
  8
0
100
AcDbLine
 10
240.5
 20
142.0
 30
0.0
 11
240.0999999999999
 21
142.0
 31
0.0
  0
LINE
  5
8DA
330
1E
100
AcDbEntity
  8
0
100
AcDbLine
 10
235.4999999999999
 20
153.0
 30
0.0
 11
235.3
 21
153.0
 31
0.0
  0
LINE
  5
8DB
330
1E
100
AcDbEntity
  8
0
100
AcDbLine
 10
239.4223
 20
163.857
 30
0.0
 11
237.5
 21
164.0
 31
0.0
  0
LINE
  5
8DC
330
1E
100
AcDbEntity
  8
0
100
AcDbLine
 10
239.4664645953052
 20
163.8221548651019
 30
0.0
 11
237.0
 21
163.0
 31
0.0
  0
LINE
  5
8DD
330
1E
100
AcDbEntity
  8
0
100
AcDbLine
 10
237.0
 20
163.0
 30
0.0
 11
235.4999999999999
 21
161.0
 31
0.0
  0
LINE
  5
8DE
330
1E
100
AcDbEntity
  8
0
100
AcDbLine
 10
235.4999999999999
 20
161.0
 30
0.0
 11
235.3
 21
161.0
 31
0.0
  0
LINE
  5
8DF
330
1E
100
AcDbEntity
  8
0
100
AcDbLine
 10
236.6999999999999
 20
163.0
 30
0.0
 11
235.8999999999999
 21
163.0
 31
0.0
  0
LINE
  5
8E0
330
1E
100
AcDbEntity
  8
0
100
AcDbLine
 10
237.0
 20
163.0
 30
0.0
 11
236.6999999999999
 21
163.0
 31
0.0
  0
LINE
  5
8E1
330
1E
100
AcDbEntity
  8
0
100
AcDbLine
 10
232.2
 20
153.0
 30
0.0
 11
230.6999999999999
 21
153.0
 31
0.0
  0
LINE
  5
8E2
330
1E
100
AcDbEntity
  8
0
100
AcDbLine
 10
233.1999999999999
 20
153.0
 30
0.0
 11
232.0
 21
153.0
 31
0.0
  0
LINE
  5
8E3
330
1E
100
AcDbEntity
  8
0
100
AcDbLine
 10
234.6999999999999
 20
142.0
 30
0.0
 11
232.0
 21
142.0
 31
0.0
  0
LINE
  5
8E4
330
1E
100
AcDbEntity
  8
0
100
AcDbLine
 10
235.0
 20
153.0
 30
0.0
 11
235.0
 21
142.0
 31
0.0
  0
LINE
  5
8E5
330
1E
100
AcDbEntity
  8
0
100
AcDbLine
 10
235.0
 20
142.0
 30
0.0
 11
235.0
 21
153.0
 31
0.0
  0
LINE
  5
8E6
330
1E
100
AcDbEntity
  8
0
100
AcDbLine
 10
234.2
 20
153.0
 30
0.0
 11
233.1999999999999
 21
153.0
 31
0.0
  0
LINE
  5
8E7
330
1E
100
AcDbEntity
  8
0
100
AcDbLine
 10
233.5999999999999
 20
153.0
 30
0.0
 11
232.2
 21
153.0
 31
0.0
  0
LINE
  5
8E8
330
1E
100
AcDbEntity
  8
0
100
AcDbLine
 10
234.8
 20
153.0
 30
0.0
 11
234.2
 21
153.0
 31
0.0
  0
LINE
  5
8E9
330
1E
100
AcDbEntity
  8
0
100
AcDbLine
 10
234.6
 20
153.0
 30
0.0
 11
233.5999999999999
 21
153.0
 31
0.0
  0
LINE
  5
8EA
330
1E
100
AcDbEntity
  8
0
100
AcDbLine
 10
235.0
 20
153.0
 30
0.0
 11
234.8
 21
153.0
 31
0.0
  0
LINE
  5
8EB
330
1E
100
AcDbEntity
  8
0
100
AcDbLine
 10
232.0
 20
153.0
 30
0.0
 11
230.5
 21
153.0
 31
0.0
  0
LINE
  5
8EC
330
1E
100
AcDbEntity
  8
0
100
AcDbLine
 10
232.9902
 20
163.552
 30
0.0
 11
231.1463999999999
 21
163.217
 31
0.0
  0
LINE
  5
8ED
330
1E
100
AcDbEntity
  8
0
100
AcDbLine
 10
233.0
 20
163.0
 30
0.0
 11
231.0999999999999
 21
163.0
 31
0.0
  0
LINE
  5
8EE
330
1E
100
AcDbEntity
  8
0
100
AcDbLine
 10
232.2
 20
161.0
 30
0.0
 11
230.6999999999999
 21
161.0
 31
0.0
  0
LINE
  5
8EF
330
1E
100
AcDbEntity
  8
0
100
AcDbLine
 10
233.5999999999999
 20
161.0
 30
0.0
 11
232.2
 21
161.0
 31
0.0
  0
LINE
  5
8F0
330
1E
100
AcDbEntity
  8
0
100
AcDbLine
 10
234.6
 20
161.0
 30
0.0
 11
233.5999999999999
 21
161.0
 31
0.0
  0
LINE
  5
8F1
330
1E
100
AcDbEntity
  8
0
100
AcDbLine
 10
234.6
 20
163.0
 30
0.0
 11
233.0
 21
163.0
 31
0.0
  0
LINE
  5
8F2
330
1E
100
AcDbEntity
  8
0
100
AcDbLine
 10
235.0
 20
163.857
 30
0.0
 11
232.9902
 21
163.552
 31
0.0
  0
LINE
  5
8F3
330
1E
100
AcDbEntity
  8
0
100
AcDbLine
 10
230.8
 20
165.0509999999999
 30
0.0
 11
230.3
 21
162.591
 31
0.0
  0
LINE
  5
8F4
330
1E
100
AcDbEntity
  8
0
100
AcDbLine
 10
231.1463999999999
 20
163.217
 30
0.0
 11
230.3751856100163
 21
162.82859214113
 31
0.0
  0
LINE
  5
8F5
330
1E
100
AcDbEntity
  8
0
100
AcDbLine
 10
231.0
 20
168.0
 30
0.0
 11
230.8
 21
165.0509999999999
 31
0.0
  0
LINE
  5
8F6
330
1E
100
AcDbEntity
  8
0
100
AcDbLine
 10
231.0999999999999
 20
163.0
 30
0.0
 11
230.7155294117648
 21
163.0
 31
0.0
  0
LINE
  5
8F7
330
1E
100
AcDbEntity
  8
0
100
AcDbLine
 10
229.8
 20
165.071
 30
0.0
 11
229.8
 21
163.9559999999999
 31
0.0
  0
LINE
  5
8F8
330
1E
100
AcDbEntity
  8
0
100
AcDbLine
 10
229.8
 20
165.071
 30
0.0
 11
229.8
 21
168.0
 31
0.0
  0
LINE
  5
8F9
330
1E
100
AcDbEntity
  8
0
100
AcDbLine
 10
229.8
 20
168.0
 30
0.0
 11
229.8
 21
165.071
 31
0.0
  0
LINE
  5
8FA
330
1E
100
AcDbEntity
  8
0
100
AcDbLine
 10
229.8
 20
163.9559999999999
 30
0.0
 11
229.8
 21
163.187
 31
0.0
  0
LINE
  5
8FB
330
1E
100
AcDbEntity
  8
0
100
AcDbLine
 10
229.8
 20
163.9559999999999
 30
0.0
 11
229.8
 21
165.071
 31
0.0
  0
LINE
  5
8FC
330
1E
100
AcDbEntity
  8
0
100
AcDbLine
 10
229.8
 20
163.187
 30
0.0
 11
229.8
 21
162.476
 31
0.0
  0
LINE
  5
8FD
330
1E
100
AcDbEntity
  8
0
100
AcDbLine
 10
229.8
 20
163.187
 30
0.0
 11
229.8
 21
163.9559999999999
 31
0.0
  0
LINE
  5
8FE
330
1E
100
AcDbEntity
  8
0
100
AcDbLine
 10
229.8
 20
162.476
 30
0.0
 11
229.8
 21
162.092
 31
0.0
  0
LINE
  5
8FF
330
1E
100
AcDbEntity
  8
0
100
AcDbLine
 10
229.8
 20
162.476
 30
0.0
 11
229.8
 21
163.187
 31
0.0
  0
LINE
  5
900
330
1E
100
AcDbEntity
  8
0
100
AcDbLine
 10
229.8
 20
162.092
 30
0.0
 11
229.8
 21
162.476
 31
0.0
  0
LINE
  5
901
330
1E
100
AcDbEntity
  8
0
100
AcDbLine
 10
230.3
 20
162.591
 30
0.0
 11
229.8
 21
162.092
 31
0.0
  0
LINE
  5
902
330
1E
100
AcDbEntity
  8
0
100
AcDbLine
 10
214.0
 20
18.0
 30
0.0
 11
214.0
 21
64.5
 31
0.0
  0
LINE
  5
903
330
1E
100
AcDbEntity
  8
0
100
AcDbLine
 10
214.0
 20
64.5
 30
0.0
 11
214.0
 21
18.0
 31
0.0
  0
LINE
  5
904
330
1E
100
AcDbEntity
  8
0
100
AcDbLine
 10
204.8999999999999
 20
-0.0000000000000018
 30
0.0
 11
204.0
 21
-0.0000000000000014
 31
0.0
  0
LINE
  5
905
330
1E
100
AcDbEntity
  8
0
100
AcDbLine
 10
205.5
 20
2.5
 30
0.0
 11
204.4999999999999
 21
1.5
 31
0.0
  0
LINE
  5
906
330
1E
100
AcDbEntity
  8
0
100
AcDbLine
 10
204.8999999999999
 20
-0.000000000000001
 30
0.0
 11
204.0
 21
-0.0000000000000014
 31
0.0
  0
LINE
  5
907
330
1E
100
AcDbEntity
  8
0
100
AcDbLine
 10
212.1999999999999
 20
11.4
 30
0.0
 11
212.0
 21
10.0
 31
0.0
  0
LINE
  5
908
330
1E
100
AcDbEntity
  8
0
100
AcDbLine
 10
222.5999999999999
 20
0.0000000000000001
 30
0.0
 11
216.5999999999999
 21
-0.0000000000000001
 31
0.0
  0
LINE
  5
909
330
1E
100
AcDbEntity
  8
0
100
AcDbLine
 10
222.5999999999999
 20
0.0000000000000001
 30
0.0
 11
216.5999999999999
 21
-0.0000000000000001
 31
0.0
  0
LINE
  5
90A
330
1E
100
AcDbEntity
  8
0
100
AcDbLine
 10
222.5999999999999
 20
-0.0000000000000029
 30
0.0
 11
216.5999999999999
 21
-0.0000000000000027
 31
0.0
  0
LINE
  5
90B
330
1E
100
AcDbEntity
  8
0
100
AcDbLine
 10
229.0
 20
0.0000000000000001
 30
0.0
 11
222.5999999999999
 21
0.0000000000000001
 31
0.0
  0
LINE
  5
90C
330
1E
100
AcDbEntity
  8
0
100
AcDbLine
 10
229.0
 20
-0.0000000000000029
 30
0.0
 11
222.5999999999999
 21
-0.0000000000000029
 31
0.0
  0
LINE
  5
90D
330
1E
100
AcDbEntity
  8
0
100
AcDbLine
 10
211.0
 20
7.0
 30
0.0
 11
209.0
 21
4.0
 31
0.0
  0
LINE
  5
90E
330
1E
100
AcDbEntity
  8
0
100
AcDbLine
 10
211.3999999999999
 20
-0.0000000000000003
 30
0.0
 11
207.2999999999999
 21
-0.0000000000000006
 31
0.0
  0
LINE
  5
90F
330
1E
100
AcDbEntity
  8
0
100
AcDbLine
 10
211.3999999999999
 20
-0.0000000000000025
 30
0.0
 11
207.2999999999999
 21
-0.0000000000000021
 31
0.0
  0
LINE
  5
910
330
1E
100
AcDbEntity
  8
0
100
AcDbLine
 10
216.5999999999999
 20
-0.0000000000000001
 30
0.0
 11
211.3999999999999
 21
-0.0000000000000003
 31
0.0
  0
LINE
  5
911
330
1E
100
AcDbEntity
  8
0
100
AcDbLine
 10
216.5999999999999
 20
-0.0000000000000001
 30
0.0
 11
211.3999999999999
 21
-0.0000000000000003
 31
0.0
  0
LINE
  5
912
330
1E
100
AcDbEntity
  8
0
100
AcDbLine
 10
216.5999999999999
 20
-0.0000000000000027
 30
0.0
 11
211.3999999999999
 21
-0.0000000000000025
 31
0.0
  0
LINE
  5
913
330
1E
100
AcDbEntity
  8
0
100
AcDbLine
 10
212.0
 20
10.0
 30
0.0
 11
211.0
 21
7.0
 31
0.0
  0
LINE
  5
914
330
1E
100
AcDbEntity
  8
0
100
AcDbLine
 10
209.0
 20
4.0
 30
0.0
 11
205.5
 21
2.5
 31
0.0
  0
LINE
  5
915
330
1E
100
AcDbEntity
  8
0
100
AcDbLine
 10
207.2999999999999
 20
-0.0000000000000021
 30
0.0
 11
204.8999999999999
 21
-0.0000000000000018
 31
0.0
  0
LINE
  5
916
330
1E
100
AcDbEntity
  8
0
100
AcDbLine
 10
207.2999999999999
 20
-0.0000000000000006
 30
0.0
 11
204.8999999999999
 21
-0.000000000000001
 31
0.0
  0
LINE
  5
917
330
1E
100
AcDbEntity
  8
0
100
AcDbLine
 10
214.3
 20
15.0
 30
0.0
 11
212.5999999999999
 21
15.0
 31
0.0
  0
LINE
  5
918
330
1E
100
AcDbEntity
  8
0
100
AcDbLine
 10
214.0
 20
18.0
 30
0.0
 11
213.5
 21
16.0
 31
0.0
  0
LINE
  5
919
330
1E
100
AcDbEntity
  8
0
100
AcDbLine
 10
213.0
 20
15.5
 30
0.0
 11
212.0
 21
15.0
 31
0.0
  0
LINE
  5
91A
330
1E
100
AcDbEntity
  8
0
100
AcDbLine
 10
212.5999999999999
 20
15.0
 30
0.0
 11
212.0
 21
15.0
 31
0.0
  0
LINE
  5
91B
330
1E
100
AcDbEntity
  8
0
100
AcDbLine
 10
213.5
 20
16.0
 30
0.0
 11
213.0
 21
15.5
 31
0.0
  0
LINE
  5
91C
330
1E
100
AcDbEntity
  8
0
100
AcDbLine
 10
212.0
 20
12.5
 30
0.0
 11
211.5
 21
13.5
 31
0.0
  0
LINE
  5
91D
330
1E
100
AcDbEntity
  8
0
100
AcDbLine
 10
211.5
 20
14.0
 30
0.0
 11
211.5
 21
13.5
 31
0.0
  0
LINE
  5
91E
330
1E
100
AcDbEntity
  8
0
100
AcDbLine
 10
212.0
 20
15.0
 30
0.0
 11
211.5
 21
14.0
 31
0.0
  0
LINE
  5
91F
330
1E
100
AcDbEntity
  8
0
100
AcDbLine
 10
211.5
 20
13.5
 30
0.0
 11
211.5
 21
14.0
 31
0.0
  0
LINE
  5
920
330
1E
100
AcDbEntity
  8
0
100
AcDbLine
 10
212.1999999999999
 20
11.4
 30
0.0
 11
212.0
 21
12.5
 31
0.0
  0
LINE
  5
921
330
1E
100
AcDbEntity
  8
0
100
AcDbLine
 10
204.4999999999999
 20
1.5
 30
0.0
 11
204.0
 21
-0.0000000000000014
 31
0.0
  0
LINE
  5
922
330
1E
100
AcDbEntity
  8
0
100
AcDbLine
 10
204.4999999999999
 20
1.5
 30
0.0
 11
204.0
 21
-0.0000000000000015
 31
0.0
  0
LINE
  5
923
330
1E
100
AcDbEntity
  8
0
100
AcDbLine
 10
206.0229
 20
162.212
 30
0.0
 11
204.1252
 21
162.092
 31
0.0
  0
LINE
  5
924
330
1E
100
AcDbEntity
  8
0
100
AcDbLine
 10
205.5
 20
105.4999999999999
 30
0.0
 11
204.4999999999999
 21
105.0
 31
0.0
  0
LINE
  5
925
330
1E
100
AcDbEntity
  8
0
100
AcDbLine
 10
205.5
 20
78.5
 30
0.0
 11
204.4999999999999
 21
79.0
 31
0.0
  0
LINE
  5
926
330
1E
100
AcDbEntity
  8
0
100
AcDbLine
 10
214.0
 20
115.5
 30
0.0
 11
213.5
 21
117.0
 31
0.0
  0
LINE
  5
927
330
1E
100
AcDbEntity
  8
0
100
AcDbLine
 10
218.4
 20
70.0
 30
0.0
 11
216.0
 21
70.0
 31
0.0
  0
LINE
  5
928
330
1E
100
AcDbEntity
  8
0
100
AcDbLine
 10
217.3
 20
69.5
 30
0.0
 11
214.6999999999999
 21
69.5
 31
0.0
  0
LINE
  5
929
330
1E
100
AcDbEntity
  8
0
100
AcDbLine
 10
217.3
 20
66.5
 30
0.0
 11
214.6999999999999
 21
66.5
 31
0.0
  0
LINE
  5
92A
330
1E
100
AcDbEntity
  8
0
100
AcDbLine
 10
218.1
 20
66.0
 30
0.0
 11
215.6
 21
66.0
 31
0.0
  0
LINE
  5
92B
330
1E
100
AcDbEntity
  8
0
100
AcDbLine
 10
225.0999999999999
 20
70.0
 30
0.0
 11
221.4999999999999
 21
70.0
 31
0.0
  0
LINE
  5
92C
330
1E
100
AcDbEntity
  8
0
100
AcDbLine
 10
224.8
 20
69.5
 30
0.0
 11
220.8
 21
69.5
 31
0.0
  0
LINE
  5
92D
330
1E
100
AcDbEntity
  8
0
100
AcDbLine
 10
224.8
 20
66.5
 30
0.0
 11
220.8
 21
66.5
 31
0.0
  0
LINE
  5
92E
330
1E
100
AcDbEntity
  8
0
100
AcDbLine
 10
225.0
 20
66.0
 30
0.0
 11
221.3
 21
66.0
 31
0.0
  0
LINE
  5
92F
330
1E
100
AcDbEntity
  8
0
100
AcDbLine
 10
229.0
 20
70.0
 30
0.0
 11
225.0999999999999
 21
70.0
 31
0.0
  0
LINE
  5
930
330
1E
100
AcDbEntity
  8
0
100
AcDbLine
 10
229.0
 20
69.5
 30
0.0
 11
224.8
 21
69.5
 31
0.0
  0
LINE
  5
931
330
1E
100
AcDbEntity
  8
0
100
AcDbLine
 10
229.0
 20
66.5
 30
0.0
 11
224.8
 21
66.5
 31
0.0
  0
LINE
  5
932
330
1E
100
AcDbEntity
  8
0
100
AcDbLine
 10
229.0
 20
66.0
 30
0.0
 11
225.0
 21
66.0
 31
0.0
  0
LINE
  5
933
330
1E
100
AcDbEntity
  8
0
100
AcDbLine
 10
221.4999999999999
 20
70.0
 30
0.0
 11
218.4
 21
70.0
 31
0.0
  0
LINE
  5
934
330
1E
100
AcDbEntity
  8
0
100
AcDbLine
 10
220.8
 20
69.5
 30
0.0
 11
217.3
 21
69.5
 31
0.0
  0
LINE
  5
935
330
1E
100
AcDbEntity
  8
0
100
AcDbLine
 10
220.8
 20
66.5
 30
0.0
 11
217.3
 21
66.5
 31
0.0
  0
LINE
  5
936
330
1E
100
AcDbEntity
  8
0
100
AcDbLine
 10
221.3
 20
66.0
 30
0.0
 11
218.1
 21
66.0
 31
0.0
  0
LINE
  5
937
330
1E
100
AcDbEntity
  8
0
100
AcDbLine
 10
205.5
 20
92.0
 30
0.0
 11
205.5
 21
88.49999999999999
 31
0.0
  0
LINE
  5
938
330
1E
100
AcDbEntity
  8
0
100
AcDbLine
 10
205.5
 20
88.49999999999999
 30
0.0
 11
205.5
 21
92.0
 31
0.0
  0
LINE
  5
939
330
1E
100
AcDbEntity
  8
0
100
AcDbLine
 10
206.0
 20
92.0
 30
0.0
 11
206.0
 21
88.3
 31
0.0
  0
LINE
  5
93A
330
1E
100
AcDbEntity
  8
0
100
AcDbLine
 10
206.0
 20
88.3
 30
0.0
 11
206.0
 21
92.0
 31
0.0
  0
LINE
  5
93B
330
1E
100
AcDbEntity
  8
0
100
AcDbLine
 10
209.0
 20
92.0
 30
0.0
 11
209.0
 21
88.3
 31
0.0
  0
LINE
  5
93C
330
1E
100
AcDbEntity
  8
0
100
AcDbLine
 10
209.0
 20
88.3
 30
0.0
 11
209.0
 21
92.0
 31
0.0
  0
LINE
  5
93D
330
1E
100
AcDbEntity
  8
0
100
AcDbLine
 10
209.5
 20
92.0
 30
0.0
 11
209.5
 21
88.7
 31
0.0
  0
LINE
  5
93E
330
1E
100
AcDbEntity
  8
0
100
AcDbLine
 10
209.5
 20
88.7
 30
0.0
 11
209.5
 21
92.0
 31
0.0
  0
LINE
  5
93F
330
1E
100
AcDbEntity
  8
0
100
AcDbLine
 10
212.1647999999999
 20
78.40019999999999
 30
0.0
 11
209.5
 21
79.0
 31
0.0
  0
LINE
  5
940
330
1E
100
AcDbEntity
  8
0
100
AcDbLine
 10
214.0
 20
75.4504773075231
 30
0.0
 11
212.1647999999999
 21
78.40019999999999
 31
0.0
  0
LINE
  5
941
330
1E
100
AcDbEntity
  8
0
100
AcDbLine
 10
214.0
 20
64.5
 30
0.0
 11
213.5
 21
66.0
 31
0.0
  0
LINE
  5
942
330
1E
100
AcDbEntity
  8
0
100
AcDbLine
 10
214.1
 20
66.0
 30
0.0
 11
213.5
 21
66.0
 31
0.0
  0
LINE
  5
943
330
1E
100
AcDbEntity
  8
0
100
AcDbLine
 10
214.0
 20
70.0
 30
0.0
 11
212.5
 21
69.5
 31
0.0
  0
LINE
  5
944
330
1E
100
AcDbEntity
  8
0
100
AcDbLine
 10
214.6999999999999
 20
66.5
 30
0.0
 11
213.0999999999999
 21
66.5
 31
0.0
  0
LINE
  5
945
330
1E
100
AcDbEntity
  8
0
100
AcDbLine
 10
214.6999999999999
 20
69.5
 30
0.0
 11
213.0999999999999
 21
69.5
 31
0.0
  0
LINE
  5
946
330
1E
100
AcDbEntity
  8
0
100
AcDbLine
 10
215.6
 20
66.0
 30
0.0
 11
214.1
 21
66.0
 31
0.0
  0
LINE
  5
947
330
1E
100
AcDbEntity
  8
0
100
AcDbLine
 10
216.0
 20
70.0
 30
0.0
 11
214.5
 21
70.0
 31
0.0
  0
LINE
  5
948
330
1E
100
AcDbEntity
  8
0
100
AcDbLine
 10
214.0
 20
70.0
 30
0.0
 11
214.0
 21
75.4504773075231
 31
0.0
  0
LINE
  5
949
330
1E
100
AcDbEntity
  8
0
100
AcDbLine
 10
214.0
 20
75.4504773075231
 30
0.0
 11
214.0
 21
70.0
 31
0.0
  0
LINE
  5
94A
330
1E
100
AcDbEntity
  8
0
100
AcDbLine
 10
214.5
 20
70.0
 30
0.0
 11
214.0
 21
70.0
 31
0.0
  0
LINE
  5
94B
330
1E
100
AcDbEntity
  8
0
100
AcDbLine
 10
212.5
 20
69.5
 30
0.0
 11
212.0
 21
68.0
 31
0.0
  0
LINE
  5
94C
330
1E
100
AcDbEntity
  8
0
100
AcDbLine
 10
212.5
 20
66.5
 30
0.0
 11
212.0
 21
68.0
 31
0.0
  0
LINE
  5
94D
330
1E
100
AcDbEntity
  8
0
100
AcDbLine
 10
213.0999999999999
 20
66.5
 30
0.0
 11
212.5
 21
66.5
 31
0.0
  0
LINE
  5
94E
330
1E
100
AcDbEntity
  8
0
100
AcDbLine
 10
213.0999999999999
 20
69.5
 30
0.0
 11
212.5
 21
69.5
 31
0.0
  0
LINE
  5
94F
330
1E
100
AcDbEntity
  8
0
100
AcDbLine
 10
213.5
 20
66.0
 30
0.0
 11
212.5
 21
66.5
 31
0.0
  0
LINE
  5
950
330
1E
100
AcDbEntity
  8
0
100
AcDbLine
 10
209.0
 20
77.5
 30
0.0
 11
207.5
 21
77.0
 31
0.0
  0
LINE
  5
951
330
1E
100
AcDbEntity
  8
0
100
AcDbLine
 10
209.0
 20
84.8
 30
0.0
 11
209.0
 21
81.79999999999999
 31
0.0
  0
LINE
  5
952
330
1E
100
AcDbEntity
  8
0
100
AcDbLine
 10
209.0
 20
81.79999999999999
 30
0.0
 11
209.0
 21
84.8
 31
0.0
  0
LINE
  5
953
330
1E
100
AcDbEntity
  8
0
100
AcDbLine
 10
209.5
 20
80.7
 30
0.0
 11
209.5
 21
82.79999999999999
 31
0.0
  0
LINE
  5
954
330
1E
100
AcDbEntity
  8
0
100
AcDbLine
 10
209.5
 20
82.79999999999999
 30
0.0
 11
209.5
 21
80.7
 31
0.0
  0
LINE
  5
955
330
1E
100
AcDbEntity
  8
0
100
AcDbLine
 10
209.5
 20
79.0
 30
0.0
 11
209.0
 21
77.5
 31
0.0
  0
LINE
  5
956
330
1E
100
AcDbEntity
  8
0
100
AcDbLine
 10
209.5
 20
79.0
 30
0.0
 11
209.5
 21
79.5
 31
0.0
  0
LINE
  5
957
330
1E
100
AcDbEntity
  8
0
100
AcDbLine
 10
209.5
 20
79.5
 30
0.0
 11
209.5
 21
80.7
 31
0.0
  0
LINE
  5
958
330
1E
100
AcDbEntity
  8
0
100
AcDbLine
 10
209.5
 20
79.5
 30
0.0
 11
209.5
 21
79.0
 31
0.0
  0
LINE
  5
959
330
1E
100
AcDbEntity
  8
0
100
AcDbLine
 10
209.5
 20
80.7
 30
0.0
 11
209.5
 21
79.5
 31
0.0
  0
LINE
  5
95A
330
1E
100
AcDbEntity
  8
0
100
AcDbLine
 10
209.0
 20
81.79999999999999
 30
0.0
 11
209.0
 21
79.40000000000001
 31
0.0
  0
LINE
  5
95B
330
1E
100
AcDbEntity
  8
0
100
AcDbLine
 10
209.0
 20
77.5
 30
0.0
 11
209.0
 21
78.0
 31
0.0
  0
LINE
  5
95C
330
1E
100
AcDbEntity
  8
0
100
AcDbLine
 10
209.0
 20
78.0
 30
0.0
 11
209.0
 21
77.5
 31
0.0
  0
LINE
  5
95D
330
1E
100
AcDbEntity
  8
0
100
AcDbLine
 10
209.0
 20
78.0
 30
0.0
 11
209.0
 21
79.40000000000001
 31
0.0
  0
LINE
  5
95E
330
1E
100
AcDbEntity
  8
0
100
AcDbLine
 10
209.0
 20
79.40000000000001
 30
0.0
 11
209.0
 21
78.0
 31
0.0
  0
LINE
  5
95F
330
1E
100
AcDbEntity
  8
0
100
AcDbLine
 10
209.0
 20
79.40000000000001
 30
0.0
 11
209.0
 21
81.79999999999999
 31
0.0
  0
LINE
  5
960
330
1E
100
AcDbEntity
  8
0
100
AcDbLine
 10
209.5
 20
88.7
 30
0.0
 11
209.5
 21
85.5
 31
0.0
  0
LINE
  5
961
330
1E
100
AcDbEntity
  8
0
100
AcDbLine
 10
209.5
 20
85.5
 30
0.0
 11
209.5
 21
88.7
 31
0.0
  0
LINE
  5
962
330
1E
100
AcDbEntity
  8
0
100
AcDbLine
 10
209.5
 20
85.5
 30
0.0
 11
209.5
 21
82.79999999999999
 31
0.0
  0
LINE
  5
963
330
1E
100
AcDbEntity
  8
0
100
AcDbLine
 10
209.5
 20
82.79999999999999
 30
0.0
 11
209.5
 21
85.5
 31
0.0
  0
LINE
  5
964
330
1E
100
AcDbEntity
  8
0
100
AcDbLine
 10
209.0
 20
88.3
 30
0.0
 11
209.0
 21
84.8
 31
0.0
  0
LINE
  5
965
330
1E
100
AcDbEntity
  8
0
100
AcDbLine
 10
209.0
 20
84.8
 30
0.0
 11
209.0
 21
88.3
 31
0.0
  0
LINE
  5
966
330
1E
100
AcDbEntity
  8
0
100
AcDbLine
 10
205.5
 20
85.29999999999999
 30
0.0
 11
205.5
 21
82.5
 31
0.0
  0
LINE
  5
967
330
1E
100
AcDbEntity
  8
0
100
AcDbLine
 10
205.5
 20
82.5
 30
0.0
 11
205.5
 21
85.29999999999999
 31
0.0
  0
LINE
  5
968
330
1E
100
AcDbEntity
  8
0
100
AcDbLine
 10
206.0
 20
84.8
 30
0.0
 11
206.0
 21
81.79999999999999
 31
0.0
  0
LINE
  5
969
330
1E
100
AcDbEntity
  8
0
100
AcDbLine
 10
206.0
 20
81.79999999999999
 30
0.0
 11
206.0
 21
84.8
 31
0.0
  0
LINE
  5
96A
330
1E
100
AcDbEntity
  8
0
100
AcDbLine
 10
207.5
 20
77.0
 30
0.0
 11
206.0
 21
77.5
 31
0.0
  0
LINE
  5
96B
330
1E
100
AcDbEntity
  8
0
100
AcDbLine
 10
205.5
 20
82.5
 30
0.0
 11
205.5
 21
80.29999999999999
 31
0.0
  0
LINE
  5
96C
330
1E
100
AcDbEntity
  8
0
100
AcDbLine
 10
205.5
 20
78.5
 30
0.0
 11
205.5
 21
79.0
 31
0.0
  0
LINE
  5
96D
330
1E
100
AcDbEntity
  8
0
100
AcDbLine
 10
205.5
 20
79.0
 30
0.0
 11
205.5
 21
78.5
 31
0.0
  0
LINE
  5
96E
330
1E
100
AcDbEntity
  8
0
100
AcDbLine
 10
205.5
 20
79.0
 30
0.0
 11
205.5
 21
80.29999999999999
 31
0.0
  0
LINE
  5
96F
330
1E
100
AcDbEntity
  8
0
100
AcDbLine
 10
205.5
 20
80.29999999999999
 30
0.0
 11
205.5
 21
79.0
 31
0.0
  0
LINE
  5
970
330
1E
100
AcDbEntity
  8
0
100
AcDbLine
 10
205.5
 20
80.29999999999999
 30
0.0
 11
205.5
 21
82.5
 31
0.0
  0
LINE
  5
971
330
1E
100
AcDbEntity
  8
0
100
AcDbLine
 10
206.0
 20
81.79999999999999
 30
0.0
 11
206.0
 21
79.40000000000001
 31
0.0
  0
LINE
  5
972
330
1E
100
AcDbEntity
  8
0
100
AcDbLine
 10
206.0
 20
77.5
 30
0.0
 11
205.5
 21
78.5
 31
0.0
  0
LINE
  5
973
330
1E
100
AcDbEntity
  8
0
100
AcDbLine
 10
206.0
 20
77.5
 30
0.0
 11
206.0
 21
78.0
 31
0.0
  0
LINE
  5
974
330
1E
100
AcDbEntity
  8
0
100
AcDbLine
 10
206.0
 20
78.0
 30
0.0
 11
206.0
 21
77.5
 31
0.0
  0
LINE
  5
975
330
1E
100
AcDbEntity
  8
0
100
AcDbLine
 10
206.0
 20
78.0
 30
0.0
 11
206.0
 21
79.40000000000001
 31
0.0
  0
LINE
  5
976
330
1E
100
AcDbEntity
  8
0
100
AcDbLine
 10
206.0
 20
79.40000000000001
 30
0.0
 11
206.0
 21
78.0
 31
0.0
  0
LINE
  5
977
330
1E
100
AcDbEntity
  8
0
100
AcDbLine
 10
206.0
 20
79.40000000000001
 30
0.0
 11
206.0
 21
81.79999999999999
 31
0.0
  0
LINE
  5
978
330
1E
100
AcDbEntity
  8
0
100
AcDbLine
 10
205.5
 20
88.49999999999999
 30
0.0
 11
205.5
 21
85.29999999999999
 31
0.0
  0
LINE
  5
979
330
1E
100
AcDbEntity
  8
0
100
AcDbLine
 10
205.5
 20
85.29999999999999
 30
0.0
 11
205.5
 21
88.49999999999999
 31
0.0
  0
LINE
  5
97A
330
1E
100
AcDbEntity
  8
0
100
AcDbLine
 10
206.0
 20
88.3
 30
0.0
 11
206.0
 21
84.8
 31
0.0
  0
LINE
  5
97B
330
1E
100
AcDbEntity
  8
0
100
AcDbLine
 10
206.0
 20
84.8
 30
0.0
 11
206.0
 21
88.3
 31
0.0
  0
LINE
  5
97C
330
1E
100
AcDbEntity
  8
0
100
AcDbLine
 10
212.1647999999999
 20
105.6
 30
0.0
 11
209.5
 21
105.0
 31
0.0
  0
LINE
  5
97D
330
1E
100
AcDbEntity
  8
0
100
AcDbLine
 10
214.0
 20
108.549399736032
 30
0.0
 11
212.1647999999999
 21
105.6
 31
0.0
  0
LINE
  5
97E
330
1E
100
AcDbEntity
  8
0
100
AcDbLine
 10
214.0
 20
115.5
 30
0.0
 11
214.0
 21
108.549399736032
 31
0.0
  0
LINE
  5
97F
330
1E
100
AcDbEntity
  8
0
100
AcDbLine
 10
214.0
 20
108.549399736032
 30
0.0
 11
214.0
 21
115.5
 31
0.0
  0
LINE
  5
980
330
1E
100
AcDbEntity
  8
0
100
AcDbLine
 10
209.0
 20
104.6
 30
0.0
 11
209.0
 21
102.2
 31
0.0
  0
LINE
  5
981
330
1E
100
AcDbEntity
  8
0
100
AcDbLine
 10
209.0
 20
102.2
 30
0.0
 11
209.0
 21
104.6
 31
0.0
  0
LINE
  5
982
330
1E
100
AcDbEntity
  8
0
100
AcDbLine
 10
206.0
 20
104.6
 30
0.0
 11
206.0
 21
102.2
 31
0.0
  0
LINE
  5
983
330
1E
100
AcDbEntity
  8
0
100
AcDbLine
 10
205.5
 20
103.7
 30
0.0
 11
205.5
 21
101.5
 31
0.0
  0
LINE
  5
984
330
1E
100
AcDbEntity
  8
0
100
AcDbLine
 10
206.0
 20
102.2
 30
0.0
 11
206.0
 21
104.6
 31
0.0
  0
LINE
  5
985
330
1E
100
AcDbEntity
  8
0
100
AcDbLine
 10
205.5
 20
101.5
 30
0.0
 11
205.5
 21
103.7
 31
0.0
  0
LINE
  5
986
330
1E
100
AcDbEntity
  8
0
100
AcDbLine
 10
209.5
 20
103.2999999999999
 30
0.0
 11
209.5
 21
101.2
 31
0.0
  0
LINE
  5
987
330
1E
100
AcDbEntity
  8
0
100
AcDbLine
 10
209.5
 20
101.2
 30
0.0
 11
209.5
 21
103.2999999999999
 31
0.0
  0
LINE
  5
988
330
1E
100
AcDbEntity
  8
0
100
AcDbLine
 10
209.0
 20
95.7
 30
0.0
 11
209.0
 21
99.20000000000001
 31
0.0
  0
LINE
  5
989
330
1E
100
AcDbEntity
  8
0
100
AcDbLine
 10
209.0
 20
99.20000000000001
 30
0.0
 11
209.0
 21
95.7
 31
0.0
  0
LINE
  5
98A
330
1E
100
AcDbEntity
  8
0
100
AcDbLine
 10
209.5
 20
95.29999999999999
 30
0.0
 11
209.5
 21
98.50000000000001
 31
0.0
  0
LINE
  5
98B
330
1E
100
AcDbEntity
  8
0
100
AcDbLine
 10
209.5
 20
98.50000000000001
 30
0.0
 11
209.5
 21
95.29999999999999
 31
0.0
  0
LINE
  5
98C
330
1E
100
AcDbEntity
  8
0
100
AcDbLine
 10
209.5
 20
95.29999999999999
 30
0.0
 11
209.5
 21
92.0
 31
0.0
  0
LINE
  5
98D
330
1E
100
AcDbEntity
  8
0
100
AcDbLine
 10
209.5
 20
92.0
 30
0.0
 11
209.5
 21
95.29999999999999
 31
0.0
  0
LINE
  5
98E
330
1E
100
AcDbEntity
  8
0
100
AcDbLine
 10
209.0
 20
92.0
 30
0.0
 11
209.0
 21
95.7
 31
0.0
  0
LINE
  5
98F
330
1E
100
AcDbEntity
  8
0
100
AcDbLine
 10
209.0
 20
95.7
 30
0.0
 11
209.0
 21
92.0
 31
0.0
  0
LINE
  5
990
330
1E
100
AcDbEntity
  8
0
100
AcDbLine
 10
209.5
 20
98.50000000000001
 30
0.0
 11
209.5
 21
101.2
 31
0.0
  0
LINE
  5
991
330
1E
100
AcDbEntity
  8
0
100
AcDbLine
 10
209.5
 20
101.2
 30
0.0
 11
209.5
 21
98.50000000000001
 31
0.0
  0
LINE
  5
992
330
1E
100
AcDbEntity
  8
0
100
AcDbLine
 10
209.0
 20
102.2
 30
0.0
 11
209.0
 21
99.20000000000001
 31
0.0
  0
LINE
  5
993
330
1E
100
AcDbEntity
  8
0
100
AcDbLine
 10
209.0
 20
99.20000000000001
 30
0.0
 11
209.0
 21
102.2
 31
0.0
  0
LINE
  5
994
330
1E
100
AcDbEntity
  8
0
100
AcDbLine
 10
205.5
 20
95.5
 30
0.0
 11
205.5
 21
98.7
 31
0.0
  0
LINE
  5
995
330
1E
100
AcDbEntity
  8
0
100
AcDbLine
 10
205.5
 20
98.7
 30
0.0
 11
205.5
 21
95.5
 31
0.0
  0
LINE
  5
996
330
1E
100
AcDbEntity
  8
0
100
AcDbLine
 10
206.0
 20
95.7
 30
0.0
 11
206.0
 21
99.20000000000001
 31
0.0
  0
LINE
  5
997
330
1E
100
AcDbEntity
  8
0
100
AcDbLine
 10
206.0
 20
99.20000000000001
 30
0.0
 11
206.0
 21
95.7
 31
0.0
  0
LINE
  5
998
330
1E
100
AcDbEntity
  8
0
100
AcDbLine
 10
205.5
 20
92.0
 30
0.0
 11
205.5
 21
95.5
 31
0.0
  0
LINE
  5
999
330
1E
100
AcDbEntity
  8
0
100
AcDbLine
 10
205.5
 20
95.5
 30
0.0
 11
205.5
 21
92.0
 31
0.0
  0
LINE
  5
99A
330
1E
100
AcDbEntity
  8
0
100
AcDbLine
 10
206.0
 20
95.7
 30
0.0
 11
206.0
 21
92.0
 31
0.0
  0
LINE
  5
99B
330
1E
100
AcDbEntity
  8
0
100
AcDbLine
 10
206.0
 20
92.0
 30
0.0
 11
206.0
 21
95.7
 31
0.0
  0
LINE
  5
99C
330
1E
100
AcDbEntity
  8
0
100
AcDbLine
 10
206.0
 20
102.2
 30
0.0
 11
206.0
 21
99.20000000000001
 31
0.0
  0
LINE
  5
99D
330
1E
100
AcDbEntity
  8
0
100
AcDbLine
 10
205.5
 20
101.5
 30
0.0
 11
205.5
 21
98.7
 31
0.0
  0
LINE
  5
99E
330
1E
100
AcDbEntity
  8
0
100
AcDbLine
 10
205.5
 20
98.7
 30
0.0
 11
205.5
 21
101.5
 31
0.0
  0
LINE
  5
99F
330
1E
100
AcDbEntity
  8
0
100
AcDbLine
 10
206.0
 20
99.20000000000001
 30
0.0
 11
206.0
 21
102.2
 31
0.0
  0
LINE
  5
9A0
330
1E
100
AcDbEntity
  8
0
100
AcDbLine
 10
209.0
 20
106.4999999999999
 30
0.0
 11
207.5
 21
107.0
 31
0.0
  0
LINE
  5
9A1
330
1E
100
AcDbEntity
  8
0
100
AcDbLine
 10
209.5
 20
105.0
 30
0.0
 11
209.0
 21
106.4999999999999
 31
0.0
  0
LINE
  5
9A2
330
1E
100
AcDbEntity
  8
0
100
AcDbLine
 10
209.5
 20
105.0
 30
0.0
 11
209.5
 21
104.4999999999999
 31
0.0
  0
LINE
  5
9A3
330
1E
100
AcDbEntity
  8
0
100
AcDbLine
 10
209.5
 20
104.4999999999999
 30
0.0
 11
209.5
 21
105.0
 31
0.0
  0
LINE
  5
9A4
330
1E
100
AcDbEntity
  8
0
100
AcDbLine
 10
209.5
 20
104.4999999999999
 30
0.0
 11
209.5
 21
103.2999999999999
 31
0.0
  0
LINE
  5
9A5
330
1E
100
AcDbEntity
  8
0
100
AcDbLine
 10
209.5
 20
103.2999999999999
 30
0.0
 11
209.5
 21
104.4999999999999
 31
0.0
  0
LINE
  5
9A6
330
1E
100
AcDbEntity
  8
0
100
AcDbLine
 10
209.0
 20
106.0
 30
0.0
 11
209.0
 21
104.6
 31
0.0
  0
LINE
  5
9A7
330
1E
100
AcDbEntity
  8
0
100
AcDbLine
 10
209.0
 20
106.0
 30
0.0
 11
209.0
 21
106.4999999999999
 31
0.0
  0
LINE
  5
9A8
330
1E
100
AcDbEntity
  8
0
100
AcDbLine
 10
209.0
 20
106.4999999999999
 30
0.0
 11
209.0
 21
106.0
 31
0.0
  0
LINE
  5
9A9
330
1E
100
AcDbEntity
  8
0
100
AcDbLine
 10
209.0
 20
104.6
 30
0.0
 11
209.0
 21
106.0
 31
0.0
  0
LINE
  5
9AA
330
1E
100
AcDbEntity
  8
0
100
AcDbLine
 10
207.5
 20
107.0
 30
0.0
 11
206.0
 21
106.4999999999999
 31
0.0
  0
LINE
  5
9AB
330
1E
100
AcDbEntity
  8
0
100
AcDbLine
 10
206.0
 20
106.0
 30
0.0
 11
206.0
 21
104.6
 31
0.0
  0
LINE
  5
9AC
330
1E
100
AcDbEntity
  8
0
100
AcDbLine
 10
206.0
 20
106.0
 30
0.0
 11
206.0
 21
106.4999999999999
 31
0.0
  0
LINE
  5
9AD
330
1E
100
AcDbEntity
  8
0
100
AcDbLine
 10
205.5
 20
105.4999999999999
 30
0.0
 11
205.5
 21
105.0
 31
0.0
  0
LINE
  5
9AE
330
1E
100
AcDbEntity
  8
0
100
AcDbLine
 10
206.0
 20
106.4999999999999
 30
0.0
 11
205.5
 21
105.4999999999999
 31
0.0
  0
LINE
  5
9AF
330
1E
100
AcDbEntity
  8
0
100
AcDbLine
 10
206.0
 20
106.4999999999999
 30
0.0
 11
206.0
 21
106.0
 31
0.0
  0
LINE
  5
9B0
330
1E
100
AcDbEntity
  8
0
100
AcDbLine
 10
205.5
 20
105.0
 30
0.0
 11
205.5
 21
103.7
 31
0.0
  0
LINE
  5
9B1
330
1E
100
AcDbEntity
  8
0
100
AcDbLine
 10
205.5
 20
105.0
 30
0.0
 11
205.5
 21
105.4999999999999
 31
0.0
  0
LINE
  5
9B2
330
1E
100
AcDbEntity
  8
0
100
AcDbLine
 10
206.0
 20
104.6
 30
0.0
 11
206.0
 21
106.0
 31
0.0
  0
LINE
  5
9B3
330
1E
100
AcDbEntity
  8
0
100
AcDbLine
 10
205.5
 20
103.7
 30
0.0
 11
205.5
 21
105.0
 31
0.0
  0
LINE
  5
9B4
330
1E
100
AcDbEntity
  8
0
100
AcDbLine
 10
218.5776999999999
 20
163.857
 30
0.0
 11
216.2959999999999
 21
163.552
 31
0.0
  0
LINE
  5
9B5
330
1E
100
AcDbEntity
  8
0
100
AcDbLine
 10
218.4
 20
121.0
 30
0.0
 11
216.0
 21
121.0
 31
0.0
  0
LINE
  5
9B6
330
1E
100
AcDbEntity
  8
0
100
AcDbLine
 10
217.3
 20
120.5
 30
0.0
 11
214.6999999999999
 21
120.5
 31
0.0
  0
LINE
  5
9B7
330
1E
100
AcDbEntity
  8
0
100
AcDbLine
 10
217.3
 20
117.5
 30
0.0
 11
214.6999999999999
 21
117.5
 31
0.0
  0
LINE
  5
9B8
330
1E
100
AcDbEntity
  8
0
100
AcDbLine
 10
218.1
 20
117.0
 30
0.0
 11
215.6
 21
117.0
 31
0.0
  0
LINE
  5
9B9
330
1E
100
AcDbEntity
  8
0
100
AcDbLine
 10
224.8415
 20
127.0
 30
0.0
 11
213.5
 21
127.0
 31
0.0
  0
LINE
  5
9BA
330
1E
100
AcDbEntity
  8
0
100
AcDbLine
 10
217.5
 20
142.0
 30
0.0
 11
217.0
 21
141.5
 31
0.0
  0
LINE
  5
9BB
330
1E
100
AcDbEntity
  8
0
100
AcDbLine
 10
223.0
 20
141.5
 30
0.0
 11
220.5
 21
141.5
 31
0.0
  0
LINE
  5
9BC
330
1E
100
AcDbEntity
  8
0
100
AcDbLine
 10
223.0
 20
140.0
 30
0.0
 11
220.5
 21
140.0
 31
0.0
  0
LINE
  5
9BD
330
1E
100
AcDbEntity
  8
0
100
AcDbLine
 10
223.3
 20
139.5
 30
0.0
 11
220.9
 21
139.5
 31
0.0
  0
LINE
  5
9BE
330
1E
100
AcDbEntity
  8
0
100
AcDbLine
 10
223.0
 20
139.0
 30
0.0
 11
220.5
 21
139.0
 31
0.0
  0
LINE
  5
9BF
330
1E
100
AcDbEntity
  8
0
100
AcDbLine
 10
224.8
 20
120.5
 30
0.0
 11
220.8
 21
120.5
 31
0.0
  0
LINE
  5
9C0
330
1E
100
AcDbEntity
  8
0
100
AcDbLine
 10
224.8
 20
117.5
 30
0.0
 11
220.8
 21
117.5
 31
0.0
  0
LINE
  5
9C1
330
1E
100
AcDbEntity
  8
0
100
AcDbLine
 10
225.0
 20
117.0
 30
0.0
 11
221.3
 21
117.0
 31
0.0
  0
LINE
  5
9C2
330
1E
100
AcDbEntity
  8
0
100
AcDbLine
 10
225.0999999999999
 20
121.0
 30
0.0
 11
218.4
 21
121.0
 31
0.0
  0
LINE
  5
9C3
330
1E
100
AcDbEntity
  8
0
100
AcDbLine
 10
224.8415
 20
121.0
 30
0.0
 11
218.4
 21
121.0
 31
0.0
  0
LINE
  5
9C4
330
1E
100
AcDbEntity
  8
0
100
AcDbLine
 10
229.0
 20
121.0
 30
0.0
 11
224.8415
 21
121.0
 31
0.0
  0
LINE
  5
9C5
330
1E
100
AcDbEntity
  8
0
100
AcDbLine
 10
229.0
 20
120.5
 30
0.0
 11
224.8
 21
120.5
 31
0.0
  0
LINE
  5
9C6
330
1E
100
AcDbEntity
  8
0
100
AcDbLine
 10
229.0
 20
117.5
 30
0.0
 11
224.8
 21
117.5
 31
0.0
  0
LINE
  5
9C7
330
1E
100
AcDbEntity
  8
0
100
AcDbLine
 10
229.0
 20
117.0
 30
0.0
 11
225.0
 21
117.0
 31
0.0
  0
LINE
  5
9C8
330
1E
100
AcDbEntity
  8
0
100
AcDbLine
 10
229.0
 20
140.0
 30
0.0
 11
225.8999999999999
 21
140.0
 31
0.0
  0
LINE
  5
9C9
330
1E
100
AcDbEntity
  8
0
100
AcDbLine
 10
229.0
 20
141.5
 30
0.0
 11
225.8999999999999
 21
141.5
 31
0.0
  0
LINE
  5
9CA
330
1E
100
AcDbEntity
  8
0
100
AcDbLine
 10
229.0
 20
139.5
 30
0.0
 11
226.0
 21
139.5
 31
0.0
  0
LINE
  5
9CB
330
1E
100
AcDbEntity
  8
0
100
AcDbLine
 10
229.0
 20
139.0
 30
0.0
 11
225.8999999999999
 21
139.0
 31
0.0
  0
LINE
  5
9CC
330
1E
100
AcDbEntity
  8
0
100
AcDbLine
 10
225.8999999999999
 20
140.0
 30
0.0
 11
223.0
 21
140.0
 31
0.0
  0
LINE
  5
9CD
330
1E
100
AcDbEntity
  8
0
100
AcDbLine
 10
225.8999999999999
 20
141.5
 30
0.0
 11
223.0
 21
141.5
 31
0.0
  0
LINE
  5
9CE
330
1E
100
AcDbEntity
  8
0
100
AcDbLine
 10
226.0
 20
139.5
 30
0.0
 11
223.3
 21
139.5
 31
0.0
  0
LINE
  5
9CF
330
1E
100
AcDbEntity
  8
0
100
AcDbLine
 10
225.8999999999999
 20
139.0
 30
0.0
 11
223.0
 21
139.0
 31
0.0
  0
LINE
  5
9D0
330
1E
100
AcDbEntity
  8
0
100
AcDbLine
 10
217.0
 20
127.0
 30
0.0
 11
217.0
 21
139.0
 31
0.0
  0
LINE
  5
9D1
330
1E
100
AcDbEntity
  8
0
100
AcDbLine
 10
217.0
 20
139.0
 30
0.0
 11
217.0
 21
127.0
 31
0.0
  0
LINE
  5
9D2
330
1E
100
AcDbEntity
  8
0
100
AcDbLine
 10
220.8
 20
120.5
 30
0.0
 11
217.3
 21
120.5
 31
0.0
  0
LINE
  5
9D3
330
1E
100
AcDbEntity
  8
0
100
AcDbLine
 10
220.8
 20
117.5
 30
0.0
 11
217.3
 21
117.5
 31
0.0
  0
LINE
  5
9D4
330
1E
100
AcDbEntity
  8
0
100
AcDbLine
 10
221.3
 20
117.0
 30
0.0
 11
218.1
 21
117.0
 31
0.0
  0
LINE
  5
9D5
330
1E
100
AcDbEntity
  8
0
100
AcDbLine
 10
220.5
 20
141.5
 30
0.0
 11
218.5999999999999
 21
141.5
 31
0.0
  0
LINE
  5
9D6
330
1E
100
AcDbEntity
  8
0
100
AcDbLine
 10
220.5
 20
140.0
 30
0.0
 11
218.5999999999999
 21
140.0
 31
0.0
  0
LINE
  5
9D7
330
1E
100
AcDbEntity
  8
0
100
AcDbLine
 10
220.9
 20
139.5
 30
0.0
 11
219.0
 21
139.5
 31
0.0
  0
LINE
  5
9D8
330
1E
100
AcDbEntity
  8
0
100
AcDbLine
 10
220.5
 20
139.0
 30
0.0
 11
218.5999999999999
 21
139.0
 31
0.0
  0
LINE
  5
9D9
330
1E
100
AcDbEntity
  8
0
100
AcDbLine
 10
218.5999999999999
 20
141.5
 30
0.0
 11
217.3999999999999
 21
141.5
 31
0.0
  0
LINE
  5
9DA
330
1E
100
AcDbEntity
  8
0
100
AcDbLine
 10
218.5999999999999
 20
140.0
 30
0.0
 11
217.3999999999999
 21
140.0
 31
0.0
  0
LINE
  5
9DB
330
1E
100
AcDbEntity
  8
0
100
AcDbLine
 10
219.0
 20
139.5
 30
0.0
 11
217.9
 21
139.5
 31
0.0
  0
LINE
  5
9DC
330
1E
100
AcDbEntity
  8
0
100
AcDbLine
 10
218.5999999999999
 20
139.0
 30
0.0
 11
217.3999999999999
 21
139.0
 31
0.0
  0
LINE
  5
9DD
330
1E
100
AcDbEntity
  8
0
100
AcDbLine
 10
217.0
 20
141.5
 30
0.0
 11
217.0
 21
140.0
 31
0.0
  0
LINE
  5
9DE
330
1E
100
AcDbEntity
  8
0
100
AcDbLine
 10
217.0
 20
140.0
 30
0.0
 11
217.0
 21
141.5
 31
0.0
  0
LINE
  5
9DF
330
1E
100
AcDbEntity
  8
0
100
AcDbLine
 10
217.9
 20
139.5
 30
0.0
 11
217.5
 21
139.5
 31
0.0
  0
LINE
  5
9E0
330
1E
100
AcDbEntity
  8
0
100
AcDbLine
 10
217.3999999999999
 20
141.5
 30
0.0
 11
217.0
 21
141.5
 31
0.0
  0
LINE
  5
9E1
330
1E
100
AcDbEntity
  8
0
100
AcDbLine
 10
217.3999999999999
 20
140.0
 30
0.0
 11
217.0
 21
140.0
 31
0.0
  0
LINE
  5
9E2
330
1E
100
AcDbEntity
  8
0
100
AcDbLine
 10
217.5
 20
139.5
 30
0.0
 11
217.0
 21
140.0
 31
0.0
  0
LINE
  5
9E3
330
1E
100
AcDbEntity
  8
0
100
AcDbLine
 10
217.5
 20
139.5
 30
0.0
 11
217.0
 21
139.0
 31
0.0
  0
LINE
  5
9E4
330
1E
100
AcDbEntity
  8
0
100
AcDbLine
 10
217.3999999999999
 20
139.0
 30
0.0
 11
217.0
 21
139.0
 31
0.0
  0
LINE
  5
9E5
330
1E
100
AcDbEntity
  8
0
100
AcDbLine
 10
223.0
 20
163.857
 30
0.0
 11
220.5
 21
164.0
 31
0.0
  0
LINE
  5
9E6
330
1E
100
AcDbEntity
  8
0
100
AcDbLine
 10
223.3999999999999
 20
163.0
 30
0.0
 11
222.1
 21
163.0
 31
0.0
  0
LINE
  5
9E7
330
1E
100
AcDbEntity
  8
0
100
AcDbLine
 10
223.3999999999999
 20
161.0
 30
0.0
 11
222.6999999999999
 21
161.0
 31
0.0
  0
LINE
  5
9E8
330
1E
100
AcDbEntity
  8
0
100
AcDbLine
 10
223.0
 20
153.0
 30
0.0
 11
222.6999999999999
 21
153.0
 31
0.0
  0
LINE
  5
9E9
330
1E
100
AcDbEntity
  8
0
100
AcDbLine
 10
223.3999999999999
 20
153.0
 30
0.0
 11
222.6999999999999
 21
153.0
 31
0.0
  0
LINE
  5
9EA
330
1E
100
AcDbEntity
  8
0
100
AcDbLine
 10
223.3
 20
142.0
 30
0.0
 11
220.9
 21
142.0
 31
0.0
  0
LINE
  5
9EB
330
1E
100
AcDbEntity
  8
0
100
AcDbLine
 10
227.4999999999999
 20
153.0
 30
0.0
 11
226.0
 21
153.0
 31
0.0
  0
LINE
  5
9EC
330
1E
100
AcDbEntity
  8
0
100
AcDbLine
 10
227.3
 20
153.0
 30
0.0
 11
225.8
 21
153.0
 31
0.0
  0
LINE
  5
9ED
330
1E
100
AcDbEntity
  8
0
100
AcDbLine
 10
229.0
 20
142.0
 30
0.0
 11
226.0
 21
142.0
 31
0.0
  0
LINE
  5
9EE
330
1E
100
AcDbEntity
  8
0
100
AcDbLine
 10
229.0
 20
153.0
 30
0.0
 11
227.3
 21
153.0
 31
0.0
  0
LINE
  5
9EF
330
1E
100
AcDbEntity
  8
0
100
AcDbLine
 10
229.0
 20
153.0
 30
0.0
 11
227.4999999999999
 21
153.0
 31
0.0
  0
LINE
  5
9F0
330
1E
100
AcDbEntity
  8
0
100
AcDbLine
 10
223.0
 20
153.0
 30
0.0
 11
223.0
 21
142.0
 31
0.0
  0
LINE
  5
9F1
330
1E
100
AcDbEntity
  8
0
100
AcDbLine
 10
223.0
 20
142.0
 30
0.0
 11
223.0
 21
153.0
 31
0.0
  0
LINE
  5
9F2
330
1E
100
AcDbEntity
  8
0
100
AcDbLine
 10
226.0
 20
142.0
 30
0.0
 11
223.3
 21
142.0
 31
0.0
  0
LINE
  5
9F3
330
1E
100
AcDbEntity
  8
0
100
AcDbLine
 10
225.8
 20
153.0
 30
0.0
 11
224.4
 21
153.0
 31
0.0
  0
LINE
  5
9F4
330
1E
100
AcDbEntity
  8
0
100
AcDbLine
 10
224.8
 20
153.0
 30
0.0
 11
223.7999999999999
 21
153.0
 31
0.0
  0
LINE
  5
9F5
330
1E
100
AcDbEntity
  8
0
100
AcDbLine
 10
226.0
 20
153.0
 30
0.0
 11
224.8
 21
153.0
 31
0.0
  0
LINE
  5
9F6
330
1E
100
AcDbEntity
  8
0
100
AcDbLine
 10
223.1999999999999
 20
153.0
 30
0.0
 11
223.0
 21
153.0
 31
0.0
  0
LINE
  5
9F7
330
1E
100
AcDbEntity
  8
0
100
AcDbLine
 10
223.7999999999999
 20
153.0
 30
0.0
 11
223.1999999999999
 21
153.0
 31
0.0
  0
LINE
  5
9F8
330
1E
100
AcDbEntity
  8
0
100
AcDbLine
 10
224.4
 20
153.0
 30
0.0
 11
223.3999999999999
 21
153.0
 31
0.0
  0
LINE
  5
9F9
330
1E
100
AcDbEntity
  8
0
100
AcDbLine
 10
226.8536
 20
163.217
 30
0.0
 11
225.0097999999999
 21
163.552
 31
0.0
  0
LINE
  5
9FA
330
1E
100
AcDbEntity
  8
0
100
AcDbLine
 10
226.9
 20
163.0
 30
0.0
 11
225.0
 21
163.0
 31
0.0
  0
LINE
  5
9FB
330
1E
100
AcDbEntity
  8
0
100
AcDbLine
 10
227.3
 20
161.0
 30
0.0
 11
225.8
 21
161.0
 31
0.0
  0
LINE
  5
9FC
330
1E
100
AcDbEntity
  8
0
100
AcDbLine
 10
229.0
 20
161.0
 30
0.0
 11
227.3
 21
161.0
 31
0.0
  0
LINE
  5
9FD
330
1E
100
AcDbEntity
  8
0
100
AcDbLine
 10
227.6248143899836
 20
162.82859214113
 30
0.0
 11
226.8536
 21
163.217
 31
0.0
  0
LINE
  5
9FE
330
1E
100
AcDbEntity
  8
0
100
AcDbLine
 10
227.7
 20
162.591
 30
0.0
 11
227.1999999999999
 21
165.0509999999999
 31
0.0
  0
LINE
  5
9FF
330
1E
100
AcDbEntity
  8
0
100
AcDbLine
 10
228.2
 20
168.0
 30
0.0
 11
228.2
 21
165.071
 31
0.0
  0
LINE
  5
A00
330
1E
100
AcDbEntity
  8
0
100
AcDbLine
 10
228.2
 20
165.071
 30
0.0
 11
228.2
 21
168.0
 31
0.0
  0
LINE
  5
A01
330
1E
100
AcDbEntity
  8
0
100
AcDbLine
 10
228.2
 20
165.071
 30
0.0
 11
228.2
 21
163.9559999999999
 31
0.0
  0
LINE
  5
A02
330
1E
100
AcDbEntity
  8
0
100
AcDbLine
 10
228.2
 20
163.9559999999999
 30
0.0
 11
228.2
 21
165.071
 31
0.0
  0
LINE
  5
A03
330
1E
100
AcDbEntity
  8
0
100
AcDbLine
 10
228.2
 20
163.9559999999999
 30
0.0
 11
228.2
 21
163.187
 31
0.0
  0
LINE
  5
A04
330
1E
100
AcDbEntity
  8
0
100
AcDbLine
 10
228.2
 20
163.187
 30
0.0
 11
228.2
 21
163.9559999999999
 31
0.0
  0
LINE
  5
A05
330
1E
100
AcDbEntity
  8
0
100
AcDbLine
 10
228.2
 20
163.187
 30
0.0
 11
228.2
 21
162.476
 31
0.0
  0
LINE
  5
A06
330
1E
100
AcDbEntity
  8
0
100
AcDbLine
 10
228.2
 20
162.476
 30
0.0
 11
228.2
 21
163.187
 31
0.0
  0
LINE
  5
A07
330
1E
100
AcDbEntity
  8
0
100
AcDbLine
 10
228.2
 20
162.476
 30
0.0
 11
228.2
 21
162.092
 31
0.0
  0
LINE
  5
A08
330
1E
100
AcDbEntity
  8
0
100
AcDbLine
 10
229.0
 20
162.1109999999999
 30
0.0
 11
228.2
 21
162.092
 31
0.0
  0
LINE
  5
A09
330
1E
100
AcDbEntity
  8
0
100
AcDbLine
 10
228.2
 20
162.092
 30
0.0
 11
227.7
 21
162.591
 31
0.0
  0
LINE
  5
A0A
330
1E
100
AcDbEntity
  8
0
100
AcDbLine
 10
228.2
 20
162.092
 30
0.0
 11
228.2
 21
162.476
 31
0.0
  0
LINE
  5
A0B
330
1E
100
AcDbEntity
  8
0
100
AcDbLine
 10
227.1999999999999
 20
165.0509999999999
 30
0.0
 11
227.0
 21
168.0
 31
0.0
  0
LINE
  5
A0C
330
1E
100
AcDbEntity
  8
0
100
AcDbLine
 10
227.2844705882352
 20
163.0
 30
0.0
 11
226.9
 21
163.0
 31
0.0
  0
LINE
  5
A0D
330
1E
100
AcDbEntity
  8
0
100
AcDbLine
 10
225.8
 20
161.0
 30
0.0
 11
224.4
 21
161.0
 31
0.0
  0
LINE
  5
A0E
330
1E
100
AcDbEntity
  8
0
100
AcDbLine
 10
224.4
 20
161.0
 30
0.0
 11
223.3999999999999
 21
161.0
 31
0.0
  0
LINE
  5
A0F
330
1E
100
AcDbEntity
  8
0
100
AcDbLine
 10
225.0097999999999
 20
163.552
 30
0.0
 11
223.0
 21
163.857
 31
0.0
  0
LINE
  5
A10
330
1E
100
AcDbEntity
  8
0
100
AcDbLine
 10
225.0
 20
163.0
 30
0.0
 11
223.3999999999999
 21
163.0
 31
0.0
  0
LINE
  5
A11
330
1E
100
AcDbEntity
  8
0
100
AcDbLine
 10
222.5
 20
161.0
 30
0.0
 11
222.5
 21
153.0
 31
0.0
  0
LINE
  5
A12
330
1E
100
AcDbEntity
  8
0
100
AcDbLine
 10
222.5
 20
153.0
 30
0.0
 11
222.5
 21
161.0
 31
0.0
  0
LINE
  5
A13
330
1E
100
AcDbEntity
  8
0
100
AcDbLine
 10
220.9
 20
142.0
 30
0.0
 11
219.0
 21
142.0
 31
0.0
  0
LINE
  5
A14
330
1E
100
AcDbEntity
  8
0
100
AcDbLine
 10
222.6999999999999
 20
153.0
 30
0.0
 11
222.5
 21
153.0
 31
0.0
  0
LINE
  5
A15
330
1E
100
AcDbEntity
  8
0
100
AcDbLine
 10
219.0
 20
142.0
 30
0.0
 11
217.9
 21
142.0
 31
0.0
  0
LINE
  5
A16
330
1E
100
AcDbEntity
  8
0
100
AcDbLine
 10
217.9
 20
142.0
 30
0.0
 11
217.5
 21
142.0
 31
0.0
  0
LINE
  5
A17
330
1E
100
AcDbEntity
  8
0
100
AcDbLine
 10
220.5
 20
164.0
 30
0.0
 11
218.5776999999999
 21
163.857
 31
0.0
  0
LINE
  5
A18
330
1E
100
AcDbEntity
  8
0
100
AcDbLine
 10
221.0
 20
163.0
 30
0.0
 11
218.5335354046947
 21
163.8221548651019
 31
0.0
  0
LINE
  5
A19
330
1E
100
AcDbEntity
  8
0
100
AcDbLine
 10
222.5
 20
161.0
 30
0.0
 11
221.0
 21
163.0
 31
0.0
  0
LINE
  5
A1A
330
1E
100
AcDbEntity
  8
0
100
AcDbLine
 10
222.6999999999999
 20
161.0
 30
0.0
 11
222.5
 21
161.0
 31
0.0
  0
LINE
  5
A1B
330
1E
100
AcDbEntity
  8
0
100
AcDbLine
 10
222.1
 20
163.0
 30
0.0
 11
221.3
 21
163.0
 31
0.0
  0
LINE
  5
A1C
330
1E
100
AcDbEntity
  8
0
100
AcDbLine
 10
221.3
 20
163.0
 30
0.0
 11
221.0
 21
163.0
 31
0.0
  0
LINE
  5
A1D
330
1E
100
AcDbEntity
  8
0
100
AcDbLine
 10
214.0
 20
121.0
 30
0.0
 11
212.5
 21
120.5
 31
0.0
  0
LINE
  5
A1E
330
1E
100
AcDbEntity
  8
0
100
AcDbLine
 10
214.5
 20
121.0
 30
0.0
 11
213.5
 21
121.0
 31
0.0
  0
LINE
  5
A1F
330
1E
100
AcDbEntity
  8
0
100
AcDbLine
 10
214.1
 20
117.0
 30
0.0
 11
213.5
 21
117.0
 31
0.0
  0
LINE
  5
A20
330
1E
100
AcDbEntity
  8
0
100
AcDbLine
 10
214.6999999999999
 20
117.5
 30
0.0
 11
213.0999999999999
 21
117.5
 31
0.0
  0
LINE
  5
A21
330
1E
100
AcDbEntity
  8
0
100
AcDbLine
 10
214.6999999999999
 20
120.5
 30
0.0
 11
213.0999999999999
 21
120.5
 31
0.0
  0
LINE
  5
A22
330
1E
100
AcDbEntity
  8
0
100
AcDbLine
 10
216.0
 20
121.0
 30
0.0
 11
213.5
 21
121.0
 31
0.0
  0
LINE
  5
A23
330
1E
100
AcDbEntity
  8
0
100
AcDbLine
 10
216.0
 20
121.0
 30
0.0
 11
214.5
 21
121.0
 31
0.0
  0
LINE
  5
A24
330
1E
100
AcDbEntity
  8
0
100
AcDbLine
 10
215.6
 20
117.0
 30
0.0
 11
214.1
 21
117.0
 31
0.0
  0
LINE
  5
A25
330
1E
100
AcDbEntity
  8
0
100
AcDbLine
 10
214.5
 20
121.0
 30
0.0
 11
214.0
 21
121.0
 31
0.0
  0
LINE
  5
A26
330
1E
100
AcDbEntity
  8
0
100
AcDbLine
 10
213.5
 20
127.0
 30
0.0
 11
213.5
 21
121.0
 31
0.0
  0
LINE
  5
A27
330
1E
100
AcDbEntity
  8
0
100
AcDbLine
 10
213.5
 20
121.0
 30
0.0
 11
213.5
 21
127.0
 31
0.0
  0
LINE
  5
A28
330
1E
100
AcDbEntity
  8
0
100
AcDbLine
 10
212.5
 20
117.5
 30
0.0
 11
212.0
 21
119.0
 31
0.0
  0
LINE
  5
A29
330
1E
100
AcDbEntity
  8
0
100
AcDbLine
 10
212.5
 20
120.5
 30
0.0
 11
212.0
 21
119.0
 31
0.0
  0
LINE
  5
A2A
330
1E
100
AcDbEntity
  8
0
100
AcDbLine
 10
213.0999999999999
 20
117.5
 30
0.0
 11
212.5
 21
117.5
 31
0.0
  0
LINE
  5
A2B
330
1E
100
AcDbEntity
  8
0
100
AcDbLine
 10
213.0999999999999
 20
120.5
 30
0.0
 11
212.5
 21
120.5
 31
0.0
  0
LINE
  5
A2C
330
1E
100
AcDbEntity
  8
0
100
AcDbLine
 10
213.5
 20
117.0
 30
0.0
 11
212.5
 21
117.5
 31
0.0
  0
LINE
  5
A2D
330
1E
100
AcDbEntity
  8
0
100
AcDbLine
 10
213.5421
 20
163.217
 30
0.0
 11
209.9979999999999
 21
162.69
 31
0.0
  0
LINE
  5
A2E
330
1E
100
AcDbEntity
  8
0
100
AcDbLine
 10
214.6138050184552
 20
163.3473682708819
 30
0.0
 11
213.8618
 21
163.243
 31
0.0
  0
LINE
  5
A2F
330
1E
100
AcDbEntity
  8
0
100
AcDbLine
 10
216.2959999999999
 20
163.552
 30
0.0
 11
213.5421
 21
163.217
 31
0.0
  0
LINE
  5
A30
330
1E
100
AcDbEntity
  8
0
100
AcDbLine
 10
213.8618
 20
163.243
 30
0.0
 11
213.5421
 21
163.217
 31
0.0
  0
LINE
  5
A31
330
1E
100
AcDbEntity
  8
0
100
AcDbLine
 10
209.9979999999999
 20
162.69
 30
0.0
 11
206.0229
 21
162.212
 31
0.0
  0
LINE
  5
A32
330
1E
100
AcDbEntity
  8
0
100
AcDbLine
 10
206.5361678704916
 20
162.2737197157539
 30
0.0
 11
205.8964
 21
162.1929999999999
 31
0.0
  0
LINE
  5
A33
330
1E
100
AcDbEntity
  8
0
100
AcDbLine
 10
205.8964
 20
162.1929999999999
 30
0.0
 11
205.339959003738
 21
162.1688146073919
 31
0.0
  0
LINE
  5
A34
330
1E
100
AcDbEntity
  8
0
100
AcDbLine
 10
202.6253
 20
162.476
 30
0.0
 11
201.5292
 21
163.187
 31
0.0
  0
LINE
  5
A35
330
1E
100
AcDbEntity
  8
0
100
AcDbLine
 10
204.1252
 20
162.092
 30
0.0
 11
202.6253
 21
162.476
 31
0.0
  0
LINE
  5
A36
330
1E
100
AcDbEntity
  8
0
100
AcDbLine
 10
204.0097999999999
 20
162.1109999999999
 30
0.0
 11
203.7371189655169
 21
162.191355368519
 31
0.0
  0
LINE
  5
A37
330
1E
100
AcDbEntity
  8
0
100
AcDbLine
 10
200.8754
 20
163.9559999999999
 30
0.0
 11
200.3562
 21
165.071
 31
0.0
  0
LINE
  5
A38
330
1E
100
AcDbEntity
  8
0
100
AcDbLine
 10
201.5292
 20
163.187
 30
0.0
 11
200.8754
 21
163.9559999999999
 31
0.0
  0
LINE
  5
A39
330
1E
100
AcDbEntity
  8
0
100
AcDbLine
 10
201.433
 20
163.283
 30
0.0
 11
201.2823605258352
 21
163.477332755633
 31
0.0
  0
LINE
  5
A3A
330
1E
100
AcDbEntity
  8
0
100
AcDbLine
 10
200.3562
 20
165.071
 30
0.0
 11
200.0
 21
168.0
 31
0.0
  0
LINE
  5
A3B
330
1E
100
AcDbEntity
  8
0
100
AcDbLine
 10
238.0
 20
174.0
 30
0.0
 11
226.6999999999999
 21
174.0
 31
0.0
  0
LINE
  5
A3C
330
1E
100
AcDbEntity
  8
0
100
AcDbLine
 10
229.8
 20
173.9079999999999
 30
0.0
 11
229.0
 21
173.889
 31
0.0
  0
LINE
  5
A3D
330
1E
100
AcDbEntity
  8
0
100
AcDbLine
 10
253.8748
 20
173.9079999999999
 30
0.0
 11
251.9770999999999
 21
173.7879999999999
 31
0.0
  0
LINE
  5
A3E
330
1E
100
AcDbEntity
  8
0
100
AcDbLine
 10
256.4707999999999
 20
172.8129999999999
 30
0.0
 11
255.3746999999999
 21
173.524
 31
0.0
  0
LINE
  5
A3F
330
1E
100
AcDbEntity
  8
0
100
AcDbLine
 10
257.1245999999999
 20
172.044
 30
0.0
 11
256.5326548636509
 21
172.740246267746
 31
0.0
  0
LINE
  5
A40
330
1E
100
AcDbEntity
  8
0
100
AcDbLine
 10
257.1245999999999
 20
172.044
 30
0.0
 11
256.4707999999999
 21
172.8129999999999
 31
0.0
  0
LINE
  5
A41
330
1E
100
AcDbEntity
  8
0
100
AcDbLine
 10
256.7176394741648
 20
172.5226672443669
 30
0.0
 11
256.567
 21
172.717
 31
0.0
  0
LINE
  5
A42
330
1E
100
AcDbEntity
  8
0
100
AcDbLine
 10
257.6438
 20
170.929
 30
0.0
 11
257.1245999999999
 21
172.044
 31
0.0
  0
LINE
  5
A43
330
1E
100
AcDbEntity
  8
0
100
AcDbLine
 10
255.3746999999999
 20
173.524
 30
0.0
 11
253.9557624835388
 21
173.887272222362
 31
0.0
  0
LINE
  5
A44
330
1E
100
AcDbEntity
  8
0
100
AcDbLine
 10
255.3746999999999
 20
173.524
 30
0.0
 11
253.8748
 21
173.9079999999999
 31
0.0
  0
LINE
  5
A45
330
1E
100
AcDbEntity
  8
0
100
AcDbLine
 10
254.2628810344819
 20
173.808644631481
 30
0.0
 11
253.9902
 21
173.889
 31
0.0
  0
LINE
  5
A46
330
1E
100
AcDbEntity
  8
0
100
AcDbLine
 10
241.704
 20
172.4479999999999
 30
0.0
 11
239.4223
 21
172.1429999999999
 31
0.0
  0
LINE
  5
A47
330
1E
100
AcDbEntity
  8
0
100
AcDbLine
 10
248.002
 20
173.31
 30
0.0
 11
244.4579
 21
172.7829999999999
 31
0.0
  0
LINE
  5
A48
330
1E
100
AcDbEntity
  8
0
100
AcDbLine
 10
251.9770999999999
 20
173.7879999999999
 30
0.0
 11
248.002
 21
173.31
 31
0.0
  0
LINE
  5
A49
330
1E
100
AcDbEntity
  8
0
100
AcDbLine
 10
252.1036
 20
173.807
 30
0.0
 11
251.4638321295078
 21
173.7262802842459
 31
0.0
  0
LINE
  5
A4A
330
1E
100
AcDbEntity
  8
0
100
AcDbLine
 10
252.1036
 20
173.807
 30
0.0
 11
251.4638321295078
 21
173.7262802842459
 31
0.0
  0
LINE
  5
A4B
330
1E
100
AcDbEntity
  8
0
100
AcDbLine
 10
252.6600409962609
 20
173.831185392608
 30
0.0
 11
252.1036
 21
173.807
 31
0.0
  0
LINE
  5
A4C
330
1E
100
AcDbEntity
  8
0
100
AcDbLine
 10
244.4579
 20
172.7829999999999
 30
0.0
 11
241.704
 21
172.4479999999999
 31
0.0
  0
LINE
  5
A4D
330
1E
100
AcDbEntity
  8
0
100
AcDbLine
 10
244.4579
 20
172.7829999999999
 30
0.0
 11
244.1382
 21
172.757
 31
0.0
  0
LINE
  5
A4E
330
1E
100
AcDbEntity
  8
0
100
AcDbLine
 10
237.5
 20
172.0
 30
0.0
 11
235.0
 21
172.1429999999999
 31
0.0
  0
LINE
  5
A4F
330
1E
100
AcDbEntity
  8
0
100
AcDbLine
 10
236.4
 20
173.5
 30
0.0
 11
234.2
 21
173.5
 31
0.0
  0
LINE
  5
A50
330
1E
100
AcDbEntity
  8
0
100
AcDbLine
 10
239.5
 20
173.5
 30
0.0
 11
238.0
 21
174.0
 31
0.0
  0
LINE
  5
A51
330
1E
100
AcDbEntity
  8
0
100
AcDbLine
 10
239.4223
 20
172.1429999999999
 30
0.0
 11
237.5
 21
172.0
 31
0.0
  0
LINE
  5
A52
330
1E
100
AcDbEntity
  8
0
100
AcDbLine
 10
238.0999999999999
 20
173.5
 30
0.0
 11
236.4
 21
173.5
 31
0.0
  0
LINE
  5
A53
330
1E
100
AcDbEntity
  8
0
100
AcDbLine
 10
239.9223699672633
 20
172.2328900982099
 30
0.0
 11
239.5
 21
173.5
 31
0.0
  0
LINE
  5
A54
330
1E
100
AcDbEntity
  8
0
100
AcDbLine
 10
240.1357514115211
 20
172.2383686639409
 30
0.0
 11
238.827318044788
 21
172.098739260472
 31
0.0
  0
LINE
  5
A55
330
1E
100
AcDbEntity
  8
0
100
AcDbLine
 10
239.1
 20
173.5
 30
0.0
 11
238.0999999999999
 21
173.5
 31
0.0
  0
LINE
  5
A56
330
1E
100
AcDbEntity
  8
0
100
AcDbLine
 10
239.5
 20
173.5
 30
0.0
 11
239.1
 21
173.5
 31
0.0
  0
LINE
  5
A57
330
1E
100
AcDbEntity
  8
0
100
AcDbLine
 10
234.2
 20
173.5
 30
0.0
 11
231.6999999999999
 21
173.5
 31
0.0
  0
LINE
  5
A58
330
1E
100
AcDbEntity
  8
0
100
AcDbLine
 10
232.9902
 20
172.4479999999999
 30
0.0
 11
231.1463999999999
 21
172.7829999999999
 31
0.0
  0
LINE
  5
A59
330
1E
100
AcDbEntity
  8
0
100
AcDbLine
 10
235.0
 20
172.1429999999999
 30
0.0
 11
232.9902
 21
172.4479999999999
 31
0.0
  0
LINE
  5
A5A
330
1E
100
AcDbEntity
  8
0
100
AcDbLine
 10
231.1463999999999
 20
172.7829999999999
 30
0.0
 11
230.3751856100163
 21
173.17140785887
 31
0.0
  0
LINE
  5
A5B
330
1E
100
AcDbEntity
  8
0
100
AcDbLine
 10
231.6999999999999
 20
173.5
 30
0.0
 11
230.2088176352704
 21
173.5
 31
0.0
  0
LINE
  5
A5C
330
1E
100
AcDbEntity
  8
0
100
AcDbLine
 10
230.8
 20
170.949
 30
0.0
 11
230.3
 21
173.409
 31
0.0
  0
LINE
  5
A5D
330
1E
100
AcDbEntity
  8
0
100
AcDbLine
 10
229.8
 20
173.9079999999999
 30
0.0
 11
229.8
 21
173.524
 31
0.0
  0
LINE
  5
A5E
330
1E
100
AcDbEntity
  8
0
100
AcDbLine
 10
229.8
 20
173.524
 30
0.0
 11
229.8
 21
172.8129999999999
 31
0.0
  0
LINE
  5
A5F
330
1E
100
AcDbEntity
  8
0
100
AcDbLine
 10
229.8
 20
173.524
 30
0.0
 11
229.8
 21
173.9079999999999
 31
0.0
  0
LINE
  5
A60
330
1E
100
AcDbEntity
  8
0
100
AcDbLine
 10
229.8
 20
170.929
 30
0.0
 11
229.8
 21
172.044
 31
0.0
  0
LINE
  5
A61
330
1E
100
AcDbEntity
  8
0
100
AcDbLine
 10
229.8
 20
172.044
 30
0.0
 11
229.8
 21
170.929
 31
0.0
  0
LINE
  5
A62
330
1E
100
AcDbEntity
  8
0
100
AcDbLine
 10
229.8
 20
172.044
 30
0.0
 11
229.8
 21
172.8129999999999
 31
0.0
  0
LINE
  5
A63
330
1E
100
AcDbEntity
  8
0
100
AcDbLine
 10
229.8
 20
172.8129999999999
 30
0.0
 11
229.8
 21
172.044
 31
0.0
  0
LINE
  5
A64
330
1E
100
AcDbEntity
  8
0
100
AcDbLine
 10
229.8
 20
172.8129999999999
 30
0.0
 11
229.8
 21
173.524
 31
0.0
  0
LINE
  5
A65
330
1E
100
AcDbEntity
  8
0
100
AcDbLine
 10
230.3
 20
173.409
 30
0.0
 11
229.8
 21
173.9079999999999
 31
0.0
  0
LINE
  5
A66
330
1E
100
AcDbEntity
  8
0
100
AcDbLine
 10
206.0229
 20
173.7879999999999
 30
0.0
 11
204.1252
 21
173.9079999999999
 31
0.0
  0
LINE
  5
A67
330
1E
100
AcDbEntity
  8
0
100
AcDbLine
 10
218.5776999999999
 20
172.1429999999999
 30
0.0
 11
216.2959999999999
 21
172.4479999999999
 31
0.0
  0
LINE
  5
A68
330
1E
100
AcDbEntity
  8
0
100
AcDbLine
 10
224.5
 20
174.0
 30
0.0
 11
222.5999999999999
 21
174.0
 31
0.0
  0
LINE
  5
A69
330
1E
100
AcDbEntity
  8
0
100
AcDbLine
 10
223.7999999999999
 20
173.5
 30
0.0
 11
221.6
 21
173.5
 31
0.0
  0
LINE
  5
A6A
330
1E
100
AcDbEntity
  8
0
100
AcDbLine
 10
223.0
 20
172.1429999999999
 30
0.0
 11
220.5
 21
172.0
 31
0.0
  0
LINE
  5
A6B
330
1E
100
AcDbEntity
  8
0
100
AcDbLine
 10
226.8536
 20
172.7829999999999
 30
0.0
 11
225.0097999999999
 21
172.4479999999999
 31
0.0
  0
LINE
  5
A6C
330
1E
100
AcDbEntity
  8
0
100
AcDbLine
 10
226.6999999999999
 20
174.0
 30
0.0
 11
224.5
 21
174.0
 31
0.0
  0
LINE
  5
A6D
330
1E
100
AcDbEntity
  8
0
100
AcDbLine
 10
226.3
 20
173.5
 30
0.0
 11
223.7999999999999
 21
173.5
 31
0.0
  0
LINE
  5
A6E
330
1E
100
AcDbEntity
  8
0
100
AcDbLine
 10
227.7
 20
173.409
 30
0.0
 11
227.1999999999999
 21
170.949
 31
0.0
  0
LINE
  5
A6F
330
1E
100
AcDbEntity
  8
0
100
AcDbLine
 10
227.7911823647293
 20
173.5
 30
0.0
 11
226.3
 21
173.5
 31
0.0
  0
LINE
  5
A70
330
1E
100
AcDbEntity
  8
0
100
AcDbLine
 10
227.6248143899836
 20
173.17140785887
 30
0.0
 11
226.8536
 21
172.7829999999999
 31
0.0
  0
LINE
  5
A71
330
1E
100
AcDbEntity
  8
0
100
AcDbLine
 10
228.2
 20
173.9079999999999
 30
0.0
 11
227.7
 21
173.409
 31
0.0
  0
LINE
  5
A72
330
1E
100
AcDbEntity
  8
0
100
AcDbLine
 10
228.2
 20
173.9079999999999
 30
0.0
 11
228.2
 21
173.524
 31
0.0
  0
LINE
  5
A73
330
1E
100
AcDbEntity
  8
0
100
AcDbLine
 10
229.0
 20
173.889
 30
0.0
 11
228.2
 21
173.9079999999999
 31
0.0
  0
LINE
  5
A74
330
1E
100
AcDbEntity
  8
0
100
AcDbLine
 10
228.2
 20
173.524
 30
0.0
 11
228.2
 21
173.9079999999999
 31
0.0
  0
LINE
  5
A75
330
1E
100
AcDbEntity
  8
0
100
AcDbLine
 10
228.2
 20
173.524
 30
0.0
 11
228.2
 21
172.8129999999999
 31
0.0
  0
LINE
  5
A76
330
1E
100
AcDbEntity
  8
0
100
AcDbLine
 10
228.2
 20
172.8129999999999
 30
0.0
 11
228.2
 21
173.524
 31
0.0
  0
LINE
  5
A77
330
1E
100
AcDbEntity
  8
0
100
AcDbLine
 10
228.2
 20
172.8129999999999
 30
0.0
 11
228.2
 21
172.044
 31
0.0
  0
LINE
  5
A78
330
1E
100
AcDbEntity
  8
0
100
AcDbLine
 10
228.2
 20
170.929
 30
0.0
 11
228.2
 21
172.044
 31
0.0
  0
LINE
  5
A79
330
1E
100
AcDbEntity
  8
0
100
AcDbLine
 10
228.2
 20
172.044
 30
0.0
 11
228.2
 21
172.8129999999999
 31
0.0
  0
LINE
  5
A7A
330
1E
100
AcDbEntity
  8
0
100
AcDbLine
 10
228.2
 20
172.044
 30
0.0
 11
228.2
 21
170.929
 31
0.0
  0
LINE
  5
A7B
330
1E
100
AcDbEntity
  8
0
100
AcDbLine
 10
225.0097999999999
 20
172.4479999999999
 30
0.0
 11
223.0
 21
172.1429999999999
 31
0.0
  0
LINE
  5
A7C
330
1E
100
AcDbEntity
  8
0
100
AcDbLine
 10
221.6
 20
173.5
 30
0.0
 11
219.9
 21
173.5
 31
0.0
  0
LINE
  5
A7D
330
1E
100
AcDbEntity
  8
0
100
AcDbLine
 10
220.0
 20
174.0
 30
0.0
 11
218.5
 21
173.5
 31
0.0
  0
LINE
  5
A7E
330
1E
100
AcDbEntity
  8
0
100
AcDbLine
 10
220.5
 20
172.0
 30
0.0
 11
218.5776999999999
 21
172.1429999999999
 31
0.0
  0
LINE
  5
A7F
330
1E
100
AcDbEntity
  8
0
100
AcDbLine
 10
222.5999999999999
 20
174.0
 30
0.0
 11
221.1999999999999
 21
174.0
 31
0.0
  0
LINE
  5
A80
330
1E
100
AcDbEntity
  8
0
100
AcDbLine
 10
220.3
 20
174.0
 30
0.0
 11
220.0
 21
174.0
 31
0.0
  0
LINE
  5
A81
330
1E
100
AcDbEntity
  8
0
100
AcDbLine
 10
221.1999999999999
 20
174.0
 30
0.0
 11
220.3
 21
174.0
 31
0.0
  0
LINE
  5
A82
330
1E
100
AcDbEntity
  8
0
100
AcDbLine
 10
218.5
 20
173.5
 30
0.0
 11
218.0776300327366
 21
172.2328900982099
 31
0.0
  0
LINE
  5
A83
330
1E
100
AcDbEntity
  8
0
100
AcDbLine
 10
219.172681955212
 20
172.098739260472
 30
0.0
 11
217.8642485884789
 21
172.2383686639409
 31
0.0
  0
LINE
  5
A84
330
1E
100
AcDbEntity
  8
0
100
AcDbLine
 10
218.9
 20
173.5
 30
0.0
 11
218.5
 21
173.5
 31
0.0
  0
LINE
  5
A85
330
1E
100
AcDbEntity
  8
0
100
AcDbLine
 10
219.9
 20
173.5
 30
0.0
 11
218.9
 21
173.5
 31
0.0
  0
LINE
  5
A86
330
1E
100
AcDbEntity
  8
0
100
AcDbLine
 10
213.5421
 20
172.7829999999999
 30
0.0
 11
209.9979999999999
 21
173.31
 31
0.0
  0
LINE
  5
A87
330
1E
100
AcDbEntity
  8
0
100
AcDbLine
 10
216.2959999999999
 20
172.4479999999999
 30
0.0
 11
213.5421
 21
172.7829999999999
 31
0.0
  0
LINE
  5
A88
330
1E
100
AcDbEntity
  8
0
100
AcDbLine
 10
213.8618
 20
172.757
 30
0.0
 11
213.5421
 21
172.7829999999999
 31
0.0
  0
LINE
  5
A89
330
1E
100
AcDbEntity
  8
0
100
AcDbLine
 10
209.9979999999999
 20
173.31
 30
0.0
 11
206.0229
 21
173.7879999999999
 31
0.0
  0
LINE
  5
A8A
330
1E
100
AcDbEntity
  8
0
100
AcDbLine
 10
206.5361678704921
 20
173.7262802842459
 30
0.0
 11
205.8964
 21
173.807
 31
0.0
  0
LINE
  5
A8B
330
1E
100
AcDbEntity
  8
0
100
AcDbLine
 10
206.0229
 20
173.7879999999999
 30
0.0
 11
205.339959003739
 21
173.831185392608
 31
0.0
  0
LINE
  5
A8C
330
1E
100
AcDbEntity
  8
0
100
AcDbLine
 10
205.8964
 20
173.807
 30
0.0
 11
205.339959003739
 21
173.831185392608
 31
0.0
  0
LINE
  5
A8D
330
1E
100
AcDbEntity
  8
0
100
AcDbLine
 10
202.6253
 20
173.524
 30
0.0
 11
201.5292
 21
172.8129999999999
 31
0.0
  0
LINE
  5
A8E
330
1E
100
AcDbEntity
  8
0
100
AcDbLine
 10
204.1252
 20
173.9079999999999
 30
0.0
 11
202.6253
 21
173.524
 31
0.0
  0
LINE
  5
A8F
330
1E
100
AcDbEntity
  8
0
100
AcDbLine
 10
204.0097999999999
 20
173.889
 30
0.0
 11
203.7371189655179
 21
173.808644631481
 31
0.0
  0
LINE
  5
A90
330
1E
100
AcDbEntity
  8
0
100
AcDbLine
 10
204.0450087510687
 20
173.8874696715849
 30
0.0
 11
203.7371189655179
 21
173.808644631481
 31
0.0
  0
LINE
  5
A91
330
1E
100
AcDbEntity
  8
0
100
AcDbLine
 10
200.8754
 20
172.044
 30
0.0
 11
200.3562
 21
170.929
 31
0.0
  0
LINE
  5
A92
330
1E
100
AcDbEntity
  8
0
100
AcDbLine
 10
201.5292
 20
172.8129999999999
 30
0.0
 11
200.8754
 21
172.044
 31
0.0
  0
LINE
  5
A93
330
1E
100
AcDbEntity
  8
0
100
AcDbLine
 10
201.433
 20
172.717
 30
0.0
 11
201.2823605258351
 21
172.5226672443669
 31
0.0
  0
ENDSEC
  0
SECTION
  2
OBJECTS
  0
DICTIONARY
  5
C
330
0
100
AcDbDictionary
281
     1
  3
ACAD_GROUP
350
D
  3
ACAD_LAYOUT
350
19
  3
ACAD_MLINESTYLE
350
16
  3
ACAD_PLOTSETTINGS
350
18
  3
ACAD_PLOTSTYLENAME
350
E
  3
AcDbVariableDictionary
350
A94
  0
DICTIONARY
  5
D
102
{ACAD_REACTORS
330
C
102
}
330
C
100
AcDbDictionary
281
     1
  0
DICTIONARY
  5
19
102
{ACAD_REACTORS
330
C
102
}
330
C
100
AcDbDictionary
281
     1
  3
Layout1
350
1D
  3
Model
350
21
  0
DICTIONARY
  5
16
102
{ACAD_REACTORS
330
C
102
}
330
C
100
AcDbDictionary
281
     1
  3
Standard
350
17
  0
DICTIONARY
  5
18
102
{ACAD_REACTORS
330
C
102
}
330
C
100
AcDbDictionary
281
     1
  0
ACDBDICTIONARYWDFLT
  5
E
102
{ACAD_REACTORS
330
C
102
}
330
C
100
AcDbDictionary
281
     1
  3
Normal
350
F
100
AcDbDictionaryWithDefault
340
F
  0
DICTIONARY
  5
A94
102
{ACAD_REACTORS
330
C
102
}
330
C
100
AcDbDictionary
281
     1
  3
DIMASSOC
350
A95
  0
LAYOUT
  5
1D
102
{ACAD_REACTORS
330
19
102
}
330
19
100
AcDbPlotSettings
  1

  2
hp deskjet 980c series
  4

  6

 40
0.0
 41
0.0
 42
0.0
 43
0.0
 44
0.0
 45
0.0
 46
0.0
 47
0.0
 48
0.0
 49
0.0
140
0.0
141
0.0
142
1.0
143
1.0
 70
   688
 72
     0
 73
     0
 74
     5
  7

 75
    16
147
1.0
148
0.0
149
0.0
100
AcDbLayout
  1
Layout1
 70
     1
 71
     1
 10
0.0
 20
0.0
 11
12.0
 21
9.0
 12
0.0
 22
0.0
 32
0.0
 14
1.000000000000000E+20
 24
1.000000000000000E+20
 34
1.000000000000000E+20
 15
-1.000000000000000E+20
 25
-1.000000000000000E+20
 35
-1.000000000000000E+20
146
0.0
 13
0.0
 23
0.0
 33
0.0
 16
1.0
 26
0.0
 36
0.0
 17
0.0
 27
1.0
 37
0.0
 76
     0
330
1A
  0
LAYOUT
  5
21
102
{ACAD_REACTORS
330
19
102
}
330
19
100
AcDbPlotSettings
  1

  2
hp deskjet 980c series
  4

  6

 40
0.0
 41
0.0
 42
0.0
 43
0.0
 44
0.0
 45
0.0
 46
0.0
 47
0.0
 48
0.0
 49
0.0
140
0.0
141
0.0
142
1.0
143
1.0
 70
  1712
 72
     0
 73
     0
 74
     0
  7

 75
     0
147
1.0
148
0.0
149
0.0
100
AcDbLayout
  1
Model
 70
     1
 71
     0
 10
0.0
 20
0.0
 11
12.0
 21
9.0
 12
0.0
 22
0.0
 32
0.0
 14
0.0
 24
0.0
 34
0.0
 15
0.0
 25
0.0
 35
0.0
146
0.0
 13
0.0
 23
0.0
 33
0.0
 16
1.0
 26
0.0
 36
0.0
 17
0.0
 27
1.0
 37
0.0
 76
     0
330
1E
  0
MLINESTYLE
  5
17
102
{ACAD_REACTORS
330
16
102
}
330
16
100
AcDbMlineStyle
  2
STANDARD
 70
     0
  3

 62
   256
 51
90.0
 52
90.0
 71
     2
 49
0.5
 62
   256
  6
BYLAYER
 49
-0.5
 62
   256
  6
BYLAYER
  0
ACDBPLACEHOLDER
  5
F
102
{ACAD_REACTORS
330
E
102
}
330
E
  0
DICTIONARYVAR
  5
A95
102
{ACAD_REACTORS
330
A94
102
}
330
A94
100
DictionaryVariables
280
     0
  1
1
  0
ENDSEC
  0
EOF
