  0
SECTION
  2
HEADER
  9
$ACADVER
  1
AC1015
  9
$ACADMAINTVER
 70
    13
  9
$DWGCODEPAGE
  3
ANSI_1252
  9
$INSBASE
 10
0.0
 20
0.0
 30
0.0
  9
$EXTMIN
 10
-0.120835000000003
 20
-0.0000000000000219
 30
0.0
  9
$EXTMAX
 10
187.120835
 20
323.0
 30
0.0
  9
$LIMMIN
 10
0.0
 20
0.0
  9
$LIMMAX
 10
12.0
 20
9.0
  9
$ORTHOMODE
 70
     0
  9
$REGENMODE
 70
     1
  9
$FILLMODE
 70
     1
  9
$QTEXTMODE
 70
     0
  9
$MIRRTEXT
 70
     1
  9
$LTSCALE
 40
1.0
  9
$ATTMODE
 70
     1
  9
$TEXTSIZE
 40
0.2
  9
$TRACEWID
 40
0.05
  9
$TEXTSTYLE
  7
Standard
  9
$CLAYER
  8
0
  9
$CELTYPE
  6
Continuous
  9
$CECOLOR
 62
   256
  9
$CELTSCALE
 40
1.0
  9
$DISPSILH
 70
     0
  9
$DIMSCALE
 40
1.0
  9
$DIMASZ
 40
0.18
  9
$DIMEXO
 40
0.0625
  9
$DIMDLI
 40
0.38
  9
$DIMRND
 40
0.0
  9
$DIMDLE
 40
0.0
  9
$DIMEXE
 40
0.18
  9
$DIMTP
 40
0.0
  9
$DIMTM
 40
0.0
  9
$DIMTXT
 40
0.18
  9
$DIMCEN
 40
0.09
  9
$DIMTSZ
 40
0.0
  9
$DIMTOL
 70
     0
  9
$DIMLIM
 70
     0
  9
$DIMTIH
 70
     1
  9
$DIMTOH
 70
     1
  9
$DIMSE1
 70
     0
  9
$DIMSE2
 70
     0
  9
$DIMTAD
 70
     0
  9
$DIMZIN
 70
     0
  9
$DIMBLK
  1

  9
$DIMASO
 70
     1
  9
$DIMSHO
 70
     1
  9
$DIMPOST
  1

  9
$DIMAPOST
  1

  9
$DIMALT
 70
     0
  9
$DIMALTD
 70
     2
  9
$DIMALTF
 40
25.4
  9
$DIMLFAC
 40
1.0
  9
$DIMTOFL
 70
     0
  9
$DIMTVP
 40
0.0
  9
$DIMTIX
 70
     0
  9
$DIMSOXD
 70
     0
  9
$DIMSAH
 70
     0
  9
$DIMBLK1
  1

  9
$DIMBLK2
  1

  9
$DIMSTYLE
  2
Standard
  9
$DIMCLRD
 70
     0
  9
$DIMCLRE
 70
     0
  9
$DIMCLRT
 70
     0
  9
$DIMTFAC
 40
1.0
  9
$DIMGAP
 40
0.09
  9
$DIMJUST
 70
     0
  9
$DIMSD1
 70
     0
  9
$DIMSD2
 70
     0
  9
$DIMTOLJ
 70
     1
  9
$DIMTZIN
 70
     0
  9
$DIMALTZ
 70
     0
  9
$DIMALTTZ
 70
     0
  9
$DIMUPT
 70
     0
  9
$DIMDEC
 70
     4
  9
$DIMTDEC
 70
     4
  9
$DIMALTU
 70
     2
  9
$DIMALTTD
 70
     2
  9
$DIMTXSTY
  7
Standard
  9
$DIMAUNIT
 70
     0
  9
$DIMADEC
 70
     0
  9
$DIMALTRND
 40
0.0
  9
$DIMAZIN
 70
     0
  9
$DIMDSEP
 70
    46
  9
$DIMATFIT
 70
     3
  9
$DIMFRAC
 70
     0
  9
$DIMLDRBLK
  1

  9
$DIMLUNIT
 70
     2
  9
$DIMLWD
 70
    -2
  9
$DIMLWE
 70
    -2
  9
$DIMTMOVE
 70
     0
  9
$LUNITS
 70
     2
  9
$LUPREC
 70
     4
  9
$SKETCHINC
 40
0.1
  9
$FILLETRAD
 40
0.0
  9
$AUNITS
 70
     0
  9
$AUPREC
 70
     0
  9
$MENU
  1
.
  9
$ELEVATION
 40
0.0
  9
$PELEVATION
 40
0.0
  9
$THICKNESS
 40
0.0
  9
$LIMCHECK
 70
     0
  9
$CHAMFERA
 40
0.0
  9
$CHAMFERB
 40
0.0
  9
$CHAMFERC
 40
0.0
  9
$CHAMFERD
 40
0.0
  9
$SKPOLY
 70
     0
  9
$TDCREATE
 40
2454748.464245104
  9
$TDUCREATE
 40
2454748.380911770
  9
$TDUPDATE
 40
2454748.472562696
  9
$TDUUPDATE
 40
2454748.389229363
  9
$TDINDWG
 40
0.0051386921
  9
$TDUSRTIMER
 40
0.0051386921
  9
$USRTIMER
 70
     1
  9
$ANGBASE
 50
0.0
  9
$ANGDIR
 70
     0
  9
$PDMODE
 70
     0
  9
$PDSIZE
 40
0.0
  9
$PLINEWID
 40
0.0
  9
$SPLFRAME
 70
     0
  9
$SPLINETYPE
 70
     6
  9
$SPLINESEGS
 70
     8
  9
$HANDSEED
  5
4CB
  9
$SURFTAB1
 70
     6
  9
$SURFTAB2
 70
     6
  9
$SURFTYPE
 70
     6
  9
$SURFU
 70
     6
  9
$SURFV
 70
     6
  9
$UCSBASE
  2

  9
$UCSNAME
  2

  9
$UCSORG
 10
0.0
 20
0.0
 30
0.0
  9
$UCSXDIR
 10
1.0
 20
0.0
 30
0.0
  9
$UCSYDIR
 10
0.0
 20
1.0
 30
0.0
  9
$UCSORTHOREF
  2

  9
$UCSORTHOVIEW
 70
     1
  9
$UCSORGTOP
 10
0.0
 20
0.0
 30
0.0
  9
$UCSORGBOTTOM
 10
0.0
 20
0.0
 30
0.0
  9
$UCSORGLEFT
 10
0.0
 20
0.0
 30
0.0
  9
$UCSORGRIGHT
 10
0.0
 20
0.0
 30
0.0
  9
$UCSORGFRONT
 10
0.0
 20
0.0
 30
0.0
  9
$UCSORGBACK
 10
0.0
 20
0.0
 30
0.0
  9
$PUCSBASE
  2

  9
$PUCSNAME
  2

  9
$PUCSORG
 10
0.0
 20
0.0
 30
0.0
  9
$PUCSXDIR
 10
1.0
 20
0.0
 30
0.0
  9
$PUCSYDIR
 10
0.0
 20
1.0
 30
0.0
  9
$PUCSORTHOREF
  2

  9
$PUCSORTHOVIEW
 70
     0
  9
$PUCSORGTOP
 10
0.0
 20
0.0
 30
0.0
  9
$PUCSORGBOTTOM
 10
0.0
 20
0.0
 30
0.0
  9
$PUCSORGLEFT
 10
0.0
 20
0.0
 30
0.0
  9
$PUCSORGRIGHT
 10
0.0
 20
0.0
 30
0.0
  9
$PUCSORGFRONT
 10
0.0
 20
0.0
 30
0.0
  9
$PUCSORGBACK
 10
0.0
 20
0.0
 30
0.0
  9
$USERI1
 70
     0
  9
$USERI2
 70
     0
  9
$USERI3
 70
     0
  9
$USERI4
 70
     0
  9
$USERI5
 70
     0
  9
$USERR1
 40
0.0
  9
$USERR2
 40
0.0
  9
$USERR3
 40
0.0
  9
$USERR4
 40
0.0
  9
$USERR5
 40
0.0
  9
$WORLDVIEW
 70
     1
  9
$SHADEDGE
 70
     3
  9
$SHADEDIF
 70
    70
  9
$TILEMODE
 70
     1
  9
$MAXACTVP
 70
    64
  9
$PINSBASE
 10
0.0
 20
0.0
 30
0.0
  9
$PLIMCHECK
 70
     0
  9
$PEXTMIN
 10
1.000000000000000E+20
 20
1.000000000000000E+20
 30
1.000000000000000E+20
  9
$PEXTMAX
 10
-1.000000000000000E+20
 20
-1.000000000000000E+20
 30
-1.000000000000000E+20
  9
$PLIMMIN
 10
0.0
 20
0.0
  9
$PLIMMAX
 10
12.0
 20
9.0
  9
$UNITMODE
 70
     0
  9
$VISRETAIN
 70
     1
  9
$PLINEGEN
 70
     0
  9
$PSLTSCALE
 70
     1
  9
$TREEDEPTH
 70
  3020
  9
$CMLSTYLE
  2
Standard
  9
$CMLJUST
 70
     0
  9
$CMLSCALE
 40
1.0
  9
$PROXYGRAPHICS
 70
     1
  9
$MEASUREMENT
 70
     0
  9
$CELWEIGHT
370
    -1
  9
$ENDCAPS
280
     0
  9
$JOINSTYLE
280
     0
  9
$LWDISPLAY
290
     0
  9
$INSUNITS
 70
     0
  9
$HYPERLINKBASE
  1

  9
$STYLESHEET
  1

  9
$XEDIT
290
     1
  9
$CEPSNTYPE
380
     0
  9
$PSTYLEMODE
290
     1
  9
$FINGERPRINTGUID
  2
{266EDEE9-334B-438B-B567-B764D72EB087}
  9
$VERSIONGUID
  2
{932377A3-71B5-406D-923E-53EA9F74F8C2}
  9
$EXTNAMES
290
     1
  9
$PSVPSCALE
 40
0.0
  9
$OLESTARTUP
290
     0
  0
ENDSEC
  0
SECTION
  2
CLASSES
  0
CLASS
  1
ACDBDICTIONARYWDFLT
  2
AcDbDictionaryWithDefault
  3
AutoCAD 2000
 90
        0
280
     0
281
     0
  0
CLASS
  1
ACDBPLACEHOLDER
  2
AcDbPlaceHolder
  3
AutoCAD 2000
 90
        0
280
     0
281
     0
  0
CLASS
  1
LAYOUT
  2
AcDbLayout
  3
AutoCAD 2000
 90
        0
280
     0
281
     0
  0
CLASS
  1
DICTIONARYVAR
  2
AcDbDictionaryVar
  3
AutoCAD 2000
 90
        0
280
     0
281
     0
  0
ENDSEC
  0
SECTION
  2
TABLES
  0
TABLE
  2
VPORT
  5
8
330
0
100
AcDbSymbolTable
 70
     3
  0
VPORT
  5
4CA
330
8
100
AcDbSymbolTableRecord
100
AcDbViewportTableRecord
  2
*Active
 70
     0
 10
0.0
 20
0.0
 11
1.0
 21
1.0
 12
93.49999999999999
 22
161.4999999999999
 13
0.0
 23
0.0
 14
1.0
 24
1.0
 15
0.0
 25
0.0
 16
0.0
 26
0.0
 36
1.0
 17
0.0
 27
0.0
 37
0.0
 40
325.4782608695652
 41
2.078104993597951
 42
50.0
 43
0.0
 44
0.0
 50
0.0
 51
0.0
 71
     0
 72
   100
 73
     1
 74
     3
 75
     0
 76
     0
 77
     0
 78
     0
281
     0
 65
     1
110
0.0
120
0.0
130
0.0
111
1.0
121
0.0
131
0.0
112
0.0
122
1.0
132
0.0
 79
     1
146
0.0
  0
ENDTAB
  0
TABLE
  2
LTYPE
  5
5
330
0
100
AcDbSymbolTable
 70
     1
  0
LTYPE
  5
13
330
5
100
AcDbSymbolTableRecord
100
AcDbLinetypeTableRecord
  2
ByBlock
 70
     0
  3

 72
    65
 73
     0
 40
0.0
  0
LTYPE
  5
14
330
5
100
AcDbSymbolTableRecord
100
AcDbLinetypeTableRecord
  2
ByLayer
 70
     0
  3

 72
    65
 73
     0
 40
0.0
  0
LTYPE
  5
15
330
5
100
AcDbSymbolTableRecord
100
AcDbLinetypeTableRecord
  2
Continuous
 70
     0
  3
Solid line
 72
    65
 73
     0
 40
0.0
  0
ENDTAB
  0
TABLE
  2
LAYER
  5
2
330
0
100
AcDbSymbolTable
 70
     1
  0
LAYER
  5
10
330
2
100
AcDbSymbolTableRecord
100
AcDbLayerTableRecord
  2
0
 70
     0
 62
     7
  6
Continuous
370
    -3
390
F
  0
ENDTAB
  0
TABLE
  2
STYLE
  5
3
330
0
100
AcDbSymbolTable
 70
     1
  0
STYLE
  5
11
330
3
100
AcDbSymbolTableRecord
100
AcDbTextStyleTableRecord
  2
Standard
 70
     0
 40
0.0
 41
1.0
 50
0.0
 71
     0
 42
0.2
  3
txt
  4

  0
ENDTAB
  0
TABLE
  2
VIEW
  5
6
330
0
100
AcDbSymbolTable
 70
     0
  0
ENDTAB
  0
TABLE
  2
UCS
  5
7
330
0
100
AcDbSymbolTable
 70
     0
  0
ENDTAB
  0
TABLE
  2
APPID
  5
9
330
0
100
AcDbSymbolTable
 70
     1
  0
APPID
  5
12
330
9
100
AcDbSymbolTableRecord
100
AcDbRegAppTableRecord
  2
ACAD
 70
     0
  0
ENDTAB
  0
TABLE
  2
DIMSTYLE
  5
A
330
0
100
AcDbSymbolTable
 70
     1
100
AcDbDimStyleTable
 71
     0
  0
DIMSTYLE
105
4BD
330
A
100
AcDbSymbolTableRecord
100
AcDbDimStyleTableRecord
  2
Standard
 70
     0
340
11
  0
ENDTAB
  0
TABLE
  2
BLOCK_RECORD
  5
1
330
0
100
AcDbSymbolTable
 70
     0
  0
BLOCK_RECORD
  5
1E
330
1
100
AcDbSymbolTableRecord
100
AcDbBlockTableRecord
  2
*Model_Space
340
21
  0
BLOCK_RECORD
  5
1A
330
1
100
AcDbSymbolTableRecord
100
AcDbBlockTableRecord
  2
*Paper_Space
340
1D
  0
ENDTAB
  0
ENDSEC
  0
SECTION
  2
BLOCKS
  0
BLOCK
  5
1F
330
1E
100
AcDbEntity
  8
0
100
AcDbBlockBegin
  2
*Model_Space
 70
     0
 10
0.0
 20
0.0
 30
0.0
  3
*Model_Space
  1

  0
ENDBLK
  5
20
330
1E
100
AcDbEntity
  8
0
100
AcDbBlockEnd
  0
BLOCK
  5
1B
330
1A
100
AcDbEntity
 67
     1
  8
0
100
AcDbBlockBegin
  2
*Paper_Space
 70
     0
 10
0.0
 20
0.0
 30
0.0
  3
*Paper_Space
  1

  0
ENDBLK
  5
1C
330
1A
100
AcDbEntity
 67
     1
  8
0
100
AcDbBlockEnd
  0
ENDSEC
  0
SECTION
  2
ENTITIES
  0
LINE
  5
22
330
1E
100
AcDbEntity
  8
0
100
AcDbLine
 10
49.96603499999999
 20
57.48969999999999
 30
0.0
 11
50.310135
 21
57.9812
 31
0.0
  0
LINE
  5
23
330
1E
100
AcDbEntity
  8
0
100
AcDbLine
 10
49.96603499999999
 20
57.48969999999999
 30
0.0
 11
51.481535
 21
57.0389
 31
0.0
  0
LINE
  5
24
330
1E
100
AcDbEntity
  8
0
100
AcDbLine
 10
51.825635
 20
57.5304
 30
0.0
 11
52.743435
 21
58.841
 31
0.0
  0
LINE
  5
25
330
1E
100
AcDbEntity
  8
0
100
AcDbLine
 10
51.481535
 20
57.0389
 30
0.0
 11
51.825635
 21
57.5304
 31
0.0
  0
LINE
  5
26
330
1E
100
AcDbEntity
  8
0
100
AcDbLine
 10
51.481535
 20
57.0389
 30
0.0
 11
52.46463499999999
 21
57.5713
 31
0.0
  0
LINE
  5
27
330
1E
100
AcDbEntity
  8
0
100
AcDbLine
 10
44.27313499999999
 20
63.307
 30
0.0
 11
46.40842537268371
 21
66.35651449277199
 31
0.0
  0
LINE
  5
28
330
1E
100
AcDbEntity
  8
0
100
AcDbLine
 10
44.27313499999999
 20
63.307
 30
0.0
 11
49.188035
 21
59.8656
 31
0.0
  0
LINE
  5
29
330
1E
100
AcDbEntity
  8
0
100
AcDbLine
 10
44.27313499999999
 20
63.307
 30
0.0
 11
46.658435
 21
66.7135
 31
0.0
  0
LINE
  5
2A
330
1E
100
AcDbEntity
  8
0
100
AcDbLine
 10
46.658435
 20
66.7135
 30
0.0
 11
51.573335
 21
63.272
 31
0.0
  0
LINE
  5
2B
330
1E
100
AcDbEntity
  8
0
100
AcDbLine
 10
46.658435
 20
66.7135
 30
0.0
 11
55.54883499999998
 21
79.41030000000002
 31
0.0
  0
LINE
  5
2C
330
1E
100
AcDbEntity
  8
0
100
AcDbLine
 10
48.288235
 20
69.0411
 30
0.0
 11
49.72213499999998
 21
71.089
 31
0.0
  0
LINE
  5
2D
330
1E
100
AcDbEntity
  8
0
100
AcDbLine
 10
47.19843499999998
 20
67.48470000000001
 30
0.0
 11
48.288235
 21
69.0411
 31
0.0
  0
LINE
  5
2E
330
1E
100
AcDbEntity
  8
0
100
AcDbLine
 10
47.1431339961141
 20
67.40572152140069
 30
0.0
 11
47.19843499999998
 21
67.48470000000001
 31
0.0
  0
LINE
  5
2F
330
1E
100
AcDbEntity
  8
0
100
AcDbLine
 10
46.28063499999998
 20
66.17409999999999
 30
0.0
 11
46.4960266237979
 21
66.4815609845586
 31
0.0
  0
LINE
  5
30
330
1E
100
AcDbEntity
  8
0
100
AcDbLine
 10
35.63173499999999
 20
73.6306
 30
0.0
 11
35.86113499999999
 21
73.9582
 31
0.0
  0
LINE
  5
31
330
1E
100
AcDbEntity
  8
0
100
AcDbLine
 10
35.63173499999999
 20
73.6306
 30
0.0
 11
36.328035
 21
73.75329999999998
 31
0.0
  0
LINE
  5
32
330
1E
100
AcDbEntity
  8
0
100
AcDbLine
 10
7.764335
 20
74.25709999999998
 30
0.0
 11
8.975435
 21
74.74720000000002
 31
0.0
  0
LINE
  5
33
330
1E
100
AcDbEntity
  8
0
100
AcDbLine
 10
7.38597850446025
 20
74.2215231951955
 30
0.0
 11
7.630535
 21
74.2334
 31
0.0
  0
LINE
  5
34
330
1E
100
AcDbEntity
  8
0
100
AcDbLine
 10
6.759335
 20
74.1626
 30
0.0
 11
7.764335
 21
74.25709999999998
 31
0.0
  0
LINE
  5
35
330
1E
100
AcDbEntity
  8
0
100
AcDbLine
 10
5.548235
 20
74.3769
 30
0.0
 11
6.759335
 21
74.1626
 31
0.0
  0
LINE
  5
39
330
1E
100
AcDbEntity
  8
0
100
AcDbLine
 10
8.975435
 20
74.74720000000002
 30
0.0
 11
10.150335
 21
75.7556
 31
0.0
  0
LINE
  5
3A
330
1E
100
AcDbEntity
  8
0
100
AcDbLine
 10
11.083535
 20
77.2644
 30
0.0
 11
11.38296357915689
 21
77.83212487600909
 31
0.0
  0
LINE
  5
3B
330
1E
100
AcDbEntity
  8
0
100
AcDbLine
 10
10.7848610740031
 20
76.7958203352144
 30
0.0
 11
11.083535
 21
77.2644
 31
0.0
  0
LINE
  5
3C
330
1E
100
AcDbEntity
  8
0
100
AcDbLine
 10
10.7848610740031
 20
76.7958203352144
 30
0.0
 11
11.140535
 21
77.3789
 31
0.0
  0
LINE
  5
3D
330
1E
100
AcDbEntity
  8
0
100
AcDbLine
 10
10.150335
 20
75.7556
 30
0.0
 11
11.140535
 21
77.3789
 31
0.0
  0
LINE
  5
3E
330
1E
100
AcDbEntity
  8
0
100
AcDbLine
 10
9.84721601086106
 20
75.49543727240809
 30
0.0
 11
10.068535
 21
75.67199999999998
 31
0.0
  0
LINE
  5
3F
330
1E
100
AcDbEntity
  8
0
100
AcDbLine
 10
2.944634999999999
 20
75.7651
 30
0.0
 11
5.548235
 21
74.3769
 31
0.0
  0
LINE
  5
40
330
1E
100
AcDbEntity
  8
0
100
AcDbLine
 10
11.140535
 20
77.3789
 30
0.0
 11
13.028935
 21
80.9093
 31
0.0
  0
LINE
  5
41
330
1E
100
AcDbEntity
  8
0
100
AcDbLine
 10
0.7496349999999971
 20
77.73690000000001
 30
0.0
 11
2.944634999999999
 21
75.7651
 31
0.0
  0
LINE
  5
42
330
1E
100
AcDbEntity
  8
0
100
AcDbLine
 10
0.134074999999997
 20
78.80169999999998
 30
0.0
 11
0.7496349999999971
 21
77.73690000000001
 31
0.0
  0
LINE
  5
43
330
1E
100
AcDbEntity
  8
0
100
AcDbLine
 10
-0.0973450000000032
 20
79.64449999999998
 30
0.0
 11
-0.024723881755816
 21
79.41014559966621
 31
0.0
  0
LINE
  5
44
330
1E
100
AcDbEntity
  8
0
100
AcDbLine
 10
-0.0745550000000035
 20
81.08400000000001
 30
0.0
 11
0.471204999999998
 21
82.53299999999999
 31
0.0
  0
LINE
  5
45
330
1E
100
AcDbEntity
  8
0
100
AcDbLine
 10
-0.0745550000000035
 20
81.08400000000001
 30
0.0
 11
0.471204999999998
 21
82.53299999999999
 31
0.0
  0
LINE
  5
46
330
1E
100
AcDbEntity
  8
0
100
AcDbLine
 10
-0.120835000000003
 20
79.7784
 30
0.0
 11
0.134074999999997
 21
78.80169999999998
 31
0.0
  0
LINE
  5
47
330
1E
100
AcDbEntity
  8
0
100
AcDbLine
 10
-0.120835000000003
 20
79.7784
 30
0.0
 11
-0.0745550000000035
 21
81.08400000000001
 31
0.0
  0
LINE
  5
48
330
1E
100
AcDbEntity
  8
0
100
AcDbLine
 10
-0.0973450000000032
 20
79.64449999999998
 30
0.0
 11
-0.0247238817558159
 21
79.41014559966609
 31
0.0
  0
LINE
  5
49
330
1E
100
AcDbEntity
  8
0
100
AcDbLine
 10
0.329989153740419
 20
82.1580700651749
 30
0.0
 11
0.4205949999999972
 21
82.4276
 31
0.0
  0
LINE
  5
4A
330
1E
100
AcDbEntity
  8
0
100
AcDbLine
 10
13.028935
 20
80.9093
 30
0.0
 11
14.630035
 21
84.11469999999999
 31
0.0
  0
LINE
  5
4E
330
1E
100
AcDbEntity
  8
0
100
AcDbLine
 10
13.8430489265373
 20
82.5391549622901
 30
0.0
 11
14.792135
 21
84.39149999999997
 31
0.0
  0
LINE
  5
4F
330
1E
100
AcDbEntity
  8
0
100
AcDbLine
 10
1.569874999999998
 20
83.9259
 30
0.0
 11
2.00343220448998
 21
84.4042031549136
 31
0.0
  0
LINE
  5
50
330
1E
100
AcDbEntity
  8
0
100
AcDbLine
 10
1.569874999999998
 20
83.9259
 30
0.0
 11
2.00343220448998
 21
84.4042031549136
 31
0.0
  0
LINE
  5
51
330
1E
100
AcDbEntity
  8
0
100
AcDbLine
 10
14.630035
 20
84.11469999999999
 30
0.0
 11
15.935235
 21
86.56270000000002
 31
0.0
  0
LINE
  5
52
330
1E
100
AcDbEntity
  8
0
100
AcDbLine
 10
14.630035
 20
84.11469999999999
 30
0.0
 11
14.792135
 21
84.39149999999997
 31
0.0
  0
LINE
  5
53
330
1E
100
AcDbEntity
  8
0
100
AcDbLine
 10
28.252135
 20
85.7562
 30
0.0
 11
28.65363499999999
 21
86.3296
 31
0.0
  0
LINE
  5
54
330
1E
100
AcDbEntity
  8
0
100
AcDbLine
 10
28.252135
 20
85.7562
 30
0.0
 11
28.4242097775013
 21
86.00194763989849
 31
0.0
  0
LINE
  5
55
330
1E
100
AcDbEntity
  8
0
100
AcDbLine
 10
28.13743499999999
 20
85.5924
 30
0.0
 11
28.252135
 21
85.7562
 31
0.0
  0
LINE
  5
56
330
1E
100
AcDbEntity
  8
0
100
AcDbLine
 10
28.65363499999999
 20
86.3296
 30
0.0
 11
29.227135
 21
87.14879999999999
 31
0.0
  0
LINE
  5
57
330
1E
100
AcDbEntity
  8
0
100
AcDbLine
 10
28.4242097775013
 20
86.00194763989849
 30
0.0
 11
37.43482828307429
 21
79.6926047032718
 31
0.0
  0
LINE
  5
58
330
1E
100
AcDbEntity
  8
0
100
AcDbLine
 10
28.9302755543124
 20
86.72475944567159
 30
0.0
 11
29.456635
 21
87.4764
 31
0.0
  0
LINE
  5
59
330
1E
100
AcDbEntity
  8
0
100
AcDbLine
 10
15.935235
 20
86.56270000000002
 30
0.0
 11
16.994135
 21
88.6067
 31
0.0
  0
LINE
  5
5A
330
1E
100
AcDbEntity
  8
0
100
AcDbLine
 10
14.792135
 20
84.39149999999997
 30
0.0
 11
15.1381378688333
 21
85.0676848474594
 31
0.0
  0
LINE
  5
5B
330
1E
100
AcDbEntity
  8
0
100
AcDbLine
 10
5.58574359164928
 20
88.3264346017531
 30
0.0
 11
6.998735
 21
89.84849999999999
 31
0.0
  0
LINE
  5
5C
330
1E
100
AcDbEntity
  8
0
100
AcDbLine
 10
29.227135
 20
87.14879999999999
 30
0.0
 11
30.03023499999999
 21
88.29559999999998
 31
0.0
  0
LINE
  5
5D
330
1E
100
AcDbEntity
  8
0
100
AcDbLine
 10
30.03023499999999
 20
88.29559999999998
 30
0.0
 11
30.89053499999999
 21
89.52429999999997
 31
0.0
  0
LINE
  5
5E
330
1E
100
AcDbEntity
  8
0
100
AcDbLine
 10
29.456635
 20
87.4764
 30
0.0
 11
30.14493499999999
 21
88.4594
 31
0.0
  0
LINE
  5
5F
330
1E
100
AcDbEntity
  8
0
100
AcDbLine
 10
30.14493499999999
 20
88.4594
 30
0.0
 11
31.00523499999999
 21
89.68810000000003
 31
0.0
  0
LINE
  5
60
330
1E
100
AcDbEntity
  8
0
100
AcDbLine
 10
30.89053499999999
 20
89.52429999999997
 30
0.0
 11
31.865635
 21
90.91689999999999
 31
0.0
  0
LINE
  5
61
330
1E
100
AcDbEntity
  8
0
100
AcDbLine
 10
31.00523499999999
 20
89.68810000000003
 30
0.0
 11
31.865635
 21
90.91689999999999
 31
0.0
  0
LINE
  5
62
330
1E
100
AcDbEntity
  8
0
100
AcDbLine
 10
16.99725120470469
 20
88.55047372654171
 30
0.0
 11
19.085535
 21
90.0994
 31
0.0
  0
LINE
  5
63
330
1E
100
AcDbEntity
  8
0
100
AcDbLine
 10
16.994135
 20
88.6067
 30
0.0
 11
17.979535
 21
90.26340000000001
 31
0.0
  0
LINE
  5
64
330
1E
100
AcDbEntity
  8
0
100
AcDbLine
 10
19.085535
 20
90.0994
 30
0.0
 11
19.257535
 21
90.3452
 31
0.0
  0
LINE
  5
65
330
1E
100
AcDbEntity
  8
0
100
AcDbLine
 10
19.085535
 20
90.0994
 30
0.0
 11
21.58413499999999
 21
90.181
 31
0.0
  0
LINE
  5
66
330
1E
100
AcDbEntity
  8
0
100
AcDbLine
 10
19.257535
 20
90.3452
 30
0.0
 11
19.716435
 21
91.00050000000001
 31
0.0
  0
LINE
  5
67
330
1E
100
AcDbEntity
  8
0
100
AcDbLine
 10
17.979535
 20
90.26340000000001
 30
0.0
 11
19.530635
 21
92.22929999999999
 31
0.0
  0
LINE
  5
68
330
1E
100
AcDbEntity
  8
0
100
AcDbLine
 10
20.46213499999999
 20
92.0654
 30
0.0
 11
21.379835
 21
93.376
 31
0.0
  0
LINE
  5
69
330
1E
100
AcDbEntity
  8
0
100
AcDbLine
 10
19.716435
 20
91.00050000000001
 30
0.0
 11
20.46213499999999
 21
92.0654
 31
0.0
  0
LINE
  5
6A
330
1E
100
AcDbEntity
  8
0
100
AcDbLine
 10
31.865635
 20
90.91689999999999
 30
0.0
 11
32.72603499999998
 21
92.1456
 31
0.0
  0
LINE
  5
6B
330
1E
100
AcDbEntity
  8
0
100
AcDbLine
 10
31.865635
 20
90.91689999999999
 30
0.0
 11
32.84073499999998
 21
92.3094
 31
0.0
  0
LINE
  5
6C
330
1E
100
AcDbEntity
  8
0
100
AcDbLine
 10
32.84073499999998
 20
92.3094
 30
0.0
 11
33.70103499999999
 21
93.5382
 31
0.0
  0
LINE
  5
6D
330
1E
100
AcDbEntity
  8
0
100
AcDbLine
 10
32.9882349999171
 20
92.52007999523208
 30
0.0
 11
33.58633499999999
 21
93.37430000000001
 31
0.0
  0
LINE
  5
6E
330
1E
100
AcDbEntity
  8
0
100
AcDbLine
 10
32.9882349999171
 20
92.52007999523208
 30
0.0
 11
33.70103499999999
 21
93.5382
 31
0.0
  0
LINE
  5
6F
330
1E
100
AcDbEntity
  8
0
100
AcDbLine
 10
22.673935
 20
91.7374
 30
0.0
 11
23.476935
 21
92.8842
 31
0.0
  0
LINE
  5
70
330
1E
100
AcDbEntity
  8
0
100
AcDbLine
 10
22.100435
 20
90.9182
 30
0.0
 11
22.673935
 21
91.7374
 31
0.0
  0
LINE
  5
71
330
1E
100
AcDbEntity
  8
0
100
AcDbLine
 10
21.698935
 20
90.3448
 30
0.0
 11
22.100435
 21
90.9182
 31
0.0
  0
LINE
  5
72
330
1E
100
AcDbEntity
  8
0
100
AcDbLine
 10
21.58413499999999
 20
90.181
 30
0.0
 11
21.698935
 21
90.3448
 31
0.0
  0
LINE
  5
73
330
1E
100
AcDbEntity
  8
0
100
AcDbLine
 10
21.58413499999999
 20
90.181
 30
0.0
 11
28.13743499999999
 21
85.5924
 31
0.0
  0
LINE
  5
74
330
1E
100
AcDbEntity
  8
0
100
AcDbLine
 10
19.530635
 20
92.22929999999999
 30
0.0
 11
20.93323499999999
 21
93.7007
 31
0.0
  0
LINE
  5
75
330
1E
100
AcDbEntity
  8
0
100
AcDbLine
 10
21.379835
 20
93.376
 30
0.0
 11
22.469635
 21
94.9324
 31
0.0
  0
LINE
  5
76
330
1E
100
AcDbEntity
  8
0
100
AcDbLine
 10
33.70103499999999
 20
93.5382
 30
0.0
 11
34.50413499999999
 21
94.685
 31
0.0
  0
LINE
  5
77
330
1E
100
AcDbEntity
  8
0
100
AcDbLine
 10
33.70103499999999
 20
93.5382
 30
0.0
 11
34.1779474261094
 21
94.2192150295882
 31
0.0
  0
LINE
  5
78
330
1E
100
AcDbEntity
  8
0
100
AcDbLine
 10
33.58633499999999
 20
93.37430000000001
 30
0.0
 11
34.1779474261094
 21
94.2192150295882
 31
0.0
  0
LINE
  5
79
330
1E
100
AcDbEntity
  8
0
100
AcDbLine
 10
23.476935
 20
92.8842
 30
0.0
 11
24.337335
 21
94.11289999999999
 31
0.0
  0
LINE
  5
7A
330
1E
100
AcDbEntity
  8
0
100
AcDbLine
 10
24.337335
 20
94.11289999999999
 30
0.0
 11
25.312435
 21
95.50549999999999
 31
0.0
  0
LINE
  5
7B
330
1E
100
AcDbEntity
  8
0
100
AcDbLine
 10
20.93323499999999
 20
93.7007
 30
0.0
 11
22.265235
 21
95.01890000000001
 31
0.0
  0
LINE
  5
7C
330
1E
100
AcDbEntity
  8
0
100
AcDbLine
 10
10.206635
 20
93.35939999999999
 30
0.0
 11
11.426335
 21
94.852
 31
0.0
  0
LINE
  5
7D
330
1E
100
AcDbEntity
  8
0
100
AcDbLine
 10
9.501234999999999
 20
95.5896
 30
0.0
 11
9.673334999999999
 21
95.83540000000001
 31
0.0
  0
LINE
  5
7E
330
1E
100
AcDbEntity
  8
0
100
AcDbLine
 10
11.426335
 20
94.852
 30
0.0
 11
12.743135
 21
96.9819
 31
0.0
  0
LINE
  5
7F
330
1E
100
AcDbEntity
  8
0
100
AcDbLine
 10
9.673334999999999
 20
95.83540000000001
 30
0.0
 11
12.082335
 21
99.2758
 31
0.0
  0
LINE
  5
80
330
1E
100
AcDbEntity
  8
0
100
AcDbLine
 10
10.828535
 20
96.6135
 30
0.0
 11
12.090435
 21
98.41560000000001
 31
0.0
  0
LINE
  5
81
330
1E
100
AcDbEntity
  8
0
100
AcDbLine
 10
12.743135
 20
96.9819
 30
0.0
 11
13.646035
 21
98.80320000000001
 31
0.0
  0
LINE
  5
82
330
1E
100
AcDbEntity
  8
0
100
AcDbLine
 10
12.090435
 20
98.41560000000001
 30
0.0
 11
13.524335
 21
100.4629999999999
 31
0.0
  0
LINE
  5
83
330
1E
100
AcDbEntity
  8
0
100
AcDbLine
 10
12.082335
 20
99.2758
 30
0.0
 11
13.344235
 21
101.078
 31
0.0
  0
LINE
  5
84
330
1E
100
AcDbEntity
  8
0
100
AcDbLine
 10
13.344235
 20
101.078
 30
0.0
 11
14.66343499999999
 21
102.9619999999999
 31
0.0
  0
LINE
  5
85
330
1E
100
AcDbEntity
  8
0
100
AcDbLine
 10
13.524335
 20
100.4629999999999
 30
0.0
 11
14.37971900370039
 21
101.684740437906
 31
0.0
  0
LINE
  5
86
330
1E
100
AcDbEntity
  8
0
100
AcDbLine
 10
13.646035
 20
98.80320000000001
 30
0.0
 11
14.429235
 21
100.506
 31
0.0
  0
LINE
  5
87
330
1E
100
AcDbEntity
  8
0
100
AcDbLine
 10
22.469635
 20
94.9324
 30
0.0
 11
22.6902275228852
 21
95.2474379890968
 31
0.0
  0
LINE
  5
88
330
1E
100
AcDbEntity
  8
0
100
AcDbLine
 10
34.50413499999999
 20
94.685
 30
0.0
 11
35.077635
 21
95.50409999999999
 31
0.0
  0
LINE
  5
89
330
1E
100
AcDbEntity
  8
0
100
AcDbLine
 10
23.263535
 20
95.3531
 30
0.0
 11
23.959035
 21
95.4765
 31
0.0
  0
LINE
  5
8A
330
1E
100
AcDbEntity
  8
0
100
AcDbLine
 10
23.959035
 20
95.4765
 30
0.0
 11
24.402335
 21
96.14270000000001
 31
0.0
  0
LINE
  5
8B
330
1E
100
AcDbEntity
  8
0
100
AcDbLine
 10
22.265235
 20
95.01890000000001
 30
0.0
 11
23.02568570137359
 21
95.42782925108273
 31
0.0
  0
LINE
  5
8C
330
1E
100
AcDbEntity
  8
0
100
AcDbLine
 10
16.13023499999999
 20
99.7375
 30
0.0
 11
18.431235
 21
97.8822
 31
0.0
  0
LINE
  5
8F
330
1E
100
AcDbEntity
  8
0
100
AcDbLine
 10
15.806835
 20
101.185
 30
0.0
 11
16.72023499999999
 21
100.5449999999999
 31
0.0
  0
LINE
  5
90
330
1E
100
AcDbEntity
  8
0
100
AcDbLine
 10
16.72023499999999
 20
100.5449999999999
 30
0.0
 11
19.119535
 21
98.8652
 31
0.0
  0
LINE
  5
91
330
1E
100
AcDbEntity
  8
0
100
AcDbLine
 10
18.431235
 20
97.8822
 30
0.0
 11
20.961635
 21
96.35460000000001
 31
0.0
  0
LINE
  5
92
330
1E
100
AcDbEntity
  8
0
100
AcDbLine
 10
20.961635
 20
96.35460000000001
 30
0.0
 11
23.263535
 21
95.3531
 31
0.0
  0
LINE
  5
96
330
1E
100
AcDbEntity
  8
0
100
AcDbLine
 10
25.312435
 20
95.50549999999999
 30
0.0
 11
26.287535
 21
96.89799999999999
 31
0.0
  0
LINE
  5
97
330
1E
100
AcDbEntity
  8
0
100
AcDbLine
 10
23.644535
 20
95.69679999999999
 30
0.0
 11
23.959035
 21
95.4765
 31
0.0
  0
LINE
  5
98
330
1E
100
AcDbEntity
  8
0
100
AcDbLine
 10
26.287535
 20
96.89799999999999
 30
0.0
 11
27.14783499999999
 21
98.1268
 31
0.0
  0
LINE
  5
99
330
1E
100
AcDbEntity
  8
0
100
AcDbLine
 10
24.562235
 20
97.00740000000001
 30
0.0
 11
24.876735
 21
96.7871
 31
0.0
  0
LINE
  5
9A
330
1E
100
AcDbEntity
  8
0
100
AcDbLine
 10
24.402335
 20
96.14270000000001
 30
0.0
 11
24.876735
 21
96.7871
 31
0.0
  0
LINE
  5
9B
330
1E
100
AcDbEntity
  8
0
100
AcDbLine
 10
23.062035
 20
96.10460000000001
 30
0.0
 11
23.644535
 21
95.69679999999999
 31
0.0
  0
LINE
  5
9C
330
1E
100
AcDbEntity
  8
0
100
AcDbLine
 10
22.43213499999999
 20
96.54569999999999
 30
0.0
 11
23.062035
 21
96.10460000000001
 31
0.0
  0
LINE
  5
9D
330
1E
100
AcDbEntity
  8
0
100
AcDbLine
 10
23.979835
 20
97.41520000000001
 30
0.0
 11
24.562235
 21
97.00740000000001
 31
0.0
  0
LINE
  5
9E
330
1E
100
AcDbEntity
  8
0
100
AcDbLine
 10
23.02643499999999
 20
99.3035
 30
0.0
 11
24.754835
 21
97.4829
 31
0.0
  0
LINE
  5
A1
330
1E
100
AcDbEntity
  8
0
100
AcDbLine
 10
23.349835
 20
97.85630000000001
 30
0.0
 11
23.979835
 21
97.41520000000001
 31
0.0
  0
LINE
  5
A2
330
1E
100
AcDbEntity
  8
0
100
AcDbLine
 10
22.436535
 20
98.49580000000001
 30
0.0
 11
23.349835
 21
97.85630000000001
 31
0.0
  0
LINE
  5
A3
330
1E
100
AcDbEntity
  8
0
100
AcDbLine
 10
20.725535
 20
101.1589999999999
 30
0.0
 11
23.02643499999999
 21
99.3035
 31
0.0
  0
LINE
  5
A4
330
1E
100
AcDbEntity
  8
0
100
AcDbLine
 10
20.03723499999999
 20
100.1759999999999
 30
0.0
 11
22.436535
 21
98.49580000000001
 31
0.0
  0
LINE
  5
A6
330
1E
100
AcDbEntity
  8
0
100
AcDbLine
 10
24.754835
 20
97.4829
 30
0.0
 11
24.876735
 21
96.7871
 31
0.0
  0
LINE
  5
A7
330
1E
100
AcDbEntity
  8
0
100
AcDbLine
 10
24.65809694476289
 20
98.05792148906229
 30
0.0
 11
24.878635
 21
98.37290000000001
 31
0.0
  0
LINE
  5
A8
330
1E
100
AcDbEntity
  8
0
100
AcDbLine
 10
25.968435
 20
99.92919999999999
 30
0.0
 11
26.88613499999998
 21
101.2399999999999
 31
0.0
  0
LINE
  5
A9
330
1E
100
AcDbEntity
  8
0
100
AcDbLine
 10
24.878635
 20
98.37290000000001
 30
0.0
 11
25.968435
 21
99.92919999999999
 31
0.0
  0
LINE
  5
AA
330
1E
100
AcDbEntity
  8
0
100
AcDbLine
 10
27.950835
 20
99.2736
 30
0.0
 11
28.52443499999999
 21
100.0929999999998
 31
0.0
  0
LINE
  5
AB
330
1E
100
AcDbEntity
  8
0
100
AcDbLine
 10
28.52443499999999
 20
100.0929999999998
 30
0.0
 11
28.925935
 21
100.6659999999999
 31
0.0
  0
LINE
  5
AC
330
1E
100
AcDbEntity
  8
0
100
AcDbLine
 10
27.14783499999999
 20
98.1268
 30
0.0
 11
27.950835
 21
99.2736
 31
0.0
  0
LINE
  5
AD
330
1E
100
AcDbEntity
  8
0
100
AcDbLine
 10
26.88613499999998
 20
101.2399999999999
 30
0.0
 11
27.631835
 21
102.305
 31
0.0
  0
LINE
  5
AE
330
1E
100
AcDbEntity
  8
0
100
AcDbLine
 10
29.04063499999999
 20
100.8299999999999
 30
0.0
 11
35.593835
 21
96.2414
 31
0.0
  0
LINE
  5
AF
330
1E
100
AcDbEntity
  8
0
100
AcDbLine
 10
28.925935
 20
100.6659999999999
 30
0.0
 11
29.04063499999999
 21
100.8299999999999
 31
0.0
  0
LINE
  5
B0
330
1E
100
AcDbEntity
  8
0
100
AcDbLine
 10
25.510635
 20
100.238
 30
0.0
 11
26.41353499999999
 21
102.0589999999998
 31
0.0
  0
LINE
  5
B1
330
1E
100
AcDbEntity
  8
0
100
AcDbLine
 10
24.72743499999999
 20
98.53530000000001
 30
0.0
 11
25.510635
 21
100.238
 31
0.0
  0
LINE
  5
B2
330
1E
100
AcDbEntity
  8
0
100
AcDbLine
 10
24.6033185715403
 20
97.6807834491915
 30
0.0
 11
24.72743499999999
 21
98.53530000000001
 31
0.0
  0
LINE
  5
B4
330
1E
100
AcDbEntity
  8
0
100
AcDbLine
 10
21.51883499999999
 20
97.18519999999999
 30
0.0
 11
22.43213499999999
 21
96.54569999999999
 31
0.0
  0
LINE
  5
B5
330
1E
100
AcDbEntity
  8
0
100
AcDbLine
 10
19.119535
 20
98.8652
 30
0.0
 11
21.51883499999999
 21
97.18519999999999
 31
0.0
  0
LINE
  5
B7
330
1E
100
AcDbEntity
  8
0
100
AcDbLine
 10
14.429235
 20
100.506
 30
0.0
 11
14.5533910532514
 21
101.35998733364
 31
0.0
  0
LINE
  5
B9
330
1E
100
AcDbEntity
  8
0
100
AcDbLine
 10
14.401935
 20
101.5579999999999
 30
0.0
 11
16.13023499999999
 21
99.7375
 31
0.0
  0
LINE
  5
BA
330
1E
100
AcDbEntity
  8
0
100
AcDbLine
 10
14.66343499999999
 20
102.9619999999999
 30
0.0
 11
15.982635
 21
104.8459999999999
 31
0.0
  0
LINE
  5
BB
330
1E
100
AcDbEntity
  8
0
100
AcDbLine
 10
14.754335
 20
102.898
 30
0.0
 11
15.197635
 21
103.5649999999999
 31
0.0
  0
LINE
  5
BC
330
1E
100
AcDbEntity
  8
0
100
AcDbLine
 10
14.279935
 20
102.254
 30
0.0
 11
14.754335
 21
102.898
 31
0.0
  0
LINE
  5
BD
330
1E
100
AcDbEntity
  8
0
100
AcDbLine
 10
14.279935
 20
102.254
 30
0.0
 11
14.594535
 21
102.034
 31
0.0
  0
LINE
  5
BE
330
1E
100
AcDbEntity
  8
0
100
AcDbLine
 10
14.279935
 20
102.254
 30
0.0
 11
14.401935
 21
101.5579999999999
 31
0.0
  0
LINE
  5
BF
330
1E
100
AcDbEntity
  8
0
100
AcDbLine
 10
14.594535
 20
102.034
 30
0.0
 11
15.176935
 21
101.626
 31
0.0
  0
LINE
  5
C0
330
1E
100
AcDbEntity
  8
0
100
AcDbLine
 10
15.197635
 20
103.5649999999999
 30
0.0
 11
15.512235
 21
103.3439999999999
 31
0.0
  0
LINE
  5
C1
330
1E
100
AcDbEntity
  8
0
100
AcDbLine
 10
15.197635
 20
103.5649999999999
 30
0.0
 11
15.893235
 21
103.6879999999999
 31
0.0
  0
LINE
  5
C3
330
1E
100
AcDbEntity
  8
0
100
AcDbLine
 10
15.512235
 20
103.3439999999999
 30
0.0
 11
16.094635
 21
102.936
 31
0.0
  0
LINE
  5
C4
330
1E
100
AcDbEntity
  8
0
100
AcDbLine
 10
16.094635
 20
102.936
 30
0.0
 11
16.724535
 21
102.495
 31
0.0
  0
LINE
  5
C6
330
1E
100
AcDbEntity
  8
0
100
AcDbLine
 10
18.195135
 20
102.686
 30
0.0
 11
20.725535
 21
101.1589999999999
 31
0.0
  0
LINE
  5
C7
330
1E
100
AcDbEntity
  8
0
100
AcDbLine
 10
16.724535
 20
102.495
 30
0.0
 11
17.637935
 21
101.856
 31
0.0
  0
LINE
  5
C8
330
1E
100
AcDbEntity
  8
0
100
AcDbLine
 10
17.637935
 20
101.856
 30
0.0
 11
20.03723499999999
 21
100.1759999999999
 31
0.0
  0
LINE
  5
C9
330
1E
100
AcDbEntity
  8
0
100
AcDbLine
 10
16.13136377161699
 20
103.613161531544
 30
0.0
 11
16.891435
 21
104.022
 31
0.0
  0
LINE
  5
CA
330
1E
100
AcDbEntity
  8
0
100
AcDbLine
 10
15.7665428621149
 20
103.665597566188
 30
0.0
 11
16.621635
 21
104.8869999999999
 31
0.0
  0
LINE
  5
CB
330
1E
100
AcDbEntity
  8
0
100
AcDbLine
 10
15.982635
 20
104.8459999999999
 30
0.0
 11
17.244535
 21
106.6479999999999
 31
0.0
  0
LINE
  5
CC
330
1E
100
AcDbEntity
  8
0
100
AcDbLine
 10
16.621635
 20
104.8869999999999
 30
0.0
 11
18.055635
 21
106.935
 31
0.0
  0
LINE
  5
CE
330
1E
100
AcDbEntity
  8
0
100
AcDbLine
 10
15.893235
 20
103.6879999999999
 30
0.0
 11
18.195135
 21
102.686
 31
0.0
  0
LINE
  5
CF
330
1E
100
AcDbEntity
  8
0
100
AcDbLine
 10
19.626035
 20
106.812
 30
0.0
 11
21.177135
 21
108.7779999999999
 31
0.0
  0
LINE
  5
D0
330
1E
100
AcDbEntity
  8
0
100
AcDbLine
 10
17.244535
 20
106.6479999999999
 30
0.0
 11
19.653535
 21
110.0889999999999
 31
0.0
  0
LINE
  5
D1
330
1E
100
AcDbEntity
  8
0
100
AcDbLine
 10
19.825635
 20
110.3339999999999
 30
0.0
 11
21.095535
 21
111.276
 31
0.0
  0
LINE
  5
D2
330
1E
100
AcDbEntity
  8
0
100
AcDbLine
 10
19.653535
 20
110.0889999999999
 30
0.0
 11
19.825635
 21
110.3339999999999
 31
0.0
  0
LINE
  5
D3
330
1E
100
AcDbEntity
  8
0
100
AcDbLine
 10
19.31743499999998
 20
108.737
 30
0.0
 11
20.292535
 21
110.1289999999998
 31
0.0
  0
LINE
  5
D4
330
1E
100
AcDbEntity
  8
0
100
AcDbLine
 10
21.177135
 20
108.7779999999999
 30
0.0
 11
22.162635
 21
110.434
 31
0.0
  0
LINE
  5
D5
330
1E
100
AcDbEntity
  8
0
100
AcDbLine
 10
20.292535
 20
110.1289999999998
 30
0.0
 11
20.86613499999999
 21
110.949
 31
0.0
  0
LINE
  5
D6
330
1E
100
AcDbEntity
  8
0
100
AcDbLine
 10
21.095535
 20
111.276
 30
0.0
 11
22.37559997399389
 21
110.8950886096129
 31
0.0
  0
LINE
  5
D7
330
1E
100
AcDbEntity
  8
0
100
AcDbLine
 10
20.86613499999999
 20
110.949
 30
0.0
 11
21.095535
 21
111.276
 31
0.0
  0
LINE
  5
D8
330
1E
100
AcDbEntity
  8
0
100
AcDbLine
 10
18.055635
 20
106.935
 30
0.0
 11
19.31743499999998
 21
108.737
 31
0.0
  0
LINE
  5
D9
330
1E
100
AcDbEntity
  8
0
100
AcDbLine
 10
18.223435
 20
105.34
 30
0.0
 11
19.626035
 21
106.812
 31
0.0
  0
LINE
  5
DA
330
1E
100
AcDbEntity
  8
0
100
AcDbLine
 10
16.891435
 20
104.022
 30
0.0
 11
18.223435
 21
105.34
 31
0.0
  0
LINE
  5
DC
330
1E
100
AcDbEntity
  8
0
100
AcDbLine
 10
21.9579339087073
 20
110.1033005835609
 30
0.0
 11
22.49644317575769
 21
111.078412458679
 31
0.0
  0
LINE
  5
DD
330
1E
100
AcDbEntity
  8
0
100
AcDbLine
 10
22.162635
 20
110.434
 30
0.0
 11
23.221435
 21
112.4779999999999
 31
0.0
  0
LINE
  5
DE
330
1E
100
AcDbEntity
  8
0
100
AcDbLine
 10
21.9579339087073
 20
110.1033005835609
 30
0.0
 11
22.49644317575769
 21
111.078412458679
 31
0.0
  0
LINE
  5
DF
330
1E
100
AcDbEntity
  8
0
100
AcDbLine
 10
24.364535
 20
114.65
 30
0.0
 11
24.52663499999999
 21
114.9259999999999
 31
0.0
  0
LINE
  5
E0
330
1E
100
AcDbEntity
  8
0
100
AcDbLine
 10
23.221435
 20
112.4779999999999
 30
0.0
 11
24.52663499999999
 21
114.9259999999999
 31
0.0
  0
LINE
  5
E1
330
1E
100
AcDbEntity
  8
0
100
AcDbLine
 10
27.631835
 20
102.305
 30
0.0
 11
28.090635
 21
102.9599999999999
 31
0.0
  0
LINE
  5
E2
330
1E
100
AcDbEntity
  8
0
100
AcDbLine
 10
28.262735
 20
103.2059999999999
 30
0.0
 11
29.04063499999999
 21
100.8299999999999
 31
0.0
  0
LINE
  5
E3
330
1E
100
AcDbEntity
  8
0
100
AcDbLine
 10
28.262735
 20
103.2059999999999
 30
0.0
 11
29.0040058541451
 21
105.698005278298
 31
0.0
  0
LINE
  5
E4
330
1E
100
AcDbEntity
  8
0
100
AcDbLine
 10
28.090635
 20
102.9599999999999
 30
0.0
 11
28.262735
 21
103.2059999999999
 31
0.0
  0
LINE
  5
E5
330
1E
100
AcDbEntity
  8
0
100
AcDbLine
 10
27.73033499999999
 20
104.1889999999999
 30
0.0
 11
28.95013499999999
 21
105.682
 31
0.0
  0
LINE
  5
E6
330
1E
100
AcDbEntity
  8
0
100
AcDbLine
 10
26.41353499999999
 20
102.0589999999998
 30
0.0
 11
27.73033499999999
 21
104.1889999999999
 31
0.0
  0
LINE
  5
E7
330
1E
100
AcDbEntity
  8
0
100
AcDbLine
 10
28.95013499999999
 20
105.682
 30
0.0
 11
30.508635
 21
107.376
 31
0.0
  0
LINE
  5
E8
330
1E
100
AcDbEntity
  8
0
100
AcDbLine
 10
30.508635
 20
107.376
 30
0.0
 11
32.36263499999999
 21
109.4389999999999
 31
0.0
  0
LINE
  5
E9
330
1E
100
AcDbEntity
  8
0
100
AcDbLine
 10
28.7091652111656
 20
105.376300108033
 30
0.0
 11
29.4454334890974
 21
106.220361014136
 31
0.0
  0
LINE
  5
EA
330
1E
100
AcDbEntity
  8
0
100
AcDbLine
 10
31.6542605801342
 20
108.650771074335
 30
0.0
 11
32.15793499999998
 21
109.193
 31
0.0
  0
LINE
  5
EB
330
1E
100
AcDbEntity
  8
0
100
AcDbLine
 10
25.31483982117769
 20
116.5042803426989
 30
0.0
 11
26.127735
 21
118.132
 31
0.0
  0
LINE
  5
EC
330
1E
100
AcDbEntity
  8
0
100
AcDbLine
 10
32.36263499999999
 20
109.4389999999999
 30
0.0
 11
34.827135
 21
112.04
 31
0.0
  0
LINE
  5
ED
330
1E
100
AcDbEntity
  8
0
100
AcDbLine
 10
32.15793499999998
 20
109.193
 30
0.0
 11
33.5319038411576
 21
110.673030535951
 31
0.0
  0
LINE
  5
EE
330
1E
100
AcDbEntity
  8
0
100
AcDbLine
 10
32.15793499999998
 20
109.193
 30
0.0
 11
32.36263499999999
 21
109.4389999999999
 31
0.0
  0
LINE
  5
EF
330
1E
100
AcDbEntity
  8
0
100
AcDbLine
 10
24.52663499999999
 20
114.9259999999999
 30
0.0
 11
26.127735
 21
118.132
 31
0.0
  0
LINE
  5
F0
330
1E
100
AcDbEntity
  8
0
100
AcDbLine
 10
27.76095319688749
 20
121.184825117825
 30
0.0
 11
28.07323499999998
 21
121.777
 31
0.0
  0
LINE
  5
F1
330
1E
100
AcDbEntity
  8
0
100
AcDbLine
 10
28.07323499999998
 20
121.777
 30
0.0
 11
28.37952175850439
 21
122.257449817262
 31
0.0
  0
LINE
  5
F2
330
1E
100
AcDbEntity
  8
0
100
AcDbLine
 10
28.01623499999999
 20
121.662
 30
0.0
 11
29.00643499999999
 21
123.285
 31
0.0
  0
LINE
  5
F4
330
1E
100
AcDbEntity
  8
0
100
AcDbLine
 10
29.0686489823633
 20
123.338433697825
 30
0.0
 11
29.31390596426579
 21
123.549077462499
 31
0.0
  0
LINE
  5
F6
330
1E
100
AcDbEntity
  8
0
100
AcDbLine
 10
29.08813499999999
 20
123.3689999999999
 30
0.0
 11
29.31390596426579
 21
123.549077462499
 31
0.0
  0
LINE
  5
F7
330
1E
100
AcDbEntity
  8
0
100
AcDbLine
 10
29.00643499999999
 20
123.285
 30
0.0
 11
30.18123499999999
 21
124.2939999999999
 31
0.0
  0
LINE
  5
F8
330
1E
100
AcDbEntity
  8
0
100
AcDbLine
 10
30.18123499999999
 20
124.2939999999999
 30
0.0
 11
31.392335
 21
124.7839999999999
 31
0.0
  0
LINE
  5
FA
330
1E
100
AcDbEntity
  8
0
100
AcDbLine
 10
31.4864071761643
 20
124.792798790606
 30
0.0
 11
31.78030643550119
 21
124.820287875559
 31
0.0
  0
LINE
  5
FB
330
1E
100
AcDbEntity
  8
0
100
AcDbLine
 10
31.52623499999998
 20
124.8079999999999
 30
0.0
 11
31.78030643550119
 21
124.820287875559
 31
0.0
  0
LINE
  5
FC
330
1E
100
AcDbEntity
  8
0
100
AcDbLine
 10
31.392335
 20
124.7839999999999
 30
0.0
 11
32.39733499999999
 21
124.8779999999999
 31
0.0
  0
LINE
  5
FD
330
1E
100
AcDbEntity
  8
0
100
AcDbLine
 10
32.39733499999999
 20
124.8779999999999
 30
0.0
 11
33.608435
 21
124.6639999999999
 31
0.0
  0
LINE
  5
FE
330
1E
100
AcDbEntity
  8
0
100
AcDbLine
 10
33.608435
 20
124.6639999999999
 30
0.0
 11
36.212035
 21
123.276
 31
0.0
  0
LINE
  5
FF
330
1E
100
AcDbEntity
  8
0
100
AcDbLine
 10
26.127735
 20
118.132
 30
0.0
 11
28.01623499999999
 21
121.662
 31
0.0
  0
LINE
  5
100
330
1E
100
AcDbEntity
  8
0
100
AcDbLine
 10
15.176935
 20
101.626
 30
0.0
 11
15.806835
 21
101.185
 31
0.0
  0
LINE
  5
102
330
1E
100
AcDbEntity
  8
0
100
AcDbLine
 10
9.853434999999999
 20
95.2209
 30
0.0
 11
10.828535
 21
96.6135
 31
0.0
  0
LINE
  5
103
330
1E
100
AcDbEntity
  8
0
100
AcDbLine
 10
9.279935
 20
94.40179999999999
 30
0.0
 11
9.853434999999999
 21
95.2209
 31
0.0
  0
LINE
  5
104
330
1E
100
AcDbEntity
  8
0
100
AcDbLine
 10
9.050435
 20
94.0741
 30
0.0
 11
9.846174297604687
 21
93.00137246918447
 31
0.0
  0
LINE
  5
105
330
1E
100
AcDbEntity
  8
0
100
AcDbLine
 10
9.050435
 20
94.0741
 30
0.0
 11
9.279935
 21
94.40179999999999
 31
0.0
  0
LINE
  5
106
330
1E
100
AcDbEntity
  8
0
100
AcDbLine
 10
9.050435
 20
94.0741
 30
0.0
 11
9.501234999999999
 21
95.5896
 31
0.0
  0
LINE
  5
107
330
1E
100
AcDbEntity
  8
0
100
AcDbLine
 10
9.719322743065919
 20
92.82972227994859
 30
0.0
 11
10.44539868595318
 21
93.66231644561649
 31
0.0
  0
LINE
  5
108
330
1E
100
AcDbEntity
  8
0
100
AcDbLine
 10
8.648034999999991
 20
91.66529999999999
 30
0.0
 11
10.206635
 21
93.35939999999999
 31
0.0
  0
LINE
  5
109
330
1E
100
AcDbEntity
  8
0
100
AcDbLine
 10
6.998735
 20
89.84849999999999
 30
0.0
 11
7.51319773360039
 21
90.4021049262843
 31
0.0
  0
LINE
  5
10A
330
1E
100
AcDbEntity
  8
0
100
AcDbLine
 10
6.794035
 20
89.6016
 30
0.0
 11
8.648034999999991
 21
91.66529999999999
 31
0.0
  0
LINE
  5
10B
330
1E
100
AcDbEntity
  8
0
100
AcDbLine
 10
6.794035
 20
89.6016
 30
0.0
 11
6.998735
 21
89.84849999999999
 31
0.0
  0
LINE
  5
10C
330
1E
100
AcDbEntity
  8
0
100
AcDbLine
 10
4.329534999999999
 20
87.0007
 30
0.0
 11
6.794035
 21
89.6016
 31
0.0
  0
LINE
  5
10D
330
1E
100
AcDbEntity
  8
0
100
AcDbLine
 10
1.657984999999999
 20
84.0186
 30
0.0
 11
4.329534999999999
 21
87.0007
 31
0.0
  0
LINE
  5
10E
330
1E
100
AcDbEntity
  8
0
100
AcDbLine
 10
1.230821346117428
 20
83.4838805707815
 30
0.0
 11
1.569874999999998
 21
83.9259
 31
0.0
  0
LINE
  5
10F
330
1E
100
AcDbEntity
  8
0
100
AcDbLine
 10
0.471204999999998
 20
82.53299999999999
 30
0.0
 11
1.657984999999999
 21
84.0186
 31
0.0
  0
LINE
  5
110
330
1E
100
AcDbEntity
  8
0
100
AcDbLine
 10
0.329989153740419
 20
82.1580700651749
 30
0.0
 11
0.4205949999999972
 21
82.4276
 31
0.0
  0
LINE
  5
111
330
1E
100
AcDbEntity
  8
0
100
AcDbLine
 10
0.134074999999997
 20
78.80169999999998
 30
0.0
 11
0.7496349999999971
 21
77.73690000000001
 31
0.0
  0
LINE
  5
112
330
1E
100
AcDbEntity
  8
0
100
AcDbLine
 10
0.7496349999999971
 20
77.73690000000001
 30
0.0
 11
2.944634999999999
 21
75.7651
 31
0.0
  0
LINE
  5
113
330
1E
100
AcDbEntity
  8
0
100
AcDbLine
 10
34.50963499999998
 20
75.5149
 30
0.0
 11
35.140535
 21
76.416
 31
0.0
  0
LINE
  5
114
330
1E
100
AcDbEntity
  8
0
100
AcDbLine
 10
34.28013499999998
 20
75.18729999999997
 30
0.0
 11
34.402935
 21
74.49089999999998
 31
0.0
  0
LINE
  5
115
330
1E
100
AcDbEntity
  8
0
100
AcDbLine
 10
34.28013499999998
 20
75.18729999999997
 30
0.0
 11
34.50963499999998
 21
75.5149
 31
0.0
  0
LINE
  5
116
330
1E
100
AcDbEntity
  8
0
100
AcDbLine
 10
35.077635
 20
95.50409999999999
 30
0.0
 11
35.47913499999999
 21
96.07750000000001
 31
0.0
  0
LINE
  5
117
330
1E
100
AcDbEntity
  8
0
100
AcDbLine
 10
34.827135
 20
112.04
 30
0.0
 11
37.49873499999999
 21
115.022
 31
0.0
  0
LINE
  5
118
330
1E
100
AcDbEntity
  8
0
100
AcDbLine
 10
35.47913499999999
 20
96.07750000000001
 30
0.0
 11
35.593835
 21
96.2414
 31
0.0
  0
LINE
  5
119
330
1E
100
AcDbEntity
  8
0
100
AcDbLine
 10
35.30713499999999
 20
95.8318
 30
0.0
 11
44.317735
 21
89.52240000000001
 31
0.0
  0
LINE
  5
11A
330
1E
100
AcDbEntity
  8
0
100
AcDbLine
 10
35.26215809468139
 20
95.7676256350941
 30
0.0
 11
35.30713499999999
 21
95.8318
 31
0.0
  0
LINE
  5
11B
330
1E
100
AcDbEntity
  8
0
100
AcDbLine
 10
35.26215809468139
 20
95.7676256350941
 30
0.0
 11
35.47913499999999
 21
96.07750000000001
 31
0.0
  0
LINE
  5
11C
330
1E
100
AcDbEntity
  8
0
100
AcDbLine
 10
36.212035
 20
123.276
 30
0.0
 11
38.407035
 21
121.304
 31
0.0
  0
LINE
  5
11D
330
1E
100
AcDbEntity
  8
0
100
AcDbLine
 10
36.230335
 20
77.97239999999998
 30
0.0
 11
37.606935
 21
79.9384
 31
0.0
  0
LINE
  5
11E
330
1E
100
AcDbEntity
  8
0
100
AcDbLine
 10
36.230335
 20
77.97239999999998
 30
0.0
 11
37.43482828307429
 21
79.6926047032718
 31
0.0
  0
LINE
  5
11F
330
1E
100
AcDbEntity
  8
0
100
AcDbLine
 10
36.410435
 20
77.3579
 30
0.0
 11
37.844435
 21
79.4058
 31
0.0
  0
LINE
  5
120
330
1E
100
AcDbEntity
  8
0
100
AcDbLine
 10
35.140535
 20
76.416
 30
0.0
 11
36.230335
 21
77.97239999999998
 31
0.0
  0
LINE
  5
121
330
1E
100
AcDbEntity
  8
0
100
AcDbLine
 10
35.320735
 20
75.80159999999998
 30
0.0
 11
36.410435
 21
77.3579
 31
0.0
  0
LINE
  5
122
330
1E
100
AcDbEntity
  8
0
100
AcDbLine
 10
34.632435
 20
74.81860000000001
 30
0.0
 11
35.320735
 21
75.80159999999998
 31
0.0
  0
LINE
  5
123
330
1E
100
AcDbEntity
  8
0
100
AcDbLine
 10
34.402935
 20
74.49089999999998
 30
0.0
 11
34.632435
 21
74.81860000000001
 31
0.0
  0
LINE
  5
124
330
1E
100
AcDbEntity
  8
0
100
AcDbLine
 10
34.402935
 20
74.49089999999998
 30
0.0
 11
35.63173499999999
 21
73.6306
 31
0.0
  0
LINE
  5
125
330
1E
100
AcDbEntity
  8
0
100
AcDbLine
 10
36.54943499999999
 20
74.94119999999998
 30
0.0
 11
37.639235
 21
76.4976
 31
0.0
  0
LINE
  5
126
330
1E
100
AcDbEntity
  8
0
100
AcDbLine
 10
35.86113499999999
 20
73.9582
 30
0.0
 11
36.54943499999999
 21
74.94119999999998
 31
0.0
  0
LINE
  5
127
330
1E
100
AcDbEntity
  8
0
100
AcDbLine
 10
36.55753499999998
 20
74.08100000000001
 30
0.0
 11
37.188435
 21
74.9821
 31
0.0
  0
LINE
  5
128
330
1E
100
AcDbEntity
  8
0
100
AcDbLine
 10
36.328035
 20
73.75329999999998
 30
0.0
 11
36.450835
 21
73.057
 31
0.0
  0
LINE
  5
129
330
1E
100
AcDbEntity
  8
0
100
AcDbLine
 10
36.328035
 20
73.75329999999998
 30
0.0
 11
36.55753499999998
 21
74.08100000000001
 31
0.0
  0
LINE
  5
12A
330
1E
100
AcDbEntity
  8
0
100
AcDbLine
 10
37.1826885133828
 20
114.6692336341168
 30
0.0
 11
37.586835
 21
115.1149999999999
 31
0.0
  0
LINE
  5
12B
330
1E
100
AcDbEntity
  8
0
100
AcDbLine
 10
37.639235
 20
76.4976
 30
0.0
 11
39.073135
 21
78.5455
 31
0.0
  0
LINE
  5
12C
330
1E
100
AcDbEntity
  8
0
100
AcDbLine
 10
37.606935
 20
79.9384
 30
0.0
 11
39.155535
 21
82.15009999999997
 31
0.0
  0
LINE
  5
12D
330
1E
100
AcDbEntity
  8
0
100
AcDbLine
 10
37.844435
 20
79.4058
 30
0.0
 11
39.507835
 21
81.7814
 31
0.0
  0
LINE
  5
12E
330
1E
100
AcDbEntity
  8
0
100
AcDbLine
 10
39.073135
 20
78.5455
 30
0.0
 11
40.73653499999998
 21
80.921
 31
0.0
  0
LINE
  5
12F
330
1E
100
AcDbEntity
  8
0
100
AcDbLine
 10
38.27823499999999
 20
76.5385
 30
0.0
 11
39.65483499999999
 21
78.5044
 31
0.0
  0
LINE
  5
130
330
1E
100
AcDbEntity
  8
0
100
AcDbLine
 10
39.65483499999999
 20
78.5044
 30
0.0
 11
41.20343499999999
 21
80.71609999999997
 31
0.0
  0
LINE
  5
131
330
1E
100
AcDbEntity
  8
0
100
AcDbLine
 10
38.45833499999999
 20
75.92399999999997
 30
0.0
 11
39.89233499999999
 21
77.9719
 31
0.0
  0
LINE
  5
132
330
1E
100
AcDbEntity
  8
0
100
AcDbLine
 10
39.89233499999999
 20
77.9719
 30
0.0
 11
41.55563499999998
 21
80.34739999999997
 31
0.0
  0
LINE
  5
134
330
1E
100
AcDbEntity
  8
0
100
AcDbLine
 10
37.586835
 20
115.1149999999999
 30
0.0
 11
37.9186736621015
 21
115.5478079304709
 31
0.0
  0
LINE
  5
135
330
1E
100
AcDbEntity
  8
0
100
AcDbLine
 10
37.49873499999999
 20
115.022
 30
0.0
 11
38.68553499999999
 21
116.5079999999999
 31
0.0
  0
LINE
  5
136
330
1E
100
AcDbEntity
  8
0
100
AcDbLine
 10
38.7154163016385
 20
116.587343973015
 30
0.0
 11
38.82492052851588
 21
116.8781111065049
 31
0.0
  0
LINE
  5
139
330
1E
100
AcDbEntity
  8
0
100
AcDbLine
 10
38.73613499999999
 20
116.6139999999999
 30
0.0
 11
38.82492052851588
 21
116.8781111065049
 31
0.0
  0
LINE
  5
13A
330
1E
100
AcDbEntity
  8
0
100
AcDbLine
 10
38.68553499999999
 20
116.5079999999999
 30
0.0
 11
39.23123499999999
 21
117.957
 31
0.0
  0
LINE
  5
13B
330
1E
100
AcDbEntity
  8
0
100
AcDbLine
 10
39.23123499999999
 20
117.957
 30
0.0
 11
39.277535
 21
119.2629999999999
 31
0.0
  0
LINE
  5
13C
330
1E
100
AcDbEntity
  8
0
100
AcDbLine
 10
39.1810652105185
 20
119.632378244543
 30
0.0
 11
39.25403499999998
 21
119.3969999999999
 31
0.0
  0
LINE
  5
13D
330
1E
100
AcDbEntity
  8
0
100
AcDbLine
 10
39.022635
 20
120.2389999999999
 30
0.0
 11
39.277535
 21
119.2629999999999
 31
0.0
  0
LINE
  5
13E
330
1E
100
AcDbEntity
  8
0
100
AcDbLine
 10
38.407035
 20
121.304
 30
0.0
 11
39.022635
 21
120.2389999999999
 31
0.0
  0
LINE
  5
13F
330
1E
100
AcDbEntity
  8
0
100
AcDbLine
 10
39.155535
 20
82.15009999999997
 30
0.0
 11
40.87633499999999
 21
84.6075
 31
0.0
  0
LINE
  5
140
330
1E
100
AcDbEntity
  8
0
100
AcDbLine
 10
39.155535
 20
82.15009999999997
 30
0.0
 11
40.015935
 21
83.3788
 31
0.0
  0
LINE
  5
141
330
1E
100
AcDbEntity
  8
0
100
AcDbLine
 10
40.015935
 20
83.3788
 30
0.0
 11
40.87633499999999
 21
84.6075
 31
0.0
  0
LINE
  5
142
330
1E
100
AcDbEntity
  8
0
100
AcDbLine
 10
40.87633499999999
 20
84.6075
 30
0.0
 11
42.59703499999999
 21
87.065
 31
0.0
  0
LINE
  5
143
330
1E
100
AcDbEntity
  8
0
100
AcDbLine
 10
40.87633499999999
 20
84.6075
 30
0.0
 11
41.73663499999999
 21
85.83629999999997
 31
0.0
  0
LINE
  5
144
330
1E
100
AcDbEntity
  8
0
100
AcDbLine
 10
39.507835
 20
81.7814
 30
0.0
 11
41.285835
 21
84.32070000000001
 31
0.0
  0
LINE
  5
145
330
1E
100
AcDbEntity
  8
0
100
AcDbLine
 10
40.73653499999998
 20
80.921
 30
0.0
 11
42.51463499999998
 21
83.4604
 31
0.0
  0
LINE
  5
146
330
1E
100
AcDbEntity
  8
0
100
AcDbLine
 10
41.73663499999999
 20
85.83629999999997
 30
0.0
 11
42.59703499999999
 21
87.065
 31
0.0
  0
LINE
  5
147
330
1E
100
AcDbEntity
  8
0
100
AcDbLine
 10
42.59703499999999
 20
87.065
 30
0.0
 11
44.14573499999998
 21
89.2767
 31
0.0
  0
LINE
  5
148
330
1E
100
AcDbEntity
  8
0
100
AcDbLine
 10
42.59703499999999
 20
87.065
 30
0.0
 11
43.28533499999998
 21
88.04799999999998
 31
0.0
  0
LINE
  5
149
330
1E
100
AcDbEntity
  8
0
100
AcDbLine
 10
43.28533499999998
 20
88.04799999999998
 30
0.0
 11
43.6573708880048
 21
88.5792667291923
 31
0.0
  0
LINE
  5
14A
330
1E
100
AcDbEntity
  8
0
100
AcDbLine
 10
43.93744325235259
 20
88.9792383494081
 30
0.0
 11
44.203035
 21
89.35859999999998
 31
0.0
  0
LINE
  5
14B
330
1E
100
AcDbEntity
  8
0
100
AcDbLine
 10
44.203035
 20
89.35859999999998
 30
0.0
 11
44.317735
 21
89.52240000000001
 31
0.0
  0
LINE
  5
14C
330
1E
100
AcDbEntity
  8
0
100
AcDbLine
 10
44.14573499999998
 20
89.2767
 30
0.0
 11
45.52223499999999
 21
91.2427
 31
0.0
  0
LINE
  5
14D
330
1E
100
AcDbEntity
  8
0
100
AcDbLine
 10
43.063935
 20
86.86010000000001
 30
0.0
 11
44.72733499999999
 21
89.23569999999998
 31
0.0
  0
LINE
  5
14E
330
1E
100
AcDbEntity
  8
0
100
AcDbLine
 10
41.285835
 20
84.32070000000001
 30
0.0
 11
43.063935
 21
86.86010000000001
 31
0.0
  0
LINE
  5
14F
330
1E
100
AcDbEntity
  8
0
100
AcDbLine
 10
44.29273499999999
 20
85.9997
 30
0.0
 11
45.956035
 21
88.37529999999999
 31
0.0
  0
LINE
  5
150
330
1E
100
AcDbEntity
  8
0
100
AcDbLine
 10
42.51463499999998
 20
83.4604
 30
0.0
 11
44.29273499999999
 21
85.9997
 31
0.0
  0
LINE
  5
151
330
1E
100
AcDbEntity
  8
0
100
AcDbLine
 10
44.72733499999999
 20
89.23569999999998
 30
0.0
 11
46.16123499999999
 21
91.28350000000001
 31
0.0
  0
LINE
  5
152
330
1E
100
AcDbEntity
  8
0
100
AcDbLine
 10
44.64493499999998
 20
85.631
 30
0.0
 11
46.19353499999999
 21
87.8428
 31
0.0
  0
LINE
  5
153
330
1E
100
AcDbEntity
  8
0
100
AcDbLine
 10
42.92423499999999
 20
83.17359999999998
 30
0.0
 11
44.64493499999998
 21
85.631
 31
0.0
  0
LINE
  5
154
330
1E
100
AcDbEntity
  8
0
100
AcDbLine
 10
45.52223499999999
 20
91.2427
 30
0.0
 11
46.612035
 21
92.79900000000001
 31
0.0
  0
LINE
  5
155
330
1E
100
AcDbEntity
  8
0
100
AcDbLine
 10
46.16123499999999
 20
91.28350000000001
 30
0.0
 11
47.25103499999998
 21
92.83990000000001
 31
0.0
  0
LINE
  5
156
330
1E
100
AcDbEntity
  8
0
100
AcDbLine
 10
45.956035
 20
88.37529999999999
 30
0.0
 11
47.39003499999999
 21
90.4232
 31
0.0
  0
LINE
  5
157
330
1E
100
AcDbEntity
  8
0
100
AcDbLine
 10
47.570135
 20
89.80870000000001
 30
0.0
 11
48.659935
 21
91.36509999999999
 31
0.0
  0
LINE
  5
158
330
1E
100
AcDbEntity
  8
0
100
AcDbLine
 10
47.39003499999999
 20
90.4232
 30
0.0
 11
48.47983499999998
 21
91.9796
 31
0.0
  0
LINE
  5
159
330
1E
100
AcDbEntity
  8
0
100
AcDbLine
 10
46.612035
 20
92.79900000000001
 30
0.0
 11
47.243035
 21
93.7001
 31
0.0
  0
LINE
  5
15A
330
1E
100
AcDbEntity
  8
0
100
AcDbLine
 10
47.47243499999998
 20
94.02779999999999
 30
0.0
 11
48.16883499999999
 21
94.1506
 31
0.0
  0
LINE
  5
15B
330
1E
100
AcDbEntity
  8
0
100
AcDbLine
 10
47.243035
 20
93.7001
 30
0.0
 11
47.47243499999998
 21
94.02779999999999
 31
0.0
  0
LINE
  5
15C
330
1E
100
AcDbEntity
  8
0
100
AcDbLine
 10
47.25103499999998
 20
92.83990000000001
 30
0.0
 11
47.939335
 21
93.82290000000001
 31
0.0
  0
LINE
  5
15D
330
1E
100
AcDbEntity
  8
0
100
AcDbLine
 10
48.16883499999999
 20
94.1506
 30
0.0
 11
49.397535
 21
93.29019999999999
 31
0.0
  0
LINE
  5
15E
330
1E
100
AcDbEntity
  8
0
100
AcDbLine
 10
47.939335
 20
93.82290000000001
 30
0.0
 11
48.16883499999999
 21
94.1506
 31
0.0
  0
LINE
  5
15F
330
1E
100
AcDbEntity
  8
0
100
AcDbLine
 10
48.47983499999998
 20
91.9796
 30
0.0
 11
49.16813499999999
 21
92.9625
 31
0.0
  0
LINE
  5
160
330
1E
100
AcDbEntity
  8
0
100
AcDbLine
 10
48.659935
 20
91.36509999999999
 30
0.0
 11
49.290935
 21
92.2662
 31
0.0
  0
LINE
  5
161
330
1E
100
AcDbEntity
  8
0
100
AcDbLine
 10
48.20913499999999
 20
89.84959999999999
 30
0.0
 11
49.298935
 21
91.406
 31
0.0
  0
LINE
  5
162
330
1E
100
AcDbEntity
  8
0
100
AcDbLine
 10
46.19353499999999
 20
87.8428
 30
0.0
 11
47.570135
 21
89.80870000000001
 31
0.0
  0
LINE
  5
163
330
1E
100
AcDbEntity
  8
0
100
AcDbLine
 10
46.77523499999998
 20
87.8017
 30
0.0
 11
48.20913499999999
 21
89.84959999999999
 31
0.0
  0
LINE
  5
164
330
1E
100
AcDbEntity
  8
0
100
AcDbLine
 10
45.111835
 20
85.42619999999997
 30
0.0
 11
46.77523499999998
 21
87.8017
 31
0.0
  0
LINE
  5
165
330
1E
100
AcDbEntity
  8
0
100
AcDbLine
 10
43.33373499999999
 20
82.88679999999997
 30
0.0
 11
45.111835
 21
85.42619999999997
 31
0.0
  0
LINE
  5
166
330
1E
100
AcDbEntity
  8
0
100
AcDbLine
 10
41.20343499999999
 20
80.71609999999997
 30
0.0
 11
42.92423499999999
 21
83.17359999999998
 31
0.0
  0
LINE
  5
167
330
1E
100
AcDbEntity
  8
0
100
AcDbLine
 10
41.55563499999998
 20
80.34739999999997
 30
0.0
 11
43.33373499999999
 21
82.88679999999997
 31
0.0
  0
LINE
  5
168
330
1E
100
AcDbEntity
  8
0
100
AcDbLine
 10
37.188435
 20
74.9821
 30
0.0
 11
38.27823499999999
 21
76.5385
 31
0.0
  0
LINE
  5
169
330
1E
100
AcDbEntity
  8
0
100
AcDbLine
 10
37.36853499999998
 20
74.36759999999998
 30
0.0
 11
38.45833499999999
 21
75.92399999999997
 31
0.0
  0
LINE
  5
16A
330
1E
100
AcDbEntity
  8
0
100
AcDbLine
 10
36.68023499999998
 20
73.38460000000002
 30
0.0
 11
37.36853499999998
 21
74.36759999999998
 31
0.0
  0
LINE
  5
16B
330
1E
100
AcDbEntity
  8
0
100
AcDbLine
 10
36.450835
 20
73.057
 30
0.0
 11
36.68023499999998
 21
73.38460000000002
 31
0.0
  0
LINE
  5
16C
330
1E
100
AcDbEntity
  8
0
100
AcDbLine
 10
36.450835
 20
73.057
 30
0.0
 11
46.28063499999998
 21
66.17409999999999
 31
0.0
  0
LINE
  5
16D
330
1E
100
AcDbEntity
  8
0
100
AcDbLine
 10
49.188035
 20
59.8656
 30
0.0
 11
51.573335
 21
63.272
 31
0.0
  0
LINE
  5
16E
330
1E
100
AcDbEntity
  8
0
100
AcDbLine
 10
49.4994473031062
 20
70.77095680698178
 30
0.0
 11
49.9549309761265
 21
71.42145571798029
 31
0.0
  0
LINE
  5
16F
330
1E
100
AcDbEntity
  8
0
100
AcDbLine
 10
49.4994473031063
 20
70.77095680698178
 30
0.0
 11
49.9549309761265
 21
71.42145571798029
 31
0.0
  0
LINE
  5
170
330
1E
100
AcDbEntity
  8
0
100
AcDbLine
 10
49.16813499999999
 20
92.9625
 30
0.0
 11
49.397535
 21
93.29019999999999
 31
0.0
  0
LINE
  5
171
330
1E
100
AcDbEntity
  8
0
100
AcDbLine
 10
49.397535
 20
93.29019999999999
 30
0.0
 11
49.52033499999998
 21
92.5938
 31
0.0
  0
LINE
  5
172
330
1E
100
AcDbEntity
  8
0
100
AcDbLine
 10
49.52033499999998
 20
92.5938
 30
0.0
 11
50.21663499999998
 21
92.7166
 31
0.0
  0
LINE
  5
173
330
1E
100
AcDbEntity
  8
0
100
AcDbLine
 10
49.290935
 20
92.2662
 30
0.0
 11
49.52033499999998
 21
92.5938
 31
0.0
  0
LINE
  5
174
330
1E
100
AcDbEntity
  8
0
100
AcDbLine
 10
49.298935
 20
91.406
 30
0.0
 11
49.987235
 21
92.38899999999999
 31
0.0
  0
LINE
  5
175
330
1E
100
AcDbEntity
  8
0
100
AcDbLine
 10
50.21663499999998
 20
92.7166
 30
0.0
 11
60.04653499999999
 21
85.8337
 31
0.0
  0
LINE
  5
176
330
1E
100
AcDbEntity
  8
0
100
AcDbLine
 10
49.987235
 20
92.38899999999999
 30
0.0
 11
50.21663499999998
 21
92.7166
 31
0.0
  0
LINE
  5
177
330
1E
100
AcDbEntity
  8
0
100
AcDbLine
 10
49.72213499999998
 20
71.089
 30
0.0
 11
51.385535
 21
73.4645
 31
0.0
  0
LINE
  5
178
330
1E
100
AcDbEntity
  8
0
100
AcDbLine
 10
49.474835
 20
60.2751
 30
0.0
 11
49.761635
 21
60.6847
 31
0.0
  0
LINE
  5
179
330
1E
100
AcDbEntity
  8
0
100
AcDbLine
 10
51.573335
 20
63.272
 30
0.0
 11
53.7766362864804
 21
66.4186633789607
 31
0.0
  0
LINE
  5
17A
330
1E
100
AcDbEntity
  8
0
100
AcDbLine
 10
51.385535
 20
73.4645
 30
0.0
 11
53.163635
 21
76.0039
 31
0.0
  0
LINE
  5
17B
330
1E
100
AcDbEntity
  8
0
100
AcDbLine
 10
51.77723499999999
 20
62.6916
 30
0.0
 11
53.784735
 21
65.5586
 31
0.0
  0
LINE
  5
17C
330
1E
100
AcDbEntity
  8
0
100
AcDbLine
 10
50.62203499999998
 20
61.9134
 30
0.0
 11
51.5060465242707
 21
63.17590665168978
 31
0.0
  0
LINE
  5
17D
330
1E
100
AcDbEntity
  8
0
100
AcDbLine
 10
50.28593499999999
 20
60.5618
 30
0.0
 11
51.77723499999999
 21
62.6916
 31
0.0
  0
LINE
  5
17E
330
1E
100
AcDbEntity
  8
0
100
AcDbLine
 10
49.368235
 20
59.2511
 30
0.0
 11
50.28593499999999
 21
60.5618
 31
0.0
  0
LINE
  5
17F
330
1E
100
AcDbEntity
  8
0
100
AcDbLine
 10
49.024035
 20
58.7596
 30
0.0
 11
49.96603499999999
 21
57.48969999999999
 31
0.0
  0
LINE
  5
180
330
1E
100
AcDbEntity
  8
0
100
AcDbLine
 10
49.024035
 20
58.7596
 30
0.0
 11
49.368235
 21
59.2511
 31
0.0
  0
LINE
  5
181
330
1E
100
AcDbEntity
  8
0
100
AcDbLine
 10
49.024035
 20
58.7596
 30
0.0
 11
49.474835
 21
60.2751
 31
0.0
  0
LINE
  5
182
330
1E
100
AcDbEntity
  8
0
100
AcDbLine
 10
50.310135
 20
57.9812
 30
0.0
 11
51.285235
 21
59.3737
 31
0.0
  0
LINE
  5
183
330
1E
100
AcDbEntity
  8
0
100
AcDbLine
 10
53.68852270980529
 20
76.75356245797491
 30
0.0
 11
57.6941173173254
 21
82.4741219509419
 31
0.0
  0
LINE
  5
184
330
1E
100
AcDbEntity
  8
0
100
AcDbLine
 10
53.163635
 20
76.0039
 30
0.0
 11
54.94163499999999
 21
78.5433
 31
0.0
  0
LINE
  5
185
330
1E
100
AcDbEntity
  8
0
100
AcDbLine
 10
53.163635
 20
76.0039
 30
0.0
 11
54.94163499999999
 21
78.5433
 31
0.0
  0
LINE
  5
186
330
1E
100
AcDbEntity
  8
0
100
AcDbLine
 10
53.784735
 20
65.5586
 30
0.0
 11
56.07903499999999
 21
68.8352
 31
0.0
  0
LINE
  5
187
330
1E
100
AcDbEntity
  8
0
100
AcDbLine
 10
54.234735
 20
60.9708
 30
0.0
 11
56.242235
 21
63.8379
 31
0.0
  0
LINE
  5
188
330
1E
100
AcDbEntity
  8
0
100
AcDbLine
 10
52.743435
 20
58.841
 30
0.0
 11
54.234735
 21
60.9708
 31
0.0
  0
LINE
  5
189
330
1E
100
AcDbEntity
  8
0
100
AcDbLine
 10
52.46463499999999
 20
57.5713
 30
0.0
 11
54.42293499999999
 21
59.0743
 31
0.0
  0
LINE
  5
18A
330
1E
100
AcDbEntity
  8
0
100
AcDbLine
 10
68.499835
 20
-0.0000000000000205
 30
0.0
 11
68.99983500000001
 21
1.49999999999998
 31
0.0
  0
LINE
  5
18B
330
1E
100
AcDbEntity
  8
0
100
AcDbLine
 10
99.89983500000001
 20
-0.0000000000000219
 30
0.0
 11
105.899835
 21
-0.0000000000000217
 31
0.0
  0
LINE
  5
18C
330
1E
100
AcDbEntity
  8
0
100
AcDbLine
 10
93.499835
 20
-0.0000000000000219
 30
0.0
 11
99.89983500000001
 21
-0.0000000000000219
 31
0.0
  0
LINE
  5
18D
330
1E
100
AcDbEntity
  8
0
100
AcDbLine
 10
75.89983499999998
 20
-0.0000000000000215
 30
0.0
 11
81.099835
 21
-0.0000000000000217
 31
0.0
  0
LINE
  5
18E
330
1E
100
AcDbEntity
  8
0
100
AcDbLine
 10
111.099835
 20
-0.0000000000000215
 30
0.0
 11
115.199835
 21
-0.0000000000000211
 31
0.0
  0
LINE
  5
18F
330
1E
100
AcDbEntity
  8
0
100
AcDbLine
 10
115.199835
 20
-0.0000000000000211
 30
0.0
 11
117.599835
 21
-0.0000000000000208
 31
0.0
  0
LINE
  5
190
330
1E
100
AcDbEntity
  8
0
100
AcDbLine
 10
117.599835
 20
-0.0000000000000208
 30
0.0
 11
118.499835
 21
-0.0000000000000204
 31
0.0
  0
LINE
  5
191
330
1E
100
AcDbEntity
  8
0
100
AcDbLine
 10
105.899835
 20
-0.0000000000000217
 30
0.0
 11
111.099835
 21
-0.0000000000000215
 31
0.0
  0
LINE
  5
192
330
1E
100
AcDbEntity
  8
0
100
AcDbLine
 10
81.099835
 20
-0.0000000000000217
 30
0.0
 11
87.09983499999998
 21
-0.0000000000000219
 31
0.0
  0
LINE
  5
193
330
1E
100
AcDbEntity
  8
0
100
AcDbLine
 10
87.09983499999998
 20
-0.0000000000000219
 30
0.0
 11
93.499835
 21
-0.0000000000000219
 31
0.0
  0
LINE
  5
194
330
1E
100
AcDbEntity
  8
0
100
AcDbLine
 10
71.799835
 20
-0.0000000000000211
 30
0.0
 11
75.89983499999998
 21
-0.0000000000000215
 31
0.0
  0
LINE
  5
195
330
1E
100
AcDbEntity
  8
0
100
AcDbLine
 10
71.799835
 20
-0.0000000000000196
 30
0.0
 11
75.89983499999998
 21
-0.0000000000000193
 31
0.0
  0
LINE
  5
196
330
1E
100
AcDbEntity
  8
0
100
AcDbLine
 10
69.399835
 20
-0.00000000000002
 30
0.0
 11
71.799835
 21
-0.0000000000000196
 31
0.0
  0
LINE
  5
197
330
1E
100
AcDbEntity
  8
0
100
AcDbLine
 10
75.89983499999998
 20
-0.0000000000000193
 30
0.0
 11
81.099835
 21
-0.0000000000000191
 31
0.0
  0
LINE
  5
198
330
1E
100
AcDbEntity
  8
0
100
AcDbLine
 10
81.099835
 20
-0.0000000000000191
 30
0.0
 11
87.09983499999998
 21
-0.0000000000000189
 31
0.0
  0
LINE
  5
199
330
1E
100
AcDbEntity
  8
0
100
AcDbLine
 10
105.899835
 20
-0.0000000000000191
 30
0.0
 11
111.099835
 21
-0.0000000000000193
 31
0.0
  0
LINE
  5
19A
330
1E
100
AcDbEntity
  8
0
100
AcDbLine
 10
99.89983500000001
 20
-0.0000000000000189
 30
0.0
 11
105.899835
 21
-0.0000000000000191
 31
0.0
  0
LINE
  5
19B
330
1E
100
AcDbEntity
  8
0
100
AcDbLine
 10
93.499835
 20
-0.0000000000000188
 30
0.0
 11
99.89983500000001
 21
-0.0000000000000189
 31
0.0
  0
LINE
  5
19C
330
1E
100
AcDbEntity
  8
0
100
AcDbLine
 10
111.099835
 20
-0.0000000000000193
 30
0.0
 11
115.199835
 21
-0.0000000000000196
 31
0.0
  0
LINE
  5
19D
330
1E
100
AcDbEntity
  8
0
100
AcDbLine
 10
115.199835
 20
-0.0000000000000196
 30
0.0
 11
117.599835
 21
-0.00000000000002
 31
0.0
  0
LINE
  5
19E
330
1E
100
AcDbEntity
  8
0
100
AcDbLine
 10
117.599835
 20
-0.00000000000002
 30
0.0
 11
118.499835
 21
-0.0000000000000204
 31
0.0
  0
LINE
  5
19F
330
1E
100
AcDbEntity
  8
0
100
AcDbLine
 10
87.09983499999998
 20
-0.0000000000000189
 30
0.0
 11
93.499835
 21
-0.0000000000000188
 31
0.0
  0
LINE
  5
1A0
330
1E
100
AcDbEntity
  8
0
100
AcDbLine
 10
116.9998349999999
 20
2.49999999999998
 30
0.0
 11
117.9998349999999
 21
1.49999999999998
 31
0.0
  0
LINE
  5
1A1
330
1E
100
AcDbEntity
  8
0
100
AcDbLine
 10
117.9998349999999
 20
1.49999999999998
 30
0.0
 11
118.499835
 21
-0.0000000000000204
 31
0.0
  0
LINE
  5
1A2
330
1E
100
AcDbEntity
  8
0
100
AcDbLine
 10
117.9998349999999
 20
1.49999999999998
 30
0.0
 11
118.499835
 21
-0.0000000000000205
 31
0.0
  0
LINE
  5
1A3
330
1E
100
AcDbEntity
  8
0
100
AcDbLine
 10
72.44733499999998
 20
46.4549
 30
0.0
 11
75.004435
 21
44.3802
 31
0.0
  0
LINE
  5
1A4
330
1E
100
AcDbEntity
  8
0
100
AcDbLine
 10
111.499835
 20
6.999999999999981
 30
0.0
 11
113.499835
 21
3.999999999999978
 31
0.0
  0
LINE
  5
1A5
330
1E
100
AcDbEntity
  8
0
100
AcDbLine
 10
113.499835
 20
3.999999999999978
 30
0.0
 11
116.9998349999999
 21
2.49999999999998
 31
0.0
  0
LINE
  5
1A6
330
1E
100
AcDbEntity
  8
0
100
AcDbLine
 10
75.004435
 20
44.3802
 30
0.0
 11
76.84143500000002
 21
41.7299
 31
0.0
  0
LINE
  5
1A7
330
1E
100
AcDbEntity
  8
0
100
AcDbLine
 10
75.999835
 20
14.0
 30
0.0
 11
75.999835
 21
13.5
 31
0.0
  0
LINE
  5
1A8
330
1E
100
AcDbEntity
  8
0
100
AcDbLine
 10
75.999835
 20
14.0
 30
0.0
 11
76.49983500000002
 21
15.0
 31
0.0
  0
LINE
  5
1A9
330
1E
100
AcDbEntity
  8
0
100
AcDbLine
 10
76.49983500000002
 20
15.0
 30
0.0
 11
77.499835
 21
15.5
 31
0.0
  0
LINE
  5
1AA
330
1E
100
AcDbEntity
  8
0
100
AcDbLine
 10
76.49983500000002
 20
15.0
 30
0.0
 11
77.09983499999998
 21
15.0
 31
0.0
  0
LINE
  5
1AB
330
1E
100
AcDbEntity
  8
0
100
AcDbLine
 10
75.999835
 20
13.5
 30
0.0
 11
76.49983500000002
 21
12.5
 31
0.0
  0
LINE
  5
1AC
330
1E
100
AcDbEntity
  8
0
100
AcDbLine
 10
75.999835
 20
13.5
 30
0.0
 11
75.999835
 21
14.0
 31
0.0
  0
LINE
  5
1AD
330
1E
100
AcDbEntity
  8
0
100
AcDbLine
 10
76.49983500000002
 20
12.5
 30
0.0
 11
76.69983499999998
 21
11.4
 31
0.0
  0
LINE
  5
1AE
330
1E
100
AcDbEntity
  8
0
100
AcDbLine
 10
77.09983499999998
 20
15.0
 30
0.0
 11
78.799835
 21
15.0
 31
0.0
  0
LINE
  5
1AF
330
1E
100
AcDbEntity
  8
0
100
AcDbLine
 10
78.799835
 20
15.0
 30
0.0
 11
89.099835
 21
15.0
 31
0.0
  0
LINE
  5
1B0
330
1E
100
AcDbEntity
  8
0
100
AcDbLine
 10
97.89983499999999
 20
15.0
 30
0.0
 11
101.999835
 21
15.0
 31
0.0
  0
LINE
  5
1B1
330
1E
100
AcDbEntity
  8
0
100
AcDbLine
 10
93.499835
 20
15.0
 30
0.0
 11
97.89983499999999
 21
15.0
 31
0.0
  0
LINE
  5
1B2
330
1E
100
AcDbEntity
  8
0
100
AcDbLine
 10
101.999835
 20
15.0
 30
0.0
 11
109.899835
 21
15.0
 31
0.0
  0
LINE
  5
1B3
330
1E
100
AcDbEntity
  8
0
100
AcDbLine
 10
109.899835
 20
15.0
 30
0.0
 11
110.499835
 21
15.0
 31
0.0
  0
LINE
  5
1B4
330
1E
100
AcDbEntity
  8
0
100
AcDbLine
 10
89.099835
 20
15.0
 30
0.0
 11
93.499835
 21
15.0
 31
0.0
  0
LINE
  5
1B5
330
1E
100
AcDbEntity
  8
0
100
AcDbLine
 10
109.499835
 20
15.5
 30
0.0
 11
110.499835
 21
15.0
 31
0.0
  0
LINE
  5
1B6
330
1E
100
AcDbEntity
  8
0
100
AcDbLine
 10
110.499835
 20
15.0
 30
0.0
 11
110.999835
 21
14.0
 31
0.0
  0
LINE
  5
1B7
330
1E
100
AcDbEntity
  8
0
100
AcDbLine
 10
110.499835
 20
12.5
 30
0.0
 11
110.999835
 21
13.5
 31
0.0
  0
LINE
  5
1B8
330
1E
100
AcDbEntity
  8
0
100
AcDbLine
 10
110.299835
 20
11.4
 30
0.0
 11
110.499835
 21
9.99999999999998
 31
0.0
  0
LINE
  5
1B9
330
1E
100
AcDbEntity
  8
0
100
AcDbLine
 10
110.299835
 20
11.4
 30
0.0
 11
110.499835
 21
12.5
 31
0.0
  0
LINE
  5
1BA
330
1E
100
AcDbEntity
  8
0
100
AcDbLine
 10
110.999835
 20
14.0
 30
0.0
 11
110.999835
 21
13.5
 31
0.0
  0
LINE
  5
1BB
330
1E
100
AcDbEntity
  8
0
100
AcDbLine
 10
110.999835
 20
13.5
 30
0.0
 11
110.999835
 21
14.0
 31
0.0
  0
LINE
  5
1BC
330
1E
100
AcDbEntity
  8
0
100
AcDbLine
 10
110.499835
 20
9.99999999999998
 30
0.0
 11
111.499835
 21
6.999999999999981
 31
0.0
  0
LINE
  5
1BD
330
1E
100
AcDbEntity
  8
0
100
AcDbLine
 10
76.84143500000002
 20
41.7299
 30
0.0
 11
78.07883499999999
 21
38.76189999999999
 31
0.0
  0
LINE
  5
1BE
330
1E
100
AcDbEntity
  8
0
100
AcDbLine
 10
80.099835
 20
16.0
 30
0.0
 11
82.599835
 21
16.0
 31
0.0
  0
LINE
  5
1BF
330
1E
100
AcDbEntity
  8
0
100
AcDbLine
 10
77.999835
 20
16.0
 30
0.0
 11
80.099835
 21
16.0
 31
0.0
  0
LINE
  5
1C0
330
1E
100
AcDbEntity
  8
0
100
AcDbLine
 10
101.199835
 20
16.0
 30
0.0
 11
104.399835
 21
16.0
 31
0.0
  0
LINE
  5
1C1
330
1E
100
AcDbEntity
  8
0
100
AcDbLine
 10
97.499835
 20
16.0
 30
0.0
 11
101.199835
 21
16.0
 31
0.0
  0
LINE
  5
1C2
330
1E
100
AcDbEntity
  8
0
100
AcDbLine
 10
104.399835
 20
16.0
 30
0.0
 11
106.899835
 21
16.0
 31
0.0
  0
LINE
  5
1C3
330
1E
100
AcDbEntity
  8
0
100
AcDbLine
 10
106.899835
 20
16.0
 30
0.0
 11
108.999835
 21
16.0
 31
0.0
  0
LINE
  5
1C4
330
1E
100
AcDbEntity
  8
0
100
AcDbLine
 10
82.599835
 20
16.0
 30
0.0
 11
85.799835
 21
16.0
 31
0.0
  0
LINE
  5
1C5
330
1E
100
AcDbEntity
  8
0
100
AcDbLine
 10
85.799835
 20
16.0
 30
0.0
 11
97.499835
 21
16.0
 31
0.0
  0
LINE
  5
1C6
330
1E
100
AcDbEntity
  8
0
100
AcDbLine
 10
78.499835
 20
18.0
 30
0.0
 11
78.499835
 21
35.9866898037628
 31
0.0
  0
LINE
  5
1C7
330
1E
100
AcDbEntity
  8
0
100
AcDbLine
 10
78.499835
 20
35.9866898037628
 30
0.0
 11
78.499835
 21
18.0
 31
0.0
  0
LINE
  5
1C8
330
1E
100
AcDbEntity
  8
0
100
AcDbLine
 10
108.920835
 20
38.76189999999999
 30
0.0
 11
110.157835
 21
41.7299
 31
0.0
  0
LINE
  5
1C9
330
1E
100
AcDbEntity
  8
0
100
AcDbLine
 10
108.499835
 20
35.9850044534412
 30
0.0
 11
108.920835
 21
38.76189999999999
 31
0.0
  0
LINE
  5
1CA
330
1E
100
AcDbEntity
  8
0
100
AcDbLine
 10
108.499835
 20
35.9850044534412
 30
0.0
 11
108.499835
 21
18.0
 31
0.0
  0
LINE
  5
1CB
330
1E
100
AcDbEntity
  8
0
100
AcDbLine
 10
78.07883499999999
 20
38.76189999999999
 30
0.0
 11
78.499835
 21
35.9866898037628
 31
0.0
  0
LINE
  5
1CC
330
1E
100
AcDbEntity
  8
0
100
AcDbLine
 10
108.499835
 20
18.0
 30
0.0
 11
108.999835
 21
16.0
 31
0.0
  0
LINE
  5
1CD
330
1E
100
AcDbEntity
  8
0
100
AcDbLine
 10
108.499835
 20
18.0
 30
0.0
 11
108.499835
 21
35.9850044534412
 31
0.0
  0
LINE
  5
1CE
330
1E
100
AcDbEntity
  8
0
100
AcDbLine
 10
111.994835
 20
44.3802
 30
0.0
 11
114.551835
 21
46.4549
 31
0.0
  0
LINE
  5
1CF
330
1E
100
AcDbEntity
  8
0
100
AcDbLine
 10
132.307835
 20
59.4577
 30
0.0
 11
132.576835
 21
59.0743
 31
0.0
  0
LINE
  5
1D0
330
1E
100
AcDbEntity
  8
0
100
AcDbLine
 10
114.551835
 20
46.4549
 30
0.0
 11
132.576835
 21
59.0743
 31
0.0
  0
LINE
  5
1D1
330
1E
100
AcDbEntity
  8
0
100
AcDbLine
 10
135.1738349999999
 20
57.5304
 30
0.0
 11
135.517835
 21
57.0389
 31
0.0
  0
LINE
  5
1D2
330
1E
100
AcDbEntity
  8
0
100
AcDbLine
 10
137.033835
 20
57.48969999999999
 30
0.0
 11
137.975835
 21
58.7596
 31
0.0
  0
LINE
  5
1D3
330
1E
100
AcDbEntity
  8
0
100
AcDbLine
 10
135.517835
 20
57.0389
 30
0.0
 11
137.033835
 21
57.48969999999999
 31
0.0
  0
LINE
  5
1D4
330
1E
100
AcDbEntity
  8
0
100
AcDbLine
 10
137.631835
 20
59.2511
 30
0.0
 11
137.975835
 21
58.7596
 31
0.0
  0
LINE
  5
1D5
330
1E
100
AcDbEntity
  8
0
100
AcDbLine
 10
135.714835
 20
59.3737
 30
0.0
 11
136.689835
 21
57.9812
 31
0.0
  0
LINE
  5
1D6
330
1E
100
AcDbEntity
  8
0
100
AcDbLine
 10
136.689835
 20
57.9812
 30
0.0
 11
137.033835
 21
57.48969999999999
 31
0.0
  0
LINE
  5
1D7
330
1E
100
AcDbEntity
  8
0
100
AcDbLine
 10
134.255835
 20
58.841
 30
0.0
 11
135.1738349999999
 21
57.5304
 31
0.0
  0
LINE
  5
1D8
330
1E
100
AcDbEntity
  8
0
100
AcDbLine
 10
134.534835
 20
57.5713
 30
0.0
 11
135.517835
 21
57.0389
 31
0.0
  0
LINE
  5
1D9
330
1E
100
AcDbEntity
  8
0
100
AcDbLine
 10
132.576835
 20
59.0743
 30
0.0
 11
134.534835
 21
57.5713
 31
0.0
  0
LINE
  5
1DA
330
1E
100
AcDbEntity
  8
0
100
AcDbLine
 10
110.157835
 20
41.7299
 30
0.0
 11
111.994835
 21
44.3802
 31
0.0
  0
LINE
  5
1DB
330
1E
100
AcDbEntity
  8
0
100
AcDbLine
 10
108.999835
 20
16.0
 30
0.0
 11
109.499835
 21
15.5
 31
0.0
  0
LINE
  5
1DC
330
1E
100
AcDbEntity
  8
0
100
AcDbLine
 10
77.999835
 20
16.0
 30
0.0
 11
78.499835
 21
18.0
 31
0.0
  0
LINE
  5
1DD
330
1E
100
AcDbEntity
  8
0
100
AcDbLine
 10
77.499835
 20
15.5
 30
0.0
 11
77.999835
 21
16.0
 31
0.0
  0
LINE
  5
1DE
330
1E
100
AcDbEntity
  8
0
100
AcDbLine
 10
76.49983500000002
 20
9.99999999999998
 30
0.0
 11
76.69983499999998
 21
11.4
 31
0.0
  0
LINE
  5
1DF
330
1E
100
AcDbEntity
  8
0
100
AcDbLine
 10
75.499835
 20
6.999999999999981
 30
0.0
 11
76.49983500000002
 21
9.99999999999998
 31
0.0
  0
LINE
  5
1E0
330
1E
100
AcDbEntity
  8
0
100
AcDbLine
 10
73.499835
 20
3.999999999999978
 30
0.0
 11
75.499835
 21
6.999999999999981
 31
0.0
  0
LINE
  5
1E1
330
1E
100
AcDbEntity
  8
0
100
AcDbLine
 10
69.999835
 20
2.49999999999998
 30
0.0
 11
73.499835
 21
3.999999999999978
 31
0.0
  0
LINE
  5
1E2
330
1E
100
AcDbEntity
  8
0
100
AcDbLine
 10
68.99983500000001
 20
1.49999999999998
 30
0.0
 11
69.999835
 21
2.49999999999998
 31
0.0
  0
LINE
  5
1E3
330
1E
100
AcDbEntity
  8
0
100
AcDbLine
 10
69.399835
 20
-0.0000000000000208
 30
0.0
 11
71.799835
 21
-0.0000000000000211
 31
0.0
  0
LINE
  5
1E4
330
1E
100
AcDbEntity
  8
0
100
AcDbLine
 10
68.499835
 20
-0.0000000000000204
 30
0.0
 11
69.399835
 21
-0.0000000000000208
 31
0.0
  0
LINE
  5
1E5
330
1E
100
AcDbEntity
  8
0
100
AcDbLine
 10
68.499835
 20
-0.0000000000000204
 30
0.0
 11
69.399835
 21
-0.00000000000002
 31
0.0
  0
LINE
  5
1E6
330
1E
100
AcDbEntity
  8
0
100
AcDbLine
 10
68.499835
 20
-0.0000000000000204
 30
0.0
 11
68.99983500000001
 21
1.49999999999998
 31
0.0
  0
LINE
  5
1E7
330
1E
100
AcDbEntity
  8
0
100
AcDbLine
 10
54.94163499999999
 20
78.5433
 30
0.0
 11
56.605035
 21
80.91880000000001
 31
0.0
  0
LINE
  5
1E8
330
1E
100
AcDbEntity
  8
0
100
AcDbLine
 10
54.94163499999999
 20
78.5433
 30
0.0
 11
56.605035
 21
80.91880000000001
 31
0.0
  0
LINE
  5
1E9
330
1E
100
AcDbEntity
  8
0
100
AcDbLine
 10
51.285235
 20
59.3737
 30
0.0
 11
57.19303499999998
 21
67.81100000000001
 31
0.0
  0
LINE
  5
1EA
330
1E
100
AcDbEntity
  8
0
100
AcDbLine
 10
56.242235
 20
63.8379
 30
0.0
 11
58.536535
 21
67.11450000000001
 31
0.0
  0
LINE
  5
1EB
330
1E
100
AcDbEntity
  8
0
100
AcDbLine
 10
56.242235
 20
63.8379
 30
0.0
 11
58.536535
 21
67.11450000000001
 31
0.0
  0
LINE
  5
1EC
330
1E
100
AcDbEntity
  8
0
100
AcDbLine
 10
56.600235
 20
62.18379999999999
 30
0.0
 11
58.18103499999999
 21
64.4414
 31
0.0
  0
LINE
  5
1ED
330
1E
100
AcDbEntity
  8
0
100
AcDbLine
 10
137.811835
 20
59.8656
 30
0.0
 11
142.726835
 21
63.307
 31
0.0
  0
LINE
  5
1EE
330
1E
100
AcDbEntity
  8
0
100
AcDbLine
 10
130.399835
 20
62.18379999999999
 30
0.0
 11
131.592835
 21
60.48
 31
0.0
  0
LINE
  5
1EF
330
1E
100
AcDbEntity
  8
0
100
AcDbLine
 10
135.426835
 20
63.272
 30
0.0
 11
140.340835
 21
66.7135
 31
0.0
  0
LINE
  5
1F0
330
1E
100
AcDbEntity
  8
0
100
AcDbLine
 10
135.426835
 20
63.272
 30
0.0
 11
137.811835
 21
59.8656
 31
0.0
  0
LINE
  5
1F1
330
1E
100
AcDbEntity
  8
0
100
AcDbLine
 10
135.222835
 20
62.6916
 30
0.0
 11
136.713835
 21
60.5618
 31
0.0
  0
LINE
  5
1F2
330
1E
100
AcDbEntity
  8
0
100
AcDbLine
 10
132.764835
 20
60.9708
 30
0.0
 11
134.255835
 21
58.841
 31
0.0
  0
LINE
  5
1F3
330
1E
100
AcDbEntity
  8
0
100
AcDbLine
 10
131.592835
 20
60.48
 30
0.0
 11
132.307835
 21
59.4577
 31
0.0
  0
LINE
  5
1F4
330
1E
100
AcDbEntity
  8
0
100
AcDbLine
 10
134.226090376271
 20
64.98673787122128
 30
0.0
 11
137.811835
 21
59.8656
 31
0.0
  0
LINE
  5
1F5
330
1E
100
AcDbEntity
  8
0
100
AcDbLine
 10
134.226090376271
 20
64.98673787122128
 30
0.0
 11
137.811835
 21
59.8656
 31
0.0
  0
LINE
  5
1F6
330
1E
100
AcDbEntity
  8
0
100
AcDbLine
 10
133.222835
 20
66.4188
 30
0.0
 11
135.000835
 21
63.8794
 31
0.0
  0
LINE
  5
1F7
330
1E
100
AcDbEntity
  8
0
100
AcDbLine
 10
133.214835
 20
65.5586
 30
0.0
 11
135.222835
 21
62.6916
 31
0.0
  0
LINE
  5
1F8
330
1E
100
AcDbEntity
  8
0
100
AcDbLine
 10
130.757835
 20
63.8379
 30
0.0
 11
132.764835
 21
60.9708
 31
0.0
  0
LINE
  5
1F9
330
1E
100
AcDbEntity
  8
0
100
AcDbLine
 10
128.818835
 20
64.4414
 30
0.0
 11
130.399835
 21
62.18379999999999
 31
0.0
  0
LINE
  5
1FA
330
1E
100
AcDbEntity
  8
0
100
AcDbLine
 10
127.028835
 20
66.99720000000001
 30
0.0
 11
128.818835
 21
64.4414
 31
0.0
  0
LINE
  5
1FB
330
1E
100
AcDbEntity
  8
0
100
AcDbLine
 10
140.718835
 20
66.17409999999999
 30
0.0
 11
150.548835
 21
73.057
 31
0.0
  0
LINE
  5
1FC
330
1E
100
AcDbEntity
  8
0
100
AcDbLine
 10
140.489835
 20
66.5017
 30
0.0
 11
140.718835
 21
66.17409999999999
 31
0.0
  0
LINE
  5
1FD
330
1E
100
AcDbEntity
  8
0
100
AcDbLine
 10
140.340835
 20
66.7135
 30
0.0
 11
142.726835
 21
63.307
 31
0.0
  0
LINE
  5
1FE
330
1E
100
AcDbEntity
  8
0
100
AcDbLine
 10
140.236239001678
 20
66.86350677264228
 30
0.0
 11
140.6139003726599
 21
66.3242160869718
 31
0.0
  0
LINE
  5
1FF
330
1E
100
AcDbEntity
  8
0
100
AcDbLine
 10
140.7189628794029
 20
66.17418954029971
 30
0.0
 11
142.726835
 21
63.307
 31
0.0
  0
LINE
  5
200
330
1E
100
AcDbEntity
  8
0
100
AcDbLine
 10
136.713835
 20
60.5618
 30
0.0
 11
137.631835
 21
59.2511
 31
0.0
  0
LINE
  5
201
330
1E
100
AcDbEntity
  8
0
100
AcDbLine
 10
136.377835
 20
61.9134
 30
0.0
 11
137.237835
 21
60.6847
 31
0.0
  0
LINE
  5
202
330
1E
100
AcDbEntity
  8
0
100
AcDbLine
 10
137.5248349999999
 20
60.2751
 30
0.0
 11
137.975835
 21
58.7596
 31
0.0
  0
LINE
  5
203
330
1E
100
AcDbEntity
  8
0
100
AcDbLine
 10
58.18103499999999
 20
64.4414
 30
0.0
 11
59.97063499999999
 21
66.99720000000001
 31
0.0
  0
LINE
  5
204
330
1E
100
AcDbEntity
  8
0
100
AcDbLine
 10
55.54883499999998
 20
79.41030000000002
 30
0.0
 11
60.463735
 21
75.96890000000001
 31
0.0
  0
LINE
  5
205
330
1E
100
AcDbEntity
  8
0
100
AcDbLine
 10
55.54883499999998
 20
79.41030000000002
 30
0.0
 11
62.054035
 21
88.7007
 31
0.0
  0
LINE
  5
206
330
1E
100
AcDbEntity
  8
0
100
AcDbLine
 10
53.7766362864804
 20
66.4186633789607
 30
0.0
 11
58.078535
 21
72.5624
 31
0.0
  0
LINE
  5
207
330
1E
100
AcDbEntity
  8
0
100
AcDbLine
 10
56.6833090738031
 20
70.5698527195256
 30
0.0
 11
60.463735
 21
75.96890000000001
 31
0.0
  0
LINE
  5
208
330
1E
100
AcDbEntity
  8
0
100
AcDbLine
 10
56.6833090738031
 20
70.5698527195256
 30
0.0
 11
60.463735
 21
75.96890000000001
 31
0.0
  0
LINE
  5
209
330
1E
100
AcDbEntity
  8
0
100
AcDbLine
 10
58.039035
 20
82.9667
 30
0.0
 11
59.12883499999999
 21
84.5231
 31
0.0
  0
LINE
  5
20A
330
1E
100
AcDbEntity
  8
0
100
AcDbLine
 10
58.039035
 20
82.9667
 30
0.0
 11
59.12883499999999
 21
84.5231
 31
0.0
  0
LINE
  5
20B
330
1E
100
AcDbEntity
  8
0
100
AcDbLine
 10
56.605035
 20
80.91880000000001
 30
0.0
 11
58.039035
 21
82.9667
 31
0.0
  0
LINE
  5
20C
330
1E
100
AcDbEntity
  8
0
100
AcDbLine
 10
58.48803499999998
 20
72.2756
 30
0.0
 11
60.897135
 21
75.71609999999998
 31
0.0
  0
LINE
  5
20D
330
1E
100
AcDbEntity
  8
0
100
AcDbLine
 10
56.07903499999999
 20
68.8352
 30
0.0
 11
58.48803499999998
 21
72.2756
 31
0.0
  0
LINE
  5
20E
330
1E
100
AcDbEntity
  8
0
100
AcDbLine
 10
57.19303499999998
 20
67.81100000000001
 30
0.0
 11
59.716835
 21
71.4153
 31
0.0
  0
LINE
  5
20F
330
1E
100
AcDbEntity
  8
0
100
AcDbLine
 10
60.451174040096
 20
75.95096095880902
 30
0.0
 11
60.62554082124471
 21
76.1999795907069
 31
0.0
  0
LINE
  5
210
330
1E
100
AcDbEntity
  8
0
100
AcDbLine
 10
60.451174040096
 20
75.95096095880902
 30
0.0
 11
60.62554082124471
 21
76.1999795907069
 31
0.0
  0
LINE
  5
211
330
1E
100
AcDbEntity
  8
0
100
AcDbLine
 10
60.463735
 20
75.96890000000001
 30
0.0
 11
61.1391382758049
 21
76.93347704506199
 31
0.0
  0
LINE
  5
212
330
1E
100
AcDbEntity
  8
0
100
AcDbLine
 10
60.463735
 20
75.96890000000001
 30
0.0
 11
61.13913827580478
 21
76.93347704506199
 31
0.0
  0
LINE
  5
213
330
1E
100
AcDbEntity
  8
0
100
AcDbLine
 10
60.315435
 20
75.75709999999998
 30
0.0
 11
62.380335
 21
78.7061
 31
0.0
  0
LINE
  5
214
330
1E
100
AcDbEntity
  8
0
100
AcDbLine
 10
60.897135
 20
75.71609999999998
 30
0.0
 11
63.191435
 21
78.9927
 31
0.0
  0
LINE
  5
215
330
1E
100
AcDbEntity
  8
0
100
AcDbLine
 10
59.716835
 20
71.4153
 30
0.0
 11
62.240535
 21
75.01949999999998
 31
0.0
  0
LINE
  5
216
330
1E
100
AcDbEntity
  8
0
100
AcDbLine
 10
60.94553499999999
 20
70.5549
 30
0.0
 11
63.35453499999999
 21
73.9953
 31
0.0
  0
LINE
  5
217
330
1E
100
AcDbEntity
  8
0
100
AcDbLine
 10
62.240535
 20
75.01949999999998
 30
0.0
 11
68.148335
 21
83.45679999999999
 31
0.0
  0
LINE
  5
218
330
1E
100
AcDbEntity
  8
0
100
AcDbLine
 10
63.35453499999999
 20
73.9953
 30
0.0
 11
65.64883499999999
 21
77.27199999999998
 31
0.0
  0
LINE
  5
219
330
1E
100
AcDbEntity
  8
0
100
AcDbLine
 10
65.57793499999999
 20
75.0052
 30
0.0
 11
67.15863500000001
 21
77.2628
 31
0.0
  0
LINE
  5
21A
330
1E
100
AcDbEntity
  8
0
100
AcDbLine
 10
63.78833499999998
 20
72.44939999999998
 30
0.0
 11
65.57793499999999
 21
75.0052
 31
0.0
  0
LINE
  5
21B
330
1E
100
AcDbEntity
  8
0
100
AcDbLine
 10
61.879435
 20
69.72329999999999
 30
0.0
 11
63.78833499999998
 21
72.44939999999998
 31
0.0
  0
LINE
  5
21C
330
1E
100
AcDbEntity
  8
0
100
AcDbLine
 10
62.5352892488231
 20
78.9273897610013
 30
0.0
 11
66.968935
 21
85.2593
 31
0.0
  0
LINE
  5
21D
330
1E
100
AcDbEntity
  8
0
100
AcDbLine
 10
62.5352892488231
 20
78.9273897610013
 30
0.0
 11
66.968935
 21
85.2593
 31
0.0
  0
LINE
  5
21E
330
1E
100
AcDbEntity
  8
0
100
AcDbLine
 10
62.380335
 20
78.7061
 30
0.0
 11
64.158435
 21
81.24540000000001
 31
0.0
  0
LINE
  5
21F
330
1E
100
AcDbEntity
  8
0
100
AcDbLine
 10
63.191435
 20
78.9927
 30
0.0
 11
65.19893499999999
 21
81.85970000000002
 31
0.0
  0
LINE
  5
220
330
1E
100
AcDbEntity
  8
0
100
AcDbLine
 10
65.64883499999999
 20
77.27199999999998
 30
0.0
 11
67.65633499999998
 21
80.13899999999997
 31
0.0
  0
LINE
  5
221
330
1E
100
AcDbEntity
  8
0
100
AcDbLine
 10
67.15863500000001
 20
77.2628
 30
0.0
 11
68.35173499999999
 21
78.9666
 31
0.0
  0
LINE
  5
222
330
1E
100
AcDbEntity
  8
0
100
AcDbLine
 10
139.8235397651969
 20
67.45230698956641
 30
0.0
 11
140.489835
 21
66.5017
 31
0.0
  0
LINE
  5
223
330
1E
100
AcDbEntity
  8
0
100
AcDbLine
 10
138.711835
 20
69.0411
 30
0.0
 11
139.7662808917999
 21
67.5340847695151
 31
0.0
  0
LINE
  5
224
330
1E
100
AcDbEntity
  8
0
100
AcDbLine
 10
138.711835
 20
69.0411
 30
0.0
 11
139.7662808917999
 21
67.5340847695155
 31
0.0
  0
LINE
  5
225
330
1E
100
AcDbEntity
  8
0
100
AcDbLine
 10
130.920835
 20
68.8352
 30
0.0
 11
133.214835
 21
65.5586
 31
0.0
  0
LINE
  5
226
330
1E
100
AcDbEntity
  8
0
100
AcDbLine
 10
129.806835
 20
67.81100000000001
 30
0.0
 11
135.714835
 21
59.3737
 31
0.0
  0
LINE
  5
227
330
1E
100
AcDbEntity
  8
0
100
AcDbLine
 10
128.462835
 20
67.11450000000001
 30
0.0
 11
130.757835
 21
63.8379
 31
0.0
  0
LINE
  5
228
330
1E
100
AcDbEntity
  8
0
100
AcDbLine
 10
121.421835
 20
75.0052
 30
0.0
 11
123.211835
 21
72.44939999999998
 31
0.0
  0
LINE
  5
229
330
1E
100
AcDbEntity
  8
0
100
AcDbLine
 10
124.758835
 20
75.01949999999998
 30
0.0
 11
127.282835
 21
71.4153
 31
0.0
  0
LINE
  5
22A
330
1E
100
AcDbEntity
  8
0
100
AcDbLine
 10
123.644835
 20
73.9953
 30
0.0
 11
126.053835
 21
70.5549
 31
0.0
  0
LINE
  5
22B
330
1E
100
AcDbEntity
  8
0
100
AcDbLine
 10
123.211835
 20
72.44939999999998
 30
0.0
 11
125.119835
 21
69.72329999999999
 31
0.0
  0
LINE
  5
22C
330
1E
100
AcDbEntity
  8
0
100
AcDbLine
 10
121.350835
 20
77.27199999999998
 30
0.0
 11
123.644835
 21
73.9953
 31
0.0
  0
LINE
  5
22D
330
1E
100
AcDbEntity
  8
0
100
AcDbLine
 10
119.840835
 20
77.2628
 30
0.0
 11
121.421835
 21
75.0052
 31
0.0
  0
LINE
  5
22E
330
1E
100
AcDbEntity
  8
0
100
AcDbLine
 10
112.352835
 20
77.3719
 30
0.0
 11
113.955835
 21
77.78100000000002
 31
0.0
  0
LINE
  5
22F
330
1E
100
AcDbEntity
  8
0
100
AcDbLine
 10
125.953816525297
 20
76.8001351171987
 30
0.0
 11
126.535835
 21
75.96890000000001
 31
0.0
  0
LINE
  5
230
330
1E
100
AcDbEntity
  8
0
100
AcDbLine
 10
137.277835
 20
71.089
 30
0.0
 11
138.711835
 21
69.0411
 31
0.0
  0
LINE
  5
231
330
1E
100
AcDbEntity
  8
0
100
AcDbLine
 10
137.277835
 20
71.089
 30
0.0
 11
138.711835
 21
69.0411
 31
0.0
  0
LINE
  5
232
330
1E
100
AcDbEntity
  8
0
100
AcDbLine
 10
137.616860443075
 20
70.6039117159017
 30
0.0
 11
139.350567675327
 21
68.12822255658431
 31
0.0
  0
LINE
  5
233
330
1E
100
AcDbEntity
  8
0
100
AcDbLine
 10
137.616860443075
 20
70.6039117159017
 30
0.0
 11
139.350567675327
 21
68.12822255658431
 31
0.0
  0
LINE
  5
234
330
1E
100
AcDbEntity
  8
0
100
AcDbLine
 10
126.683835
 20
75.75709999999998
 30
0.0
 11
128.920835
 21
72.5624
 31
0.0
  0
LINE
  5
235
330
1E
100
AcDbEntity
  8
0
100
AcDbLine
 10
126.102835
 20
75.71609999999998
 30
0.0
 11
128.511835
 21
72.2756
 31
0.0
  0
LINE
  5
236
330
1E
100
AcDbEntity
  8
0
100
AcDbLine
 10
126.535835
 20
75.96890000000001
 30
0.0
 11
131.450835
 21
79.41030000000002
 31
0.0
  0
LINE
  5
237
330
1E
100
AcDbEntity
  8
0
100
AcDbLine
 10
126.535835
 20
75.96890000000001
 30
0.0
 11
135.426835
 21
63.272
 31
0.0
  0
LINE
  5
238
330
1E
100
AcDbEntity
  8
0
100
AcDbLine
 10
135.8619234464169
 20
73.11033286991331
 30
0.0
 11
137.277835
 21
71.089
 31
0.0
  0
LINE
  5
239
330
1E
100
AcDbEntity
  8
0
100
AcDbLine
 10
149.360835
 20
76.4976
 30
0.0
 11
150.449835
 21
74.94119999999998
 31
0.0
  0
LINE
  5
23A
330
1E
100
AcDbEntity
  8
0
100
AcDbLine
 10
148.721835
 20
76.5385
 30
0.0
 11
149.810835
 21
74.9821
 31
0.0
  0
LINE
  5
23B
330
1E
100
AcDbEntity
  8
0
100
AcDbLine
 10
148.540835
 20
75.92399999999997
 30
0.0
 11
149.630835
 21
74.36759999999998
 31
0.0
  0
LINE
  5
23C
330
1E
100
AcDbEntity
  8
0
100
AcDbLine
 10
150.449835
 20
74.94119999999998
 30
0.0
 11
151.138835
 21
73.9582
 31
0.0
  0
LINE
  5
23D
330
1E
100
AcDbEntity
  8
0
100
AcDbLine
 10
149.810835
 20
74.9821
 30
0.0
 11
150.4418349999999
 21
74.08100000000001
 31
0.0
  0
LINE
  5
23E
330
1E
100
AcDbEntity
  8
0
100
AcDbLine
 10
150.4418349999999
 20
74.08100000000001
 30
0.0
 11
150.671835
 21
73.75329999999998
 31
0.0
  0
LINE
  5
23F
330
1E
100
AcDbEntity
  8
0
100
AcDbLine
 10
149.630835
 20
74.36759999999998
 30
0.0
 11
150.319835
 21
73.38460000000002
 31
0.0
  0
LINE
  5
240
330
1E
100
AcDbEntity
  8
0
100
AcDbLine
 10
150.319835
 20
73.38460000000002
 30
0.0
 11
150.548835
 21
73.057
 31
0.0
  0
LINE
  5
241
330
1E
100
AcDbEntity
  8
0
100
AcDbLine
 10
151.367835
 20
73.6306
 30
0.0
 11
152.596835
 21
74.49089999999998
 31
0.0
  0
LINE
  5
242
330
1E
100
AcDbEntity
  8
0
100
AcDbLine
 10
151.8588349999999
 20
76.416
 30
0.0
 11
152.4898349999999
 21
75.5149
 31
0.0
  0
LINE
  5
243
330
1E
100
AcDbEntity
  8
0
100
AcDbLine
 10
150.588835
 20
77.3579
 30
0.0
 11
151.678835
 21
75.80159999999998
 31
0.0
  0
LINE
  5
244
330
1E
100
AcDbEntity
  8
0
100
AcDbLine
 10
151.678835
 20
75.80159999999998
 30
0.0
 11
152.366835
 21
74.81860000000001
 31
0.0
  0
LINE
  5
245
330
1E
100
AcDbEntity
  8
0
100
AcDbLine
 10
152.4898349999999
 20
75.5149
 30
0.0
 11
152.719835
 21
75.18729999999997
 31
0.0
  0
LINE
  5
246
330
1E
100
AcDbEntity
  8
0
100
AcDbLine
 10
152.366835
 20
74.81860000000001
 30
0.0
 11
152.596835
 21
74.49089999999998
 31
0.0
  0
LINE
  5
247
330
1E
100
AcDbEntity
  8
0
100
AcDbLine
 10
151.138835
 20
73.9582
 30
0.0
 11
151.367835
 21
73.6306
 31
0.0
  0
LINE
  5
249
330
1E
100
AcDbEntity
  8
0
100
AcDbLine
 10
176.9110785623979
 20
75.70299522289459
 30
0.0
 11
177.1586693990848
 21
75.49032861325641
 31
0.0
  0
LINE
  5
24A
330
1E
100
AcDbEntity
  8
0
100
AcDbLine
 10
176.930835
 20
75.67199999999998
 30
0.0
 11
177.1586693990848
 21
75.49032861325641
 31
0.0
  0
LINE
  5
24B
330
1E
100
AcDbEntity
  8
0
100
AcDbLine
 10
176.849835
 20
75.7556
 30
0.0
 11
178.023835
 21
74.74720000000002
 31
0.0
  0
LINE
  5
24C
330
1E
100
AcDbEntity
  8
0
100
AcDbLine
 10
178.023835
 20
74.74720000000002
 30
0.0
 11
179.235835
 21
74.25709999999998
 31
0.0
  0
LINE
  5
24E
330
1E
100
AcDbEntity
  8
0
100
AcDbLine
 10
179.329912199238
 20
74.24824512417529
 30
0.0
 11
179.6142395770629
 21
74.2214832345295
 31
0.0
  0
LINE
  5
24F
330
1E
100
AcDbEntity
  8
0
100
AcDbLine
 10
179.368835
 20
74.2334
 30
0.0
 11
179.6142395770629
 21
74.2214832345295
 31
0.0
  0
LINE
  5
250
330
1E
100
AcDbEntity
  8
0
100
AcDbLine
 10
179.235835
 20
74.25709999999998
 30
0.0
 11
180.2398349999999
 21
74.1626
 31
0.0
  0
LINE
  5
251
330
1E
100
AcDbEntity
  8
0
100
AcDbLine
 10
180.2398349999999
 20
74.1626
 30
0.0
 11
181.451835
 21
74.3769
 31
0.0
  0
LINE
  5
252
330
1E
100
AcDbEntity
  8
0
100
AcDbLine
 10
181.451835
 20
74.3769
 30
0.0
 11
184.0548349999999
 21
75.7651
 31
0.0
  0
LINE
  5
254
330
1E
100
AcDbEntity
  8
0
100
AcDbLine
 10
175.915835
 20
77.2644
 30
0.0
 11
176.221313369845
 21
76.78514506784091
 31
0.0
  0
LINE
  5
255
330
1E
100
AcDbEntity
  8
0
100
AcDbLine
 10
175.858835
 20
77.3789
 30
0.0
 11
176.849835
 21
75.7556
 31
0.0
  0
LINE
  5
256
330
1E
100
AcDbEntity
  8
0
100
AcDbLine
 10
175.858835
 20
77.3789
 30
0.0
 11
176.221313369845
 21
76.78514506784091
 31
0.0
  0
LINE
  5
257
330
1E
100
AcDbEntity
  8
0
100
AcDbLine
 10
184.0548349999999
 20
75.7651
 30
0.0
 11
186.249835
 21
77.73690000000001
 31
0.0
  0
LINE
  5
258
330
1E
100
AcDbEntity
  8
0
100
AcDbLine
 10
152.596835
 20
74.49089999999998
 30
0.0
 11
152.719835
 21
75.18729999999997
 31
0.0
  0
LINE
  5
259
330
1E
100
AcDbEntity
  8
0
100
AcDbLine
 10
150.671835
 20
73.75329999999998
 30
0.0
 11
151.367835
 21
73.6306
 31
0.0
  0
LINE
  5
25A
330
1E
100
AcDbEntity
  8
0
100
AcDbLine
 10
150.548835
 20
73.057
 30
0.0
 11
150.671835
 21
73.75329999999998
 31
0.0
  0
LINE
  5
25B
330
1E
100
AcDbEntity
  8
0
100
AcDbLine
 10
128.920835
 20
72.5624
 30
0.0
 11
131.157835
 21
69.3677
 31
0.0
  0
LINE
  5
25C
330
1E
100
AcDbEntity
  8
0
100
AcDbLine
 10
128.511835
 20
72.2756
 30
0.0
 11
130.920835
 21
68.8352
 31
0.0
  0
LINE
  5
25D
330
1E
100
AcDbEntity
  8
0
100
AcDbLine
 10
127.282835
 20
71.4153
 30
0.0
 11
129.806835
 21
67.81100000000001
 31
0.0
  0
LINE
  5
25E
330
1E
100
AcDbEntity
  8
0
100
AcDbLine
 10
126.053835
 20
70.5549
 30
0.0
 11
128.462835
 21
67.11450000000001
 31
0.0
  0
LINE
  5
25F
330
1E
100
AcDbEntity
  8
0
100
AcDbLine
 10
125.119835
 20
69.72329999999999
 30
0.0
 11
127.028835
 21
66.99720000000001
 31
0.0
  0
LINE
  5
260
330
1E
100
AcDbEntity
  8
0
100
AcDbLine
 10
110.845835
 20
77.68429999999998
 30
0.0
 11
112.352835
 21
77.3719
 31
0.0
  0
LINE
  5
261
330
1E
100
AcDbEntity
  8
0
100
AcDbLine
 10
113.955835
 20
77.78100000000002
 30
0.0
 11
117.663835
 21
80.37229999999999
 31
0.0
  0
LINE
  5
262
330
1E
100
AcDbEntity
  8
0
100
AcDbLine
 10
186.249835
 20
77.73690000000001
 30
0.0
 11
186.865835
 21
78.80169999999998
 31
0.0
  0
LINE
  5
263
330
1E
100
AcDbEntity
  8
0
100
AcDbLine
 10
76.15413499999998
 20
77.68429999999998
 30
0.0
 11
77.420035
 21
78.54300000000002
 31
0.0
  0
LINE
  5
264
330
1E
100
AcDbEntity
  8
0
100
AcDbLine
 10
74.64683499999998
 20
77.3719
 30
0.0
 11
76.15413499999998
 21
77.68429999999998
 31
0.0
  0
LINE
  5
265
330
1E
100
AcDbEntity
  8
0
100
AcDbLine
 10
118.850835
 20
83.45679999999999
 30
0.0
 11
124.758835
 21
75.01949999999998
 31
0.0
  0
LINE
  5
266
330
1E
100
AcDbEntity
  8
0
100
AcDbLine
 10
147.344835
 20
78.5044
 30
0.0
 11
148.721835
 21
76.5385
 31
0.0
  0
LINE
  5
267
330
1E
100
AcDbEntity
  8
0
100
AcDbLine
 10
147.107835
 20
77.9719
 30
0.0
 11
148.540835
 21
75.92399999999997
 31
0.0
  0
LINE
  5
268
330
1E
100
AcDbEntity
  8
0
100
AcDbLine
 10
175.6105054867769
 20
77.8432551448538
 30
0.0
 11
175.915835
 21
77.2644
 31
0.0
  0
LINE
  5
269
330
1E
100
AcDbEntity
  8
0
100
AcDbLine
 10
150.769835
 20
77.97239999999998
 30
0.0
 11
151.8588349999999
 21
76.416
 31
0.0
  0
LINE
  5
26A
330
1E
100
AcDbEntity
  8
0
100
AcDbLine
 10
118.647835
 20
78.9666
 30
0.0
 11
119.840835
 21
77.2628
 31
0.0
  0
LINE
  5
26B
330
1E
100
AcDbEntity
  8
0
100
AcDbLine
 10
123.807835
 20
78.9927
 30
0.0
 11
126.102835
 21
75.71609999999998
 31
0.0
  0
LINE
  5
26C
330
1E
100
AcDbEntity
  8
0
100
AcDbLine
 10
147.926835
 20
78.5455
 30
0.0
 11
149.360835
 21
76.4976
 31
0.0
  0
LINE
  5
26D
330
1E
100
AcDbEntity
  8
0
100
AcDbLine
 10
149.154835
 20
79.4058
 30
0.0
 11
150.588835
 21
77.3579
 31
0.0
  0
LINE
  5
26F
330
1E
100
AcDbEntity
  8
0
100
AcDbLine
 10
186.865835
 20
78.80169999999998
 30
0.0
 11
187.120835
 21
79.7784
 31
0.0
  0
LINE
  5
270
330
1E
100
AcDbEntity
  8
0
100
AcDbLine
 10
187.027237243264
 20
79.41990223920019
 30
0.0
 11
187.096835
 21
79.64449999999998
 31
0.0
  0
LINE
  5
271
330
1E
100
AcDbEntity
  8
0
100
AcDbLine
 10
149.5649423661589
 20
79.6926751765665
 30
0.0
 11
150.769835
 21
77.97239999999998
 31
0.0
  0
LINE
  5
272
330
1E
100
AcDbEntity
  8
0
100
AcDbLine
 10
149.5649423661589
 20
79.6926751765665
 30
0.0
 11
158.5756164887369
 21
86.00184700089156
 31
0.0
  0
LINE
  5
273
330
1E
100
AcDbEntity
  8
0
100
AcDbLine
 10
131.450835
 20
79.41030000000002
 30
0.0
 11
140.340835
 21
66.7135
 31
0.0
  0
LINE
  5
274
330
1E
100
AcDbEntity
  8
0
100
AcDbLine
 10
109.579835
 20
78.54300000000002
 30
0.0
 11
110.845835
 21
77.68429999999998
 31
0.0
  0
LINE
  5
275
330
1E
100
AcDbEntity
  8
0
100
AcDbLine
 10
108.798835
 20
79.834
 30
0.0
 11
109.579835
 21
78.54300000000002
 31
0.0
  0
LINE
  5
276
330
1E
100
AcDbEntity
  8
0
100
AcDbLine
 10
117.931835
 20
79.9889
 30
0.0
 11
118.647835
 21
78.9666
 31
0.0
  0
LINE
  5
277
330
1E
100
AcDbEntity
  8
0
100
AcDbLine
 10
149.392835
 20
79.9384
 30
0.0
 11
150.769835
 21
77.97239999999998
 31
0.0
  0
LINE
  5
278
330
1E
100
AcDbEntity
  8
0
100
AcDbLine
 10
78.201235
 20
79.834
 30
0.0
 11
78.499835
 21
80.9170629503024
 31
0.0
  0
LINE
  5
279
330
1E
100
AcDbEntity
  8
0
100
AcDbLine
 10
77.420035
 20
78.54300000000002
 30
0.0
 11
78.201235
 21
79.834
 31
0.0
  0
LINE
  5
27A
330
1E
100
AcDbEntity
  8
0
100
AcDbLine
 10
73.043635
 20
77.78100000000002
 30
0.0
 11
74.64683499999998
 21
77.3719
 31
0.0
  0
LINE
  5
27B
330
1E
100
AcDbEntity
  8
0
100
AcDbLine
 10
68.35173499999999
 20
78.9666
 30
0.0
 11
69.06753499999999
 21
79.9889
 31
0.0
  0
LINE
  5
27C
330
1E
100
AcDbEntity
  8
0
100
AcDbLine
 10
63.689568334482
 20
80.5758127305833
 30
0.0
 11
64.583735
 21
81.8528
 31
0.0
  0
LINE
  5
27D
330
1E
100
AcDbEntity
  8
0
100
AcDbLine
 10
64.583735
 20
81.8528
 30
0.0
 11
66.2656031222693
 21
84.254813985624
 31
0.0
  0
LINE
  5
27E
330
1E
100
AcDbEntity
  8
0
100
AcDbLine
 10
64.583735
 20
81.8528
 30
0.0
 11
66.2656031222693
 21
84.254813985624
 31
0.0
  0
LINE
  5
27F
330
1E
100
AcDbEntity
  8
0
100
AcDbLine
 10
65.19893499999999
 20
81.85970000000002
 30
0.0
 11
66.690235
 21
83.98950000000002
 31
0.0
  0
LINE
  5
280
330
1E
100
AcDbEntity
  8
0
100
AcDbLine
 10
67.65633499999998
 20
80.13899999999997
 30
0.0
 11
69.14763499999999
 21
82.26879999999999
 31
0.0
  0
LINE
  5
281
330
1E
100
AcDbEntity
  8
0
100
AcDbLine
 10
59.1428537760081
 20
84.5431239128392
 30
0.0
 11
59.66883499999998
 21
85.29430000000003
 31
0.0
  0
LINE
  5
282
330
1E
100
AcDbEntity
  8
0
100
AcDbLine
 10
59.1428537760081
 20
84.5431239128392
 30
0.0
 11
59.66883499999998
 21
85.29430000000003
 31
0.0
  0
LINE
  5
283
330
1E
100
AcDbEntity
  8
0
100
AcDbLine
 10
59.66883499999998
 20
85.29430000000003
 30
0.0
 11
60.034125648858
 21
85.81598625954629
 31
0.0
  0
LINE
  5
284
330
1E
100
AcDbEntity
  8
0
100
AcDbLine
 10
66.39534440229801
 20
84.4401081623881
 30
0.0
 11
66.968935
 21
85.2593
 31
0.0
  0
LINE
  5
285
330
1E
100
AcDbEntity
  8
0
100
AcDbLine
 10
59.12883499999999
 20
84.5231
 30
0.0
 11
59.817035
 21
85.5061
 31
0.0
  0
LINE
  5
286
330
1E
100
AcDbEntity
  8
0
100
AcDbLine
 10
60.0465309814976
 20
85.833702813757
 30
0.0
 11
62.054035
 21
88.7007
 31
0.0
  0
LINE
  5
287
330
1E
100
AcDbEntity
  8
0
100
AcDbLine
 10
62.054035
 20
88.7007
 30
0.0
 11
66.968935
 21
85.2593
 31
0.0
  0
LINE
  5
288
330
1E
100
AcDbEntity
  8
0
100
AcDbLine
 10
59.817035
 20
85.5061
 30
0.0
 11
60.04653499999999
 21
85.8337
 31
0.0
  0
LINE
  5
289
330
1E
100
AcDbEntity
  8
0
100
AcDbLine
 10
66.6821388350959
 20
84.8497028443124
 30
0.0
 11
67.952135
 21
85.79159999999998
 31
0.0
  0
LINE
  5
28A
330
1E
100
AcDbEntity
  8
0
100
AcDbLine
 10
66.690235
 20
83.98950000000002
 30
0.0
 11
67.607935
 21
85.3002
 31
0.0
  0
LINE
  5
28B
330
1E
100
AcDbEntity
  8
0
100
AcDbLine
 10
67.952135
 20
85.79159999999998
 30
0.0
 11
69.467635
 21
85.3409
 31
0.0
  0
LINE
  5
28C
330
1E
100
AcDbEntity
  8
0
100
AcDbLine
 10
67.607935
 20
85.3002
 30
0.0
 11
67.952135
 21
85.79159999999998
 31
0.0
  0
LINE
  5
28D
330
1E
100
AcDbEntity
  8
0
100
AcDbLine
 10
68.148335
 20
83.45679999999999
 30
0.0
 11
69.123435
 21
84.84939999999998
 31
0.0
  0
LINE
  5
28E
330
1E
100
AcDbEntity
  8
0
100
AcDbLine
 10
69.123435
 20
84.84939999999998
 30
0.0
 11
69.467635
 21
85.3409
 31
0.0
  0
LINE
  5
28F
330
1E
100
AcDbEntity
  8
0
100
AcDbLine
 10
69.14763499999999
 20
82.26879999999999
 30
0.0
 11
70.06543499999999
 21
83.57940000000002
 31
0.0
  0
LINE
  5
290
330
1E
100
AcDbEntity
  8
0
100
AcDbLine
 10
117.663835
 20
80.37229999999999
 30
0.0
 11
117.931835
 21
79.9889
 31
0.0
  0
LINE
  5
291
330
1E
100
AcDbEntity
  8
0
100
AcDbLine
 10
119.342835
 20
80.13899999999997
 30
0.0
 11
121.350835
 21
77.27199999999998
 31
0.0
  0
LINE
  5
292
330
1E
100
AcDbEntity
  8
0
100
AcDbLine
 10
145.795835
 20
80.71609999999997
 30
0.0
 11
147.344835
 21
78.5044
 31
0.0
  0
LINE
  5
293
330
1E
100
AcDbEntity
  8
0
100
AcDbLine
 10
145.443835
 20
80.34739999999997
 30
0.0
 11
147.107835
 21
77.9719
 31
0.0
  0
LINE
  5
294
330
1E
100
AcDbEntity
  8
0
100
AcDbLine
 10
173.970835
 20
80.9093
 30
0.0
 11
175.858835
 21
77.3789
 31
0.0
  0
LINE
  5
295
330
1E
100
AcDbEntity
  8
0
100
AcDbLine
 10
108.499835
 20
80.9165212598425
 30
0.0
 11
108.798835
 21
79.834
 31
0.0
  0
LINE
  5
296
330
1E
100
AcDbEntity
  8
0
100
AcDbLine
 10
108.499835
 20
80.9165212598425
 30
0.0
 11
108.499835
 21
91.5
 31
0.0
  0
LINE
  5
297
330
1E
100
AcDbEntity
  8
0
100
AcDbLine
 10
117.851835
 20
82.26879999999999
 30
0.0
 11
119.342835
 21
80.13899999999997
 31
0.0
  0
LINE
  5
298
330
1E
100
AcDbEntity
  8
0
100
AcDbLine
 10
116.753835
 20
82.96499999999998
 30
0.0
 11
117.663835
 21
80.37229999999999
 31
0.0
  0
LINE
  5
299
330
1E
100
AcDbEntity
  8
0
100
AcDbLine
 10
121.800835
 20
81.85970000000002
 30
0.0
 11
123.807835
 21
78.9927
 31
0.0
  0
LINE
  5
29A
330
1E
100
AcDbEntity
  8
0
100
AcDbLine
 10
122.840835
 20
81.24540000000001
 30
0.0
 11
125.953816525297
 21
76.8001351171987
 31
0.0
  0
LINE
  5
29B
330
1E
100
AcDbEntity
  8
0
100
AcDbLine
 10
122.415835
 20
81.8528
 30
0.0
 11
123.548614382408
 21
80.23513345376731
 31
0.0
  0
LINE
  5
29C
330
1E
100
AcDbEntity
  8
0
100
AcDbLine
 10
122.061892471372
 20
82.3583367814558
 30
0.0
 11
122.415835
 21
81.8528
 31
0.0
  0
LINE
  5
29D
330
1E
100
AcDbEntity
  8
0
100
AcDbLine
 10
121.6865087156079
 20
82.89467723482221
 30
0.0
 11
123.6661133083959
 21
80.06741843254021
 31
0.0
  0
LINE
  5
29E
330
1E
100
AcDbEntity
  8
0
100
AcDbLine
 10
116.933835
 20
83.57940000000002
 30
0.0
 11
117.851835
 21
82.26879999999999
 31
0.0
  0
LINE
  5
29F
330
1E
100
AcDbEntity
  8
0
100
AcDbLine
 10
128.9608349999999
 20
82.9667
 30
0.0
 11
130.3948349999999
 21
80.91880000000001
 31
0.0
  0
LINE
  5
2A0
330
1E
100
AcDbEntity
  8
0
100
AcDbLine
 10
146.2628349999999
 20
80.921
 30
0.0
 11
147.926835
 21
78.5455
 31
0.0
  0
LINE
  5
2A2
330
1E
100
AcDbEntity
  8
0
100
AcDbLine
 10
147.491835
 20
81.7814
 30
0.0
 11
149.154835
 21
79.4058
 31
0.0
  0
LINE
  5
2A3
330
1E
100
AcDbEntity
  8
0
100
AcDbLine
 10
147.843835
 20
82.15009999999997
 30
0.0
 11
148.532835
 21
81.16710000000002
 31
0.0
  0
LINE
  5
2A4
330
1E
100
AcDbEntity
  8
0
100
AcDbLine
 10
147.843835
 20
82.15009999999997
 30
0.0
 11
149.392835
 21
79.9384
 31
0.0
  0
LINE
  5
2A5
330
1E
100
AcDbEntity
  8
0
100
AcDbLine
 10
148.532835
 20
81.16710000000002
 30
0.0
 11
148.9509531035029
 21
80.56932975499128
 31
0.0
  0
LINE
  5
2A7
330
1E
100
AcDbEntity
  8
0
100
AcDbLine
 10
144.484835
 20
83.4604
 30
0.0
 11
146.2628349999999
 21
80.921
 31
0.0
  0
LINE
  5
2A8
330
1E
100
AcDbEntity
  8
0
100
AcDbLine
 10
144.075835
 20
83.17359999999998
 30
0.0
 11
145.795835
 21
80.71609999999997
 31
0.0
  0
LINE
  5
2A9
330
1E
100
AcDbEntity
  8
0
100
AcDbLine
 10
143.665835
 20
82.88679999999997
 30
0.0
 11
145.443835
 21
80.34739999999997
 31
0.0
  0
LINE
  5
2AA
330
1E
100
AcDbEntity
  8
0
100
AcDbLine
 10
146.983835
 20
83.3788
 30
0.0
 11
147.843835
 21
82.15009999999997
 31
0.0
  0
LINE
  5
2AB
330
1E
100
AcDbEntity
  8
0
100
AcDbLine
 10
186.528835
 20
82.53299999999999
 30
0.0
 11
187.073835
 21
81.08400000000001
 31
0.0
  0
LINE
  5
2AC
330
1E
100
AcDbEntity
  8
0
100
AcDbLine
 10
186.578835
 20
82.4276
 30
0.0
 11
186.6655373910348
 21
82.16954722090079
 31
0.0
  0
LINE
  5
2AD
330
1E
100
AcDbEntity
  8
0
100
AcDbLine
 10
187.073835
 20
81.08400000000001
 30
0.0
 11
187.120835
 21
79.7784
 31
0.0
  0
LINE
  5
2AE
330
1E
100
AcDbEntity
  8
0
100
AcDbLine
 10
130.3948349999999
 20
80.91880000000001
 30
0.0
 11
131.73055021401
 21
79.01080752201981
 31
0.0
  0
LINE
  5
2AF
330
1E
100
AcDbEntity
  8
0
100
AcDbLine
 10
78.499835
 20
80.9170629503024
 30
0.0
 11
78.499835
 21
91.5
 31
0.0
  0
LINE
  5
2B0
330
1E
100
AcDbEntity
  8
0
100
AcDbLine
 10
70.245535
 20
82.96499999999998
 30
0.0
 11
70.40953499999997
 21
84.0709
 31
0.0
  0
LINE
  5
2B1
330
1E
100
AcDbEntity
  8
0
100
AcDbLine
 10
78.499835
 20
91.5
 30
0.0
 11
78.499835
 21
80.9170629503024
 31
0.0
  0
LINE
  5
2B2
330
1E
100
AcDbEntity
  8
0
100
AcDbLine
 10
82.599835
 20
93.0
 30
0.0
 11
85.799835
 21
93.0
 31
0.0
  0
LINE
  5
2B3
330
1E
100
AcDbEntity
  8
0
100
AcDbLine
 10
104.399835
 20
93.0
 30
0.0
 11
106.899835
 21
93.0
 31
0.0
  0
LINE
  5
2B4
330
1E
100
AcDbEntity
  8
0
100
AcDbLine
 10
106.899835
 20
93.0
 30
0.0
 11
108.399835
 21
93.0
 31
0.0
  0
LINE
  5
2B5
330
1E
100
AcDbEntity
  8
0
100
AcDbLine
 10
108.399835
 20
93.0
 30
0.0
 11
108.999835
 21
93.0
 31
0.0
  0
LINE
  5
2B6
330
1E
100
AcDbEntity
  8
0
100
AcDbLine
 10
101.199835
 20
93.0
 30
0.0
 11
104.399835
 21
93.0
 31
0.0
  0
LINE
  5
2B7
330
1E
100
AcDbEntity
  8
0
100
AcDbLine
 10
97.499835
 20
93.0
 30
0.0
 11
101.199835
 21
93.0
 31
0.0
  0
LINE
  5
2B8
330
1E
100
AcDbEntity
  8
0
100
AcDbLine
 10
93.499835
 20
93.0
 30
0.0
 11
97.499835
 21
93.0
 31
0.0
  0
LINE
  5
2B9
330
1E
100
AcDbEntity
  8
0
100
AcDbLine
 10
85.799835
 20
93.0
 30
0.0
 11
89.499835
 21
93.0
 31
0.0
  0
LINE
  5
2BA
330
1E
100
AcDbEntity
  8
0
100
AcDbLine
 10
89.499835
 20
93.0
 30
0.0
 11
93.499835
 21
93.0
 31
0.0
  0
LINE
  5
2BB
330
1E
100
AcDbEntity
  8
0
100
AcDbLine
 10
80.099835
 20
93.0
 30
0.0
 11
82.599835
 21
93.0
 31
0.0
  0
LINE
  5
2BC
330
1E
100
AcDbEntity
  8
0
100
AcDbLine
 10
78.599835
 20
93.0
 30
0.0
 11
80.099835
 21
93.0
 31
0.0
  0
LINE
  5
2BD
330
1E
100
AcDbEntity
  8
0
100
AcDbLine
 10
120.309835
 20
83.98950000000002
 30
0.0
 11
121.800835
 21
81.85970000000002
 31
0.0
  0
LINE
  5
2BE
330
1E
100
AcDbEntity
  8
0
100
AcDbLine
 10
117.875835
 20
84.84939999999998
 30
0.0
 11
118.850835
 21
83.45679999999999
 31
0.0
  0
LINE
  5
2BF
330
1E
100
AcDbEntity
  8
0
100
AcDbLine
 10
120.603835
 20
84.4401
 30
0.0
 11
121.235133586534
 21
83.53919805659151
 31
0.0
  0
LINE
  5
2C0
330
1E
100
AcDbEntity
  8
0
100
AcDbLine
 10
120.603835
 20
84.4401
 30
0.0
 11
121.464835
 21
83.21139999999997
 31
0.0
  0
LINE
  5
2C1
330
1E
100
AcDbEntity
  8
0
100
AcDbLine
 10
116.589835
 20
84.0709
 30
0.0
 11
116.753835
 21
82.96499999999998
 31
0.0
  0
LINE
  5
2C2
330
1E
100
AcDbEntity
  8
0
100
AcDbLine
 10
116.589835
 20
84.0709
 30
0.0
 11
117.531835
 21
85.3409
 31
0.0
  0
LINE
  5
2C3
330
1E
100
AcDbEntity
  8
0
100
AcDbLine
 10
116.589835
 20
84.0709
 30
0.0
 11
116.933835
 21
83.57940000000002
 31
0.0
  0
LINE
  5
2C4
330
1E
100
AcDbEntity
  8
0
100
AcDbLine
 10
119.391835
 20
85.3002
 30
0.0
 11
120.309835
 21
83.98950000000002
 31
0.0
  0
LINE
  5
2C5
330
1E
100
AcDbEntity
  8
0
100
AcDbLine
 10
117.531835
 20
85.3409
 30
0.0
 11
119.047835
 21
85.79159999999998
 31
0.0
  0
LINE
  5
2C6
330
1E
100
AcDbEntity
  8
0
100
AcDbLine
 10
117.531835
 20
85.3409
 30
0.0
 11
117.875835
 21
84.84939999999998
 31
0.0
  0
LINE
  5
2C7
330
1E
100
AcDbEntity
  8
0
100
AcDbLine
 10
120.030835
 20
85.2593
 30
0.0
 11
121.350218762527
 21
83.3749644262296
 31
0.0
  0
LINE
  5
2C8
330
1E
100
AcDbEntity
  8
0
100
AcDbLine
 10
120.030835
 20
85.2593
 30
0.0
 11
124.945835
 21
88.7007
 31
0.0
  0
LINE
  5
2C9
330
1E
100
AcDbEntity
  8
0
100
AcDbLine
 10
120.030835
 20
85.2593
 30
0.0
 11
121.235133586534
 21
83.53919805659151
 31
0.0
  0
LINE
  5
2CA
330
1E
100
AcDbEntity
  8
0
100
AcDbLine
 10
128.3100736258149
 20
83.8959155988816
 30
0.0
 11
128.9608349999999
 21
82.9667
 31
0.0
  0
LINE
  5
2CB
330
1E
100
AcDbEntity
  8
0
100
AcDbLine
 10
128.31007362578
 20
83.8959155989319
 30
0.0
 11
128.9608349999999
 21
82.9667
 31
0.0
  0
LINE
  5
2CC
330
1E
100
AcDbEntity
  8
0
100
AcDbLine
 10
127.182835
 20
85.5061
 30
0.0
 11
127.642884774804
 21
84.8487905107088
 31
0.0
  0
LINE
  5
2CD
330
1E
100
AcDbEntity
  8
0
100
AcDbLine
 10
127.182835
 20
85.5061
 30
0.0
 11
127.642884774784
 21
84.84879051073809
 31
0.0
  0
LINE
  5
2CE
330
1E
100
AcDbEntity
  8
0
100
AcDbLine
 10
119.047835
 20
85.79159999999998
 30
0.0
 11
120.317365121186
 21
84.85004848728751
 31
0.0
  0
LINE
  5
2CF
330
1E
100
AcDbEntity
  8
0
100
AcDbLine
 10
119.047835
 20
85.79159999999998
 30
0.0
 11
119.391835
 21
85.3002
 31
0.0
  0
LINE
  5
2D0
330
1E
100
AcDbEntity
  8
0
100
AcDbLine
 10
124.945835
 20
88.7007
 30
0.0
 11
131.450835
 21
79.41030000000002
 31
0.0
  0
LINE
  5
2D1
330
1E
100
AcDbEntity
  8
0
100
AcDbLine
 10
126.953124068582
 20
85.8339024038805
 30
0.0
 11
136.782835
 21
92.7166
 31
0.0
  0
LINE
  5
2D2
330
1E
100
AcDbEntity
  8
0
100
AcDbLine
 10
127.112811711854
 20
85.60583751824578
 30
0.0
 11
127.182835
 21
85.5061
 31
0.0
  0
LINE
  5
2D3
330
1E
100
AcDbEntity
  8
0
100
AcDbLine
 10
141.4778349999999
 20
91.2427
 30
0.0
 11
142.853835
 21
89.2767
 31
0.0
  0
LINE
  5
2D4
330
1E
100
AcDbEntity
  8
0
100
AcDbLine
 10
141.4778349999999
 20
91.2427
 30
0.0
 11
142.68185848556
 21
89.52241644432291
 31
0.0
  0
LINE
  5
2D5
330
1E
100
AcDbEntity
  8
0
100
AcDbLine
 10
140.838835
 20
91.28350000000001
 30
0.0
 11
142.271835
 21
89.23569999999998
 31
0.0
  0
LINE
  5
2D6
330
1E
100
AcDbEntity
  8
0
100
AcDbLine
 10
139.609835
 20
90.4232
 30
0.0
 11
141.0438349999999
 21
88.37529999999999
 31
0.0
  0
LINE
  5
2D7
330
1E
100
AcDbEntity
  8
0
100
AcDbLine
 10
141.0438349999999
 20
88.37529999999999
 30
0.0
 11
142.706835
 21
85.9997
 31
0.0
  0
LINE
  5
2D8
330
1E
100
AcDbEntity
  8
0
100
AcDbLine
 10
139.4298349999999
 20
89.80870000000001
 30
0.0
 11
140.805835
 21
87.8428
 31
0.0
  0
LINE
  5
2D9
330
1E
100
AcDbEntity
  8
0
100
AcDbLine
 10
140.805835
 20
87.8428
 30
0.0
 11
142.354835
 21
85.631
 31
0.0
  0
LINE
  5
2DA
330
1E
100
AcDbEntity
  8
0
100
AcDbLine
 10
138.790835
 20
89.84959999999999
 30
0.0
 11
140.224835
 21
87.8017
 31
0.0
  0
LINE
  5
2DB
330
1E
100
AcDbEntity
  8
0
100
AcDbLine
 10
140.224835
 20
87.8017
 30
0.0
 11
141.8878349999999
 21
85.42619999999997
 31
0.0
  0
LINE
  5
2DC
330
1E
100
AcDbEntity
  8
0
100
AcDbLine
 10
145.713835
 20
84.32070000000001
 30
0.0
 11
147.491835
 21
81.7814
 31
0.0
  0
LINE
  5
2DD
330
1E
100
AcDbEntity
  8
0
100
AcDbLine
 10
172.369835
 20
84.11469999999999
 30
0.0
 11
173.970835
 21
80.9093
 31
0.0
  0
LINE
  5
2DE
330
1E
100
AcDbEntity
  8
0
100
AcDbLine
 10
146.123835
 20
84.6075
 30
0.0
 11
146.983835
 21
83.3788
 31
0.0
  0
LINE
  5
2DF
330
1E
100
AcDbEntity
  8
0
100
AcDbLine
 10
146.123835
 20
84.6075
 30
0.0
 11
147.843835
 21
82.15009999999997
 31
0.0
  0
LINE
  5
2E0
330
1E
100
AcDbEntity
  8
0
100
AcDbLine
 10
158.861835
 20
85.5924
 30
0.0
 11
165.415835
 21
90.181
 31
0.0
  0
LINE
  5
2E1
330
1E
100
AcDbEntity
  8
0
100
AcDbLine
 10
184.99610700893
 20
84.40445158763829
 30
0.0
 11
185.429835
 21
83.9259
 31
0.0
  0
LINE
  5
2E2
330
1E
100
AcDbEntity
  8
0
100
AcDbLine
 10
172.207835
 20
84.39149999999997
 30
0.0
 11
173.1683548013959
 21
82.51596460250118
 31
0.0
  0
LINE
  5
2E3
330
1E
100
AcDbEntity
  8
0
100
AcDbLine
 10
172.207835
 20
84.39149999999997
 30
0.0
 11
172.369835
 21
84.11469999999999
 31
0.0
  0
LINE
  5
2E4
330
1E
100
AcDbEntity
  8
0
100
AcDbLine
 10
185.429835
 20
83.9259
 30
0.0
 11
185.7623199967219
 21
83.492338406799
 31
0.0
  0
LINE
  5
2E5
330
1E
100
AcDbEntity
  8
0
100
AcDbLine
 10
185.341835
 20
84.0186
 30
0.0
 11
186.528835
 21
82.53299999999999
 31
0.0
  0
LINE
  5
2E6
330
1E
100
AcDbEntity
  8
0
100
AcDbLine
 10
142.68185848556
 20
89.52241644432291
 30
0.0
 11
151.692718981708
 21
95.831718765308
 31
0.0
  0
LINE
  5
2E7
330
1E
100
AcDbEntity
  8
0
100
AcDbLine
 10
142.693118513981
 20
89.50632835139039
 30
0.0
 11
142.853835
 21
89.2767
 31
0.0
  0
LINE
  5
2E8
330
1E
100
AcDbEntity
  8
0
100
AcDbLine
 10
142.693118513981
 20
89.50632835139039
 30
0.0
 11
142.796835
 21
89.35859999999998
 31
0.0
  0
LINE
  5
2E9
330
1E
100
AcDbEntity
  8
0
100
AcDbLine
 10
142.271835
 20
89.23569999999998
 30
0.0
 11
143.935835
 21
86.86010000000001
 31
0.0
  0
LINE
  5
2EA
330
1E
100
AcDbEntity
  8
0
100
AcDbLine
 10
158.5756164887369
 20
86.00184700089156
 30
0.0
 11
158.747835
 21
85.7562
 31
0.0
  0
LINE
  5
2EB
330
1E
100
AcDbEntity
  8
0
100
AcDbLine
 10
158.345835
 20
86.3296
 30
0.0
 11
158.747835
 21
85.7562
 31
0.0
  0
LINE
  5
2EC
330
1E
100
AcDbEntity
  8
0
100
AcDbLine
 10
158.747835
 20
85.7562
 30
0.0
 11
158.861835
 21
85.5924
 31
0.0
  0
LINE
  5
2ED
330
1E
100
AcDbEntity
  8
0
100
AcDbLine
 10
171.064835
 20
86.56270000000002
 30
0.0
 11
172.369835
 21
84.11469999999999
 31
0.0
  0
LINE
  5
2EE
330
1E
100
AcDbEntity
  8
0
100
AcDbLine
 10
143.140835
 20
88.86709999999998
 30
0.0
 11
143.714835
 21
88.04799999999998
 31
0.0
  0
LINE
  5
2EF
330
1E
100
AcDbEntity
  8
0
100
AcDbLine
 10
143.714835
 20
88.04799999999998
 30
0.0
 11
144.402835
 21
87.065
 31
0.0
  0
LINE
  5
2F0
330
1E
100
AcDbEntity
  8
0
100
AcDbLine
 10
142.796835
 20
89.35859999999998
 30
0.0
 11
143.140835
 21
88.86709999999998
 31
0.0
  0
LINE
  5
2F1
330
1E
100
AcDbEntity
  8
0
100
AcDbLine
 10
142.853835
 20
89.2767
 30
0.0
 11
144.402835
 21
87.065
 31
0.0
  0
LINE
  5
2F2
330
1E
100
AcDbEntity
  8
0
100
AcDbLine
 10
156.969835
 20
88.29559999999998
 30
0.0
 11
157.772835
 21
87.14879999999999
 31
0.0
  0
LINE
  5
2F3
330
1E
100
AcDbEntity
  8
0
100
AcDbLine
 10
156.854835
 20
88.4594
 30
0.0
 11
157.5428349999999
 21
87.4764
 31
0.0
  0
LINE
  5
2F4
330
1E
100
AcDbEntity
  8
0
100
AcDbLine
 10
156.108835
 20
89.52429999999997
 30
0.0
 11
156.969835
 21
88.29559999999998
 31
0.0
  0
LINE
  5
2F5
330
1E
100
AcDbEntity
  8
0
100
AcDbLine
 10
156.6667646817959
 20
88.7280999999737
 30
0.0
 11
156.854835
 21
88.4594
 31
0.0
  0
LINE
  5
2F6
330
1E
100
AcDbEntity
  8
0
100
AcDbLine
 10
156.6667646817959
 20
88.7280999999737
 30
0.0
 11
156.969835
 21
88.29559999999998
 31
0.0
  0
LINE
  5
2F7
330
1E
100
AcDbEntity
  8
0
100
AcDbLine
 10
167.913835
 20
90.0994
 30
0.0
 11
170.0032242834209
 21
88.54971477518271
 31
0.0
  0
LINE
  5
2F8
330
1E
100
AcDbEntity
  8
0
100
AcDbLine
 10
165.415835
 20
90.181
 30
0.0
 11
167.913835
 21
90.0994
 31
0.0
  0
LINE
  5
2F9
330
1E
100
AcDbEntity
  8
0
100
AcDbLine
 10
157.772835
 20
87.14879999999999
 30
0.0
 11
158.345835
 21
86.3296
 31
0.0
  0
LINE
  5
2FA
330
1E
100
AcDbEntity
  8
0
100
AcDbLine
 10
157.5428349999999
 20
87.4764
 30
0.0
 11
158.002035000006
 21
86.8211199999917
 31
0.0
  0
LINE
  5
2FB
330
1E
100
AcDbEntity
  8
0
100
AcDbLine
 10
167.741835
 20
90.3452
 30
0.0
 11
167.913835
 21
90.0994
 31
0.0
  0
LINE
  5
2FC
330
1E
100
AcDbEntity
  8
0
100
AcDbLine
 10
165.300835
 20
90.3448
 30
0.0
 11
165.415835
 21
90.181
 31
0.0
  0
LINE
  5
2FD
330
1E
100
AcDbEntity
  8
0
100
AcDbLine
 10
169.019835
 20
90.26340000000001
 30
0.0
 11
170.005835
 21
88.6067
 31
0.0
  0
LINE
  5
2FE
330
1E
100
AcDbEntity
  8
0
100
AcDbLine
 10
170.005835
 20
88.6067
 30
0.0
 11
171.064835
 21
86.56270000000002
 31
0.0
  0
LINE
  5
2FF
330
1E
100
AcDbEntity
  8
0
100
AcDbLine
 10
155.1338349999998
 20
90.91689999999999
 30
0.0
 11
156.108835
 21
89.52429999999997
 31
0.0
  0
LINE
  5
300
330
1E
100
AcDbEntity
  8
0
100
AcDbLine
 10
167.282835
 20
91.00050000000001
 30
0.0
 11
167.741835
 21
90.3452
 31
0.0
  0
LINE
  5
301
330
1E
100
AcDbEntity
  8
0
100
AcDbLine
 10
164.898835
 20
90.9182
 30
0.0
 11
165.300835
 21
90.3448
 31
0.0
  0
LINE
  5
302
330
1E
100
AcDbEntity
  8
0
100
AcDbLine
 10
179.4953918095959
 20
90.39239914349341
 30
0.0
 11
180.000835
 21
89.84849999999999
 31
0.0
  0
LINE
  5
303
330
1E
100
AcDbEntity
  8
0
100
AcDbLine
 10
180.000835
 20
89.84849999999999
 30
0.0
 11
180.205835
 21
89.6016
 31
0.0
  0
LINE
  5
304
330
1E
100
AcDbEntity
  8
0
100
AcDbLine
 10
180.000835
 20
89.84849999999999
 30
0.0
 11
181.425005248348
 21
88.31469257348659
 31
0.0
  0
LINE
  5
305
330
1E
100
AcDbEntity
  8
0
100
AcDbLine
 10
164.325835
 20
91.7374
 30
0.0
 11
164.898835
 21
90.9182
 31
0.0
  0
LINE
  5
306
330
1E
100
AcDbEntity
  8
0
100
AcDbLine
 10
178.351835
 20
91.66529999999999
 30
0.0
 11
180.205835
 21
89.6016
 31
0.0
  0
LINE
  5
307
330
1E
100
AcDbEntity
  8
0
100
AcDbLine
 10
180.205835
 20
89.6016
 30
0.0
 11
182.669835
 21
87.0007
 31
0.0
  0
LINE
  5
308
330
1E
100
AcDbEntity
  8
0
100
AcDbLine
 10
182.669835
 20
87.0007
 30
0.0
 11
185.341835
 21
84.0186
 31
0.0
  0
LINE
  5
309
330
1E
100
AcDbEntity
  8
0
100
AcDbLine
 10
144.402835
 20
87.065
 30
0.0
 11
146.123835
 21
84.6075
 31
0.0
  0
LINE
  5
30A
330
1E
100
AcDbEntity
  8
0
100
AcDbLine
 10
143.935835
 20
86.86010000000001
 30
0.0
 11
145.713835
 21
84.32070000000001
 31
0.0
  0
LINE
  5
30B
330
1E
100
AcDbEntity
  8
0
100
AcDbLine
 10
142.706835
 20
85.9997
 30
0.0
 11
144.484835
 21
83.4604
 31
0.0
  0
LINE
  5
30C
330
1E
100
AcDbEntity
  8
0
100
AcDbLine
 10
142.354835
 20
85.631
 30
0.0
 11
144.075835
 21
83.17359999999998
 31
0.0
  0
LINE
  5
30D
330
1E
100
AcDbEntity
  8
0
100
AcDbLine
 10
141.8878349999999
 20
85.42619999999997
 30
0.0
 11
143.665835
 21
82.88679999999997
 31
0.0
  0
LINE
  5
30E
330
1E
100
AcDbEntity
  8
0
100
AcDbLine
 10
166.537835
 20
92.0654
 30
0.0
 11
167.282835
 21
91.00050000000001
 31
0.0
  0
LINE
  5
30F
330
1E
100
AcDbEntity
  8
0
100
AcDbLine
 10
167.468835
 20
92.22929999999999
 30
0.0
 11
169.019835
 21
90.26340000000001
 31
0.0
  0
LINE
  5
310
330
1E
100
AcDbEntity
  8
0
100
AcDbLine
 10
138.519835
 20
91.9796
 30
0.0
 11
139.609835
 21
90.4232
 31
0.0
  0
LINE
  5
311
330
1E
100
AcDbEntity
  8
0
100
AcDbLine
 10
138.339835
 20
91.36509999999999
 30
0.0
 11
139.4298349999999
 21
89.80870000000001
 31
0.0
  0
LINE
  5
312
330
1E
100
AcDbEntity
  8
0
100
AcDbLine
 10
154.158835
 20
92.3094
 30
0.0
 11
155.1338349999998
 21
90.91689999999999
 31
0.0
  0
LINE
  5
313
330
1E
100
AcDbEntity
  8
0
100
AcDbLine
 10
137.708835
 20
92.2662
 30
0.0
 11
138.339835
 21
91.36509999999999
 31
0.0
  0
LINE
  5
314
330
1E
100
AcDbEntity
  8
0
100
AcDbLine
 10
137.700835
 20
91.406
 30
0.0
 11
138.790835
 21
89.84959999999999
 31
0.0
  0
LINE
  5
315
330
1E
100
AcDbEntity
  8
0
100
AcDbLine
 10
163.522835
 20
92.8842
 30
0.0
 11
164.325835
 21
91.7374
 31
0.0
  0
LINE
  5
316
330
1E
100
AcDbEntity
  8
0
100
AcDbLine
 10
140.387835
 20
92.79900000000001
 30
0.0
 11
141.4778349999999
 21
91.2427
 31
0.0
  0
LINE
  5
317
330
1E
100
AcDbEntity
  8
0
100
AcDbLine
 10
139.748835
 20
92.83990000000001
 30
0.0
 11
140.838835
 21
91.28350000000001
 31
0.0
  0
LINE
  5
318
330
1E
100
AcDbEntity
  8
0
100
AcDbLine
 10
137.831835
 20
92.9625
 30
0.0
 11
138.519835
 21
91.9796
 31
0.0
  0
LINE
  5
319
330
1E
100
AcDbEntity
  8
0
100
AcDbLine
 10
137.479835
 20
92.5938
 30
0.0
 11
137.708835
 21
92.2662
 31
0.0
  0
LINE
  5
31A
330
1E
100
AcDbEntity
  8
0
100
AcDbLine
 10
137.479835
 20
92.5938
 30
0.0
 11
137.601835
 21
93.29019999999999
 31
0.0
  0
LINE
  5
31B
330
1E
100
AcDbEntity
  8
0
100
AcDbLine
 10
137.0128349999999
 20
92.38899999999999
 30
0.0
 11
137.700835
 21
91.406
 31
0.0
  0
LINE
  5
31C
330
1E
100
AcDbEntity
  8
0
100
AcDbLine
 10
136.782835
 20
92.7166
 30
0.0
 11
137.0128349999999
 21
92.38899999999999
 31
0.0
  0
LINE
  5
31D
330
1E
100
AcDbEntity
  8
0
100
AcDbLine
 10
136.782835
 20
92.7166
 30
0.0
 11
137.479835
 21
92.5938
 31
0.0
  0
LINE
  5
31E
330
1E
100
AcDbEntity
  8
0
100
AcDbLine
 10
108.999835
 20
93.0
 30
0.0
 11
109.999835
 21
93.49999999999999
 31
0.0
  0
LINE
  5
31F
330
1E
100
AcDbEntity
  8
0
100
AcDbLine
 10
108.499835
 20
91.5
 30
0.0
 11
108.999835
 21
93.0
 31
0.0
  0
LINE
  5
320
330
1E
100
AcDbEntity
  8
0
100
AcDbLine
 10
108.499835
 20
91.5
 30
0.0
 11
108.499835
 21
80.9165212598425
 31
0.0
  0
LINE
  5
321
330
1E
100
AcDbEntity
  8
0
100
AcDbLine
 10
76.999835
 20
96.5
 30
0.0
 11
78.499835
 21
97.0
 31
0.0
  0
LINE
  5
322
330
1E
100
AcDbEntity
  8
0
100
AcDbLine
 10
76.999835
 20
96.5
 30
0.0
 11
77.599835
 21
96.5
 31
0.0
  0
LINE
  5
323
330
1E
100
AcDbEntity
  8
0
100
AcDbLine
 10
76.49983500000002
 20
95.0
 30
0.0
 11
76.999835
 21
93.49999999999999
 31
0.0
  0
LINE
  5
324
330
1E
100
AcDbEntity
  8
0
100
AcDbLine
 10
76.49983500000002
 20
95.0
 30
0.0
 11
76.999835
 21
96.5
 31
0.0
  0
LINE
  5
325
330
1E
100
AcDbEntity
  8
0
100
AcDbLine
 10
76.49983500000002
 20
95.0
 30
0.0
 11
77.09983499999998
 21
95.0
 31
0.0
  0
LINE
  5
326
330
1E
100
AcDbEntity
  8
0
100
AcDbLine
 10
81.799835
 20
93.49999999999999
 30
0.0
 11
85.299835
 21
93.49999999999999
 31
0.0
  0
LINE
  5
327
330
1E
100
AcDbEntity
  8
0
100
AcDbLine
 10
85.299835
 20
93.49999999999999
 30
0.0
 11
89.299835
 21
93.49999999999999
 31
0.0
  0
LINE
  5
328
330
1E
100
AcDbEntity
  8
0
100
AcDbLine
 10
105.199835
 20
93.49999999999999
 30
0.0
 11
107.799835
 21
93.49999999999999
 31
0.0
  0
LINE
  5
329
330
1E
100
AcDbEntity
  8
0
100
AcDbLine
 10
107.799835
 20
93.49999999999999
 30
0.0
 11
109.399835
 21
93.49999999999999
 31
0.0
  0
LINE
  5
32A
330
1E
100
AcDbEntity
  8
0
100
AcDbLine
 10
177.153206786897
 20
93.001522220998
 30
0.0
 11
177.948835
 21
94.0741
 31
0.0
  0
LINE
  5
32B
330
1E
100
AcDbEntity
  8
0
100
AcDbLine
 10
153.412835
 20
93.37430000000001
 30
0.0
 11
153.9830805126409
 21
92.5605245512405
 31
0.0
  0
LINE
  5
32C
330
1E
100
AcDbEntity
  8
0
100
AcDbLine
 10
165.619835
 20
93.376
 30
0.0
 11
166.537835
 21
92.0654
 31
0.0
  0
LINE
  5
32D
330
1E
100
AcDbEntity
  8
0
100
AcDbLine
 10
176.792835
 20
93.35939999999999
 30
0.0
 11
178.351835
 21
91.66529999999999
 31
0.0
  0
LINE
  5
32E
330
1E
100
AcDbEntity
  8
0
100
AcDbLine
 10
137.601835
 20
93.29019999999999
 30
0.0
 11
137.831835
 21
92.9625
 31
0.0
  0
LINE
  5
32F
330
1E
100
AcDbEntity
  8
0
100
AcDbLine
 10
137.601835
 20
93.29019999999999
 30
0.0
 11
138.830835
 21
94.1506
 31
0.0
  0
LINE
  5
330
330
1E
100
AcDbEntity
  8
0
100
AcDbLine
 10
109.399835
 20
93.49999999999999
 30
0.0
 11
109.999835
 21
93.49999999999999
 31
0.0
  0
LINE
  5
331
330
1E
100
AcDbEntity
  8
0
100
AcDbLine
 10
101.6998349999999
 20
93.49999999999999
 30
0.0
 11
105.199835
 21
93.49999999999999
 31
0.0
  0
LINE
  5
332
330
1E
100
AcDbEntity
  8
0
100
AcDbLine
 10
97.699835
 20
93.49999999999999
 30
0.0
 11
101.6998349999999
 21
93.49999999999999
 31
0.0
  0
LINE
  5
333
330
1E
100
AcDbEntity
  8
0
100
AcDbLine
 10
93.499835
 20
93.49999999999999
 30
0.0
 11
97.699835
 21
93.49999999999999
 31
0.0
  0
LINE
  5
334
330
1E
100
AcDbEntity
  8
0
100
AcDbLine
 10
89.299835
 20
93.49999999999999
 30
0.0
 11
93.499835
 21
93.49999999999999
 31
0.0
  0
LINE
  5
335
330
1E
100
AcDbEntity
  8
0
100
AcDbLine
 10
79.19983499999998
 20
93.49999999999999
 30
0.0
 11
81.799835
 21
93.49999999999999
 31
0.0
  0
LINE
  5
336
330
1E
100
AcDbEntity
  8
0
100
AcDbLine
 10
77.599835
 20
93.49999999999999
 30
0.0
 11
79.19983499999998
 21
93.49999999999999
 31
0.0
  0
LINE
  5
337
330
1E
100
AcDbEntity
  8
0
100
AcDbLine
 10
108.199835
 20
95.0
 30
0.0
 11
109.899835
 21
95.0
 31
0.0
  0
LINE
  5
338
330
1E
100
AcDbEntity
  8
0
100
AcDbLine
 10
109.899835
 20
95.0
 30
0.0
 11
110.499835
 21
95.0
 31
0.0
  0
LINE
  5
339
330
1E
100
AcDbEntity
  8
0
100
AcDbLine
 10
97.89983499999999
 20
95.0
 30
0.0
 11
108.199835
 21
95.0
 31
0.0
  0
LINE
  5
33A
330
1E
100
AcDbEntity
  8
0
100
AcDbLine
 10
93.499835
 20
95.0
 30
0.0
 11
97.89983499999999
 21
95.0
 31
0.0
  0
LINE
  5
33B
330
1E
100
AcDbEntity
  8
0
100
AcDbLine
 10
78.799835
 20
95.0
 30
0.0
 11
89.099835
 21
95.0
 31
0.0
  0
LINE
  5
33C
330
1E
100
AcDbEntity
  8
0
100
AcDbLine
 10
81.799835
 20
96.5
 30
0.0
 11
85.299835
 21
96.5
 31
0.0
  0
LINE
  5
33D
330
1E
100
AcDbEntity
  8
0
100
AcDbLine
 10
85.299835
 20
96.5
 30
0.0
 11
89.299835
 21
96.5
 31
0.0
  0
LINE
  5
33E
330
1E
100
AcDbEntity
  8
0
100
AcDbLine
 10
105.199835
 20
96.5
 30
0.0
 11
107.799835
 21
96.5
 31
0.0
  0
LINE
  5
33F
330
1E
100
AcDbEntity
  8
0
100
AcDbLine
 10
107.799835
 20
96.5
 30
0.0
 11
109.399835
 21
96.5
 31
0.0
  0
LINE
  5
340
330
1E
100
AcDbEntity
  8
0
100
AcDbLine
 10
109.399835
 20
96.5
 30
0.0
 11
109.999835
 21
96.5
 31
0.0
  0
LINE
  5
341
330
1E
100
AcDbEntity
  8
0
100
AcDbLine
 10
101.6998349999999
 20
96.5
 30
0.0
 11
105.199835
 21
96.5
 31
0.0
  0
LINE
  5
342
330
1E
100
AcDbEntity
  8
0
100
AcDbLine
 10
97.699835
 20
96.5
 30
0.0
 11
101.6998349999999
 21
96.5
 31
0.0
  0
LINE
  5
343
330
1E
100
AcDbEntity
  8
0
100
AcDbLine
 10
93.499835
 20
96.5
 30
0.0
 11
97.699835
 21
96.5
 31
0.0
  0
LINE
  5
344
330
1E
100
AcDbEntity
  8
0
100
AcDbLine
 10
89.299835
 20
96.5
 30
0.0
 11
93.499835
 21
96.5
 31
0.0
  0
LINE
  5
345
330
1E
100
AcDbEntity
  8
0
100
AcDbLine
 10
89.099835
 20
95.0
 30
0.0
 11
93.499835
 21
95.0
 31
0.0
  0
LINE
  5
346
330
1E
100
AcDbEntity
  8
0
100
AcDbLine
 10
79.19983499999998
 20
96.5
 30
0.0
 11
81.799835
 21
96.5
 31
0.0
  0
LINE
  5
347
330
1E
100
AcDbEntity
  8
0
100
AcDbLine
 10
80.999835
 20
97.0
 30
0.0
 11
81.568035
 21
98.50000000000001
 31
0.0
  0
LINE
  5
348
330
1E
100
AcDbEntity
  8
0
100
AcDbLine
 10
104.0998349999999
 20
97.0
 30
0.0
 11
106.4998349999999
 21
97.0
 31
0.0
  0
LINE
  5
349
330
1E
100
AcDbEntity
  8
0
100
AcDbLine
 10
106.4998349999999
 20
97.0
 30
0.0
 11
107.999835
 21
97.0
 31
0.0
  0
LINE
  5
34A
330
1E
100
AcDbEntity
  8
0
100
AcDbLine
 10
107.999835
 20
97.0
 30
0.0
 11
108.499835
 21
97.0
 31
0.0
  0
LINE
  5
34B
330
1E
100
AcDbEntity
  8
0
100
AcDbLine
 10
100.999835
 20
97.0
 30
0.0
 11
104.0998349999999
 21
97.0
 31
0.0
  0
LINE
  5
34C
330
1E
100
AcDbEntity
  8
0
100
AcDbLine
 10
97.39983500000001
 20
97.0
 30
0.0
 11
100.999835
 21
97.0
 31
0.0
  0
LINE
  5
34D
330
1E
100
AcDbEntity
  8
0
100
AcDbLine
 10
89.59983499999998
 20
97.0
 30
0.0
 11
97.39983500000001
 21
97.0
 31
0.0
  0
LINE
  5
34E
330
1E
100
AcDbEntity
  8
0
100
AcDbLine
 10
82.89983499999998
 20
97.0
 30
0.0
 11
89.59983499999998
 21
97.0
 31
0.0
  0
LINE
  5
34F
330
1E
100
AcDbEntity
  8
0
100
AcDbLine
 10
80.49983500000001
 20
97.0
 30
0.0
 11
82.89983499999998
 21
97.0
 31
0.0
  0
LINE
  5
350
330
1E
100
AcDbEntity
  8
0
100
AcDbLine
 10
78.99983500000002
 20
97.0
 30
0.0
 11
80.49983500000001
 21
97.0
 31
0.0
  0
LINE
  5
351
330
1E
100
AcDbEntity
  8
0
100
AcDbLine
 10
78.499835
 20
97.0
 30
0.0
 11
78.99983500000002
 21
97.0
 31
0.0
  0
LINE
  5
352
330
1E
100
AcDbEntity
  8
0
100
AcDbLine
 10
77.599835
 20
96.5
 30
0.0
 11
79.19983499999998
 21
96.5
 31
0.0
  0
LINE
  5
353
330
1E
100
AcDbEntity
  8
0
100
AcDbLine
 10
77.09983499999998
 20
95.0
 30
0.0
 11
78.799835
 21
95.0
 31
0.0
  0
LINE
  5
354
330
1E
100
AcDbEntity
  8
0
100
AcDbLine
 10
80.49983500000001
 20
220.67
 30
0.0
 11
80.49983500000001
 21
220.1709999999999
 31
0.0
  0
LINE
  5
355
330
1E
100
AcDbEntity
  8
0
100
AcDbLine
 10
80.49983500000001
 20
220.67
 30
0.0
 11
80.999835
 21
222.167
 31
0.0
  0
LINE
  5
356
330
1E
100
AcDbEntity
  8
0
100
AcDbLine
 10
80.999835
 20
222.167
 30
0.0
 11
82.99983500000001
 21
223.6629999999999
 31
0.0
  0
LINE
  5
357
330
1E
100
AcDbEntity
  8
0
100
AcDbLine
 10
80.49983500000001
 20
220.1709999999999
 30
0.0
 11
80.999835
 21
219.173
 31
0.0
  0
LINE
  5
358
330
1E
100
AcDbEntity
  8
0
100
AcDbLine
 10
80.49983500000001
 20
220.1709999999999
 30
0.0
 11
80.49983500000001
 21
220.67
 31
0.0
  0
LINE
  5
359
330
1E
100
AcDbEntity
  8
0
100
AcDbLine
 10
80.999835
 20
219.173
 30
0.0
 11
81.49983500000002
 21
218.6739999999999
 31
0.0
  0
LINE
  5
35A
330
1E
100
AcDbEntity
  8
0
100
AcDbLine
 10
81.49983500000002
 20
218.6739999999999
 30
0.0
 11
81.49983500000002
 21
212.6579999999999
 31
0.0
  0
LINE
  5
35B
330
1E
100
AcDbEntity
  8
0
100
AcDbLine
 10
81.49983500000002
 20
218.6739999999999
 30
0.0
 11
81.899835
 21
218.882
 31
0.0
  0
LINE
  5
35C
330
1E
100
AcDbEntity
  8
0
100
AcDbLine
 10
81.49983500000002
 20
212.6579999999999
 30
0.0
 11
81.899835
 21
212.8659999999999
 31
0.0
  0
LINE
  5
35D
330
1E
100
AcDbEntity
  8
0
100
AcDbLine
 10
81.49983500000002
 20
212.6579999999999
 30
0.0
 11
82.499835
 21
211.66
 31
0.0
  0
LINE
  5
35E
330
1E
100
AcDbEntity
  8
0
100
AcDbLine
 10
81.49983500000002
 20
212.6579999999999
 30
0.0
 11
81.49983500000002
 21
218.6739999999999
 31
0.0
  0
LINE
  5
35F
330
1E
100
AcDbEntity
  8
0
100
AcDbLine
 10
85.09073499999997
 20
98.50000000000001
 30
0.0
 11
87.59073499999997
 21
98.50000000000001
 31
0.0
  0
LINE
  5
360
330
1E
100
AcDbEntity
  8
0
100
AcDbLine
 10
101.908835
 20
98.50000000000001
 30
0.0
 11
103.840835
 21
98.50000000000001
 31
0.0
  0
LINE
  5
361
330
1E
100
AcDbEntity
  8
0
100
AcDbLine
 10
103.840835
 20
98.50000000000001
 30
0.0
 11
104.976835
 21
98.50000000000001
 31
0.0
  0
LINE
  5
362
330
1E
100
AcDbEntity
  8
0
100
AcDbLine
 10
104.976835
 20
98.50000000000001
 30
0.0
 11
105.431835
 21
98.50000000000001
 31
0.0
  0
LINE
  5
363
330
1E
100
AcDbEntity
  8
0
100
AcDbLine
 10
105.431835
 20
98.50000000000001
 30
0.0
 11
105.999835
 21
97.0
 31
0.0
  0
LINE
  5
364
330
1E
100
AcDbEntity
  8
0
100
AcDbLine
 10
99.40883499999999
 20
98.50000000000001
 30
0.0
 11
101.908835
 21
98.50000000000001
 31
0.0
  0
LINE
  5
365
330
1E
100
AcDbEntity
  8
0
100
AcDbLine
 10
96.56783500000001
 20
98.50000000000001
 30
0.0
 11
99.40883499999999
 21
98.50000000000001
 31
0.0
  0
LINE
  5
366
330
1E
100
AcDbEntity
  8
0
100
AcDbLine
 10
93.499835
 20
98.50000000000001
 30
0.0
 11
96.56783500000001
 21
98.50000000000001
 31
0.0
  0
LINE
  5
367
330
1E
100
AcDbEntity
  8
0
100
AcDbLine
 10
87.59073499999997
 20
98.50000000000001
 30
0.0
 11
90.431635
 21
98.50000000000001
 31
0.0
  0
LINE
  5
368
330
1E
100
AcDbEntity
  8
0
100
AcDbLine
 10
90.431635
 20
98.50000000000001
 30
0.0
 11
93.499835
 21
98.50000000000001
 31
0.0
  0
LINE
  5
369
330
1E
100
AcDbEntity
  8
0
100
AcDbLine
 10
83.15893499999999
 20
98.50000000000001
 30
0.0
 11
85.09073499999997
 21
98.50000000000001
 31
0.0
  0
LINE
  5
36A
330
1E
100
AcDbEntity
  8
0
100
AcDbLine
 10
82.99983500000001
 20
98.92000586682312
 30
0.0
 11
82.99983500000001
 21
211.4592727272729
 31
0.0
  0
LINE
  5
36B
330
1E
100
AcDbEntity
  8
0
100
AcDbLine
 10
93.499835
 20
210.923
 30
0.0
 11
96.29983500000001
 21
210.9499999999999
 31
0.0
  0
LINE
  5
36C
330
1E
100
AcDbEntity
  8
0
100
AcDbLine
 10
96.29983500000001
 20
210.9499999999999
 30
0.0
 11
98.99983500000001
 21
211.024
 31
0.0
  0
LINE
  5
36D
330
1E
100
AcDbEntity
  8
0
100
AcDbLine
 10
98.99983500000001
 20
211.024
 30
0.0
 11
101.2998349999999
 21
211.138
 31
0.0
  0
LINE
  5
36E
330
1E
100
AcDbEntity
  8
0
100
AcDbLine
 10
90.69983499999999
 20
210.9499999999999
 30
0.0
 11
93.499835
 21
210.923
 31
0.0
  0
LINE
  5
36F
330
1E
100
AcDbEntity
  8
0
100
AcDbLine
 10
101.2998349999999
 20
211.138
 30
0.0
 11
102.999835
 21
211.2919999999999
 31
0.0
  0
LINE
  5
370
330
1E
100
AcDbEntity
  8
0
100
AcDbLine
 10
102.999835
 20
211.2919999999999
 30
0.0
 11
104.0998349999999
 21
211.4759999999999
 31
0.0
  0
LINE
  5
371
330
1E
100
AcDbEntity
  8
0
100
AcDbLine
 10
87.99983500000001
 20
211.024
 30
0.0
 11
90.69983499999999
 21
210.9499999999999
 31
0.0
  0
LINE
  5
372
330
1E
100
AcDbEntity
  8
0
100
AcDbLine
 10
85.69983499999997
 20
211.138
 30
0.0
 11
87.99983500000001
 21
211.024
 31
0.0
  0
LINE
  5
373
330
1E
100
AcDbEntity
  8
0
100
AcDbLine
 10
103.999835
 20
211.4592727272729
 30
0.0
 11
103.999835
 21
98.91994134897359
 31
0.0
  0
LINE
  5
374
330
1E
100
AcDbEntity
  8
0
100
AcDbLine
 10
82.99983500000001
 20
211.4592727272729
 30
0.0
 11
82.99983500000001
 21
98.92000586682312
 31
0.0
  0
LINE
  5
375
330
1E
100
AcDbEntity
  8
0
100
AcDbLine
 10
83.99983500000002
 20
211.2919999999999
 30
0.0
 11
85.69983499999997
 21
211.138
 31
0.0
  0
LINE
  5
376
330
1E
100
AcDbEntity
  8
0
100
AcDbLine
 10
82.89983499999998
 20
211.4759999999999
 30
0.0
 11
83.99983500000002
 21
211.2919999999999
 31
0.0
  0
LINE
  5
377
330
1E
100
AcDbEntity
  8
0
100
AcDbLine
 10
81.899835
 20
218.882
 30
0.0
 11
83.09983499999999
 21
219.077
 31
0.0
  0
LINE
  5
378
330
1E
100
AcDbEntity
  8
0
100
AcDbLine
 10
81.899835
 20
212.8659999999999
 30
0.0
 11
83.09983499999999
 21
213.06
 31
0.0
  0
LINE
  5
379
330
1E
100
AcDbEntity
  8
0
100
AcDbLine
 10
102.999835
 20
212.029
 30
0.0
 11
104.0998349999999
 21
211.845
 31
0.0
  0
LINE
  5
37A
330
1E
100
AcDbEntity
  8
0
100
AcDbLine
 10
82.99983500000001
 20
236.4209999999999
 30
0.0
 11
82.99983500000001
 21
247.647
 31
0.0
  0
LINE
  5
37B
330
1E
100
AcDbEntity
  8
0
100
AcDbLine
 10
82.99983500000001
 20
236.4209999999999
 30
0.0
 11
82.99983500000001
 21
223.6629999999999
 31
0.0
  0
LINE
  5
37C
330
1E
100
AcDbEntity
  8
0
100
AcDbLine
 10
82.99983500000001
 20
247.647
 30
0.0
 11
82.99983500000001
 21
236.4209999999999
 31
0.0
  0
LINE
  5
37D
330
1E
100
AcDbEntity
  8
0
100
AcDbLine
 10
82.99983500000001
 20
247.647
 30
0.0
 11
82.99983500000001
 21
258.485
 31
0.0
  0
LINE
  5
37E
330
1E
100
AcDbEntity
  8
0
100
AcDbLine
 10
82.99983500000001
 20
268.75
 30
0.0
 11
82.99983500000001
 21
258.485
 31
0.0
  0
LINE
  5
37F
330
1E
100
AcDbEntity
  8
0
100
AcDbLine
 10
82.99983500000001
 20
268.75
 30
0.0
 11
82.99983500000001
 21
278.2669999999999
 31
0.0
  0
LINE
  5
380
330
1E
100
AcDbEntity
  8
0
100
AcDbLine
 10
82.99983500000001
 20
258.485
 30
0.0
 11
82.99983500000001
 21
268.75
 31
0.0
  0
LINE
  5
381
330
1E
100
AcDbEntity
  8
0
100
AcDbLine
 10
82.99983500000001
 20
258.485
 30
0.0
 11
82.99983500000001
 21
247.647
 31
0.0
  0
LINE
  5
382
330
1E
100
AcDbEntity
  8
0
100
AcDbLine
 10
82.99983500000001
 20
258.485
 30
0.0
 11
82.99983500000001
 21
268.75
 31
0.0
  0
LINE
  5
383
330
1E
100
AcDbEntity
  8
0
100
AcDbLine
 10
82.99983500000001
 20
258.485
 30
0.0
 11
82.99983500000001
 21
247.647
 31
0.0
  0
LINE
  5
384
330
1E
100
AcDbEntity
  8
0
100
AcDbLine
 10
82.99983500000001
 20
247.647
 30
0.0
 11
82.99983500000001
 21
236.4209999999999
 31
0.0
  0
LINE
  5
385
330
1E
100
AcDbEntity
  8
0
100
AcDbLine
 10
82.99983500000001
 20
247.647
 30
0.0
 11
82.99983500000001
 21
258.485
 31
0.0
  0
LINE
  5
386
330
1E
100
AcDbEntity
  8
0
100
AcDbLine
 10
82.99983500000001
 20
236.4209999999999
 30
0.0
 11
82.99983500000001
 21
247.647
 31
0.0
  0
LINE
  5
387
330
1E
100
AcDbEntity
  8
0
100
AcDbLine
 10
82.99983500000001
 20
236.4209999999999
 30
0.0
 11
82.99983500000001
 21
225.0
 31
0.0
  0
LINE
  5
388
330
1E
100
AcDbEntity
  8
0
100
AcDbLine
 10
82.99983500000001
 20
268.75
 30
0.0
 11
82.99983500000001
 21
278.2669999999999
 31
0.0
  0
LINE
  5
389
330
1E
100
AcDbEntity
  8
0
100
AcDbLine
 10
82.99983500000001
 20
268.75
 30
0.0
 11
82.99983500000001
 21
258.485
 31
0.0
  0
LINE
  5
38A
330
1E
100
AcDbEntity
  8
0
100
AcDbLine
 10
82.99983500000001
 20
294.418
 30
0.0
 11
82.99983500000001
 21
300.7769999999998
 31
0.0
  0
LINE
  5
38B
330
1E
100
AcDbEntity
  8
0
100
AcDbLine
 10
82.99983500000001
 20
294.418
 30
0.0
 11
82.99983500000001
 21
286.872
 31
0.0
  0
LINE
  5
38C
330
1E
100
AcDbEntity
  8
0
100
AcDbLine
 10
82.99983500000001
 20
309.519
 30
0.0
 11
82.99983500000001
 21
311.7509999999998
 31
0.0
  0
LINE
  5
38D
330
1E
100
AcDbEntity
  8
0
100
AcDbLine
 10
82.99983500000001
 20
309.519
 30
0.0
 11
82.99983500000001
 21
305.839
 31
0.0
  0
LINE
  5
38E
330
1E
100
AcDbEntity
  8
0
100
AcDbLine
 10
82.99983500000001
 20
312.5
 30
0.0
 11
82.99983500000001
 21
311.7509999999998
 31
0.0
  0
LINE
  5
38F
330
1E
100
AcDbEntity
  8
0
100
AcDbLine
 10
82.99983500000001
 20
312.5
 30
0.0
 11
83.399835
 21
315.2
 31
0.0
  0
LINE
  5
390
330
1E
100
AcDbEntity
  8
0
100
AcDbLine
 10
82.99983500000001
 20
311.7509999999998
 30
0.0
 11
82.99983500000001
 21
309.519
 31
0.0
  0
LINE
  5
391
330
1E
100
AcDbEntity
  8
0
100
AcDbLine
 10
82.99983500000001
 20
311.7509999999998
 30
0.0
 11
82.99983500000001
 21
312.5
 31
0.0
  0
LINE
  5
392
330
1E
100
AcDbEntity
  8
0
100
AcDbLine
 10
82.99983500000001
 20
311.7509999999998
 30
0.0
 11
82.99983500000001
 21
309.519
 31
0.0
  0
LINE
  5
393
330
1E
100
AcDbEntity
  8
0
100
AcDbLine
 10
82.99983500000001
 20
309.519
 30
0.0
 11
82.99983500000001
 21
311.7509999999998
 31
0.0
  0
LINE
  5
394
330
1E
100
AcDbEntity
  8
0
100
AcDbLine
 10
82.99983500000001
 20
309.519
 30
0.0
 11
82.99983500000001
 21
305.839
 31
0.0
  0
LINE
  5
395
330
1E
100
AcDbEntity
  8
0
100
AcDbLine
 10
82.99983500000001
 20
305.839
 30
0.0
 11
82.99983500000001
 21
300.7769999999998
 31
0.0
  0
LINE
  5
396
330
1E
100
AcDbEntity
  8
0
100
AcDbLine
 10
82.99983500000001
 20
305.839
 30
0.0
 11
82.99983500000001
 21
309.519
 31
0.0
  0
LINE
  5
397
330
1E
100
AcDbEntity
  8
0
100
AcDbLine
 10
82.99983500000001
 20
305.839
 30
0.0
 11
82.99983500000001
 21
309.519
 31
0.0
  0
LINE
  5
398
330
1E
100
AcDbEntity
  8
0
100
AcDbLine
 10
82.99983500000001
 20
300.7769999999998
 30
0.0
 11
82.99983500000001
 21
305.839
 31
0.0
  0
LINE
  5
399
330
1E
100
AcDbEntity
  8
0
100
AcDbLine
 10
82.99983500000001
 20
300.7769999999998
 30
0.0
 11
82.99983500000001
 21
294.418
 31
0.0
  0
LINE
  5
39A
330
1E
100
AcDbEntity
  8
0
100
AcDbLine
 10
82.99983500000001
 20
286.872
 30
0.0
 11
82.99983500000001
 21
278.2669999999999
 31
0.0
  0
LINE
  5
39B
330
1E
100
AcDbEntity
  8
0
100
AcDbLine
 10
82.99983500000001
 20
286.872
 30
0.0
 11
82.99983500000001
 21
294.418
 31
0.0
  0
LINE
  5
39C
330
1E
100
AcDbEntity
  8
0
100
AcDbLine
 10
83.399835
 20
315.2
 30
0.0
 11
84.399835
 21
317.7
 31
0.0
  0
LINE
  5
39D
330
1E
100
AcDbEntity
  8
0
100
AcDbLine
 10
82.99983500000001
 20
278.2669999999999
 30
0.0
 11
82.99983500000001
 21
268.75
 31
0.0
  0
LINE
  5
39E
330
1E
100
AcDbEntity
  8
0
100
AcDbLine
 10
82.99983500000001
 20
278.2669999999999
 30
0.0
 11
82.99983500000001
 21
286.872
 31
0.0
  0
LINE
  5
39F
330
1E
100
AcDbEntity
  8
0
100
AcDbLine
 10
82.99983500000001
 20
278.2669999999999
 30
0.0
 11
82.99983500000001
 21
268.75
 31
0.0
  0
LINE
  5
3A0
330
1E
100
AcDbEntity
  8
0
100
AcDbLine
 10
82.99983500000001
 20
225.0
 30
0.0
 11
82.99983500000001
 21
223.6629999999999
 31
0.0
  0
LINE
  5
3A1
330
1E
100
AcDbEntity
  8
0
100
AcDbLine
 10
82.99983500000001
 20
225.0
 30
0.0
 11
82.99983500000001
 21
236.4209999999999
 31
0.0
  0
LINE
  5
3A2
330
1E
100
AcDbEntity
  8
0
100
AcDbLine
 10
84.399835
 20
317.7
 30
0.0
 11
86.099835
 21
319.8999999999998
 31
0.0
  0
LINE
  5
3A3
330
1E
100
AcDbEntity
  8
0
100
AcDbLine
 10
84.399835
 20
224.012
 30
0.0
 11
86.099835
 21
224.159
 31
0.0
  0
LINE
  5
3A4
330
1E
100
AcDbEntity
  8
0
100
AcDbLine
 10
83.399835
 20
223.844
 30
0.0
 11
84.399835
 21
224.012
 31
0.0
  0
LINE
  5
3A5
330
1E
100
AcDbEntity
  8
0
100
AcDbLine
 10
82.99983500000001
 20
223.6629999999999
 30
0.0
 11
83.399835
 21
223.844
 31
0.0
  0
LINE
  5
3A6
330
1E
100
AcDbEntity
  8
0
100
AcDbLine
 10
82.99983500000001
 20
223.6629999999999
 30
0.0
 11
82.99983500000001
 21
225.0
 31
0.0
  0
LINE
  5
3A7
330
1E
100
AcDbEntity
  8
0
100
AcDbLine
 10
82.99983500000001
 20
223.6629999999999
 30
0.0
 11
82.99983500000001
 21
236.4209999999999
 31
0.0
  0
LINE
  5
3A8
330
1E
100
AcDbEntity
  8
0
100
AcDbLine
 10
84.999835
 20
219.244
 30
0.0
 11
87.499835
 21
219.3709999999999
 31
0.0
  0
LINE
  5
3A9
330
1E
100
AcDbEntity
  8
0
100
AcDbLine
 10
83.09983499999999
 20
219.077
 30
0.0
 11
84.999835
 21
219.244
 31
0.0
  0
LINE
  5
3AA
330
1E
100
AcDbEntity
  8
0
100
AcDbLine
 10
84.999835
 20
213.2279999999999
 30
0.0
 11
87.499835
 21
213.355
 31
0.0
  0
LINE
  5
3AB
330
1E
100
AcDbEntity
  8
0
100
AcDbLine
 10
83.09983499999999
 20
213.06
 30
0.0
 11
84.999835
 21
213.2279999999999
 31
0.0
  0
LINE
  5
3AC
330
1E
100
AcDbEntity
  8
0
100
AcDbLine
 10
98.99983500000001
 20
212.297
 30
0.0
 11
101.2998349999999
 21
212.183
 31
0.0
  0
LINE
  5
3AD
330
1E
100
AcDbEntity
  8
0
100
AcDbLine
 10
101.2998349999999
 20
212.183
 30
0.0
 11
102.999835
 21
212.029
 31
0.0
  0
LINE
  5
3AE
330
1E
100
AcDbEntity
  8
0
100
AcDbLine
 10
88.299835
 20
321.6
 30
0.0
 11
90.799835
 21
322.6
 31
0.0
  0
LINE
  5
3AF
330
1E
100
AcDbEntity
  8
0
100
AcDbLine
 10
86.099835
 20
319.8999999999998
 30
0.0
 11
88.299835
 21
321.6
 31
0.0
  0
LINE
  5
3B0
330
1E
100
AcDbEntity
  8
0
100
AcDbLine
 10
88.299835
 20
224.2729999999999
 30
0.0
 11
90.799835
 21
224.34
 31
0.0
  0
LINE
  5
3B1
330
1E
100
AcDbEntity
  8
0
100
AcDbLine
 10
86.099835
 20
224.159
 30
0.0
 11
88.299835
 21
224.2729999999999
 31
0.0
  0
LINE
  5
3B2
330
1E
100
AcDbEntity
  8
0
100
AcDbLine
 10
90.39983499999999
 20
219.452
 30
0.0
 11
93.499835
 21
219.479
 31
0.0
  0
LINE
  5
3B3
330
1E
100
AcDbEntity
  8
0
100
AcDbLine
 10
87.499835
 20
219.3709999999999
 30
0.0
 11
90.39983499999999
 21
219.452
 31
0.0
  0
LINE
  5
3B4
330
1E
100
AcDbEntity
  8
0
100
AcDbLine
 10
90.39983499999999
 20
213.4349999999999
 30
0.0
 11
93.499835
 21
213.462
 31
0.0
  0
LINE
  5
3B5
330
1E
100
AcDbEntity
  8
0
100
AcDbLine
 10
87.499835
 20
213.355
 30
0.0
 11
90.39983499999999
 21
213.4349999999999
 31
0.0
  0
LINE
  5
3B6
330
1E
100
AcDbEntity
  8
0
100
AcDbLine
 10
93.499835
 20
213.462
 30
0.0
 11
96.599835
 21
213.4349999999999
 31
0.0
  0
LINE
  5
3B7
330
1E
100
AcDbEntity
  8
0
100
AcDbLine
 10
93.499835
 20
212.397
 30
0.0
 11
96.29983500000001
 21
212.3709999999999
 31
0.0
  0
LINE
  5
3B8
330
1E
100
AcDbEntity
  8
0
100
AcDbLine
 10
96.599835
 20
213.4349999999999
 30
0.0
 11
99.49983500000001
 21
213.355
 31
0.0
  0
LINE
  5
3B9
330
1E
100
AcDbEntity
  8
0
100
AcDbLine
 10
99.49983500000001
 20
213.355
 30
0.0
 11
101.999835
 21
213.2279999999999
 31
0.0
  0
LINE
  5
3BA
330
1E
100
AcDbEntity
  8
0
100
AcDbLine
 10
101.999835
 20
213.2279999999999
 30
0.0
 11
103.8998349999999
 21
213.06
 31
0.0
  0
LINE
  5
3BB
330
1E
100
AcDbEntity
  8
0
100
AcDbLine
 10
103.8998349999999
 20
213.06
 30
0.0
 11
105.099835
 21
212.8659999999999
 31
0.0
  0
LINE
  5
3BC
330
1E
100
AcDbEntity
  8
0
100
AcDbLine
 10
96.29983500000001
 20
212.3709999999999
 30
0.0
 11
98.99983500000001
 21
212.297
 31
0.0
  0
LINE
  5
3BD
330
1E
100
AcDbEntity
  8
0
100
AcDbLine
 10
96.199835
 20
224.34
 30
0.0
 11
98.699835
 21
224.2729999999999
 31
0.0
  0
LINE
  5
3BE
330
1E
100
AcDbEntity
  8
0
100
AcDbLine
 10
98.699835
 20
224.2729999999999
 30
0.0
 11
100.8998349999999
 21
224.159
 31
0.0
  0
LINE
  5
3BF
330
1E
100
AcDbEntity
  8
0
100
AcDbLine
 10
93.499835
 20
219.479
 30
0.0
 11
96.599835
 21
219.452
 31
0.0
  0
LINE
  5
3C0
330
1E
100
AcDbEntity
  8
0
100
AcDbLine
 10
96.599835
 20
219.452
 30
0.0
 11
99.49983500000001
 21
219.3709999999999
 31
0.0
  0
LINE
  5
3C1
330
1E
100
AcDbEntity
  8
0
100
AcDbLine
 10
100.8998349999999
 20
224.159
 30
0.0
 11
102.599835
 21
224.012
 31
0.0
  0
LINE
  5
3C2
330
1E
100
AcDbEntity
  8
0
100
AcDbLine
 10
102.599835
 20
224.012
 30
0.0
 11
103.599835
 21
223.844
 31
0.0
  0
LINE
  5
3C3
330
1E
100
AcDbEntity
  8
0
100
AcDbLine
 10
103.599835
 20
223.844
 30
0.0
 11
103.999835
 21
223.6629999999999
 31
0.0
  0
LINE
  5
3C4
330
1E
100
AcDbEntity
  8
0
100
AcDbLine
 10
99.49983500000001
 20
219.3709999999999
 30
0.0
 11
101.999835
 21
219.244
 31
0.0
  0
LINE
  5
3C5
330
1E
100
AcDbEntity
  8
0
100
AcDbLine
 10
101.999835
 20
219.244
 30
0.0
 11
103.8998349999999
 21
219.077
 31
0.0
  0
LINE
  5
3C6
330
1E
100
AcDbEntity
  8
0
100
AcDbLine
 10
103.999835
 20
223.6629999999999
 30
0.0
 11
105.999835
 21
222.167
 31
0.0
  0
LINE
  5
3C7
330
1E
100
AcDbEntity
  8
0
100
AcDbLine
 10
103.999835
 20
223.6629999999999
 30
0.0
 11
103.999835
 21
236.4209999999999
 31
0.0
  0
LINE
  5
3C8
330
1E
100
AcDbEntity
  8
0
100
AcDbLine
 10
103.8998349999999
 20
219.077
 30
0.0
 11
105.099835
 21
218.882
 31
0.0
  0
LINE
  5
3C9
330
1E
100
AcDbEntity
  8
0
100
AcDbLine
 10
103.999835
 20
247.647
 30
0.0
 11
103.999835
 21
236.4209999999999
 31
0.0
  0
LINE
  5
3CA
330
1E
100
AcDbEntity
  8
0
100
AcDbLine
 10
103.999835
 20
247.647
 30
0.0
 11
103.999835
 21
258.485
 31
0.0
  0
LINE
  5
3CB
330
1E
100
AcDbEntity
  8
0
100
AcDbLine
 10
93.499835
 20
224.367
 30
0.0
 11
96.199835
 21
224.34
 31
0.0
  0
LINE
  5
3CC
330
1E
100
AcDbEntity
  8
0
100
AcDbLine
 10
103.999835
 20
236.4209999999999
 30
0.0
 11
103.999835
 21
247.647
 31
0.0
  0
LINE
  5
3CD
330
1E
100
AcDbEntity
  8
0
100
AcDbLine
 10
103.999835
 20
236.4209999999999
 30
0.0
 11
103.999835
 21
223.6629999999999
 31
0.0
  0
LINE
  5
3CE
330
1E
100
AcDbEntity
  8
0
100
AcDbLine
 10
103.999835
 20
268.75
 30
0.0
 11
103.999835
 21
258.485
 31
0.0
  0
LINE
  5
3CF
330
1E
100
AcDbEntity
  8
0
100
AcDbLine
 10
103.999835
 20
268.75
 30
0.0
 11
103.999835
 21
278.2669999999999
 31
0.0
  0
LINE
  5
3D0
330
1E
100
AcDbEntity
  8
0
100
AcDbLine
 10
103.999835
 20
258.485
 30
0.0
 11
103.999835
 21
268.75
 31
0.0
  0
LINE
  5
3D1
330
1E
100
AcDbEntity
  8
0
100
AcDbLine
 10
103.999835
 20
258.485
 30
0.0
 11
103.999835
 21
247.647
 31
0.0
  0
LINE
  5
3D2
330
1E
100
AcDbEntity
  8
0
100
AcDbLine
 10
103.999835
 20
278.2669999999999
 30
0.0
 11
103.999835
 21
268.75
 31
0.0
  0
LINE
  5
3D3
330
1E
100
AcDbEntity
  8
0
100
AcDbLine
 10
103.999835
 20
278.2669999999999
 30
0.0
 11
103.999835
 21
286.872
 31
0.0
  0
LINE
  5
3D4
330
1E
100
AcDbEntity
  8
0
100
AcDbLine
 10
103.999835
 20
300.7769999999998
 30
0.0
 11
103.999835
 21
305.839
 31
0.0
  0
LINE
  5
3D5
330
1E
100
AcDbEntity
  8
0
100
AcDbLine
 10
103.999835
 20
300.7769999999998
 30
0.0
 11
103.999835
 21
294.418
 31
0.0
  0
LINE
  5
3D6
330
1E
100
AcDbEntity
  8
0
100
AcDbLine
 10
103.999835
 20
312.5
 30
0.0
 11
103.999835
 21
311.7509999999998
 31
0.0
  0
LINE
  5
3D7
330
1E
100
AcDbEntity
  8
0
100
AcDbLine
 10
103.999835
 20
311.7509999999998
 30
0.0
 11
103.999835
 21
312.5
 31
0.0
  0
LINE
  5
3D8
330
1E
100
AcDbEntity
  8
0
100
AcDbLine
 10
103.999835
 20
311.7509999999998
 30
0.0
 11
103.999835
 21
309.519
 31
0.0
  0
LINE
  5
3D9
330
1E
100
AcDbEntity
  8
0
100
AcDbLine
 10
103.999835
 20
309.519
 30
0.0
 11
103.999835
 21
305.839
 31
0.0
  0
LINE
  5
3DA
330
1E
100
AcDbEntity
  8
0
100
AcDbLine
 10
103.999835
 20
309.519
 30
0.0
 11
103.999835
 21
311.7509999999998
 31
0.0
  0
LINE
  5
3DB
330
1E
100
AcDbEntity
  8
0
100
AcDbLine
 10
103.999835
 20
305.839
 30
0.0
 11
103.999835
 21
309.519
 31
0.0
  0
LINE
  5
3DC
330
1E
100
AcDbEntity
  8
0
100
AcDbLine
 10
103.999835
 20
305.839
 30
0.0
 11
103.999835
 21
300.7769999999998
 31
0.0
  0
LINE
  5
3DD
330
1E
100
AcDbEntity
  8
0
100
AcDbLine
 10
103.999835
 20
294.418
 30
0.0
 11
103.999835
 21
286.872
 31
0.0
  0
LINE
  5
3DE
330
1E
100
AcDbEntity
  8
0
100
AcDbLine
 10
103.999835
 20
294.418
 30
0.0
 11
103.999835
 21
300.7769999999998
 31
0.0
  0
LINE
  5
3DF
330
1E
100
AcDbEntity
  8
0
100
AcDbLine
 10
103.999835
 20
286.872
 30
0.0
 11
103.999835
 21
278.2669999999999
 31
0.0
  0
LINE
  5
3E0
330
1E
100
AcDbEntity
  8
0
100
AcDbLine
 10
103.999835
 20
286.872
 30
0.0
 11
103.999835
 21
294.418
 31
0.0
  0
LINE
  5
3E1
330
1E
100
AcDbEntity
  8
0
100
AcDbLine
 10
93.499835
 20
323.0
 30
0.0
 11
96.199835
 21
322.6
 31
0.0
  0
LINE
  5
3E2
330
1E
100
AcDbEntity
  8
0
100
AcDbLine
 10
96.199835
 20
322.6
 30
0.0
 11
98.699835
 21
321.6
 31
0.0
  0
LINE
  5
3E3
330
1E
100
AcDbEntity
  8
0
100
AcDbLine
 10
98.699835
 20
321.6
 30
0.0
 11
100.8998349999999
 21
319.8999999999998
 31
0.0
  0
LINE
  5
3E4
330
1E
100
AcDbEntity
  8
0
100
AcDbLine
 10
100.8998349999999
 20
319.8999999999998
 30
0.0
 11
102.599835
 21
317.7
 31
0.0
  0
LINE
  5
3E5
330
1E
100
AcDbEntity
  8
0
100
AcDbLine
 10
102.599835
 20
317.7
 30
0.0
 11
103.599835
 21
315.2
 31
0.0
  0
LINE
  5
3E6
330
1E
100
AcDbEntity
  8
0
100
AcDbLine
 10
103.599835
 20
315.2
 30
0.0
 11
103.999835
 21
312.5
 31
0.0
  0
LINE
  5
3E7
330
1E
100
AcDbEntity
  8
0
100
AcDbLine
 10
90.799835
 20
322.6
 30
0.0
 11
93.499835
 21
323.0
 31
0.0
  0
LINE
  5
3E8
330
1E
100
AcDbEntity
  8
0
100
AcDbLine
 10
90.799835
 20
224.34
 30
0.0
 11
93.499835
 21
224.367
 31
0.0
  0
LINE
  5
3E9
330
1E
100
AcDbEntity
  8
0
100
AcDbLine
 10
90.69983499999999
 20
212.3709999999999
 30
0.0
 11
93.499835
 21
212.397
 31
0.0
  0
LINE
  5
3EA
330
1E
100
AcDbEntity
  8
0
100
AcDbLine
 10
87.99983500000001
 20
212.297
 30
0.0
 11
90.69983499999999
 21
212.3709999999999
 31
0.0
  0
LINE
  5
3EB
330
1E
100
AcDbEntity
  8
0
100
AcDbLine
 10
85.69983499999997
 20
212.183
 30
0.0
 11
87.99983500000001
 21
212.297
 31
0.0
  0
LINE
  5
3EC
330
1E
100
AcDbEntity
  8
0
100
AcDbLine
 10
83.99983500000002
 20
212.029
 30
0.0
 11
85.69983499999997
 21
212.183
 31
0.0
  0
LINE
  5
3ED
330
1E
100
AcDbEntity
  8
0
100
AcDbLine
 10
82.89983499999998
 20
211.845
 30
0.0
 11
83.99983500000002
 21
212.029
 31
0.0
  0
LINE
  5
3EE
330
1E
100
AcDbEntity
  8
0
100
AcDbLine
 10
82.499835
 20
211.66
 30
0.0
 11
82.89983499999998
 21
211.845
 31
0.0
  0
LINE
  5
3EF
330
1E
100
AcDbEntity
  8
0
100
AcDbLine
 10
82.499835
 20
211.66
 30
0.0
 11
82.89983499999998
 21
211.4759999999999
 31
0.0
  0
LINE
  5
3F0
330
1E
100
AcDbEntity
  8
0
100
AcDbLine
 10
104.0998349999999
 20
211.4759999999999
 30
0.0
 11
104.4998349999999
 21
211.66
 31
0.0
  0
LINE
  5
3F1
330
1E
100
AcDbEntity
  8
0
100
AcDbLine
 10
104.4998349999999
 20
211.66
 30
0.0
 11
105.4998349999999
 21
212.6579999999999
 31
0.0
  0
LINE
  5
3F2
330
1E
100
AcDbEntity
  8
0
100
AcDbLine
 10
105.4998349999999
 20
212.6579999999999
 30
0.0
 11
105.4998349999999
 21
218.6739999999999
 31
0.0
  0
LINE
  5
3F3
330
1E
100
AcDbEntity
  8
0
100
AcDbLine
 10
105.099835
 20
212.8659999999999
 30
0.0
 11
105.4998349999999
 21
212.6579999999999
 31
0.0
  0
LINE
  5
3F4
330
1E
100
AcDbEntity
  8
0
100
AcDbLine
 10
104.0998349999999
 20
211.845
 30
0.0
 11
104.4998349999999
 21
211.66
 31
0.0
  0
LINE
  5
3F5
330
1E
100
AcDbEntity
  8
0
100
AcDbLine
 10
105.4998349999999
 20
218.6739999999999
 30
0.0
 11
105.999835
 21
219.173
 31
0.0
  0
LINE
  5
3F6
330
1E
100
AcDbEntity
  8
0
100
AcDbLine
 10
105.4998349999999
 20
218.6739999999999
 30
0.0
 11
105.4998349999999
 21
212.6579999999999
 31
0.0
  0
LINE
  5
3F7
330
1E
100
AcDbEntity
  8
0
100
AcDbLine
 10
105.999835
 20
222.167
 30
0.0
 11
106.4998349999999
 21
220.67
 31
0.0
  0
LINE
  5
3F8
330
1E
100
AcDbEntity
  8
0
100
AcDbLine
 10
106.4998349999999
 20
220.67
 30
0.0
 11
106.4998349999999
 21
220.1709999999999
 31
0.0
  0
LINE
  5
3F9
330
1E
100
AcDbEntity
  8
0
100
AcDbLine
 10
106.4998349999999
 20
220.1709999999999
 30
0.0
 11
106.4998349999999
 21
220.67
 31
0.0
  0
LINE
  5
3FA
330
1E
100
AcDbEntity
  8
0
100
AcDbLine
 10
105.999835
 20
219.173
 30
0.0
 11
106.4998349999999
 21
220.1709999999999
 31
0.0
  0
LINE
  5
3FB
330
1E
100
AcDbEntity
  8
0
100
AcDbLine
 10
105.099835
 20
218.882
 30
0.0
 11
105.4998349999999
 21
218.6739999999999
 31
0.0
  0
LINE
  5
3FC
330
1E
100
AcDbEntity
  8
0
100
AcDbLine
 10
103.999835
 20
98.91994134897359
 30
0.0
 11
105.431835
 21
98.50000000000001
 31
0.0
  0
LINE
  5
3FD
330
1E
100
AcDbEntity
  8
0
100
AcDbLine
 10
103.999835
 20
98.91994134897359
 30
0.0
 11
103.999835
 21
211.4592727272729
 31
0.0
  0
LINE
  5
3FE
330
1E
100
AcDbEntity
  8
0
100
AcDbLine
 10
82.02253499999997
 20
98.50000000000001
 30
0.0
 11
83.15893499999999
 21
98.50000000000001
 31
0.0
  0
LINE
  5
3FF
330
1E
100
AcDbEntity
  8
0
100
AcDbLine
 10
81.568035
 20
98.50000000000001
 30
0.0
 11
82.02253499999997
 21
98.50000000000001
 31
0.0
  0
LINE
  5
400
330
1E
100
AcDbEntity
  8
0
100
AcDbLine
 10
81.568035
 20
98.50000000000001
 30
0.0
 11
83.0011643148129
 21
98.92039580956673
 31
0.0
  0
LINE
  5
401
330
1E
100
AcDbEntity
  8
0
100
AcDbLine
 10
108.499835
 20
97.0
 30
0.0
 11
109.999835
 21
96.5
 31
0.0
  0
LINE
  5
402
330
1E
100
AcDbEntity
  8
0
100
AcDbLine
 10
153.298835
 20
93.5382
 30
0.0
 11
154.158835
 21
92.3094
 31
0.0
  0
LINE
  5
403
330
1E
100
AcDbEntity
  8
0
100
AcDbLine
 10
153.298835
 20
93.5382
 30
0.0
 11
153.9830805126409
 21
92.5605245512405
 31
0.0
  0
LINE
  5
404
330
1E
100
AcDbEntity
  8
0
100
AcDbLine
 10
166.0668349999999
 20
93.7007
 30
0.0
 11
167.468835
 21
92.22929999999999
 31
0.0
  0
LINE
  5
405
330
1E
100
AcDbEntity
  8
0
100
AcDbLine
 10
176.5554129445959
 20
93.66059507680787
 30
0.0
 11
177.2772476482659
 21
92.83300906515227
 31
0.0
  0
LINE
  5
406
330
1E
100
AcDbEntity
  8
0
100
AcDbLine
 10
139.756835
 20
93.7001
 30
0.0
 11
140.387835
 21
92.79900000000001
 31
0.0
  0
LINE
  5
407
330
1E
100
AcDbEntity
  8
0
100
AcDbLine
 10
162.661835
 20
94.11289999999999
 30
0.0
 11
163.522835
 21
92.8842
 31
0.0
  0
LINE
  5
408
330
1E
100
AcDbEntity
  8
0
100
AcDbLine
 10
139.526835
 20
94.02779999999999
 30
0.0
 11
139.756835
 21
93.7001
 31
0.0
  0
LINE
  5
409
330
1E
100
AcDbEntity
  8
0
100
AcDbLine
 10
139.059835
 20
93.82290000000001
 30
0.0
 11
139.748835
 21
92.83990000000001
 31
0.0
  0
LINE
  5
40A
330
1E
100
AcDbEntity
  8
0
100
AcDbLine
 10
152.3810349999919
 20
94.84882000001141
 30
0.0
 11
152.724835
 21
94.35729999999999
 31
0.0
  0
LINE
  5
40B
330
1E
100
AcDbEntity
  8
0
100
AcDbLine
 10
152.3810349999919
 20
94.84882000001141
 30
0.0
 11
152.495835
 21
94.685
 31
0.0
  0
LINE
  5
40C
330
1E
100
AcDbEntity
  8
0
100
AcDbLine
 10
152.495835
 20
94.685
 30
0.0
 11
153.298835
 21
93.5382
 31
0.0
  0
LINE
  5
40D
330
1E
100
AcDbEntity
  8
0
100
AcDbLine
 10
152.724835
 20
94.35729999999999
 30
0.0
 11
153.412835
 21
93.37430000000001
 31
0.0
  0
LINE
  5
40E
330
1E
100
AcDbEntity
  8
0
100
AcDbLine
 10
164.529835
 20
94.9324
 30
0.0
 11
165.619835
 21
93.376
 31
0.0
  0
LINE
  5
40F
330
1E
100
AcDbEntity
  8
0
100
AcDbLine
 10
164.734835
 20
95.01890000000001
 30
0.0
 11
166.0668349999999
 21
93.7007
 31
0.0
  0
LINE
  5
410
330
1E
100
AcDbEntity
  8
0
100
AcDbLine
 10
175.572835
 20
94.852
 30
0.0
 11
176.792835
 21
93.35939999999999
 31
0.0
  0
LINE
  5
411
330
1E
100
AcDbEntity
  8
0
100
AcDbLine
 10
151.921835
 20
95.50409999999999
 30
0.0
 11
152.495835
 21
94.685
 31
0.0
  0
LINE
  5
412
330
1E
100
AcDbEntity
  8
0
100
AcDbLine
 10
151.806835
 20
95.66799999999998
 30
0.0
 11
151.909226660979
 21
95.5221289815328
 31
0.0
  0
LINE
  5
413
330
1E
100
AcDbEntity
  8
0
100
AcDbLine
 10
161.686835
 20
95.50549999999999
 30
0.0
 11
162.661835
 21
94.11289999999999
 31
0.0
  0
LINE
  5
415
330
1E
100
AcDbEntity
  8
0
100
AcDbLine
 10
163.735835
 20
95.3531
 30
0.0
 11
166.037835
 21
96.35460000000001
 31
0.0
  0
LINE
  5
416
330
1E
100
AcDbEntity
  8
0
100
AcDbLine
 10
163.040835
 20
95.4765
 30
0.0
 11
163.354835
 21
95.69679999999999
 31
0.0
  0
LINE
  5
417
330
1E
100
AcDbEntity
  8
0
100
AcDbLine
 10
163.040835
 20
95.4765
 30
0.0
 11
163.735835
 21
95.3531
 31
0.0
  0
LINE
  5
418
330
1E
100
AcDbEntity
  8
0
100
AcDbLine
 10
151.5208349999998
 20
96.07750000000001
 30
0.0
 11
151.921835
 21
95.50409999999999
 31
0.0
  0
LINE
  5
419
330
1E
100
AcDbEntity
  8
0
100
AcDbLine
 10
151.4058349999999
 20
96.2414
 30
0.0
 11
151.5208349999998
 21
96.07750000000001
 31
0.0
  0
LINE
  5
41A
330
1E
100
AcDbEntity
  8
0
100
AcDbLine
 10
151.4058349999999
 20
96.2414
 30
0.0
 11
157.958835
 21
100.8299999999999
 31
0.0
  0
LINE
  5
41B
330
1E
100
AcDbEntity
  8
0
100
AcDbLine
 10
151.728563652745
 20
95.78046356737209
 30
0.0
 11
151.806835
 21
95.66799999999998
 31
0.0
  0
LINE
  5
41C
330
1E
100
AcDbEntity
  8
0
100
AcDbLine
 10
160.711835
 20
96.89799999999999
 30
0.0
 11
161.686835
 21
95.50549999999999
 31
0.0
  0
LINE
  5
41E
330
1E
100
AcDbEntity
  8
0
100
AcDbLine
 10
162.244835
 20
97.4829
 30
0.0
 11
163.972835
 21
99.3035
 31
0.0
  0
LINE
  5
41F
330
1E
100
AcDbEntity
  8
0
100
AcDbLine
 10
162.122835
 20
96.7871
 30
0.0
 11
162.5968349999999
 21
96.14270000000001
 31
0.0
  0
LINE
  5
420
330
1E
100
AcDbEntity
  8
0
100
AcDbLine
 10
162.122835
 20
96.7871
 30
0.0
 11
162.437835
 21
97.00740000000001
 31
0.0
  0
LINE
  5
421
330
1E
100
AcDbEntity
  8
0
100
AcDbLine
 10
162.122835
 20
96.7871
 30
0.0
 11
162.244835
 21
97.4829
 31
0.0
  0
LINE
  5
422
330
1E
100
AcDbEntity
  8
0
100
AcDbLine
 10
162.437835
 20
97.00740000000001
 30
0.0
 11
163.019835
 21
97.41520000000001
 31
0.0
  0
LINE
  5
425
330
1E
100
AcDbEntity
  8
0
100
AcDbLine
 10
163.019835
 20
97.41520000000001
 30
0.0
 11
163.649835
 21
97.85630000000001
 31
0.0
  0
LINE
  5
426
330
1E
100
AcDbEntity
  8
0
100
AcDbLine
 10
162.5968349999999
 20
96.14270000000001
 30
0.0
 11
163.040835
 21
95.4765
 31
0.0
  0
LINE
  5
427
330
1E
100
AcDbEntity
  8
0
100
AcDbLine
 10
163.354835
 20
95.69679999999999
 30
0.0
 11
163.937835
 21
96.10460000000001
 31
0.0
  0
LINE
  5
428
330
1E
100
AcDbEntity
  8
0
100
AcDbLine
 10
164.3090520920789
 20
95.24784082907521
 30
0.0
 11
164.529835
 21
94.9324
 31
0.0
  0
LINE
  5
42B
330
1E
100
AcDbEntity
  8
0
100
AcDbLine
 10
163.937835
 20
96.10460000000001
 30
0.0
 11
164.567835
 21
96.54569999999999
 31
0.0
  0
LINE
  5
42C
330
1E
100
AcDbEntity
  8
0
100
AcDbLine
 10
164.567835
 20
96.54569999999999
 30
0.0
 11
165.480835
 21
97.18519999999999
 31
0.0
  0
LINE
  5
42D
330
1E
100
AcDbEntity
  8
0
100
AcDbLine
 10
174.2568349999999
 20
96.9819
 30
0.0
 11
175.572835
 21
94.852
 31
0.0
  0
LINE
  5
42E
330
1E
100
AcDbEntity
  8
0
100
AcDbLine
 10
166.037835
 20
96.35460000000001
 30
0.0
 11
168.568835
 21
97.8822
 31
0.0
  0
LINE
  5
42F
330
1E
100
AcDbEntity
  8
0
100
AcDbLine
 10
165.480835
 20
97.18519999999999
 30
0.0
 11
167.879835
 21
98.8652
 31
0.0
  0
LINE
  5
430
330
1E
100
AcDbEntity
  8
0
100
AcDbLine
 10
163.974178785849
 20
95.42790012910108
 30
0.0
 11
164.734835
 21
95.01890000000001
 31
0.0
  0
LINE
  5
432
330
1E
100
AcDbEntity
  8
0
100
AcDbLine
 10
162.120835
 20
98.37290000000001
 30
0.0
 11
162.341408409067
 21
98.0580017131797
 31
0.0
  0
LINE
  5
433
330
1E
100
AcDbEntity
  8
0
100
AcDbLine
 10
159.851835
 20
98.1268
 30
0.0
 11
160.711835
 21
96.89799999999999
 31
0.0
  0
LINE
  5
435
330
1E
100
AcDbEntity
  8
0
100
AcDbLine
 10
163.649835
 20
97.85630000000001
 30
0.0
 11
164.562835
 21
98.49580000000001
 31
0.0
  0
LINE
  5
436
330
1E
100
AcDbEntity
  8
0
100
AcDbLine
 10
164.562835
 20
98.49580000000001
 30
0.0
 11
166.962835
 21
100.1759999999999
 31
0.0
  0
LINE
  5
437
330
1E
100
AcDbEntity
  8
0
100
AcDbLine
 10
162.271835
 20
98.53530000000001
 30
0.0
 11
162.3963615017399
 21
97.6810039874717
 31
0.0
  0
LINE
  5
438
330
1E
100
AcDbEntity
  8
0
100
AcDbLine
 10
168.568835
 20
97.8822
 30
0.0
 11
170.869835
 21
99.7375
 31
0.0
  0
LINE
  5
439
330
1E
100
AcDbEntity
  8
0
100
AcDbLine
 10
158.474835
 20
100.0929999999998
 30
0.0
 11
159.048835
 21
99.2736
 31
0.0
  0
LINE
  5
43A
330
1E
100
AcDbEntity
  8
0
100
AcDbLine
 10
158.073835
 20
100.6659999999999
 30
0.0
 11
158.474835
 21
100.0929999999998
 31
0.0
  0
LINE
  5
43B
330
1E
100
AcDbEntity
  8
0
100
AcDbLine
 10
158.908835
 20
102.9599999999999
 30
0.0
 11
159.367835
 21
102.305
 31
0.0
  0
LINE
  5
43C
330
1E
100
AcDbEntity
  8
0
100
AcDbLine
 10
158.736835
 20
103.2059999999999
 30
0.0
 11
158.908835
 21
102.9599999999999
 31
0.0
  0
LINE
  5
43D
330
1E
100
AcDbEntity
  8
0
100
AcDbLine
 10
157.958835
 20
100.8299999999999
 30
0.0
 11
158.073835
 21
100.6659999999999
 31
0.0
  0
LINE
  5
43E
330
1E
100
AcDbEntity
  8
0
100
AcDbLine
 10
157.958835
 20
100.8299999999999
 30
0.0
 11
158.736835
 21
103.2059999999999
 31
0.0
  0
LINE
  5
43F
330
1E
100
AcDbEntity
  8
0
100
AcDbLine
 10
159.367835
 20
102.305
 30
0.0
 11
160.113835
 21
101.2399999999999
 31
0.0
  0
LINE
  5
440
330
1E
100
AcDbEntity
  8
0
100
AcDbLine
 10
160.113835
 20
101.2399999999999
 30
0.0
 11
161.0308349999999
 21
99.92919999999999
 31
0.0
  0
LINE
  5
441
330
1E
100
AcDbEntity
  8
0
100
AcDbLine
 10
159.048835
 20
99.2736
 30
0.0
 11
159.851835
 21
98.1268
 31
0.0
  0
LINE
  5
442
330
1E
100
AcDbEntity
  8
0
100
AcDbLine
 10
157.996130819872
 20
105.697758457233
 30
0.0
 11
158.736835
 21
103.2059999999999
 31
0.0
  0
LINE
  5
443
330
1E
100
AcDbEntity
  8
0
100
AcDbLine
 10
158.049835
 20
105.682
 30
0.0
 11
159.2688349999999
 21
104.1889999999999
 31
0.0
  0
LINE
  5
444
330
1E
100
AcDbEntity
  8
0
100
AcDbLine
 10
159.2688349999999
 20
104.1889999999999
 30
0.0
 11
160.585835
 21
102.0589999999998
 31
0.0
  0
LINE
  5
445
330
1E
100
AcDbEntity
  8
0
100
AcDbLine
 10
160.585835
 20
102.0589999999998
 30
0.0
 11
161.488835
 21
100.238
 31
0.0
  0
LINE
  5
446
330
1E
100
AcDbEntity
  8
0
100
AcDbLine
 10
147.768835
 20
117.957
 30
0.0
 11
148.313835
 21
116.5079999999999
 31
0.0
  0
LINE
  5
447
330
1E
100
AcDbEntity
  8
0
100
AcDbLine
 10
147.745835
 20
119.3969999999999
 30
0.0
 11
147.815865276288
 21
119.622896273166
 31
0.0
  0
LINE
  5
448
330
1E
100
AcDbEntity
  8
0
100
AcDbLine
 10
147.721835
 20
119.2629999999999
 30
0.0
 11
147.976835
 21
120.2389999999999
 31
0.0
  0
LINE
  5
449
330
1E
100
AcDbEntity
  8
0
100
AcDbLine
 10
147.721835
 20
119.2629999999999
 30
0.0
 11
147.768835
 21
117.957
 31
0.0
  0
LINE
  5
44A
330
1E
100
AcDbEntity
  8
0
100
AcDbLine
 10
149.4128349999999
 20
115.1149999999999
 30
0.0
 11
149.8172403933679
 21
114.6688858970719
 31
0.0
  0
LINE
  5
44B
330
1E
100
AcDbEntity
  8
0
100
AcDbLine
 10
149.08719524145
 20
115.539833766812
 30
0.0
 11
149.4128349999999
 21
115.1149999999999
 31
0.0
  0
LINE
  5
44C
330
1E
100
AcDbEntity
  8
0
100
AcDbLine
 10
148.313835
 20
116.5079999999999
 30
0.0
 11
149.500835
 21
115.022
 31
0.0
  0
LINE
  5
450
330
1E
100
AcDbEntity
  8
0
100
AcDbLine
 10
148.17728719107
 20
116.871041789246
 30
0.0
 11
148.263835
 21
116.6139999999999
 31
0.0
  0
LINE
  5
451
330
1E
100
AcDbEntity
  8
0
100
AcDbLine
 10
148.17728719107
 20
116.871041789246
 30
0.0
 11
148.2834713431889
 21
116.5887283279249
 31
0.0
  0
LINE
  5
452
330
1E
100
AcDbEntity
  8
0
100
AcDbLine
 10
147.976835
 20
120.2389999999999
 30
0.0
 11
148.592835
 21
121.304
 31
0.0
  0
LINE
  5
453
330
1E
100
AcDbEntity
  8
0
100
AcDbLine
 10
148.592835
 20
121.304
 30
0.0
 11
150.787835
 21
123.276
 31
0.0
  0
LINE
  5
454
330
1E
100
AcDbEntity
  8
0
100
AcDbLine
 10
156.490835
 20
107.376
 30
0.0
 11
158.049835
 21
105.682
 31
0.0
  0
LINE
  5
455
330
1E
100
AcDbEntity
  8
0
100
AcDbLine
 10
154.636835
 20
109.4389999999999
 30
0.0
 11
156.490835
 21
107.376
 31
0.0
  0
LINE
  5
456
330
1E
100
AcDbEntity
  8
0
100
AcDbLine
 10
154.636835
 20
109.4389999999999
 30
0.0
 11
154.841835
 21
109.193
 31
0.0
  0
LINE
  5
457
330
1E
100
AcDbEntity
  8
0
100
AcDbLine
 10
152.172835
 20
112.04
 30
0.0
 11
154.636835
 21
109.4389999999999
 31
0.0
  0
LINE
  5
458
330
1E
100
AcDbEntity
  8
0
100
AcDbLine
 10
149.500835
 20
115.022
 30
0.0
 11
152.172835
 21
112.04
 31
0.0
  0
LINE
  5
459
330
1E
100
AcDbEntity
  8
0
100
AcDbLine
 10
157.557191820274
 20
106.2173031086949
 30
0.0
 11
158.290276241361
 21
105.376990138836
 31
0.0
  0
LINE
  5
45A
330
1E
100
AcDbEntity
  8
0
100
AcDbLine
 10
161.0308349999999
 20
99.92919999999999
 30
0.0
 11
162.120835
 21
98.37290000000001
 31
0.0
  0
LINE
  5
45B
330
1E
100
AcDbEntity
  8
0
100
AcDbLine
 10
161.488835
 20
100.238
 30
0.0
 11
162.271835
 21
98.53530000000001
 31
0.0
  0
LINE
  5
45C
330
1E
100
AcDbEntity
  8
0
100
AcDbLine
 10
163.972835
 20
99.3035
 30
0.0
 11
166.273835
 21
101.1589999999999
 31
0.0
  0
LINE
  5
45D
330
1E
100
AcDbEntity
  8
0
100
AcDbLine
 10
166.273835
 20
101.1589999999999
 30
0.0
 11
168.804835
 21
102.686
 31
0.0
  0
LINE
  5
45E
330
1E
100
AcDbEntity
  8
0
100
AcDbLine
 10
168.804835
 20
102.686
 30
0.0
 11
171.106835
 21
103.6879999999999
 31
0.0
  0
LINE
  5
460
330
1E
100
AcDbEntity
  8
0
100
AcDbLine
 10
170.274835
 20
102.495
 30
0.0
 11
170.904835
 21
102.936
 31
0.0
  0
LINE
  5
461
330
1E
100
AcDbEntity
  8
0
100
AcDbLine
 10
169.361835
 20
101.856
 30
0.0
 11
170.274835
 21
102.495
 31
0.0
  0
LINE
  5
462
330
1E
100
AcDbEntity
  8
0
100
AcDbLine
 10
166.962835
 20
100.1759999999999
 30
0.0
 11
169.361835
 21
101.856
 31
0.0
  0
LINE
  5
463
330
1E
100
AcDbEntity
  8
0
100
AcDbLine
 10
165.8228349999999
 20
108.7779999999999
 30
0.0
 11
167.373835
 21
106.812
 31
0.0
  0
LINE
  5
464
330
1E
100
AcDbEntity
  8
0
100
AcDbLine
 10
164.836835
 20
110.434
 30
0.0
 11
165.8228349999999
 21
108.7779999999999
 31
0.0
  0
LINE
  5
465
330
1E
100
AcDbEntity
  8
0
100
AcDbLine
 10
167.173835
 20
110.3339999999999
 30
0.0
 11
167.345835
 21
110.0889999999999
 31
0.0
  0
LINE
  5
466
330
1E
100
AcDbEntity
  8
0
100
AcDbLine
 10
166.706835
 20
110.1289999999998
 30
0.0
 11
167.681835
 21
108.737
 31
0.0
  0
LINE
  5
467
330
1E
100
AcDbEntity
  8
0
100
AcDbLine
 10
166.133835
 20
110.949
 30
0.0
 11
166.706835
 21
110.1289999999998
 31
0.0
  0
LINE
  5
468
330
1E
100
AcDbEntity
  8
0
100
AcDbLine
 10
164.6237532975368
 20
110.8949327737219
 30
0.0
 11
165.903835
 21
111.276
 31
0.0
  0
LINE
  5
469
330
1E
100
AcDbEntity
  8
0
100
AcDbLine
 10
163.777835
 20
112.4779999999999
 30
0.0
 11
164.836835
 21
110.434
 31
0.0
  0
LINE
  5
46A
330
1E
100
AcDbEntity
  8
0
100
AcDbLine
 10
165.903835
 20
111.276
 30
0.0
 11
166.133835
 21
110.949
 31
0.0
  0
LINE
  5
46B
330
1E
100
AcDbEntity
  8
0
100
AcDbLine
 10
165.903835
 20
111.276
 30
0.0
 11
167.173835
 21
110.3339999999999
 31
0.0
  0
LINE
  5
46C
330
1E
100
AcDbEntity
  8
0
100
AcDbLine
 10
167.345835
 20
110.0889999999999
 30
0.0
 11
169.754835
 21
106.6479999999999
 31
0.0
  0
LINE
  5
46D
330
1E
100
AcDbEntity
  8
0
100
AcDbLine
 10
167.681835
 20
108.737
 30
0.0
 11
168.943835
 21
106.935
 31
0.0
  0
LINE
  5
46E
330
1E
100
AcDbEntity
  8
0
100
AcDbLine
 10
167.373835
 20
106.812
 30
0.0
 11
168.775835
 21
105.34
 31
0.0
  0
LINE
  5
46F
330
1E
100
AcDbEntity
  8
0
100
AcDbLine
 10
169.754835
 20
106.6479999999999
 30
0.0
 11
171.016835
 21
104.8459999999999
 31
0.0
  0
LINE
  5
470
330
1E
100
AcDbEntity
  8
0
100
AcDbLine
 10
168.943835
 20
106.935
 30
0.0
 11
170.377835
 21
104.8869999999999
 31
0.0
  0
LINE
  5
471
330
1E
100
AcDbEntity
  8
0
100
AcDbLine
 10
168.775835
 20
105.34
 30
0.0
 11
170.107835
 21
104.022
 31
0.0
  0
LINE
  5
472
330
1E
100
AcDbEntity
  8
0
100
AcDbLine
 10
170.107835
 20
104.022
 30
0.0
 11
170.8681408887288
 21
103.613114565655
 31
0.0
  0
LINE
  5
473
330
1E
100
AcDbEntity
  8
0
100
AcDbLine
 10
162.634835
 20
114.65
 30
0.0
 11
162.987117584158
 21
113.961276807648
 31
0.0
  0
LINE
  5
474
330
1E
100
AcDbEntity
  8
0
100
AcDbLine
 10
162.4728349999999
 20
114.9259999999999
 30
0.0
 11
163.777835
 21
112.4779999999999
 31
0.0
  0
LINE
  5
475
330
1E
100
AcDbEntity
  8
0
100
AcDbLine
 10
162.4728349999999
 20
114.9259999999999
 30
0.0
 11
162.634835
 21
114.65
 31
0.0
  0
LINE
  5
476
330
1E
100
AcDbEntity
  8
0
100
AcDbLine
 10
160.871835
 20
118.132
 30
0.0
 11
162.4728349999999
 21
114.9259999999999
 31
0.0
  0
LINE
  5
477
330
1E
100
AcDbEntity
  8
0
100
AcDbLine
 10
158.614291977595
 20
122.267215262728
 30
0.0
 11
158.926835
 21
121.777
 31
0.0
  0
LINE
  5
47B
330
1E
100
AcDbEntity
  8
0
100
AcDbLine
 10
157.992835
 20
123.285
 30
0.0
 11
158.9838349999999
 21
121.662
 31
0.0
  0
LINE
  5
47C
330
1E
100
AcDbEntity
  8
0
100
AcDbLine
 10
157.680708160469
 20
123.553258927672
 30
0.0
 11
157.9118349999999
 21
123.3689999999999
 31
0.0
  0
LINE
  5
47D
330
1E
100
AcDbEntity
  8
0
100
AcDbLine
 10
157.680708160469
 20
123.553258927672
 30
0.0
 11
157.932122433733
 21
123.33717970985
 31
0.0
  0
LINE
  5
47E
330
1E
100
AcDbEntity
  8
0
100
AcDbLine
 10
156.8188349999998
 20
124.2939999999999
 30
0.0
 11
157.992835
 21
123.285
 31
0.0
  0
LINE
  5
47F
330
1E
100
AcDbEntity
  8
0
100
AcDbLine
 10
155.606835
 20
124.7839999999999
 30
0.0
 11
156.8188349999998
 21
124.2939999999999
 31
0.0
  0
LINE
  5
480
330
1E
100
AcDbEntity
  8
0
100
AcDbLine
 10
155.2187565029429
 20
124.8203340425529
 30
0.0
 11
155.473835
 21
124.8079999999999
 31
0.0
  0
LINE
  5
481
330
1E
100
AcDbEntity
  8
0
100
AcDbLine
 10
155.2187565029429
 20
124.8203340425529
 30
0.0
 11
155.513894349459
 21
124.792701614692
 31
0.0
  0
LINE
  5
482
330
1E
100
AcDbEntity
  8
0
100
AcDbLine
 10
154.602835
 20
124.8779999999999
 30
0.0
 11
155.606835
 21
124.7839999999999
 31
0.0
  0
LINE
  5
483
330
1E
100
AcDbEntity
  8
0
100
AcDbLine
 10
153.390835
 20
124.6639999999999
 30
0.0
 11
154.602835
 21
124.8779999999999
 31
0.0
  0
LINE
  5
484
330
1E
100
AcDbEntity
  8
0
100
AcDbLine
 10
150.787835
 20
123.276
 30
0.0
 11
153.390835
 21
124.6639999999999
 31
0.0
  0
LINE
  5
485
330
1E
100
AcDbEntity
  8
0
100
AcDbLine
 10
158.926835
 20
121.777
 30
0.0
 11
159.245009469451
 21
121.173681209129
 31
0.0
  0
LINE
  5
486
330
1E
100
AcDbEntity
  8
0
100
AcDbLine
 10
158.9838349999999
 20
121.662
 30
0.0
 11
160.871835
 21
118.132
 31
0.0
  0
LINE
  5
487
330
1E
100
AcDbEntity
  8
0
100
AcDbLine
 10
170.869835
 20
99.7375
 30
0.0
 11
172.597835
 21
101.5579999999999
 31
0.0
  0
LINE
  5
48C
330
1E
100
AcDbEntity
  8
0
100
AcDbLine
 10
171.487835
 20
103.3439999999999
 30
0.0
 11
171.801835
 21
103.5649999999999
 31
0.0
  0
LINE
  5
48D
330
1E
100
AcDbEntity
  8
0
100
AcDbLine
 10
170.904835
 20
102.936
 30
0.0
 11
171.487835
 21
103.3439999999999
 31
0.0
  0
LINE
  5
48E
330
1E
100
AcDbEntity
  8
0
100
AcDbLine
 10
171.016835
 20
104.8459999999999
 30
0.0
 11
172.3358349999999
 21
102.9619999999999
 31
0.0
  0
LINE
  5
48F
330
1E
100
AcDbEntity
  8
0
100
AcDbLine
 10
170.377835
 20
104.8869999999999
 30
0.0
 11
171.23310983177
 21
103.665652080133
 31
0.0
  0
LINE
  5
490
330
1E
100
AcDbEntity
  8
0
100
AcDbLine
 10
171.106835
 20
103.6879999999999
 30
0.0
 11
171.801835
 21
103.5649999999999
 31
0.0
  0
LINE
  5
491
330
1E
100
AcDbEntity
  8
0
100
AcDbLine
 10
171.801835
 20
103.5649999999999
 30
0.0
 11
172.244835
 21
102.898
 31
0.0
  0
LINE
  5
493
330
1E
100
AcDbEntity
  8
0
100
AcDbLine
 10
171.8228349999999
 20
101.626
 30
0.0
 11
172.404835
 21
102.034
 31
0.0
  0
LINE
  5
494
330
1E
100
AcDbEntity
  8
0
100
AcDbLine
 10
171.1928349999999
 20
101.185
 30
0.0
 11
171.8228349999999
 21
101.626
 31
0.0
  0
LINE
  5
495
330
1E
100
AcDbEntity
  8
0
100
AcDbLine
 10
170.279835
 20
100.5449999999999
 30
0.0
 11
171.1928349999999
 21
101.185
 31
0.0
  0
LINE
  5
496
330
1E
100
AcDbEntity
  8
0
100
AcDbLine
 10
167.879835
 20
98.8652
 30
0.0
 11
170.279835
 21
100.5449999999999
 31
0.0
  0
LINE
  5
497
330
1E
100
AcDbEntity
  8
0
100
AcDbLine
 10
173.353835
 20
98.80320000000001
 30
0.0
 11
174.2568349999999
 21
96.9819
 31
0.0
  0
LINE
  5
498
330
1E
100
AcDbEntity
  8
0
100
AcDbLine
 10
174.908835
 20
98.41560000000001
 30
0.0
 11
176.170835
 21
96.6135
 31
0.0
  0
LINE
  5
499
330
1E
100
AcDbEntity
  8
0
100
AcDbLine
 10
173.6558349999999
 20
101.078
 30
0.0
 11
174.916835
 21
99.2758
 31
0.0
  0
LINE
  5
49A
330
1E
100
AcDbEntity
  8
0
100
AcDbLine
 10
173.474835
 20
100.4629999999999
 30
0.0
 11
174.908835
 21
98.41560000000001
 31
0.0
  0
LINE
  5
49B
330
1E
100
AcDbEntity
  8
0
100
AcDbLine
 10
172.570835
 20
100.506
 30
0.0
 11
173.353835
 21
98.80320000000001
 31
0.0
  0
LINE
  5
49C
330
1E
100
AcDbEntity
  8
0
100
AcDbLine
 10
172.6200082567739
 20
101.6844966124139
 30
0.0
 11
173.474835
 21
100.4629999999999
 31
0.0
  0
LINE
  5
49D
330
1E
100
AcDbEntity
  8
0
100
AcDbLine
 10
172.597835
 20
101.5579999999999
 30
0.0
 11
172.719835
 21
102.254
 31
0.0
  0
LINE
  5
49F
330
1E
100
AcDbEntity
  8
0
100
AcDbLine
 10
172.3358349999999
 20
102.9619999999999
 30
0.0
 11
173.6558349999999
 21
101.078
 31
0.0
  0
LINE
  5
4A0
330
1E
100
AcDbEntity
  8
0
100
AcDbLine
 10
172.404835
 20
102.034
 30
0.0
 11
172.719835
 21
102.254
 31
0.0
  0
LINE
  5
4A1
330
1E
100
AcDbEntity
  8
0
100
AcDbLine
 10
172.244835
 20
102.898
 30
0.0
 11
172.719835
 21
102.254
 31
0.0
  0
LINE
  5
4A2
330
1E
100
AcDbEntity
  8
0
100
AcDbLine
 10
172.446342946277
 20
101.3597650311529
 30
0.0
 11
172.570835
 21
100.506
 31
0.0
  0
LINE
  5
4A4
330
1E
100
AcDbEntity
  8
0
100
AcDbLine
 10
174.916835
 20
99.2758
 30
0.0
 11
177.326835
 21
95.83540000000001
 31
0.0
  0
LINE
  5
4A5
330
1E
100
AcDbEntity
  8
0
100
AcDbLine
 10
177.326835
 20
95.83540000000001
 30
0.0
 11
177.498835
 21
95.5896
 31
0.0
  0
LINE
  5
4A6
330
1E
100
AcDbEntity
  8
0
100
AcDbLine
 10
177.498835
 20
95.5896
 30
0.0
 11
177.948835
 21
94.0741
 31
0.0
  0
LINE
  5
4A7
330
1E
100
AcDbEntity
  8
0
100
AcDbLine
 10
176.170835
 20
96.6135
 30
0.0
 11
177.145835
 21
95.2209
 31
0.0
  0
LINE
  5
4A8
330
1E
100
AcDbEntity
  8
0
100
AcDbLine
 10
177.145835
 20
95.2209
 30
0.0
 11
177.719835
 21
94.40179999999999
 31
0.0
  0
LINE
  5
4A9
330
1E
100
AcDbEntity
  8
0
100
AcDbLine
 10
177.719835
 20
94.40179999999999
 30
0.0
 11
177.948835
 21
94.0741
 31
0.0
  0
LINE
  5
4AA
330
1E
100
AcDbEntity
  8
0
100
AcDbLine
 10
138.830835
 20
94.1506
 30
0.0
 11
139.059835
 21
93.82290000000001
 31
0.0
  0
LINE
  5
4AB
330
1E
100
AcDbEntity
  8
0
100
AcDbLine
 10
138.830835
 20
94.1506
 30
0.0
 11
139.526835
 21
94.02779999999999
 31
0.0
  0
LINE
  5
4AC
330
1E
100
AcDbEntity
  8
0
100
AcDbLine
 10
109.999835
 20
96.5
 30
0.0
 11
110.499835
 21
95.0
 31
0.0
  0
LINE
  5
4AD
330
1E
100
AcDbEntity
  8
0
100
AcDbLine
 10
109.999835
 20
93.49999999999999
 30
0.0
 11
110.499835
 21
95.0
 31
0.0
  0
LINE
  5
4AE
330
1E
100
AcDbEntity
  8
0
100
AcDbLine
 10
76.999835
 20
93.49999999999999
 30
0.0
 11
77.999835
 21
93.0
 31
0.0
  0
LINE
  5
4AF
330
1E
100
AcDbEntity
  8
0
100
AcDbLine
 10
76.999835
 20
93.49999999999999
 30
0.0
 11
77.599835
 21
93.49999999999999
 31
0.0
  0
LINE
  5
4B0
330
1E
100
AcDbEntity
  8
0
100
AcDbLine
 10
77.999835
 20
93.0
 30
0.0
 11
78.499835
 21
91.5
 31
0.0
  0
LINE
  5
4B1
330
1E
100
AcDbEntity
  8
0
100
AcDbLine
 10
77.999835
 20
93.0
 30
0.0
 11
78.599835
 21
93.0
 31
0.0
  0
LINE
  5
4B2
330
1E
100
AcDbEntity
  8
0
100
AcDbLine
 10
69.467635
 20
85.3409
 30
0.0
 11
70.40953499999997
 21
84.0709
 31
0.0
  0
LINE
  5
4B3
330
1E
100
AcDbEntity
  8
0
100
AcDbLine
 10
70.06543499999999
 20
83.57940000000002
 30
0.0
 11
70.40953499999997
 21
84.0709
 31
0.0
  0
LINE
  5
4B4
330
1E
100
AcDbEntity
  8
0
100
AcDbLine
 10
69.33593499999999
 20
80.37229999999999
 30
0.0
 11
70.245535
 21
82.96499999999998
 31
0.0
  0
LINE
  5
4B5
330
1E
100
AcDbEntity
  8
0
100
AcDbLine
 10
69.33593499999999
 20
80.37229999999999
 30
0.0
 11
73.043635
 21
77.78100000000002
 31
0.0
  0
LINE
  5
4B6
330
1E
100
AcDbEntity
  8
0
100
AcDbLine
 10
69.06753499999999
 20
79.9889
 30
0.0
 11
69.33593499999999
 21
80.37229999999999
 31
0.0
  0
LINE
  5
4B7
330
1E
100
AcDbEntity
  8
0
100
AcDbLine
 10
58.536535
 20
67.11450000000001
 30
0.0
 11
60.94553499999999
 21
70.5549
 31
0.0
  0
LINE
  5
4B8
330
1E
100
AcDbEntity
  8
0
100
AcDbLine
 10
59.97063499999999
 20
66.99720000000001
 30
0.0
 11
61.879435
 21
69.72329999999999
 31
0.0
  0
LINE
  5
4B9
330
1E
100
AcDbEntity
  8
0
100
AcDbLine
 10
55.407235
 20
60.48
 30
0.0
 11
56.600235
 21
62.18379999999999
 31
0.0
  0
LINE
  5
4BA
330
1E
100
AcDbEntity
  8
0
100
AcDbLine
 10
54.691435
 20
59.4577
 30
0.0
 11
55.407235
 21
60.48
 31
0.0
  0
LINE
  5
4BB
330
1E
100
AcDbEntity
  8
0
100
AcDbLine
 10
54.42293499999999
 20
59.0743
 30
0.0
 11
54.691435
 21
59.4577
 31
0.0
  0
LINE
  5
4BC
330
1E
100
AcDbEntity
  8
0
100
AcDbLine
 10
54.42293499999999
 20
59.0743
 30
0.0
 11
72.44733499999998
 21
46.4549
 31
0.0
  0
ENDSEC
  0
SECTION
  2
OBJECTS
  0
DICTIONARY
  5
C
330
0
100
AcDbDictionary
281
     1
  3
ACAD_GROUP
350
D
  3
ACAD_LAYOUT
350
19
  3
ACAD_MLINESTYLE
350
16
  3
ACAD_PLOTSETTINGS
350
18
  3
ACAD_PLOTSTYLENAME
350
E
  3
AcDbVariableDictionary
350
4C1
  0
DICTIONARY
  5
D
102
{ACAD_REACTORS
330
C
102
}
330
C
100
AcDbDictionary
281
     1
  0
DICTIONARY
  5
19
102
{ACAD_REACTORS
330
C
102
}
330
C
100
AcDbDictionary
281
     1
  3
Layout1
350
1D
  3
Model
350
21
  0
DICTIONARY
  5
16
102
{ACAD_REACTORS
330
C
102
}
330
C
100
AcDbDictionary
281
     1
  3
Standard
350
17
  0
DICTIONARY
  5
18
102
{ACAD_REACTORS
330
C
102
}
330
C
100
AcDbDictionary
281
     1
  0
ACDBDICTIONARYWDFLT
  5
E
102
{ACAD_REACTORS
330
C
102
}
330
C
100
AcDbDictionary
281
     1
  3
Normal
350
F
100
AcDbDictionaryWithDefault
340
F
  0
DICTIONARY
  5
4C1
102
{ACAD_REACTORS
330
C
102
}
330
C
100
AcDbDictionary
281
     1
  3
DIMASSOC
350
4C2
  0
LAYOUT
  5
1D
102
{ACAD_REACTORS
330
19
102
}
330
19
100
AcDbPlotSettings
  1

  2
hp deskjet 980c series
  4

  6

 40
0.0
 41
0.0
 42
0.0
 43
0.0
 44
0.0
 45
0.0
 46
0.0
 47
0.0
 48
0.0
 49
0.0
140
0.0
141
0.0
142
1.0
143
1.0
 70
   688
 72
     0
 73
     0
 74
     5
  7

 75
    16
147
1.0
148
0.0
149
0.0
100
AcDbLayout
  1
Layout1
 70
     1
 71
     1
 10
0.0
 20
0.0
 11
12.0
 21
9.0
 12
0.0
 22
0.0
 32
0.0
 14
1.000000000000000E+20
 24
1.000000000000000E+20
 34
1.000000000000000E+20
 15
-1.000000000000000E+20
 25
-1.000000000000000E+20
 35
-1.000000000000000E+20
146
0.0
 13
0.0
 23
0.0
 33
0.0
 16
1.0
 26
0.0
 36
0.0
 17
0.0
 27
1.0
 37
0.0
 76
     0
330
1A
  0
LAYOUT
  5
21
102
{ACAD_REACTORS
330
19
102
}
330
19
100
AcDbPlotSettings
  1

  2
hp deskjet 980c series
  4

  6

 40
0.0
 41
0.0
 42
0.0
 43
0.0
 44
0.0
 45
0.0
 46
0.0
 47
0.0
 48
0.0
 49
0.0
140
0.0
141
0.0
142
1.0
143
1.0
 70
  1712
 72
     0
 73
     0
 74
     0
  7

 75
     0
147
1.0
148
0.0
149
0.0
100
AcDbLayout
  1
Model
 70
     1
 71
     0
 10
0.0
 20
0.0
 11
12.0
 21
9.0
 12
0.0
 22
0.0
 32
0.0
 14
0.0
 24
0.0
 34
0.0
 15
0.0
 25
0.0
 35
0.0
146
0.0
 13
0.0
 23
0.0
 33
0.0
 16
1.0
 26
0.0
 36
0.0
 17
0.0
 27
1.0
 37
0.0
 76
     0
330
1E
  0
MLINESTYLE
  5
17
102
{ACAD_REACTORS
330
16
102
}
330
16
100
AcDbMlineStyle
  2
STANDARD
 70
     0
  3

 62
   256
 51
90.0
 52
90.0
 71
     2
 49
0.5
 62
   256
  6
BYLAYER
 49
-0.5
 62
   256
  6
BYLAYER
  0
ACDBPLACEHOLDER
  5
F
102
{ACAD_REACTORS
330
E
102
}
330
E
  0
DICTIONARYVAR
  5
4C2
102
{ACAD_REACTORS
330
4C1
102
}
330
4C1
100
DictionaryVariables
280
     0
  1
1
  0
ENDSEC
  0
EOF
