  0
SECTION
  2
HEADER
  9
$ACADVER
  1
AC1015
  9
$ACADMAINTVER
 70
    13
  9
$DWGCODEPAGE
  3
ANSI_1252
  9
$INSBASE
 10
0.0
 20
0.0
 30
0.0
  9
$EXTMIN
 10
-0.17364999999998
 20
-0.000000000000019
 30
0.0
  9
$EXTMAX
 10
168.17365
 20
243.0
 30
0.0
  9
$LIMMIN
 10
0.0
 20
0.0
  9
$LIMMAX
 10
12.0
 20
9.0
  9
$ORTHOMODE
 70
     0
  9
$REGENMODE
 70
     1
  9
$FILLMODE
 70
     1
  9
$QTEXTMODE
 70
     0
  9
$MIRRTEXT
 70
     1
  9
$LTSCALE
 40
1.0
  9
$ATTMODE
 70
     1
  9
$TEXTSIZE
 40
0.2
  9
$TRACEWID
 40
0.05
  9
$TEXTSTYLE
  7
Standard
  9
$CLAYER
  8
0
  9
$CELTYPE
  6
Continuous
  9
$CECOLOR
 62
   256
  9
$CELTSCALE
 40
1.0
  9
$DISPSILH
 70
     0
  9
$DIMSCALE
 40
1.0
  9
$DIMASZ
 40
0.18
  9
$DIMEXO
 40
0.0625
  9
$DIMDLI
 40
0.38
  9
$DIMRND
 40
0.0
  9
$DIMDLE
 40
0.0
  9
$DIMEXE
 40
0.18
  9
$DIMTP
 40
0.0
  9
$DIMTM
 40
0.0
  9
$DIMTXT
 40
0.18
  9
$DIMCEN
 40
0.09
  9
$DIMTSZ
 40
0.0
  9
$DIMTOL
 70
     0
  9
$DIMLIM
 70
     0
  9
$DIMTIH
 70
     1
  9
$DIMTOH
 70
     1
  9
$DIMSE1
 70
     0
  9
$DIMSE2
 70
     0
  9
$DIMTAD
 70
     0
  9
$DIMZIN
 70
     0
  9
$DIMBLK
  1

  9
$DIMASO
 70
     1
  9
$DIMSHO
 70
     1
  9
$DIMPOST
  1

  9
$DIMAPOST
  1

  9
$DIMALT
 70
     0
  9
$DIMALTD
 70
     2
  9
$DIMALTF
 40
25.4
  9
$DIMLFAC
 40
1.0
  9
$DIMTOFL
 70
     0
  9
$DIMTVP
 40
0.0
  9
$DIMTIX
 70
     0
  9
$DIMSOXD
 70
     0
  9
$DIMSAH
 70
     0
  9
$DIMBLK1
  1

  9
$DIMBLK2
  1

  9
$DIMSTYLE
  2
Standard
  9
$DIMCLRD
 70
     0
  9
$DIMCLRE
 70
     0
  9
$DIMCLRT
 70
     0
  9
$DIMTFAC
 40
1.0
  9
$DIMGAP
 40
0.09
  9
$DIMJUST
 70
     0
  9
$DIMSD1
 70
     0
  9
$DIMSD2
 70
     0
  9
$DIMTOLJ
 70
     1
  9
$DIMTZIN
 70
     0
  9
$DIMALTZ
 70
     0
  9
$DIMALTTZ
 70
     0
  9
$DIMUPT
 70
     0
  9
$DIMDEC
 70
     4
  9
$DIMTDEC
 70
     4
  9
$DIMALTU
 70
     2
  9
$DIMALTTD
 70
     2
  9
$DIMTXSTY
  7
Standard
  9
$DIMAUNIT
 70
     0
  9
$DIMADEC
 70
     0
  9
$DIMALTRND
 40
0.0
  9
$DIMAZIN
 70
     0
  9
$DIMDSEP
 70
    46
  9
$DIMATFIT
 70
     3
  9
$DIMFRAC
 70
     0
  9
$DIMLDRBLK
  1

  9
$DIMLUNIT
 70
     2
  9
$DIMLWD
 70
    -2
  9
$DIMLWE
 70
    -2
  9
$DIMTMOVE
 70
     0
  9
$LUNITS
 70
     2
  9
$LUPREC
 70
     4
  9
$SKETCHINC
 40
0.1
  9
$FILLETRAD
 40
0.0
  9
$AUNITS
 70
     0
  9
$AUPREC
 70
     0
  9
$MENU
  1
.
  9
$ELEVATION
 40
0.0
  9
$PELEVATION
 40
0.0
  9
$THICKNESS
 40
0.0
  9
$LIMCHECK
 70
     0
  9
$CHAMFERA
 40
0.0
  9
$CHAMFERB
 40
0.0
  9
$CHAMFERC
 40
0.0
  9
$CHAMFERD
 40
0.0
  9
$SKPOLY
 70
     0
  9
$TDCREATE
 40
2454750.864653854
  9
$TDUCREATE
 40
2454750.781320520
  9
$TDUPDATE
 40
2454750.869735601
  9
$TDUUPDATE
 40
2454750.786402268
  9
$TDINDWG
 40
0.0050817477
  9
$TDUSRTIMER
 40
0.0050817477
  9
$USRTIMER
 70
     1
  9
$ANGBASE
 50
0.0
  9
$ANGDIR
 70
     0
  9
$PDMODE
 70
     0
  9
$PDSIZE
 40
0.0
  9
$PLINEWID
 40
0.0
  9
$SPLFRAME
 70
     0
  9
$SPLINETYPE
 70
     6
  9
$SPLINESEGS
 70
     8
  9
$HANDSEED
  5
2DF
  9
$SURFTAB1
 70
     6
  9
$SURFTAB2
 70
     6
  9
$SURFTYPE
 70
     6
  9
$SURFU
 70
     6
  9
$SURFV
 70
     6
  9
$UCSBASE
  2

  9
$UCSNAME
  2

  9
$UCSORG
 10
0.0
 20
0.0
 30
0.0
  9
$UCSXDIR
 10
1.0
 20
0.0
 30
0.0
  9
$UCSYDIR
 10
0.0
 20
1.0
 30
0.0
  9
$UCSORTHOREF
  2

  9
$UCSORTHOVIEW
 70
     1
  9
$UCSORGTOP
 10
0.0
 20
0.0
 30
0.0
  9
$UCSORGBOTTOM
 10
0.0
 20
0.0
 30
0.0
  9
$UCSORGLEFT
 10
0.0
 20
0.0
 30
0.0
  9
$UCSORGRIGHT
 10
0.0
 20
0.0
 30
0.0
  9
$UCSORGFRONT
 10
0.0
 20
0.0
 30
0.0
  9
$UCSORGBACK
 10
0.0
 20
0.0
 30
0.0
  9
$PUCSBASE
  2

  9
$PUCSNAME
  2

  9
$PUCSORG
 10
0.0
 20
0.0
 30
0.0
  9
$PUCSXDIR
 10
1.0
 20
0.0
 30
0.0
  9
$PUCSYDIR
 10
0.0
 20
1.0
 30
0.0
  9
$PUCSORTHOREF
  2

  9
$PUCSORTHOVIEW
 70
     0
  9
$PUCSORGTOP
 10
0.0
 20
0.0
 30
0.0
  9
$PUCSORGBOTTOM
 10
0.0
 20
0.0
 30
0.0
  9
$PUCSORGLEFT
 10
0.0
 20
0.0
 30
0.0
  9
$PUCSORGRIGHT
 10
0.0
 20
0.0
 30
0.0
  9
$PUCSORGFRONT
 10
0.0
 20
0.0
 30
0.0
  9
$PUCSORGBACK
 10
0.0
 20
0.0
 30
0.0
  9
$USERI1
 70
     0
  9
$USERI2
 70
     0
  9
$USERI3
 70
     0
  9
$USERI4
 70
     0
  9
$USERI5
 70
     0
  9
$USERR1
 40
0.0
  9
$USERR2
 40
0.0
  9
$USERR3
 40
0.0
  9
$USERR4
 40
0.0
  9
$USERR5
 40
0.0
  9
$WORLDVIEW
 70
     1
  9
$SHADEDGE
 70
     3
  9
$SHADEDIF
 70
    70
  9
$TILEMODE
 70
     1
  9
$MAXACTVP
 70
    64
  9
$PINSBASE
 10
0.0
 20
0.0
 30
0.0
  9
$PLIMCHECK
 70
     0
  9
$PEXTMIN
 10
1.000000000000000E+20
 20
1.000000000000000E+20
 30
1.000000000000000E+20
  9
$PEXTMAX
 10
-1.000000000000000E+20
 20
-1.000000000000000E+20
 30
-1.000000000000000E+20
  9
$PLIMMIN
 10
0.0
 20
0.0
  9
$PLIMMAX
 10
12.0
 20
9.0
  9
$UNITMODE
 70
     0
  9
$VISRETAIN
 70
     1
  9
$PLINEGEN
 70
     0
  9
$PSLTSCALE
 70
     1
  9
$TREEDEPTH
 70
  3020
  9
$CMLSTYLE
  2
Standard
  9
$CMLJUST
 70
     0
  9
$CMLSCALE
 40
1.0
  9
$PROXYGRAPHICS
 70
     1
  9
$MEASUREMENT
 70
     0
  9
$CELWEIGHT
370
    -1
  9
$ENDCAPS
280
     0
  9
$JOINSTYLE
280
     0
  9
$LWDISPLAY
290
     0
  9
$INSUNITS
 70
     0
  9
$HYPERLINKBASE
  1

  9
$STYLESHEET
  1

  9
$XEDIT
290
     1
  9
$CEPSNTYPE
380
     0
  9
$PSTYLEMODE
290
     1
  9
$FINGERPRINTGUID
  2
{C2587E01-3FEE-4E40-9E7F-A7356BF9E93C}
  9
$VERSIONGUID
  2
{0B2F3FA9-9888-46E3-B139-C083DDA59345}
  9
$EXTNAMES
290
     1
  9
$PSVPSCALE
 40
0.0
  9
$OLESTARTUP
290
     0
  0
ENDSEC
  0
SECTION
  2
CLASSES
  0
CLASS
  1
ACDBDICTIONARYWDFLT
  2
AcDbDictionaryWithDefault
  3
AutoCAD 2000
 90
        0
280
     0
281
     0
  0
CLASS
  1
ACDBPLACEHOLDER
  2
AcDbPlaceHolder
  3
AutoCAD 2000
 90
        0
280
     0
281
     0
  0
CLASS
  1
LAYOUT
  2
AcDbLayout
  3
AutoCAD 2000
 90
        0
280
     0
281
     0
  0
CLASS
  1
DICTIONARYVAR
  2
AcDbDictionaryVar
  3
AutoCAD 2000
 90
        0
280
     0
281
     0
  0
ENDSEC
  0
SECTION
  2
TABLES
  0
TABLE
  2
VPORT
  5
8
330
0
100
AcDbSymbolTable
 70
     2
  0
VPORT
  5
2DE
330
8
100
AcDbSymbolTableRecord
100
AcDbViewportTableRecord
  2
*Active
 70
     0
 10
0.0
 20
0.0
 11
1.0
 21
1.0
 12
84.00000000000002
 22
121.5
 13
0.0
 23
0.0
 14
1.0
 24
1.0
 15
0.0
 25
0.0
 16
0.0
 26
0.0
 36
1.0
 17
0.0
 27
0.0
 37
0.0
 40
244.8644501278772
 41
2.078104993597951
 42
50.0
 43
0.0
 44
0.0
 50
0.0
 51
0.0
 71
     0
 72
   100
 73
     1
 74
     3
 75
     0
 76
     0
 77
     0
 78
     0
281
     0
 65
     1
110
0.0
120
0.0
130
0.0
111
1.0
121
0.0
131
0.0
112
0.0
122
1.0
132
0.0
 79
     1
146
0.0
  0
ENDTAB
  0
TABLE
  2
LTYPE
  5
5
330
0
100
AcDbSymbolTable
 70
     1
  0
LTYPE
  5
13
330
5
100
AcDbSymbolTableRecord
100
AcDbLinetypeTableRecord
  2
ByBlock
 70
     0
  3

 72
    65
 73
     0
 40
0.0
  0
LTYPE
  5
14
330
5
100
AcDbSymbolTableRecord
100
AcDbLinetypeTableRecord
  2
ByLayer
 70
     0
  3

 72
    65
 73
     0
 40
0.0
  0
LTYPE
  5
15
330
5
100
AcDbSymbolTableRecord
100
AcDbLinetypeTableRecord
  2
Continuous
 70
     0
  3
Solid line
 72
    65
 73
     0
 40
0.0
  0
ENDTAB
  0
TABLE
  2
LAYER
  5
2
330
0
100
AcDbSymbolTable
 70
     1
  0
LAYER
  5
10
330
2
100
AcDbSymbolTableRecord
100
AcDbLayerTableRecord
  2
0
 70
     0
 62
     7
  6
Continuous
370
    -3
390
F
  0
ENDTAB
  0
TABLE
  2
STYLE
  5
3
330
0
100
AcDbSymbolTable
 70
     1
  0
STYLE
  5
11
330
3
100
AcDbSymbolTableRecord
100
AcDbTextStyleTableRecord
  2
Standard
 70
     0
 40
0.0
 41
1.0
 50
0.0
 71
     0
 42
0.2
  3
txt
  4

  0
ENDTAB
  0
TABLE
  2
VIEW
  5
6
330
0
100
AcDbSymbolTable
 70
     0
  0
ENDTAB
  0
TABLE
  2
UCS
  5
7
330
0
100
AcDbSymbolTable
 70
     0
  0
ENDTAB
  0
TABLE
  2
APPID
  5
9
330
0
100
AcDbSymbolTable
 70
     1
  0
APPID
  5
12
330
9
100
AcDbSymbolTableRecord
100
AcDbRegAppTableRecord
  2
ACAD
 70
     0
  0
ENDTAB
  0
TABLE
  2
DIMSTYLE
  5
A
330
0
100
AcDbSymbolTable
 70
     1
100
AcDbDimStyleTable
 71
     0
  0
DIMSTYLE
105
2D5
330
A
100
AcDbSymbolTableRecord
100
AcDbDimStyleTableRecord
  2
Standard
 70
     0
340
11
  0
ENDTAB
  0
TABLE
  2
BLOCK_RECORD
  5
1
330
0
100
AcDbSymbolTable
 70
     0
  0
BLOCK_RECORD
  5
1E
330
1
100
AcDbSymbolTableRecord
100
AcDbBlockTableRecord
  2
*Model_Space
340
21
  0
BLOCK_RECORD
  5
1A
330
1
100
AcDbSymbolTableRecord
100
AcDbBlockTableRecord
  2
*Paper_Space
340
1D
  0
ENDTAB
  0
ENDSEC
  0
SECTION
  2
BLOCKS
  0
BLOCK
  5
1F
330
1E
100
AcDbEntity
  8
0
100
AcDbBlockBegin
  2
*Model_Space
 70
     0
 10
0.0
 20
0.0
 30
0.0
  3
*Model_Space
  1

  0
ENDBLK
  5
20
330
1E
100
AcDbEntity
  8
0
100
AcDbBlockEnd
  0
BLOCK
  5
1B
330
1A
100
AcDbEntity
 67
     1
  8
0
100
AcDbBlockBegin
  2
*Paper_Space
 70
     0
 10
0.0
 20
0.0
 30
0.0
  3
*Paper_Space
  1

  0
ENDBLK
  5
1C
330
1A
100
AcDbEntity
 67
     1
  8
0
100
AcDbBlockEnd
  0
ENDSEC
  0
SECTION
  2
ENTITIES
  0
LINE
  5
22
330
1E
100
AcDbEntity
  8
0
100
AcDbLine
 10
105.53265
 20
-0.000000000000016
 30
0.0
 11
106.4326499999999
 21
-0.000000000000016
 31
0.0
  0
LINE
  5
23
330
1E
100
AcDbEntity
  8
0
100
AcDbLine
 10
105.53265
 20
-0.000000000000016
 30
0.0
 11
106.0326499999999
 21
1.49999999999998
 31
0.0
  0
LINE
  5
24
330
1E
100
AcDbEntity
  8
0
100
AcDbLine
 10
105.53265
 20
-0.000000000000016
 30
0.0
 11
106.0326499999999
 21
1.49999999999998
 31
0.0
  0
LINE
  5
25
330
1E
100
AcDbEntity
  8
0
100
AcDbLine
 10
112.9326499999999
 20
-0.0000000000000164
 30
0.0
 11
118.1326499999999
 21
-0.0000000000000167
 31
0.0
  0
LINE
  5
26
330
1E
100
AcDbEntity
  8
0
100
AcDbLine
 10
108.8326499999999
 20
-0.0000000000000162
 30
0.0
 11
112.9326499999999
 21
-0.0000000000000164
 31
0.0
  0
LINE
  5
27
330
1E
100
AcDbEntity
  8
0
100
AcDbLine
 10
107.53165
 20
95.40989999999998
 30
0.0
 11
111.51085
 21
95.4814
 31
0.0
  0
LINE
  5
28
330
1E
100
AcDbEntity
  8
0
100
AcDbLine
 10
113.03265
 20
14.0
 30
0.0
 11
113.03265
 21
13.5
 31
0.0
  0
LINE
  5
29
330
1E
100
AcDbEntity
  8
0
100
AcDbLine
 10
113.03265
 20
14.0
 30
0.0
 11
113.53265
 21
15.0
 31
0.0
  0
LINE
  5
2A
330
1E
100
AcDbEntity
  8
0
100
AcDbLine
 10
113.53265
 20
95.0
 30
0.0
 11
114.03265
 21
93.49999999999999
 31
0.0
  0
LINE
  5
2B
330
1E
100
AcDbEntity
  8
0
100
AcDbLine
 10
113.53265
 20
95.0
 30
0.0
 11
113.5806405128799
 21
95.14397153864109
 31
0.0
  0
LINE
  5
2C
330
1E
100
AcDbEntity
  8
0
100
AcDbLine
 10
113.53265
 20
95.0
 30
0.0
 11
114.1326499999999
 21
95.0
 31
0.0
  0
LINE
  5
2D
330
1E
100
AcDbEntity
  8
0
100
AcDbLine
 10
113.53265
 20
15.0
 30
0.0
 11
114.53265
 21
15.5
 31
0.0
  0
LINE
  5
2E
330
1E
100
AcDbEntity
  8
0
100
AcDbLine
 10
113.53265
 20
15.0
 30
0.0
 11
114.1326499999999
 21
15.0
 31
0.0
  0
LINE
  5
2F
330
1E
100
AcDbEntity
  8
0
100
AcDbLine
 10
113.03265
 20
13.5
 30
0.0
 11
113.53265
 21
12.5
 31
0.0
  0
LINE
  5
30
330
1E
100
AcDbEntity
  8
0
100
AcDbLine
 10
113.03265
 20
13.5
 30
0.0
 11
113.03265
 21
14.0
 31
0.0
  0
LINE
  5
31
330
1E
100
AcDbEntity
  8
0
100
AcDbLine
 10
113.53265
 20
12.5
 30
0.0
 11
113.73265
 21
11.4
 31
0.0
  0
LINE
  5
32
330
1E
100
AcDbEntity
  8
0
100
AcDbLine
 10
113.53265
 20
9.99999999999998
 30
0.0
 11
113.73265
 21
11.4
 31
0.0
  0
LINE
  5
33
330
1E
100
AcDbEntity
  8
0
100
AcDbLine
 10
112.53265
 20
6.999999999999981
 30
0.0
 11
113.53265
 21
9.99999999999998
 31
0.0
  0
LINE
  5
34
330
1E
100
AcDbEntity
  8
0
100
AcDbLine
 10
110.53265
 20
3.999999999999979
 30
0.0
 11
112.53265
 21
6.999999999999981
 31
0.0
  0
LINE
  5
35
330
1E
100
AcDbEntity
  8
0
100
AcDbLine
 10
107.0326499999999
 20
2.49999999999998
 30
0.0
 11
110.53265
 21
3.999999999999979
 31
0.0
  0
LINE
  5
36
330
1E
100
AcDbEntity
  8
0
100
AcDbLine
 10
106.0326499999999
 20
1.49999999999998
 30
0.0
 11
107.0326499999999
 21
2.49999999999998
 31
0.0
  0
LINE
  5
37
330
1E
100
AcDbEntity
  8
0
100
AcDbLine
 10
106.4326499999999
 20
-0.000000000000016
 30
0.0
 11
108.8326499999999
 21
-0.0000000000000162
 31
0.0
  0
LINE
  5
38
330
1E
100
AcDbEntity
  8
0
100
AcDbLine
 10
105.6386499999999
 20
95.3531
 30
0.0
 11
107.53165
 21
95.40989999999998
 31
0.0
  0
LINE
  5
39
330
1E
100
AcDbEntity
  8
0
100
AcDbLine
 10
9.489910000000019
 20
159.8449999999999
 30
0.0
 11
12.23373
 21
159.66
 31
0.0
  0
LINE
  5
3A
330
1E
100
AcDbEntity
  8
0
100
AcDbLine
 10
21.71237
 20
159.024
 30
0.0
 11
22.80988999999999
 21
158.9499999999999
 31
0.0
  0
LINE
  5
3B
330
1E
100
AcDbEntity
  8
0
100
AcDbLine
 10
23.20899
 20
158.923
 30
0.0
 11
24.27375
 21
159.8539999999999
 31
0.0
  0
LINE
  5
3C
330
1E
100
AcDbEntity
  8
0
100
AcDbLine
 10
22.80988999999999
 20
158.9499999999999
 30
0.0
 11
23.20899
 21
158.923
 31
0.0
  0
LINE
  5
3D
330
1E
100
AcDbEntity
  8
0
100
AcDbLine
 10
20.01618999999999
 20
159.138
 30
0.0
 11
21.71237
 21
159.024
 31
0.0
  0
LINE
  5
3E
330
1E
100
AcDbEntity
  8
0
100
AcDbLine
 10
17.72136
 20
159.292
 30
0.0
 11
20.01618999999999
 21
159.138
 31
0.0
  0
LINE
  5
3F
330
1E
100
AcDbEntity
  8
0
100
AcDbLine
 10
23.87465
 20
159.881
 30
0.0
 11
24.27375
 21
159.8539999999999
 31
0.0
  0
LINE
  5
40
330
1E
100
AcDbEntity
  8
0
100
AcDbLine
 10
22.67736
 20
159.961
 30
0.0
 11
23.87465
 21
159.881
 31
0.0
  0
LINE
  5
41
330
1E
100
AcDbEntity
  8
0
100
AcDbLine
 10
24.27375
 20
159.8539999999999
 30
0.0
 11
24.66965
 21
165.87
 31
0.0
  0
LINE
  5
42
330
1E
100
AcDbEntity
  8
0
100
AcDbLine
 10
14.97754
 20
159.4759999999999
 30
0.0
 11
17.72136
 21
159.292
 31
0.0
  0
LINE
  5
43
330
1E
100
AcDbEntity
  8
0
100
AcDbLine
 10
12.23373
 20
159.66
 30
0.0
 11
14.97754
 21
159.4759999999999
 31
0.0
  0
LINE
  5
44
330
1E
100
AcDbEntity
  8
0
100
AcDbLine
 10
0.7268500000000171
 20
161.4349999999999
 30
0.0
 11
1.92415000000002
 21
161.355
 31
0.0
  0
LINE
  5
45
330
1E
100
AcDbEntity
  8
0
100
AcDbLine
 10
0.32775000000002
 20
161.462
 30
0.0
 11
0.723550000000018
 21
167.479
 31
0.0
  0
LINE
  5
46
330
1E
100
AcDbEntity
  8
0
100
AcDbLine
 10
0.32775000000002
 20
161.462
 30
0.0
 11
0.7268500000000171
 21
161.4349999999999
 31
0.0
  0
LINE
  5
47
330
1E
100
AcDbEntity
  8
0
100
AcDbLine
 10
0.32775000000002
 20
161.462
 30
0.0
 11
1.25845000000002
 21
160.397
 31
0.0
  0
LINE
  5
48
330
1E
100
AcDbEntity
  8
0
100
AcDbLine
 10
-0.140149999999982
 20
169.541
 30
0.0
 11
0.459250000000018
 21
171.004
 31
0.0
  0
LINE
  5
49
330
1E
100
AcDbEntity
  8
0
100
AcDbLine
 10
-0.140149999999982
 20
169.541
 30
0.0
 11
0.459250000000018
 21
171.004
 31
0.0
  0
LINE
  5
4A
330
1E
100
AcDbEntity
  8
0
100
AcDbLine
 10
-0.17364999999998
 20
169.042
 30
0.0
 11
0.258250000000019
 21
168.0109999999999
 31
0.0
  0
LINE
  5
4B
330
1E
100
AcDbEntity
  8
0
100
AcDbLine
 10
-0.17364999999998
 20
169.042
 30
0.0
 11
-0.140149999999982
 21
169.541
 31
0.0
  0
LINE
  5
4C
330
1E
100
AcDbEntity
  8
0
100
AcDbLine
 10
0.459250000000018
 20
171.004
 30
0.0
 11
2.55525000000002
 21
172.367
 31
0.0
  0
LINE
  5
4D
330
1E
100
AcDbEntity
  8
0
100
AcDbLine
 10
0.723550000000018
 20
167.479
 30
0.0
 11
1.122650000000019
 21
167.452
 31
0.0
  0
LINE
  5
4E
330
1E
100
AcDbEntity
  8
0
100
AcDbLine
 10
1.122650000000019
 20
167.452
 30
0.0
 11
2.319950000000019
 21
167.3709999999999
 31
0.0
  0
LINE
  5
4F
330
1E
100
AcDbEntity
  8
0
100
AcDbLine
 10
0.459250000000018
 20
171.004
 30
0.0
 11
2.55525000000002
 21
172.367
 31
0.0
  0
LINE
  5
50
330
1E
100
AcDbEntity
  8
0
100
AcDbLine
 10
0.258250000000019
 20
168.0109999999999
 30
0.0
 11
0.723550000000018
 21
167.479
 31
0.0
  0
LINE
  5
51
330
1E
100
AcDbEntity
  8
0
100
AcDbLine
 10
0.32775000000002
 20
161.462
 30
0.0
 11
1.25845000000002
 21
160.397
 31
0.0
  0
LINE
  5
52
330
1E
100
AcDbEntity
  8
0
100
AcDbLine
 10
1.92415000000002
 20
161.355
 30
0.0
 11
3.81985000000002
 21
161.2279999999999
 31
0.0
  0
LINE
  5
53
330
1E
100
AcDbEntity
  8
0
100
AcDbLine
 10
1.65755000000002
 20
160.371
 30
0.0
 11
2.75505000000002
 21
160.297
 31
0.0
  0
LINE
  5
54
330
1E
100
AcDbEntity
  8
0
100
AcDbLine
 10
2.319950000000019
 20
167.3709999999999
 30
0.0
 11
4.21570000000002
 21
167.244
 31
0.0
  0
LINE
  5
55
330
1E
100
AcDbEntity
  8
0
100
AcDbLine
 10
3.81985000000002
 20
161.2279999999999
 30
0.0
 11
6.314240000000019
 21
161.0599999999999
 31
0.0
  0
LINE
  5
56
330
1E
100
AcDbEntity
  8
0
100
AcDbLine
 10
4.21570000000002
 20
167.244
 30
0.0
 11
6.710080000000019
 21
167.077
 31
0.0
  0
LINE
  5
57
330
1E
100
AcDbEntity
  8
0
100
AcDbLine
 10
2.95435000000002
 20
172.3399999999999
 30
0.0
 11
3.95215000000002
 21
172.273
 31
0.0
  0
LINE
  5
58
330
1E
100
AcDbEntity
  8
0
100
AcDbLine
 10
3.95215000000002
 20
172.273
 30
0.0
 11
5.648320000000018
 21
172.159
 31
0.0
  0
LINE
  5
59
330
1E
100
AcDbEntity
  8
0
100
AcDbLine
 10
2.55525000000002
 20
172.367
 30
0.0
 11
3.62296000000002
 21
183.0059999999999
 31
0.0
  0
LINE
  5
5A
330
1E
100
AcDbEntity
  8
0
100
AcDbLine
 10
2.55525000000002
 20
172.367
 30
0.0
 11
2.95435000000002
 21
172.3399999999999
 31
0.0
  0
LINE
  5
5B
330
1E
100
AcDbEntity
  8
0
100
AcDbLine
 10
3.62296000000002
 20
183.0059999999999
 30
0.0
 11
5.383770000000018
 21
191.859
 31
0.0
  0
LINE
  5
5C
330
1E
100
AcDbEntity
  8
0
100
AcDbLine
 10
1.25845000000002
 20
160.397
 30
0.0
 11
1.65755000000002
 21
160.371
 31
0.0
  0
LINE
  5
5D
330
1E
100
AcDbEntity
  8
0
100
AcDbLine
 10
2.75505000000002
 20
160.297
 30
0.0
 11
4.451260000000019
 21
160.1829999999999
 31
0.0
  0
LINE
  5
5E
330
1E
100
AcDbEntity
  8
0
100
AcDbLine
 10
6.314240000000019
 20
161.0599999999999
 30
0.0
 11
9.207720000000019
 21
160.866
 31
0.0
  0
LINE
  5
5F
330
1E
100
AcDbEntity
  8
0
100
AcDbLine
 10
9.207720000000019
 20
160.866
 30
0.0
 11
12.30075
 21
160.6579999999999
 31
0.0
  0
LINE
  5
60
330
1E
100
AcDbEntity
  8
0
100
AcDbLine
 10
20.78162999999999
 20
160.088
 30
0.0
 11
22.67736
 21
159.961
 31
0.0
  0
LINE
  5
61
330
1E
100
AcDbEntity
  8
0
100
AcDbLine
 10
18.28725
 20
160.2559999999999
 30
0.0
 11
20.78162999999999
 21
160.088
 31
0.0
  0
LINE
  5
62
330
1E
100
AcDbEntity
  8
0
100
AcDbLine
 10
15.39377
 20
160.4499999999999
 30
0.0
 11
18.28725
 21
160.2559999999999
 31
0.0
  0
LINE
  5
63
330
1E
100
AcDbEntity
  8
0
100
AcDbLine
 10
12.30075
 20
160.6579999999999
 30
0.0
 11
15.39377
 21
160.4499999999999
 31
0.0
  0
LINE
  5
64
330
1E
100
AcDbEntity
  8
0
100
AcDbLine
 10
6.710080000000019
 20
167.077
 30
0.0
 11
9.603560000000019
 21
166.882
 31
0.0
  0
LINE
  5
65
330
1E
100
AcDbEntity
  8
0
100
AcDbLine
 10
24.27055
 20
165.897
 30
0.0
 11
24.66965
 21
165.87
 31
0.0
  0
LINE
  5
66
330
1E
100
AcDbEntity
  8
0
100
AcDbLine
 10
23.07320999999999
 20
165.9769999999999
 30
0.0
 11
24.27055
 21
165.897
 31
0.0
  0
LINE
  5
67
330
1E
100
AcDbEntity
  8
0
100
AcDbLine
 10
21.17748
 20
166.1049999999999
 30
0.0
 11
23.07320999999999
 21
165.9769999999999
 31
0.0
  0
LINE
  5
68
330
1E
100
AcDbEntity
  8
0
100
AcDbLine
 10
18.6831
 20
166.272
 30
0.0
 11
21.17748
 21
166.1049999999999
 31
0.0
  0
LINE
  5
69
330
1E
100
AcDbEntity
  8
0
100
AcDbLine
 10
15.78962
 20
166.467
 30
0.0
 11
18.6831
 21
166.272
 31
0.0
  0
LINE
  5
6A
330
1E
100
AcDbEntity
  8
0
100
AcDbLine
 10
12.69659199999999
 20
166.674
 30
0.0
 11
15.78962
 21
166.467
 31
0.0
  0
LINE
  5
6B
330
1E
100
AcDbEntity
  8
0
100
AcDbLine
 10
9.603560000000019
 20
166.882
 30
0.0
 11
12.69659199999999
 21
166.674
 31
0.0
  0
LINE
  5
6C
330
1E
100
AcDbEntity
  8
0
100
AcDbLine
 10
5.648320000000018
 20
172.159
 30
0.0
 11
7.843380000000019
 21
172.012
 31
0.0
  0
LINE
  5
6D
330
1E
100
AcDbEntity
  8
0
100
AcDbLine
 10
7.843380000000019
 20
172.012
 30
0.0
 11
10.33776
 21
171.844
 31
0.0
  0
LINE
  5
6E
330
1E
100
AcDbEntity
  8
0
100
AcDbLine
 10
23.10897999999999
 20
170.9859999999999
 30
0.0
 11
23.50808
 21
170.959
 31
0.0
  0
LINE
  5
6F
330
1E
100
AcDbEntity
  8
0
100
AcDbLine
 10
22.11123
 20
171.053
 30
0.0
 11
23.10897999999999
 21
170.9859999999999
 31
0.0
  0
LINE
  5
70
330
1E
100
AcDbEntity
  8
0
100
AcDbLine
 10
20.41505
 20
171.1669999999999
 30
0.0
 11
22.11123
 21
171.053
 31
0.0
  0
LINE
  5
71
330
1E
100
AcDbEntity
  8
0
100
AcDbLine
 10
18.22
 20
171.3149999999999
 30
0.0
 11
20.41505
 21
171.1669999999999
 31
0.0
  0
LINE
  5
72
330
1E
100
AcDbEntity
  8
0
100
AcDbLine
 10
15.72562
 20
171.482
 30
0.0
 11
18.22
 21
171.3149999999999
 31
0.0
  0
LINE
  5
73
330
1E
100
AcDbEntity
  8
0
100
AcDbLine
 10
13.031687
 20
171.6629999999999
 30
0.0
 11
15.72562
 21
171.482
 31
0.0
  0
LINE
  5
74
330
1E
100
AcDbEntity
  8
0
100
AcDbLine
 10
10.33776
 20
171.844
 30
0.0
 11
13.031687
 21
171.6629999999999
 31
0.0
  0
LINE
  5
75
330
1E
100
AcDbEntity
  8
0
100
AcDbLine
 10
12.27689999999999
 20
208.4999999999999
 30
0.0
 11
17.29127
 21
216.005
 31
0.0
  0
LINE
  5
76
330
1E
100
AcDbEntity
  8
0
100
AcDbLine
 10
8.284960000000019
 20
200.4049999999999
 30
0.0
 11
12.27689999999999
 21
208.4999999999999
 31
0.0
  0
LINE
  5
77
330
1E
100
AcDbEntity
  8
0
100
AcDbLine
 10
17.29127
 20
216.005
 30
0.0
 11
23.24227999999999
 21
222.7899999999999
 31
0.0
  0
LINE
  5
78
330
1E
100
AcDbEntity
  8
0
100
AcDbLine
 10
5.383770000000018
 20
191.859
 30
0.0
 11
8.284960000000019
 21
200.4049999999999
 31
0.0
  0
LINE
  5
79
330
1E
100
AcDbEntity
  8
0
100
AcDbLine
 10
24.44325
 20
180.2649999999999
 30
0.0
 11
25.66825
 21
186.423
 31
0.0
  0
LINE
  5
7A
330
1E
100
AcDbEntity
  8
0
100
AcDbLine
 10
23.24227999999999
 20
222.7899999999999
 30
0.0
 11
30.02815
 21
228.7409999999999
 31
0.0
  0
LINE
  5
7B
330
1E
100
AcDbEntity
  8
0
100
AcDbLine
 10
23.50808
 20
170.959
 30
0.0
 11
25.40305
 21
169.329
 31
0.0
  0
LINE
  5
7C
330
1E
100
AcDbEntity
  8
0
100
AcDbLine
 10
23.50808
 20
170.959
 30
0.0
 11
24.44325
 21
180.2649999999999
 31
0.0
  0
LINE
  5
7D
330
1E
100
AcDbEntity
  8
0
100
AcDbLine
 10
33.95165
 20
203.2209999999999
 30
0.0
 11
38.09155
 21
207.9409999999999
 31
0.0
  0
LINE
  5
7E
330
1E
100
AcDbEntity
  8
0
100
AcDbLine
 10
30.46345
 20
198.0
 30
0.0
 11
33.95165
 21
203.2209999999999
 31
0.0
  0
LINE
  5
7F
330
1E
100
AcDbEntity
  8
0
100
AcDbLine
 10
27.68645
 20
192.369
 30
0.0
 11
30.46345
 21
198.0
 31
0.0
  0
LINE
  5
80
330
1E
100
AcDbEntity
  8
0
100
AcDbLine
 10
25.66825
 20
186.423
 30
0.0
 11
27.68645
 21
192.369
 31
0.0
  0
LINE
  5
81
330
1E
100
AcDbEntity
  8
0
100
AcDbLine
 10
30.02815
 20
228.7409999999999
 30
0.0
 11
37.53264999999999
 21
233.7559999999999
 31
0.0
  0
LINE
  5
82
330
1E
100
AcDbEntity
  8
0
100
AcDbLine
 10
101.25325
 20
212.081
 30
0.0
 11
105.9737499999999
 21
207.9409999999999
 31
0.0
  0
LINE
  5
83
330
1E
100
AcDbEntity
  8
0
100
AcDbLine
 10
96.03265
 20
215.569
 30
0.0
 11
101.25325
 21
212.081
 31
0.0
  0
LINE
  5
84
330
1E
100
AcDbEntity
  8
0
100
AcDbLine
 10
42.81215
 20
212.081
 30
0.0
 11
48.03264999999999
 21
215.569
 31
0.0
  0
LINE
  5
85
330
1E
100
AcDbEntity
  8
0
100
AcDbLine
 10
45.62745
 20
237.7479999999999
 30
0.0
 11
54.17415
 21
240.649
 31
0.0
  0
LINE
  5
86
330
1E
100
AcDbEntity
  8
0
100
AcDbLine
 10
53.66385
 20
218.3459999999999
 30
0.0
 11
59.60935
 21
220.364
 31
0.0
  0
LINE
  5
87
330
1E
100
AcDbEntity
  8
0
100
AcDbLine
 10
90.40145
 20
218.3459999999999
 30
0.0
 11
96.03265
 21
215.569
 31
0.0
  0
LINE
  5
88
330
1E
100
AcDbEntity
  8
0
100
AcDbLine
 10
84.45595
 20
220.364
 30
0.0
 11
90.40145
 21
218.3459999999999
 31
0.0
  0
LINE
  5
89
330
1E
100
AcDbEntity
  8
0
100
AcDbLine
 10
78.29795
 20
221.589
 30
0.0
 11
84.45595
 21
220.364
 31
0.0
  0
LINE
  5
8A
330
1E
100
AcDbEntity
  8
0
100
AcDbLine
 10
72.03265
 20
243.0
 30
0.0
 11
81.03894999999999
 21
242.41
 31
0.0
  0
LINE
  5
8B
330
1E
100
AcDbEntity
  8
0
100
AcDbLine
 10
98.43785
 20
237.7479999999999
 30
0.0
 11
106.53265
 21
233.7559999999999
 31
0.0
  0
LINE
  5
8C
330
1E
100
AcDbEntity
  8
0
100
AcDbLine
 10
89.89114999999999
 20
240.649
 30
0.0
 11
98.43785
 21
237.7479999999999
 31
0.0
  0
LINE
  5
8D
330
1E
100
AcDbEntity
  8
0
100
AcDbLine
 10
81.03894999999999
 20
242.41
 30
0.0
 11
89.89114999999999
 21
240.649
 31
0.0
  0
LINE
  5
8E
330
1E
100
AcDbEntity
  8
0
100
AcDbLine
 10
72.03265
 20
222.0
 30
0.0
 11
78.29795
 21
221.589
 31
0.0
  0
LINE
  5
8F
330
1E
100
AcDbEntity
  8
0
100
AcDbLine
 10
65.76734999999999
 20
221.589
 30
0.0
 11
72.03265
 21
222.0
 31
0.0
  0
LINE
  5
90
330
1E
100
AcDbEntity
  8
0
100
AcDbLine
 10
63.02635
 20
242.41
 30
0.0
 11
72.03265
 21
243.0
 31
0.0
  0
LINE
  5
91
330
1E
100
AcDbEntity
  8
0
100
AcDbLine
 10
59.60935
 20
220.364
 30
0.0
 11
65.76734999999999
 21
221.589
 31
0.0
  0
LINE
  5
92
330
1E
100
AcDbEntity
  8
0
100
AcDbLine
 10
54.17415
 20
240.649
 30
0.0
 11
63.02635
 21
242.41
 31
0.0
  0
LINE
  5
93
330
1E
100
AcDbEntity
  8
0
100
AcDbLine
 10
48.03264999999999
 20
215.569
 30
0.0
 11
53.66385
 21
218.3459999999999
 31
0.0
  0
LINE
  5
94
330
1E
100
AcDbEntity
  8
0
100
AcDbLine
 10
37.53264999999999
 20
233.7559999999999
 30
0.0
 11
45.62745
 21
237.7479999999999
 31
0.0
  0
LINE
  5
95
330
1E
100
AcDbEntity
  8
0
100
AcDbLine
 10
38.09155
 20
207.9409999999999
 30
0.0
 11
42.81215
 21
212.081
 31
0.0
  0
LINE
  5
96
330
1E
100
AcDbEntity
  8
0
100
AcDbLine
 10
25.40305
 20
169.329
 30
0.0
 11
25.80144999999999
 21
167.799
 31
0.0
  0
LINE
  5
97
330
1E
100
AcDbEntity
  8
0
100
AcDbLine
 10
25.76785
 20
167.3
 30
0.0
 11
25.80144999999999
 21
167.799
 31
0.0
  0
LINE
  5
98
330
1E
100
AcDbEntity
  8
0
100
AcDbLine
 10
25.20195
 20
166.3359999999999
 30
0.0
 11
25.76785
 21
167.3
 31
0.0
  0
LINE
  5
99
330
1E
100
AcDbEntity
  8
0
100
AcDbLine
 10
24.66965
 20
165.87
 30
0.0
 11
25.20195
 21
166.3359999999999
 31
0.0
  0
LINE
  5
9A
330
1E
100
AcDbEntity
  8
0
100
AcDbLine
 10
4.451260000000019
 20
160.1829999999999
 30
0.0
 11
6.746090000000019
 21
160.029
 31
0.0
  0
LINE
  5
9B
330
1E
100
AcDbEntity
  8
0
100
AcDbLine
 10
6.746090000000019
 20
160.029
 30
0.0
 11
9.489910000000019
 21
159.8449999999999
 31
0.0
  0
LINE
  5
9C
330
1E
100
AcDbEntity
  8
0
100
AcDbLine
 10
101.53265
 20
100.1759999999999
 30
0.0
 11
101.53265
 21
99.52049999999999
 31
0.0
  0
LINE
  5
9D
330
1E
100
AcDbEntity
  8
0
100
AcDbLine
 10
101.53265
 20
100.1759999999999
 30
0.0
 11
101.88885
 21
101.856
 31
0.0
  0
LINE
  5
9E
330
1E
100
AcDbEntity
  8
0
100
AcDbLine
 10
101.53265
 20
99.52049999999999
 30
0.0
 11
101.53265
 21
98.8652
 31
0.0
  0
LINE
  5
9F
330
1E
100
AcDbEntity
  8
0
100
AcDbLine
 10
101.53265
 20
99.52049999999999
 30
0.0
 11
101.53265
 21
100.1759999999999
 31
0.0
  0
LINE
  5
A0
330
1E
100
AcDbEntity
  8
0
100
AcDbLine
 10
103.38875
 20
95.8826
 30
0.0
 11
104.3502499999999
 21
95.5189
 31
0.0
  0
LINE
  5
A1
330
1E
100
AcDbEntity
  8
0
100
AcDbLine
 10
104.3502499999999
 20
95.5189
 30
0.0
 11
105.6386499999999
 21
95.3531
 31
0.0
  0
LINE
  5
A2
330
1E
100
AcDbEntity
  8
0
100
AcDbLine
 10
101.88885
 20
101.856
 30
0.0
 11
102.4080499999999
 21
102.495
 31
0.0
  0
LINE
  5
A3
330
1E
100
AcDbEntity
  8
0
100
AcDbLine
 10
101.88885
 20
100.5449999999999
 30
0.0
 11
102.4080499999999
 21
101.185
 31
0.0
  0
LINE
  5
A7
330
1E
100
AcDbEntity
  8
0
100
AcDbLine
 10
105.65785
 20
102.254
 30
0.0
 11
107.5555499999999
 21
102.185
 31
0.0
  0
LINE
  5
A8
330
1E
100
AcDbEntity
  8
0
100
AcDbLine
 10
104.15795
 20
102.034
 30
0.0
 11
105.65785
 21
102.254
 31
0.0
  0
LINE
  5
A9
330
1E
100
AcDbEntity
  8
0
100
AcDbLine
 10
103.06185
 20
101.626
 30
0.0
 11
104.15795
 21
102.034
 31
0.0
  0
LINE
  5
AA
330
1E
100
AcDbEntity
  8
0
100
AcDbLine
 10
102.4080499999999
 20
101.185
 30
0.0
 11
103.06185
 21
101.626
 31
0.0
  0
LINE
  5
AB
330
1E
100
AcDbEntity
  8
0
100
AcDbLine
 10
102.4080499999999
 20
96.54569999999999
 30
0.0
 11
102.81185
 21
96.25709999999999
 31
0.0
  0
LINE
  5
AC
330
1E
100
AcDbEntity
  8
0
100
AcDbLine
 10
101.88885
 20
97.18519999999999
 30
0.0
 11
102.4080499999999
 21
96.54569999999999
 31
0.0
  0
LINE
  5
AD
330
1E
100
AcDbEntity
  8
0
100
AcDbLine
 10
102.81185
 20
102.7839999999999
 30
0.0
 11
103.38875
 21
103.1579999999999
 31
0.0
  0
LINE
  5
AE
330
1E
100
AcDbEntity
  8
0
100
AcDbLine
 10
103.38875
 20
103.1579999999999
 30
0.0
 11
104.3502499999999
 21
103.522
 31
0.0
  0
LINE
  5
AF
330
1E
100
AcDbEntity
  8
0
100
AcDbLine
 10
104.15795
 20
103.3439999999999
 30
0.0
 11
105.65785
 21
103.5649999999999
 31
0.0
  0
LINE
  5
B0
330
1E
100
AcDbEntity
  8
0
100
AcDbLine
 10
103.06185
 20
102.936
 30
0.0
 11
104.15795
 21
103.3439999999999
 31
0.0
  0
LINE
  5
B1
330
1E
100
AcDbEntity
  8
0
100
AcDbLine
 10
105.65785
 20
103.5649999999999
 30
0.0
 11
107.5555499999999
 21
103.496
 31
0.0
  0
LINE
  5
B2
330
1E
100
AcDbEntity
  8
0
100
AcDbLine
 10
106.53265
 20
233.7559999999999
 30
0.0
 11
114.03765
 21
228.7409999999999
 31
0.0
  0
LINE
  5
B3
330
1E
100
AcDbEntity
  8
0
100
AcDbLine
 10
105.9737499999999
 20
207.9409999999999
 30
0.0
 11
110.11365
 21
203.2209999999999
 31
0.0
  0
LINE
  5
B4
330
1E
100
AcDbEntity
  8
0
100
AcDbLine
 10
105.6386499999999
 20
103.6879999999999
 30
0.0
 11
107.53165
 21
103.631
 31
0.0
  0
LINE
  5
B5
330
1E
100
AcDbEntity
  8
0
100
AcDbLine
 10
104.3502499999999
 20
103.522
 30
0.0
 11
105.6386499999999
 21
103.6879999999999
 31
0.0
  0
LINE
  5
B6
330
1E
100
AcDbEntity
  8
0
100
AcDbLine
 10
102.4080499999999
 20
102.495
 30
0.0
 11
102.81185
 21
102.7839999999999
 31
0.0
  0
LINE
  5
B7
330
1E
100
AcDbEntity
  8
0
100
AcDbLine
 10
102.4080499999999
 20
102.495
 30
0.0
 11
103.06185
 21
102.936
 31
0.0
  0
LINE
  5
B8
330
1E
100
AcDbEntity
  8
0
100
AcDbLine
 10
107.5555499999999
 20
103.496
 30
0.0
 11
111.5306499999999
 21
103.467
 31
0.0
  0
LINE
  5
B9
330
1E
100
AcDbEntity
  8
0
100
AcDbLine
 10
111.5306499999999
 20
103.467
 30
0.0
 11
115.07465
 21
104.022
 31
0.0
  0
LINE
  5
BA
330
1E
100
AcDbEntity
  8
0
100
AcDbLine
 10
111.5306499999999
 20
101.665
 30
0.0
 11
115.07465
 21
100.506
 31
0.0
  0
LINE
  5
BB
330
1E
100
AcDbEntity
  8
0
100
AcDbLine
 10
107.5555499999999
 20
102.185
 30
0.0
 11
111.5306499999999
 21
101.665
 31
0.0
  0
LINE
  5
BC
330
1E
100
AcDbEntity
  8
0
100
AcDbLine
 10
110.11365
 20
203.2209999999999
 30
0.0
 11
113.6016499999999
 21
198.0
 31
0.0
  0
LINE
  5
BD
330
1E
100
AcDbEntity
  8
0
100
AcDbLine
 10
111.51085
 20
103.56
 30
0.0
 11
114.7606499999999
 21
104.089
 31
0.0
  0
LINE
  5
BE
330
1E
100
AcDbEntity
  8
0
100
AcDbLine
 10
107.53165
 20
103.631
 30
0.0
 11
111.51085
 21
103.56
 31
0.0
  0
LINE
  5
BF
330
1E
100
AcDbEntity
  8
0
100
AcDbLine
 10
102.81185
 20
96.25709999999999
 30
0.0
 11
103.38875
 21
95.8826
 31
0.0
  0
LINE
  5
C0
330
1E
100
AcDbEntity
  8
0
100
AcDbLine
 10
101.53265
 20
98.8652
 30
0.0
 11
101.88885
 21
97.18519999999999
 31
0.0
  0
LINE
  5
C1
330
1E
100
AcDbEntity
  8
0
100
AcDbLine
 10
101.53265
 20
98.8652
 30
0.0
 11
101.53265
 21
99.52049999999999
 31
0.0
  0
LINE
  5
C2
330
1E
100
AcDbEntity
  8
0
100
AcDbLine
 10
101.53265
 20
98.8652
 30
0.0
 11
101.88885
 21
100.5449999999999
 31
0.0
  0
LINE
  5
C3
330
1E
100
AcDbEntity
  8
0
100
AcDbLine
 10
111.51085
 20
95.4814
 30
0.0
 11
113.5806405128799
 21
95.14397153864109
 31
0.0
  0
LINE
  5
C4
330
1E
100
AcDbEntity
  8
0
100
AcDbLine
 10
111.51085
 20
95.4814
 30
0.0
 11
114.7606499999999
 21
94.9516
 31
0.0
  0
LINE
  5
C5
330
1E
100
AcDbEntity
  8
0
100
AcDbLine
 10
118.1326499999999
 20
-0.0000000000000167
 30
0.0
 11
124.1326499999999
 21
-0.0000000000000171
 31
0.0
  0
LINE
  5
C6
330
1E
100
AcDbEntity
  8
0
100
AcDbLine
 10
124.1326499999999
 20
-0.0000000000000171
 30
0.0
 11
130.5326499999999
 21
-0.0000000000000175
 31
0.0
  0
LINE
  5
C7
330
1E
100
AcDbEntity
  8
0
100
AcDbLine
 10
142.9326499999999
 20
-0.0000000000000183
 30
0.0
 11
148.13265
 21
-0.0000000000000186
 31
0.0
  0
LINE
  5
C8
330
1E
100
AcDbEntity
  8
0
100
AcDbLine
 10
136.9326499999999
 20
-0.0000000000000179
 30
0.0
 11
142.9326499999999
 21
-0.0000000000000183
 31
0.0
  0
LINE
  5
C9
330
1E
100
AcDbEntity
  8
0
100
AcDbLine
 10
130.5326499999999
 20
-0.0000000000000175
 30
0.0
 11
136.9326499999999
 21
-0.0000000000000179
 31
0.0
  0
LINE
  5
CA
330
1E
100
AcDbEntity
  8
0
100
AcDbLine
 10
114.1326499999999
 20
15.0
 30
0.0
 11
145.23265
 21
15.0
 31
0.0
  0
LINE
  5
CD
330
1E
100
AcDbEntity
  8
0
100
AcDbLine
 10
114.53265
 20
15.5
 30
0.0
 11
115.03265
 21
16.0
 31
0.0
  0
LINE
  5
D0
330
1E
100
AcDbEntity
  8
0
100
AcDbLine
 10
145.23265
 20
15.0
 30
0.0
 11
146.93265
 21
15.0
 31
0.0
  0
LINE
  5
D1
330
1E
100
AcDbEntity
  8
0
100
AcDbLine
 10
146.93265
 20
15.0
 30
0.0
 11
147.5326499999999
 21
15.0
 31
0.0
  0
LINE
  5
D3
330
1E
100
AcDbEntity
  8
0
100
AcDbLine
 10
115.03265
 20
16.0
 30
0.0
 11
146.0326499999999
 21
16.0
 31
0.0
  0
LINE
  5
D6
330
1E
100
AcDbEntity
  8
0
100
AcDbLine
 10
115.03265
 20
16.0
 30
0.0
 11
115.53265
 21
18.0
 31
0.0
  0
LINE
  5
DB
330
1E
100
AcDbEntity
  8
0
100
AcDbLine
 10
115.53265
 20
18.0
 30
0.0
 11
115.53265
 21
65.0451764705882
 31
0.0
  0
LINE
  5
DC
330
1E
100
AcDbEntity
  8
0
100
AcDbLine
 10
114.63265
 20
68.8352
 30
0.0
 11
116.23265
 21
65.5586
 31
0.0
  0
LINE
  5
DD
330
1E
100
AcDbEntity
  8
0
100
AcDbLine
 10
114.03265
 20
72.2756
 30
0.0
 11
114.63265
 21
68.8352
 31
0.0
  0
LINE
  5
DE
330
1E
100
AcDbEntity
  8
0
100
AcDbLine
 10
114.03265
 20
72.2756
 30
0.0
 11
114.63265
 21
75.71609999999999
 31
0.0
  0
LINE
  5
DF
330
1E
100
AcDbEntity
  8
0
100
AcDbLine
 10
114.1326499999999
 20
67.81100000000001
 30
0.0
 11
115.83265
 21
64.4525
 31
0.0
  0
LINE
  5
E0
330
1E
100
AcDbEntity
  8
0
100
AcDbLine
 10
145.5276652230909
 20
18.7327622056672
 30
0.0
 11
153.26265
 21
32.1644
 31
0.0
  0
LINE
  5
E1
330
1E
100
AcDbEntity
  8
0
100
AcDbLine
 10
145.5326499999999
 20
18.7414181655511
 30
0.0
 11
145.5326499999999
 21
18.0
 31
0.0
  0
LINE
  5
E2
330
1E
100
AcDbEntity
  8
0
100
AcDbLine
 10
145.5326499999999
 20
28.6907247775306
 30
0.0
 11
145.5326499999999
 21
65.0451764705882
 31
0.0
  0
LINE
  5
E3
330
1E
100
AcDbEntity
  8
0
100
AcDbLine
 10
145.5326499999999
 20
28.6907247775306
 30
0.0
 11
148.9616499999999
 21
34.6451
 31
0.0
  0
LINE
  5
E5
330
1E
100
AcDbEntity
  8
0
100
AcDbLine
 10
126.33265
 20
57.5304
 30
0.0
 11
130.5326499999999
 21
57.0389
 31
0.0
  0
LINE
  5
E8
330
1E
100
AcDbEntity
  8
0
100
AcDbLine
 10
134.73265
 20
57.5304
 30
0.0
 11
138.73265
 21
58.841
 31
0.0
  0
LINE
  5
E9
330
1E
100
AcDbEntity
  8
0
100
AcDbLine
 10
130.5326499999999
 20
57.0389
 30
0.0
 11
134.73265
 21
57.5304
 31
0.0
  0
LINE
  5
EB
330
1E
100
AcDbEntity
  8
0
100
AcDbLine
 10
116.23265
 20
65.5586
 30
0.0
 11
118.83265
 21
62.6916
 31
0.0
  0
LINE
  5
EC
330
1E
100
AcDbEntity
  8
0
100
AcDbLine
 10
115.83265
 20
64.4525
 30
0.0
 11
116.23265
 21
63.8379
 31
0.0
  0
LINE
  5
F0
330
1E
100
AcDbEntity
  8
0
100
AcDbLine
 10
116.23265
 20
63.8379
 30
0.0
 11
118.83265
 21
60.9708
 31
0.0
  0
LINE
  5
F2
330
1E
100
AcDbEntity
  8
0
100
AcDbLine
 10
130.5326499999999
 20
58.7596
 30
0.0
 11
134.73265
 21
59.2511
 31
0.0
  0
LINE
  5
F3
330
1E
100
AcDbEntity
  8
0
100
AcDbLine
 10
118.83265
 20
62.6916
 30
0.0
 11
122.3326499999999
 21
60.5618
 31
0.0
  0
LINE
  5
F4
330
1E
100
AcDbEntity
  8
0
100
AcDbLine
 10
126.33265
 20
59.2511
 30
0.0
 11
130.5326499999999
 21
58.7596
 31
0.0
  0
LINE
  5
F5
330
1E
100
AcDbEntity
  8
0
100
AcDbLine
 10
119.19165
 20
63.272
 30
0.0
 11
119.19165
 21
66.7135
 31
0.0
  0
LINE
  5
F6
330
1E
100
AcDbEntity
  8
0
100
AcDbLine
 10
119.19165
 20
63.272
 30
0.0
 11
134.69165
 21
59.8656
 31
0.0
  0
LINE
  5
F7
330
1E
100
AcDbEntity
  8
0
100
AcDbLine
 10
120.1326499999999
 20
71.089
 30
0.0
 11
122.03265
 21
69.0411
 31
0.0
  0
LINE
  5
F8
330
1E
100
AcDbEntity
  8
0
100
AcDbLine
 10
118.9326499999999
 20
73.4645
 30
0.0
 11
120.1326499999999
 21
71.089
 31
0.0
  0
LINE
  5
F9
330
1E
100
AcDbEntity
  8
0
100
AcDbLine
 10
122.03265
 20
69.0411
 30
0.0
 11
124.53265
 21
67.48470000000001
 31
0.0
  0
LINE
  5
FA
330
1E
100
AcDbEntity
  8
0
100
AcDbLine
 10
119.19165
 20
66.7135
 30
0.0
 11
119.19165
 21
63.272
 31
0.0
  0
LINE
  5
FB
330
1E
100
AcDbEntity
  8
0
100
AcDbLine
 10
119.19165
 20
66.7135
 30
0.0
 11
134.69165
 21
63.307
 31
0.0
  0
LINE
  5
FC
330
1E
100
AcDbEntity
  8
0
100
AcDbLine
 10
134.69165
 20
59.8656
 30
0.0
 11
134.69165
 21
63.307
 31
0.0
  0
LINE
  5
FD
330
1E
100
AcDbEntity
  8
0
100
AcDbLine
 10
134.69165
 20
59.8656
 30
0.0
 11
146.0326499999999
 21
69.15600000000001
 31
0.0
  0
LINE
  5
FE
330
1E
100
AcDbEntity
  8
0
100
AcDbLine
 10
124.53265
 20
67.48470000000001
 30
0.0
 11
127.4326499999999
 21
66.5017
 31
0.0
  0
LINE
  5
FF
330
1E
100
AcDbEntity
  8
0
100
AcDbLine
 10
127.4326499999999
 20
66.5017
 30
0.0
 11
130.5326499999999
 21
66.17409999999999
 31
0.0
  0
LINE
  5
100
330
1E
100
AcDbEntity
  8
0
100
AcDbLine
 10
127.4326499999999
 20
73.9582
 30
0.0
 11
130.5326499999999
 21
73.6306
 31
0.0
  0
LINE
  5
101
330
1E
100
AcDbEntity
  8
0
100
AcDbLine
 10
124.53265
 20
74.36759999999999
 30
0.0
 11
127.4326499999999
 21
73.38460000000001
 31
0.0
  0
LINE
  5
102
330
1E
100
AcDbEntity
  8
0
100
AcDbLine
 10
127.4326499999999
 20
73.38460000000001
 30
0.0
 11
130.5326499999999
 21
73.057
 31
0.0
  0
LINE
  5
103
330
1E
100
AcDbEntity
  8
0
100
AcDbLine
 10
130.5326499999999
 20
74.1862
 30
0.0
 11
131.33265
 21
74.1626
 31
0.0
  0
LINE
  5
104
330
1E
100
AcDbEntity
  8
0
100
AcDbLine
 10
129.73265
 20
74.1626
 30
0.0
 11
130.5326499999999
 21
74.1862
 31
0.0
  0
LINE
  5
105
330
1E
100
AcDbEntity
  8
0
100
AcDbLine
 10
129.73265
 20
74.1626
 30
0.0
 11
129.73265
 21
74.3769
 31
0.0
  0
LINE
  5
106
330
1E
100
AcDbEntity
  8
0
100
AcDbLine
 10
127.4326499999999
 20
74.81860000000001
 30
0.0
 11
129.2300797835439
 21
74.62859427739759
 31
0.0
  0
LINE
  5
107
330
1E
100
AcDbEntity
  8
0
100
AcDbLine
 10
124.53265
 20
74.94119999999999
 30
0.0
 11
127.4326499999999
 21
73.9582
 31
0.0
  0
LINE
  5
108
330
1E
100
AcDbEntity
  8
0
100
AcDbLine
 10
129.23265
 20
74.6144
 30
0.0
 11
129.73265
 21
74.1626
 31
0.0
  0
LINE
  5
109
330
1E
100
AcDbEntity
  8
0
100
AcDbLine
 10
129.73265
 20
74.3769
 30
0.0
 11
129.73265
 21
74.1626
 31
0.0
  0
LINE
  5
10A
330
1E
100
AcDbEntity
  8
0
100
AcDbLine
 10
129.73265
 20
74.3769
 30
0.0
 11
129.73265
 21
75.7651
 31
0.0
  0
LINE
  5
10B
330
1E
100
AcDbEntity
  8
0
100
AcDbLine
 10
130.5326499999999
 20
73.6306
 30
0.0
 11
133.63265
 21
73.9582
 31
0.0
  0
LINE
  5
10C
330
1E
100
AcDbEntity
  8
0
100
AcDbLine
 10
130.5326499999999
 20
66.17409999999999
 30
0.0
 11
133.63265
 21
66.5017
 31
0.0
  0
LINE
  5
10D
330
1E
100
AcDbEntity
  8
0
100
AcDbLine
 10
133.63265
 20
66.5017
 30
0.0
 11
136.5326499999999
 21
67.48470000000001
 31
0.0
  0
LINE
  5
10E
330
1E
100
AcDbEntity
  8
0
100
AcDbLine
 10
131.33265
 20
74.1626
 30
0.0
 11
131.33265
 21
74.3769
 31
0.0
  0
LINE
  5
10F
330
1E
100
AcDbEntity
  8
0
100
AcDbLine
 10
131.33265
 20
74.1626
 30
0.0
 11
131.8326499999999
 21
74.6144
 31
0.0
  0
LINE
  5
110
330
1E
100
AcDbEntity
  8
0
100
AcDbLine
 10
131.8326499999999
 20
74.6144
 30
0.0
 11
132.33265
 21
77.37569999999999
 31
0.0
  0
LINE
  5
111
330
1E
100
AcDbEntity
  8
0
100
AcDbLine
 10
131.33265
 20
74.3769
 30
0.0
 11
131.33265
 21
75.7651
 31
0.0
  0
LINE
  5
112
330
1E
100
AcDbEntity
  8
0
100
AcDbLine
 10
131.33265
 20
74.3769
 30
0.0
 11
131.33265
 21
74.1626
 31
0.0
  0
LINE
  5
113
330
1E
100
AcDbEntity
  8
0
100
AcDbLine
 10
133.63265
 20
74.81860000000001
 30
0.0
 11
136.5326499999999
 21
75.80159999999999
 31
0.0
  0
LINE
  5
114
330
1E
100
AcDbEntity
  8
0
100
AcDbLine
 10
131.8352202164559
 20
74.62859427739759
 30
0.0
 11
133.63265
 21
74.81860000000001
 31
0.0
  0
LINE
  5
115
330
1E
100
AcDbEntity
  8
0
100
AcDbLine
 10
133.63265
 20
73.9582
 30
0.0
 11
136.5326499999999
 21
74.94119999999999
 31
0.0
  0
LINE
  5
116
330
1E
100
AcDbEntity
  8
0
100
AcDbLine
 10
133.63265
 20
73.38460000000001
 30
0.0
 11
136.5326499999999
 21
74.36759999999999
 31
0.0
  0
LINE
  5
117
330
1E
100
AcDbEntity
  8
0
100
AcDbLine
 10
130.5326499999999
 20
73.057
 30
0.0
 11
133.63265
 21
73.38460000000001
 31
0.0
  0
LINE
  5
118
330
1E
100
AcDbEntity
  8
0
100
AcDbLine
 10
134.69165
 20
63.307
 30
0.0
 11
146.0326499999999
 21
72.59739999999999
 31
0.0
  0
LINE
  5
119
330
1E
100
AcDbEntity
  8
0
100
AcDbLine
 10
134.69165
 20
63.307
 30
0.0
 11
134.69165
 21
59.8656
 31
0.0
  0
LINE
  5
11A
330
1E
100
AcDbEntity
  8
0
100
AcDbLine
 10
122.3326499999999
 20
60.5618
 30
0.0
 11
126.33265
 21
59.2511
 31
0.0
  0
LINE
  5
11C
330
1E
100
AcDbEntity
  8
0
100
AcDbLine
 10
118.83265
 20
60.9708
 30
0.0
 11
122.3326499999999
 21
58.841
 31
0.0
  0
LINE
  5
11D
330
1E
100
AcDbEntity
  8
0
100
AcDbLine
 10
122.3326499999999
 20
58.841
 30
0.0
 11
126.33265
 21
57.5304
 31
0.0
  0
LINE
  5
11E
330
1E
100
AcDbEntity
  8
0
100
AcDbLine
 10
136.5326499999999
 20
67.48470000000001
 30
0.0
 11
139.03265
 21
69.0411
 31
0.0
  0
LINE
  5
11F
330
1E
100
AcDbEntity
  8
0
100
AcDbLine
 10
139.03265
 20
69.0411
 30
0.0
 11
140.9326499999999
 21
71.089
 31
0.0
  0
LINE
  5
120
330
1E
100
AcDbEntity
  8
0
100
AcDbLine
 10
136.5326499999999
 20
74.94119999999999
 30
0.0
 11
139.03265
 21
76.4976
 31
0.0
  0
LINE
  5
121
330
1E
100
AcDbEntity
  8
0
100
AcDbLine
 10
136.5326499999999
 20
74.36759999999999
 30
0.0
 11
139.03265
 21
75.92399999999999
 31
0.0
  0
LINE
  5
122
330
1E
100
AcDbEntity
  8
0
100
AcDbLine
 10
140.9326499999999
 20
71.089
 30
0.0
 11
142.13265
 21
73.4645
 31
0.0
  0
LINE
  5
123
330
1E
100
AcDbEntity
  8
0
100
AcDbLine
 10
142.13265
 20
73.4645
 30
0.0
 11
142.5326499999999
 21
76.0039
 31
0.0
  0
LINE
  5
124
330
1E
100
AcDbEntity
  8
0
100
AcDbLine
 10
142.23265
 20
62.6916
 30
0.0
 11
144.83265
 21
65.5586
 31
0.0
  0
LINE
  5
127
330
1E
100
AcDbEntity
  8
0
100
AcDbLine
 10
144.83265
 20
65.5586
 30
0.0
 11
146.43265
 21
68.8352
 31
0.0
  0
LINE
  5
128
330
1E
100
AcDbEntity
  8
0
100
AcDbLine
 10
145.5326499999999
 20
65.0451764705882
 30
0.0
 11
145.5326499999999
 21
28.6907247775306
 31
0.0
  0
LINE
  5
129
330
1E
100
AcDbEntity
  8
0
100
AcDbLine
 10
146.0326499999999
 20
69.15600000000001
 30
0.0
 11
146.0326499999999
 21
72.59739999999999
 31
0.0
  0
LINE
  5
12A
330
1E
100
AcDbEntity
  8
0
100
AcDbLine
 10
146.0326499999999
 20
72.59739999999999
 30
0.0
 11
146.0326499999999
 21
69.15600000000001
 31
0.0
  0
LINE
  5
12B
330
1E
100
AcDbEntity
  8
0
100
AcDbLine
 10
145.23265
 20
64.4525
 30
0.0
 11
146.93265
 21
67.81100000000001
 31
0.0
  0
LINE
  5
12C
330
1E
100
AcDbEntity
  8
0
100
AcDbLine
 10
144.83265
 20
63.8379
 30
0.0
 11
145.23265
 21
64.4525
 31
0.0
  0
LINE
  5
12D
330
1E
100
AcDbEntity
  8
0
100
AcDbLine
 10
142.23265
 20
60.9708
 30
0.0
 11
144.83265
 21
63.8379
 31
0.0
  0
LINE
  5
12E
330
1E
100
AcDbEntity
  8
0
100
AcDbLine
 10
138.73265
 20
60.5618
 30
0.0
 11
142.23265
 21
62.6916
 31
0.0
  0
LINE
  5
12F
330
1E
100
AcDbEntity
  8
0
100
AcDbLine
 10
134.73265
 20
59.2511
 30
0.0
 11
138.73265
 21
60.5618
 31
0.0
  0
LINE
  5
130
330
1E
100
AcDbEntity
  8
0
100
AcDbLine
 10
138.73265
 20
58.841
 30
0.0
 11
142.23265
 21
60.9708
 31
0.0
  0
LINE
  5
134
330
1E
100
AcDbEntity
  8
0
100
AcDbLine
 10
115.53265
 20
65.0451764705882
 30
0.0
 11
115.53265
 21
18.0
 31
0.0
  0
LINE
  5
135
330
1E
100
AcDbEntity
  8
0
100
AcDbLine
 10
145.5326499999999
 20
18.0
 30
0.0
 11
146.0326499999999
 21
16.0
 31
0.0
  0
LINE
  5
136
330
1E
100
AcDbEntity
  8
0
100
AcDbLine
 10
145.5326499999999
 20
18.0
 30
0.0
 11
145.5326499999999
 21
18.7414181655511
 31
0.0
  0
LINE
  5
137
330
1E
100
AcDbEntity
  8
0
100
AcDbLine
 10
146.93265
 20
75.01949999999999
 30
0.0
 11
147.5326499999999
 21
71.4153
 31
0.0
  0
LINE
  5
138
330
1E
100
AcDbEntity
  8
0
100
AcDbLine
 10
146.43265
 20
68.8352
 30
0.0
 11
147.0326499999999
 21
72.2756
 31
0.0
  0
LINE
  5
139
330
1E
100
AcDbEntity
  8
0
100
AcDbLine
 10
146.93265
 20
67.81100000000001
 30
0.0
 11
147.5326499999999
 21
71.4153
 31
0.0
  0
LINE
  5
13A
330
1E
100
AcDbEntity
  8
0
100
AcDbLine
 10
146.0326499999999
 20
16.0
 30
0.0
 11
146.5326499999999
 21
15.5
 31
0.0
  0
LINE
  5
13B
330
1E
100
AcDbEntity
  8
0
100
AcDbLine
 10
146.5326499999999
 20
15.5
 30
0.0
 11
147.5326499999999
 21
15.0
 31
0.0
  0
LINE
  5
13C
330
1E
100
AcDbEntity
  8
0
100
AcDbLine
 10
148.0326499999999
 20
14.0
 30
0.0
 11
148.0326499999999
 21
13.5
 31
0.0
  0
LINE
  5
13D
330
1E
100
AcDbEntity
  8
0
100
AcDbLine
 10
147.5326499999999
 20
15.0
 30
0.0
 11
148.0326499999999
 21
14.0
 31
0.0
  0
LINE
  5
13E
330
1E
100
AcDbEntity
  8
0
100
AcDbLine
 10
148.0326499999999
 20
13.5
 30
0.0
 11
148.0326499999999
 21
14.0
 31
0.0
  0
LINE
  5
13F
330
1E
100
AcDbEntity
  8
0
100
AcDbLine
 10
147.5326499999999
 20
12.5
 30
0.0
 11
148.0326499999999
 21
13.5
 31
0.0
  0
LINE
  5
140
330
1E
100
AcDbEntity
  8
0
100
AcDbLine
 10
147.3326499999999
 20
11.4
 30
0.0
 11
147.5326499999999
 21
9.99999999999998
 31
0.0
  0
LINE
  5
141
330
1E
100
AcDbEntity
  8
0
100
AcDbLine
 10
147.3326499999999
 20
11.4
 30
0.0
 11
147.5326499999999
 21
12.5
 31
0.0
  0
LINE
  5
142
330
1E
100
AcDbEntity
  8
0
100
AcDbLine
 10
147.5326499999999
 20
9.99999999999998
 30
0.0
 11
148.53265
 21
6.999999999999981
 31
0.0
  0
LINE
  5
148
330
1E
100
AcDbEntity
  8
0
100
AcDbLine
 10
150.47565
 20
36.2531
 30
0.0
 11
151.34565
 21
36.7287
 31
0.0
  0
LINE
  5
149
330
1E
100
AcDbEntity
  8
0
100
AcDbLine
 10
149.7176499999999
 20
35.6141
 30
0.0
 11
150.47565
 21
36.2531
 31
0.0
  0
LINE
  5
14B
330
1E
100
AcDbEntity
  8
0
100
AcDbLine
 10
148.9796499999999
 20
34.63689999999999
 30
0.0
 11
149.7176499999999
 21
35.6141
 31
0.0
  0
LINE
  5
14F
330
1E
100
AcDbEntity
  8
0
100
AcDbLine
 10
148.53265
 20
6.999999999999981
 30
0.0
 11
150.5326499999999
 21
3.999999999999979
 31
0.0
  0
LINE
  5
153
330
1E
100
AcDbEntity
  8
0
100
AcDbLine
 10
153.27865
 20
32.1529
 30
0.0
 11
168.17165
 21
32.15279999999999
 31
0.0
  0
LINE
  5
158
330
1E
100
AcDbEntity
  8
0
100
AcDbLine
 10
153.27865
 20
37.1208
 30
0.0
 11
168.17165
 21
37.1208
 31
0.0
  0
LINE
  5
159
330
1E
100
AcDbEntity
  8
0
100
AcDbLine
 10
152.29265
 20
37.0218
 30
0.0
 11
153.27865
 21
37.1208
 31
0.0
  0
LINE
  5
15A
330
1E
100
AcDbEntity
  8
0
100
AcDbLine
 10
151.34565
 20
36.7287
 30
0.0
 11
152.29265
 21
37.0218
 31
0.0
  0
LINE
  5
15C
330
1E
100
AcDbEntity
  8
0
100
AcDbLine
 10
150.5326499999999
 20
3.999999999999979
 30
0.0
 11
154.0326499999999
 21
2.49999999999998
 31
0.0
  0
LINE
  5
15D
330
1E
100
AcDbEntity
  8
0
100
AcDbLine
 10
154.0326499999999
 20
2.49999999999998
 30
0.0
 11
155.0326499999999
 21
1.49999999999998
 31
0.0
  0
LINE
  5
15E
330
1E
100
AcDbEntity
  8
0
100
AcDbLine
 10
148.13265
 20
-0.0000000000000186
 30
0.0
 11
152.23265
 21
-0.0000000000000188
 31
0.0
  0
LINE
  5
15F
330
1E
100
AcDbEntity
  8
0
100
AcDbLine
 10
152.23265
 20
-0.0000000000000188
 30
0.0
 11
154.63265
 21
-0.000000000000019
 31
0.0
  0
LINE
  5
160
330
1E
100
AcDbEntity
  8
0
100
AcDbLine
 10
168.1706499999999
 20
32.8832
 30
0.0
 11
168.1706499999999
 21
32.3434
 31
0.0
  0
LINE
  5
161
330
1E
100
AcDbEntity
  8
0
100
AcDbLine
 10
168.1696499999999
 20
35.59109999999999
 30
0.0
 11
168.1706499999999
 21
36.39609999999999
 31
0.0
  0
LINE
  5
162
330
1E
100
AcDbEntity
  8
0
100
AcDbLine
 10
168.1696499999999
 20
35.59109999999999
 30
0.0
 11
168.1696499999999
 21
34.6408
 31
0.0
  0
LINE
  5
163
330
1E
100
AcDbEntity
  8
0
100
AcDbLine
 10
168.1706499999999
 20
36.9333
 30
0.0
 11
168.17165
 21
37.1208
 31
0.0
  0
LINE
  5
164
330
1E
100
AcDbEntity
  8
0
100
AcDbLine
 10
168.1706499999999
 20
36.9333
 30
0.0
 11
168.1706499999999
 21
36.39609999999999
 31
0.0
  0
LINE
  5
165
330
1E
100
AcDbEntity
  8
0
100
AcDbLine
 10
168.1706499999999
 20
36.39609999999999
 30
0.0
 11
168.1706499999999
 21
36.9333
 31
0.0
  0
LINE
  5
166
330
1E
100
AcDbEntity
  8
0
100
AcDbLine
 10
168.1696499999999
 20
34.6408
 30
0.0
 11
168.1696499999999
 21
35.59109999999999
 31
0.0
  0
LINE
  5
167
330
1E
100
AcDbEntity
  8
0
100
AcDbLine
 10
168.1696499999999
 20
34.6408
 30
0.0
 11
168.1696499999999
 21
33.6898
 31
0.0
  0
LINE
  5
168
330
1E
100
AcDbEntity
  8
0
100
AcDbLine
 10
168.1696499999999
 20
33.6898
 30
0.0
 11
168.1706499999999
 21
32.8832
 31
0.0
  0
LINE
  5
169
330
1E
100
AcDbEntity
  8
0
100
AcDbLine
 10
168.1696499999999
 20
33.6898
 30
0.0
 11
168.1696499999999
 21
34.6408
 31
0.0
  0
LINE
  5
16A
330
1E
100
AcDbEntity
  8
0
100
AcDbLine
 10
168.1706499999999
 20
32.3434
 30
0.0
 11
168.17165
 21
32.15279999999999
 31
0.0
  0
LINE
  5
16B
330
1E
100
AcDbEntity
  8
0
100
AcDbLine
 10
168.1706499999999
 20
32.3434
 30
0.0
 11
168.1706499999999
 21
32.8832
 31
0.0
  0
LINE
  5
16C
330
1E
100
AcDbEntity
  8
0
100
AcDbLine
 10
168.17165
 20
32.15279999999999
 30
0.0
 11
168.17265
 21
32.3403
 31
0.0
  0
LINE
  5
16D
330
1E
100
AcDbEntity
  8
0
100
AcDbLine
 10
168.17365
 20
32.87749999999999
 30
0.0
 11
168.17365
 21
33.6826
 31
0.0
  0
LINE
  5
16E
330
1E
100
AcDbEntity
  8
0
100
AcDbLine
 10
168.17265
 20
32.3403
 30
0.0
 11
168.17365
 21
32.87749999999999
 31
0.0
  0
LINE
  5
16F
330
1E
100
AcDbEntity
  8
0
100
AcDbLine
 10
168.17365
 20
33.6826
 30
0.0
 11
168.17365
 21
32.87749999999999
 31
0.0
  0
LINE
  5
170
330
1E
100
AcDbEntity
  8
0
100
AcDbLine
 10
168.17365
 20
33.6826
 30
0.0
 11
168.17365
 21
34.6328
 31
0.0
  0
LINE
  5
171
330
1E
100
AcDbEntity
  8
0
100
AcDbLine
 10
168.17365
 20
34.6328
 30
0.0
 11
168.17365
 21
33.6826
 31
0.0
  0
LINE
  5
172
330
1E
100
AcDbEntity
  8
0
100
AcDbLine
 10
168.17365
 20
34.6328
 30
0.0
 11
168.17365
 21
35.58379999999999
 31
0.0
  0
LINE
  5
173
330
1E
100
AcDbEntity
  8
0
100
AcDbLine
 10
168.17365
 20
35.58379999999999
 30
0.0
 11
168.17365
 21
34.6328
 31
0.0
  0
LINE
  5
174
330
1E
100
AcDbEntity
  8
0
100
AcDbLine
 10
168.17365
 20
35.58379999999999
 30
0.0
 11
168.17365
 21
36.3904
 31
0.0
  0
LINE
  5
175
330
1E
100
AcDbEntity
  8
0
100
AcDbLine
 10
168.17365
 20
36.3904
 30
0.0
 11
168.17365
 21
35.58379999999999
 31
0.0
  0
LINE
  5
176
330
1E
100
AcDbEntity
  8
0
100
AcDbLine
 10
168.17265
 20
36.9302
 30
0.0
 11
168.17365
 21
36.3904
 31
0.0
  0
LINE
  5
177
330
1E
100
AcDbEntity
  8
0
100
AcDbLine
 10
168.17165
 20
37.1208
 30
0.0
 11
168.17265
 21
36.9302
 31
0.0
  0
LINE
  5
178
330
1E
100
AcDbEntity
  8
0
100
AcDbLine
 10
155.0326499999999
 20
1.49999999999998
 30
0.0
 11
155.5326499999999
 21
-0.000000000000019
 31
0.0
  0
LINE
  5
179
330
1E
100
AcDbEntity
  8
0
100
AcDbLine
 10
155.0326499999999
 20
1.49999999999998
 30
0.0
 11
155.5326499999999
 21
-0.000000000000019
 31
0.0
  0
LINE
  5
17A
330
1E
100
AcDbEntity
  8
0
100
AcDbLine
 10
154.63265
 20
-0.000000000000019
 30
0.0
 11
155.5326499999999
 21
-0.000000000000019
 31
0.0
  0
LINE
  5
17B
330
1E
100
AcDbEntity
  8
0
100
AcDbLine
 10
114.63265
 20
75.71609999999999
 30
0.0
 11
115.03265
 21
76.53525000000001
 31
0.0
  0
LINE
  5
17C
330
1E
100
AcDbEntity
  8
0
100
AcDbLine
 10
115.03265
 20
75.96890000000001
 30
0.0
 11
119.19165
 21
63.272
 31
0.0
  0
LINE
  5
17D
330
1E
100
AcDbEntity
  8
0
100
AcDbLine
 10
115.03265
 20
75.96890000000001
 30
0.0
 11
115.03265
 21
79.41030000000001
 31
0.0
  0
LINE
  5
17E
330
1E
100
AcDbEntity
  8
0
100
AcDbLine
 10
114.63265
 20
93.49999999999999
 30
0.0
 11
116.23265
 21
93.49999999999999
 31
0.0
  0
LINE
  5
17F
330
1E
100
AcDbEntity
  8
0
100
AcDbLine
 10
114.03765
 20
228.7409999999999
 30
0.0
 11
120.82265
 21
222.7899999999999
 31
0.0
  0
LINE
  5
180
330
1E
100
AcDbEntity
  8
0
100
AcDbLine
 10
113.6016499999999
 20
198.0
 30
0.0
 11
116.37865
 21
192.369
 31
0.0
  0
LINE
  5
181
330
1E
100
AcDbEntity
  8
0
100
AcDbLine
 10
114.7606499999999
 20
94.9516
 30
0.0
 11
117.5736499999999
 21
93.78159999999999
 31
0.0
  0
LINE
  5
182
330
1E
100
AcDbEntity
  8
0
100
AcDbLine
 10
114.1326499999999
 20
95.0
 30
0.0
 11
114.4637637787849
 21
95.0
 31
0.0
  0
LINE
  5
183
330
1E
100
AcDbEntity
  8
0
100
AcDbLine
 10
114.03265
 20
93.49999999999999
 30
0.0
 11
115.03265
 21
93.0
 31
0.0
  0
LINE
  5
184
330
1E
100
AcDbEntity
  8
0
100
AcDbLine
 10
114.03265
 20
93.49999999999999
 30
0.0
 11
114.63265
 21
93.49999999999999
 31
0.0
  0
LINE
  5
185
330
1E
100
AcDbEntity
  8
0
100
AcDbLine
 10
115.03265
 20
93.0
 30
0.0
 11
115.53265
 21
91.5
 31
0.0
  0
LINE
  5
186
330
1E
100
AcDbEntity
  8
0
100
AcDbLine
 10
115.03265
 20
93.0
 30
0.0
 11
115.63265
 21
93.0
 31
0.0
  0
LINE
  5
187
330
1E
100
AcDbEntity
  8
0
100
AcDbLine
 10
114.7606499999999
 20
104.089
 30
0.0
 11
117.5736499999999
 21
105.2589999999999
 31
0.0
  0
LINE
  5
188
330
1E
100
AcDbEntity
  8
0
100
AcDbLine
 10
115.03265
 20
79.41030000000001
 30
0.0
 11
115.03265
 21
76.7975823529412
 31
0.0
  0
LINE
  5
189
330
1E
100
AcDbEntity
  8
0
100
AcDbLine
 10
115.03265
 20
79.41030000000001
 30
0.0
 11
119.19165
 21
66.7135
 31
0.0
  0
LINE
  5
18A
330
1E
100
AcDbEntity
  8
0
100
AcDbLine
 10
115.03265
 20
79.41030000000001
 30
0.0
 11
115.03265
 21
75.96890000000001
 31
0.0
  0
LINE
  5
18B
330
1E
100
AcDbEntity
  8
0
100
AcDbLine
 10
115.03265
 20
79.41030000000001
 30
0.0
 11
118.53265
 21
82.27745457190719
 31
0.0
  0
LINE
  5
18C
330
1E
100
AcDbEntity
  8
0
100
AcDbLine
 10
115.53265
 20
79.81989351027251
 30
0.0
 11
115.53265
 21
91.5
 31
0.0
  0
LINE
  5
18D
330
1E
100
AcDbEntity
  8
0
100
AcDbLine
 10
127.53265
 20
75.5149
 30
0.0
 11
129.100596207559
 21
75.34368027413449
 31
0.0
  0
LINE
  5
18E
330
1E
100
AcDbEntity
  8
0
100
AcDbLine
 10
131.33265
 20
75.7651
 30
0.0
 11
131.33265
 21
74.3769
 31
0.0
  0
LINE
  5
18F
330
1E
100
AcDbEntity
  8
0
100
AcDbLine
 10
131.33265
 20
75.7651
 30
0.0
 11
131.33265
 21
77.73690000000001
 31
0.0
  0
LINE
  5
190
330
1E
100
AcDbEntity
  8
0
100
AcDbLine
 10
124.53265
 20
75.80159999999999
 30
0.0
 11
127.4326499999999
 21
74.81860000000001
 31
0.0
  0
LINE
  5
191
330
1E
100
AcDbEntity
  8
0
100
AcDbLine
 10
122.03265
 20
75.92399999999999
 30
0.0
 11
124.53265
 21
74.36759999999999
 31
0.0
  0
LINE
  5
192
330
1E
100
AcDbEntity
  8
0
100
AcDbLine
 10
129.73265
 20
75.7651
 30
0.0
 11
129.73265
 21
77.73690000000001
 31
0.0
  0
LINE
  5
193
330
1E
100
AcDbEntity
  8
0
100
AcDbLine
 10
129.73265
 20
75.7651
 30
0.0
 11
129.73265
 21
74.3769
 31
0.0
  0
LINE
  5
194
330
1E
100
AcDbEntity
  8
0
100
AcDbLine
 10
133.5326499999999
 20
75.5149
 30
0.0
 11
136.2326499999999
 21
76.416
 31
0.0
  0
LINE
  5
195
330
1E
100
AcDbEntity
  8
0
100
AcDbLine
 10
131.964703792441
 20
75.34368027413449
 30
0.0
 11
133.5326499999999
 21
75.5149
 31
0.0
  0
LINE
  5
196
330
1E
100
AcDbEntity
  8
0
100
AcDbLine
 10
136.5326499999999
 20
75.80159999999999
 30
0.0
 11
139.03265
 21
77.3579
 31
0.0
  0
LINE
  5
197
330
1E
100
AcDbEntity
  8
0
100
AcDbLine
 10
139.03265
 20
75.92399999999999
 30
0.0
 11
140.9326499999999
 21
77.9719
 31
0.0
  0
LINE
  5
198
330
1E
100
AcDbEntity
  8
0
100
AcDbLine
 10
142.5326499999999
 20
76.0039
 30
0.0
 11
142.5326499999999
 21
82.88679999999999
 31
0.0
  0
LINE
  5
199
330
1E
100
AcDbEntity
  8
0
100
AcDbLine
 10
118.53265
 20
84.32070000000001
 30
0.0
 11
118.9326499999999
 21
86.86010000000001
 31
0.0
  0
LINE
  5
19A
330
1E
100
AcDbEntity
  8
0
100
AcDbLine
 10
118.53265
 20
84.32070000000001
 30
0.0
 11
118.53265
 21
83.4604
 31
0.0
  0
LINE
  5
19B
330
1E
100
AcDbEntity
  8
0
100
AcDbLine
 10
118.53265
 20
84.32070000000001
 30
0.0
 11
118.9326499999999
 21
81.7814
 31
0.0
  0
LINE
  5
19C
330
1E
100
AcDbEntity
  8
0
100
AcDbLine
 10
118.53265
 20
83.4604
 30
0.0
 11
118.53265
 21
84.32070000000001
 31
0.0
  0
LINE
  5
19D
330
1E
100
AcDbEntity
  8
0
100
AcDbLine
 10
118.53265
 20
83.4604
 30
0.0
 11
118.9326499999999
 21
80.921
 31
0.0
  0
LINE
  5
19E
330
1E
100
AcDbEntity
  8
0
100
AcDbLine
 10
118.9326499999999
 20
81.7814
 30
0.0
 11
120.1326499999999
 21
79.4058
 31
0.0
  0
LINE
  5
19F
330
1E
100
AcDbEntity
  8
0
100
AcDbLine
 10
118.9326499999999
 20
80.921
 30
0.0
 11
120.1326499999999
 21
78.5455
 31
0.0
  0
LINE
  5
1A0
330
1E
100
AcDbEntity
  8
0
100
AcDbLine
 10
118.9326499999999
 20
80.34739999999999
 30
0.0
 11
120.1326499999999
 21
77.9719
 31
0.0
  0
LINE
  5
1A1
330
1E
100
AcDbEntity
  8
0
100
AcDbLine
 10
124.83265
 20
76.416
 30
0.0
 11
127.53265
 21
75.5149
 31
0.0
  0
LINE
  5
1A2
330
1E
100
AcDbEntity
  8
0
100
AcDbLine
 10
122.03265
 20
76.4976
 30
0.0
 11
124.53265
 21
74.94119999999999
 31
0.0
  0
LINE
  5
1A3
330
1E
100
AcDbEntity
  8
0
100
AcDbLine
 10
132.33265
 20
77.2925
 30
0.0
 11
132.33265
 21
77.37569999999999
 31
0.0
  0
LINE
  5
1A4
330
1E
100
AcDbEntity
  8
0
100
AcDbLine
 10
132.33265
 20
77.2925
 30
0.0
 11
132.5326499999999
 21
80.68000000000001
 31
0.0
  0
LINE
  5
1A5
330
1E
100
AcDbEntity
  8
0
100
AcDbLine
 10
122.03265
 20
77.3579
 30
0.0
 11
124.53265
 21
75.80159999999999
 31
0.0
  0
LINE
  5
1A6
330
1E
100
AcDbEntity
  8
0
100
AcDbLine
 10
128.73265
 20
77.2925
 30
0.0
 11
128.73265
 21
77.37569999999999
 31
0.0
  0
LINE
  5
1A7
330
1E
100
AcDbEntity
  8
0
100
AcDbLine
 10
136.2326499999999
 20
76.416
 30
0.0
 11
138.63265
 21
77.97239999999999
 31
0.0
  0
LINE
  5
1A8
330
1E
100
AcDbEntity
  8
0
100
AcDbLine
 10
128.73265
 20
77.37569999999999
 30
0.0
 11
129.23265
 21
74.6144
 31
0.0
  0
LINE
  5
1A9
330
1E
100
AcDbEntity
  8
0
100
AcDbLine
 10
128.73265
 20
77.37569999999999
 30
0.0
 11
128.73265
 21
77.2925
 31
0.0
  0
LINE
  5
1AA
330
1E
100
AcDbEntity
  8
0
100
AcDbLine
 10
131.33265
 20
77.73690000000001
 30
0.0
 11
131.33265
 21
78.80169999999999
 31
0.0
  0
LINE
  5
1AB
330
1E
100
AcDbEntity
  8
0
100
AcDbLine
 10
131.33265
 20
77.73690000000001
 30
0.0
 11
131.33265
 21
75.7651
 31
0.0
  0
LINE
  5
1AC
330
1E
100
AcDbEntity
  8
0
100
AcDbLine
 10
132.33265
 20
77.37569999999999
 30
0.0
 11
132.33265
 21
77.2925
 31
0.0
  0
LINE
  5
1AD
330
1E
100
AcDbEntity
  8
0
100
AcDbLine
 10
129.73265
 20
77.73690000000001
 30
0.0
 11
129.73265
 21
75.7651
 31
0.0
  0
LINE
  5
1AE
330
1E
100
AcDbEntity
  8
0
100
AcDbLine
 10
129.73265
 20
77.73690000000001
 30
0.0
 11
129.73265
 21
78.80169999999999
 31
0.0
  0
LINE
  5
1AF
330
1E
100
AcDbEntity
  8
0
100
AcDbLine
 10
139.03265
 20
77.3579
 30
0.0
 11
140.9326499999999
 21
79.4058
 31
0.0
  0
LINE
  5
1B0
330
1E
100
AcDbEntity
  8
0
100
AcDbLine
 10
139.03265
 20
76.4976
 30
0.0
 11
140.9326499999999
 21
78.5455
 31
0.0
  0
LINE
  5
1B1
330
1E
100
AcDbEntity
  8
0
100
AcDbLine
 10
120.1326499999999
 20
77.9719
 30
0.0
 11
122.03265
 21
75.92399999999999
 31
0.0
  0
LINE
  5
1B2
330
1E
100
AcDbEntity
  8
0
100
AcDbLine
 10
120.1326499999999
 20
78.5455
 30
0.0
 11
122.03265
 21
76.4976
 31
0.0
  0
LINE
  5
1B3
330
1E
100
AcDbEntity
  8
0
100
AcDbLine
 10
122.4326499999999
 20
77.97239999999999
 30
0.0
 11
124.83265
 21
76.416
 31
0.0
  0
LINE
  5
1B4
330
1E
100
AcDbEntity
  8
0
100
AcDbLine
 10
138.63265
 20
77.97239999999999
 30
0.0
 11
140.5326499999999
 21
79.9384
 31
0.0
  0
LINE
  5
1B5
330
1E
100
AcDbEntity
  8
0
100
AcDbLine
 10
120.1326499999999
 20
79.4058
 30
0.0
 11
122.03265
 21
77.3579
 31
0.0
  0
LINE
  5
1B8
330
1E
100
AcDbEntity
  8
0
100
AcDbLine
 10
131.33265
 20
78.80169999999999
 30
0.0
 11
131.33265
 21
79.7784
 31
0.0
  0
LINE
  5
1B9
330
1E
100
AcDbEntity
  8
0
100
AcDbLine
 10
131.33265
 20
78.80169999999999
 30
0.0
 11
131.33265
 21
77.73690000000001
 31
0.0
  0
LINE
  5
1BA
330
1E
100
AcDbEntity
  8
0
100
AcDbLine
 10
129.73265
 20
78.80169999999999
 30
0.0
 11
129.73265
 21
77.73690000000001
 31
0.0
  0
LINE
  5
1BB
330
1E
100
AcDbEntity
  8
0
100
AcDbLine
 10
129.73265
 20
78.80169999999999
 30
0.0
 11
129.73265
 21
79.7784
 31
0.0
  0
LINE
  5
1BC
330
1E
100
AcDbEntity
  8
0
100
AcDbLine
 10
120.5326499999999
 20
79.9384
 30
0.0
 11
122.4326499999999
 21
77.97239999999999
 31
0.0
  0
LINE
  5
1C1
330
1E
100
AcDbEntity
  8
0
100
AcDbLine
 10
131.33265
 20
79.7784
 30
0.0
 11
131.33265
 21
81.08400000000001
 31
0.0
  0
LINE
  5
1C2
330
1E
100
AcDbEntity
  8
0
100
AcDbLine
 10
131.33265
 20
79.7784
 30
0.0
 11
131.33265
 21
78.80169999999999
 31
0.0
  0
LINE
  5
1C3
330
1E
100
AcDbEntity
  8
0
100
AcDbLine
 10
129.73265
 20
79.7784
 30
0.0
 11
129.73265
 21
78.80169999999999
 31
0.0
  0
LINE
  5
1C4
330
1E
100
AcDbEntity
  8
0
100
AcDbLine
 10
129.73265
 20
79.7784
 30
0.0
 11
129.73265
 21
81.08400000000001
 31
0.0
  0
LINE
  5
1C5
330
1E
100
AcDbEntity
  8
0
100
AcDbLine
 10
119.43265
 20
82.15009999999999
 30
0.0
 11
120.5326499999999
 21
79.9384
 31
0.0
  0
LINE
  5
1C6
330
1E
100
AcDbEntity
  8
0
100
AcDbLine
 10
125.33265
 20
82.15009999999999
 30
0.0
 11
126.33265
 21
81.16710000000001
 31
0.0
  0
LINE
  5
1C7
330
1E
100
AcDbEntity
  8
0
100
AcDbLine
 10
126.33265
 20
81.16710000000001
 30
0.0
 11
127.53265
 21
80.34789999999999
 31
0.0
  0
LINE
  5
1C8
330
1E
100
AcDbEntity
  8
0
100
AcDbLine
 10
127.53265
 20
80.34789999999999
 30
0.0
 11
128.5723714501449
 21
80.00721793816909
 31
0.0
  0
LINE
  5
1C9
330
1E
100
AcDbEntity
  8
0
100
AcDbLine
 10
128.5326499999999
 20
80.68000000000001
 30
0.0
 11
128.73265
 21
77.2925
 31
0.0
  0
LINE
  5
1CD
330
1E
100
AcDbEntity
  8
0
100
AcDbLine
 10
129.73265
 20
82.53299999999999
 30
0.0
 11
129.73265
 21
81.08400000000001
 31
0.0
  0
LINE
  5
1CE
330
1E
100
AcDbEntity
  8
0
100
AcDbLine
 10
129.73265
 20
82.53299999999999
 30
0.0
 11
129.73265
 21
84.0186
 31
0.0
  0
LINE
  5
1CF
330
1E
100
AcDbEntity
  8
0
100
AcDbLine
 10
133.5326499999999
 20
80.34789999999999
 30
0.0
 11
134.73265
 21
81.16710000000001
 31
0.0
  0
LINE
  5
1D0
330
1E
100
AcDbEntity
  8
0
100
AcDbLine
 10
132.492928549855
 20
80.00721793816909
 30
0.0
 11
133.5326499999999
 21
80.34789999999999
 31
0.0
  0
LINE
  5
1D1
330
1E
100
AcDbEntity
  8
0
100
AcDbLine
 10
131.33265
 20
82.53299999999999
 30
0.0
 11
131.33265
 21
84.0186
 31
0.0
  0
LINE
  5
1D2
330
1E
100
AcDbEntity
  8
0
100
AcDbLine
 10
131.33265
 20
82.53299999999999
 30
0.0
 11
131.33265
 21
81.08400000000001
 31
0.0
  0
LINE
  5
1D3
330
1E
100
AcDbEntity
  8
0
100
AcDbLine
 10
134.73265
 20
81.16710000000001
 30
0.0
 11
135.73265
 21
82.15009999999999
 31
0.0
  0
LINE
  5
1D4
330
1E
100
AcDbEntity
  8
0
100
AcDbLine
 10
135.73265
 20
82.15009999999999
 30
0.0
 11
136.33265
 21
83.3788
 31
0.0
  0
LINE
  5
1D8
330
1E
100
AcDbEntity
  8
0
100
AcDbLine
 10
131.33265
 20
81.08400000000001
 30
0.0
 11
131.33265
 21
82.53299999999999
 31
0.0
  0
LINE
  5
1D9
330
1E
100
AcDbEntity
  8
0
100
AcDbLine
 10
131.33265
 20
81.08400000000001
 30
0.0
 11
131.33265
 21
79.7784
 31
0.0
  0
LINE
  5
1DA
330
1E
100
AcDbEntity
  8
0
100
AcDbLine
 10
132.5326499999999
 20
80.68000000000001
 30
0.0
 11
132.7353898572376
 21
82.89432472074917
 31
0.0
  0
LINE
  5
1DB
330
1E
100
AcDbEntity
  8
0
100
AcDbLine
 10
129.73265
 20
81.08400000000001
 30
0.0
 11
129.73265
 21
79.7784
 31
0.0
  0
LINE
  5
1DC
330
1E
100
AcDbEntity
  8
0
100
AcDbLine
 10
129.73265
 20
81.08400000000001
 30
0.0
 11
129.73265
 21
82.53299999999999
 31
0.0
  0
LINE
  5
1DD
330
1E
100
AcDbEntity
  8
0
100
AcDbLine
 10
140.5326499999999
 20
79.9384
 30
0.0
 11
141.63265
 21
82.15009999999999
 31
0.0
  0
LINE
  5
1DE
330
1E
100
AcDbEntity
  8
0
100
AcDbLine
 10
141.63265
 20
82.15009999999999
 30
0.0
 11
142.0326499999999
 21
84.6075
 31
0.0
  0
LINE
  5
1DF
330
1E
100
AcDbEntity
  8
0
100
AcDbLine
 10
140.9326499999999
 20
79.4058
 30
0.0
 11
142.13265
 21
81.7814
 31
0.0
  0
LINE
  5
1E0
330
1E
100
AcDbEntity
  8
0
100
AcDbLine
 10
142.13265
 20
81.7814
 30
0.0
 11
142.5326499999999
 21
84.32070000000001
 31
0.0
  0
LINE
  5
1E1
330
1E
100
AcDbEntity
  8
0
100
AcDbLine
 10
140.9326499999999
 20
78.5455
 30
0.0
 11
142.13265
 21
80.921
 31
0.0
  0
LINE
  5
1E2
330
1E
100
AcDbEntity
  8
0
100
AcDbLine
 10
142.13265
 20
80.921
 30
0.0
 11
142.5326499999999
 21
83.4604
 31
0.0
  0
LINE
  5
1E3
330
1E
100
AcDbEntity
  8
0
100
AcDbLine
 10
140.9326499999999
 20
77.9719
 30
0.0
 11
142.13265
 21
80.34739999999999
 31
0.0
  0
LINE
  5
1E4
330
1E
100
AcDbEntity
  8
0
100
AcDbLine
 10
145.5326499999999
 20
77.78540588235291
 30
0.0
 11
145.5326499999999
 21
91.5
 31
0.0
  0
LINE
  5
1E5
330
1E
100
AcDbEntity
  8
0
100
AcDbLine
 10
143.4328090425919
 20
80.536293855726
 30
0.0
 11
144.83265
 21
78.9927
 31
0.0
  0
LINE
  5
1E6
330
1E
100
AcDbEntity
  8
0
100
AcDbLine
 10
144.83265
 20
78.9927
 30
0.0
 11
146.43265
 21
75.71609999999999
 31
0.0
  0
LINE
  5
1E7
330
1E
100
AcDbEntity
  8
0
100
AcDbLine
 10
144.83265
 20
78.9927
 30
0.0
 11
145.23265
 21
78.37810000000001
 31
0.0
  0
LINE
  5
1E8
330
1E
100
AcDbEntity
  8
0
100
AcDbLine
 10
145.23265
 20
78.37810000000001
 30
0.0
 11
146.93265
 21
75.01949999999999
 31
0.0
  0
LINE
  5
1E9
330
1E
100
AcDbEntity
  8
0
100
AcDbLine
 10
142.13265
 20
80.34739999999999
 30
0.0
 11
142.5326499999999
 21
82.88679999999999
 31
0.0
  0
LINE
  5
1EA
330
1E
100
AcDbEntity
  8
0
100
AcDbLine
 10
124.73265
 20
83.3788
 30
0.0
 11
125.33265
 21
82.15009999999999
 31
0.0
  0
LINE
  5
1EB
330
1E
100
AcDbEntity
  8
0
100
AcDbLine
 10
124.53265
 20
84.6075
 30
0.0
 11
124.73265
 21
83.3788
 31
0.0
  0
LINE
  5
1EC
330
1E
100
AcDbEntity
  8
0
100
AcDbLine
 10
124.53265
 20
84.6075
 30
0.0
 11
124.53265
 21
88.38274515103341
 31
0.0
  0
LINE
  5
1ED
330
1E
100
AcDbEntity
  8
0
100
AcDbLine
 10
126.2196499999999
 20
86.6995
 30
0.0
 11
127.815008740494
 21
84.33180434052911
 31
0.0
  0
LINE
  5
1EE
330
1E
100
AcDbEntity
  8
0
100
AcDbLine
 10
127.8150087404948
 20
84.33180434052784
 30
0.0
 11
128.3299101427624
 21
82.89432472074921
 31
0.0
  0
LINE
  5
1EF
330
1E
100
AcDbEntity
  8
0
100
AcDbLine
 10
128.3299101427624
 20
82.89432472074921
 30
0.0
 11
128.5326499999999
 21
80.68000000000001
 31
0.0
  0
LINE
  5
1F0
330
1E
100
AcDbEntity
  8
0
100
AcDbLine
 10
136.33265
 20
83.3788
 30
0.0
 11
136.5326499999999
 21
84.6075
 31
0.0
  0
LINE
  5
1F1
330
1E
100
AcDbEntity
  8
0
100
AcDbLine
 10
132.7353898572376
 20
82.89432472074917
 30
0.0
 11
133.2502912595059
 21
84.33180434052911
 31
0.0
  0
LINE
  5
1F2
330
1E
100
AcDbEntity
  8
0
100
AcDbLine
 10
136.5326499999999
 20
84.6075
 30
0.0
 11
136.5326499999999
 21
88.38274515103341
 31
0.0
  0
LINE
  5
1F3
330
1E
100
AcDbEntity
  8
0
100
AcDbLine
 10
134.84565
 20
86.6995
 30
0.0
 11
136.73265
 21
88.5823
 31
0.0
  0
LINE
  5
1F4
330
1E
100
AcDbEntity
  8
0
100
AcDbLine
 10
133.2502912595059
 20
84.33180434052911
 30
0.0
 11
134.84565
 21
86.6995
 31
0.0
  0
LINE
  5
1F5
330
1E
100
AcDbEntity
  8
0
100
AcDbLine
 10
131.33265
 20
84.0186
 30
0.0
 11
131.63265
 21
87.0007
 31
0.0
  0
LINE
  5
1F6
330
1E
100
AcDbEntity
  8
0
100
AcDbLine
 10
131.33265
 20
84.0186
 30
0.0
 11
131.33265
 21
82.53299999999999
 31
0.0
  0
LINE
  5
1F7
330
1E
100
AcDbEntity
  8
0
100
AcDbLine
 10
129.73265
 20
84.0186
 30
0.0
 11
129.73265
 21
82.53299999999999
 31
0.0
  0
LINE
  5
1F8
330
1E
100
AcDbEntity
  8
0
100
AcDbLine
 10
142.13265
 20
86.86010000000001
 30
0.0
 11
142.5326499999999
 21
84.32070000000001
 31
0.0
  0
LINE
  5
1F9
330
1E
100
AcDbEntity
  8
0
100
AcDbLine
 10
142.5326499999999
 20
83.4604
 30
0.0
 11
142.5326499999999
 21
84.32070000000001
 31
0.0
  0
LINE
  5
1FA
330
1E
100
AcDbEntity
  8
0
100
AcDbLine
 10
142.5139974013879
 20
83.3419839777103
 30
0.0
 11
146.0326499999999
 21
72.59739999999999
 31
0.0
  0
LINE
  5
1FB
330
1E
100
AcDbEntity
  8
0
100
AcDbLine
 10
142.5326499999999
 20
84.32070000000001
 30
0.0
 11
142.5326499999999
 21
83.4604
 31
0.0
  0
LINE
  5
1FC
330
1E
100
AcDbEntity
  8
0
100
AcDbLine
 10
142.487473974167
 20
83.17359999999998
 30
0.0
 11
142.5326499999999
 21
82.88679999999999
 31
0.0
  0
LINE
  5
1FD
330
1E
100
AcDbEntity
  8
0
100
AcDbLine
 10
142.5326499999999
 20
82.88679999999999
 30
0.0
 11
142.5326499999999
 21
76.0039
 31
0.0
  0
LINE
  5
1FE
330
1E
100
AcDbEntity
  8
0
100
AcDbLine
 10
119.03265
 20
84.6075
 30
0.0
 11
119.43265
 21
87.065
 31
0.0
  0
LINE
  5
1FF
330
1E
100
AcDbEntity
  8
0
100
AcDbLine
 10
119.03265
 20
84.6075
 30
0.0
 11
119.43265
 21
82.15009999999999
 31
0.0
  0
LINE
  5
200
330
1E
100
AcDbEntity
  8
0
100
AcDbLine
 10
119.43265
 20
87.065
 30
0.0
 11
120.5326499999999
 21
89.2767
 31
0.0
  0
LINE
  5
201
330
1E
100
AcDbEntity
  8
0
100
AcDbLine
 10
124.53265
 20
88.38274515103341
 30
0.0
 11
124.53265
 21
84.6075
 31
0.0
  0
LINE
  5
202
330
1E
100
AcDbEntity
  8
0
100
AcDbLine
 10
124.33265
 20
88.5823
 30
0.0
 11
126.2196499999999
 21
86.6995
 31
0.0
  0
LINE
  5
203
330
1E
100
AcDbEntity
  8
0
100
AcDbLine
 10
136.5326499999999
 20
88.38274515103341
 30
0.0
 11
136.5326499999999
 21
84.6075
 31
0.0
  0
LINE
  5
204
330
1E
100
AcDbEntity
  8
0
100
AcDbLine
 10
136.73265
 20
88.5823
 30
0.0
 11
139.33265
 21
90.3045
 31
0.0
  0
LINE
  5
205
330
1E
100
AcDbEntity
  8
0
100
AcDbLine
 10
131.63265
 20
87.0007
 30
0.0
 11
132.67865
 21
89.6016
 31
0.0
  0
LINE
  5
206
330
1E
100
AcDbEntity
  8
0
100
AcDbLine
 10
129.4326499999999
 20
87.0007
 30
0.0
 11
129.73265
 21
84.0186
 31
0.0
  0
LINE
  5
207
330
1E
100
AcDbEntity
  8
0
100
AcDbLine
 10
140.5326499999999
 20
89.2767
 30
0.0
 11
141.63265
 21
87.065
 31
0.0
  0
LINE
  5
208
330
1E
100
AcDbEntity
  8
0
100
AcDbLine
 10
141.63265
 20
87.065
 30
0.0
 11
142.0326499999999
 21
84.6075
 31
0.0
  0
LINE
  5
209
330
1E
100
AcDbEntity
  8
0
100
AcDbLine
 10
140.9326499999999
 20
89.23569999999999
 30
0.0
 11
142.13265
 21
86.86010000000001
 31
0.0
  0
LINE
  5
20A
330
1E
100
AcDbEntity
  8
0
100
AcDbLine
 10
121.73265
 20
90.3045
 30
0.0
 11
124.33265
 21
88.5823
 31
0.0
  0
LINE
  5
20B
330
1E
100
AcDbEntity
  8
0
100
AcDbLine
 10
139.33265
 20
90.3045
 30
0.0
 11
141.33165
 21
92.34939999999999
 31
0.0
  0
LINE
  5
20C
330
1E
100
AcDbEntity
  8
0
100
AcDbLine
 10
132.67865
 20
89.6016
 30
0.0
 11
134.52265
 21
91.66529999999999
 31
0.0
  0
LINE
  5
20D
330
1E
100
AcDbEntity
  8
0
100
AcDbLine
 10
128.38665
 20
89.6016
 30
0.0
 11
129.4326499999999
 21
87.0007
 31
0.0
  0
LINE
  5
20E
330
1E
100
AcDbEntity
  8
0
100
AcDbLine
 10
139.4365934246269
 20
90.4108301195699
 30
0.0
 11
140.5326499999999
 21
89.2767
 31
0.0
  0
LINE
  5
20F
330
1E
100
AcDbEntity
  8
0
100
AcDbLine
 10
139.644758942049
 20
90.62377542551121
 30
0.0
 11
140.9326499999999
 21
89.23569999999999
 31
0.0
  0
LINE
  5
210
330
1E
100
AcDbEntity
  8
0
100
AcDbLine
 10
120.5326499999999
 20
89.2767
 30
0.0
 11
121.628706575373
 21
90.4108301195699
 31
0.0
  0
LINE
  5
211
330
1E
100
AcDbEntity
  8
0
100
AcDbLine
 10
120.1326499999999
 20
89.23569999999999
 30
0.0
 11
121.4205410579509
 21
90.62377542551121
 31
0.0
  0
LINE
  5
212
330
1E
100
AcDbEntity
  8
0
100
AcDbLine
 10
118.9326499999999
 20
86.86010000000001
 30
0.0
 11
120.1326499999999
 21
89.23569999999999
 31
0.0
  0
LINE
  5
213
330
1E
100
AcDbEntity
  8
0
100
AcDbLine
 10
118.53265
 20
82.88679999999999
 30
0.0
 11
118.5778260258329
 21
83.17359999999998
 31
0.0
  0
LINE
  5
214
330
1E
100
AcDbEntity
  8
0
100
AcDbLine
 10
118.53265
 20
82.88679999999999
 30
0.0
 11
118.53265
 21
76.0039
 31
0.0
  0
LINE
  5
215
330
1E
100
AcDbEntity
  8
0
100
AcDbLine
 10
118.53265
 20
82.88679999999999
 30
0.0
 11
118.9326499999999
 21
80.34739999999999
 31
0.0
  0
LINE
  5
216
330
1E
100
AcDbEntity
  8
0
100
AcDbLine
 10
118.53265
 20
76.0039
 30
0.0
 11
118.53265
 21
82.88679999999999
 31
0.0
  0
LINE
  5
217
330
1E
100
AcDbEntity
  8
0
100
AcDbLine
 10
118.53265
 20
76.0039
 30
0.0
 11
118.9326499999999
 21
73.4645
 31
0.0
  0
LINE
  5
218
330
1E
100
AcDbEntity
  8
0
100
AcDbLine
 10
115.53265
 20
91.5
 30
0.0
 11
115.53265
 21
79.81989351027251
 31
0.0
  0
LINE
  5
219
330
1E
100
AcDbEntity
  8
0
100
AcDbLine
 10
119.73365
 20
92.34939999999999
 30
0.0
 11
121.73265
 21
90.3045
 31
0.0
  0
LINE
  5
21A
330
1E
100
AcDbEntity
  8
0
100
AcDbLine
 10
134.52265
 20
91.66529999999999
 30
0.0
 11
136.5326499999999
 21
93.35939999999999
 31
0.0
  0
LINE
  5
21B
330
1E
100
AcDbEntity
  8
0
100
AcDbLine
 10
141.33165
 20
92.34939999999999
 30
0.0
 11
143.4916499999999
 21
93.78159999999999
 31
0.0
  0
LINE
  5
21C
330
1E
100
AcDbEntity
  8
0
100
AcDbLine
 10
126.54265
 20
91.66529999999999
 30
0.0
 11
128.38665
 21
89.6016
 31
0.0
  0
LINE
  5
21D
330
1E
100
AcDbEntity
  8
0
100
AcDbLine
 10
117.1326499999999
 20
93.0
 30
0.0
 11
118.752435085882
 21
93.0
 31
0.0
  0
LINE
  5
21E
330
1E
100
AcDbEntity
  8
0
100
AcDbLine
 10
115.63265
 20
93.0
 30
0.0
 11
117.1326499999999
 21
93.0
 31
0.0
  0
LINE
  5
21F
330
1E
100
AcDbEntity
  8
0
100
AcDbLine
 10
142.3128649141179
 20
93.0
 30
0.0
 11
143.9326499999999
 21
93.0
 31
0.0
  0
LINE
  5
220
330
1E
100
AcDbEntity
  8
0
100
AcDbLine
 10
143.9326499999999
 20
93.0
 30
0.0
 11
145.43265
 21
93.0
 31
0.0
  0
LINE
  5
221
330
1E
100
AcDbEntity
  8
0
100
AcDbLine
 10
136.5326499999999
 20
93.35939999999999
 30
0.0
 11
139.03265
 21
94.852
 31
0.0
  0
LINE
  5
222
330
1E
100
AcDbEntity
  8
0
100
AcDbLine
 10
124.53265
 20
93.35939999999999
 30
0.0
 11
126.54265
 21
91.66529999999999
 31
0.0
  0
LINE
  5
223
330
1E
100
AcDbEntity
  8
0
100
AcDbLine
 10
116.23265
 20
93.49999999999999
 30
0.0
 11
117.99835046083
 21
93.49999999999999
 31
0.0
  0
LINE
  5
224
330
1E
100
AcDbEntity
  8
0
100
AcDbLine
 10
117.5736499999999
 20
93.78159999999999
 30
0.0
 11
119.73365
 21
92.34939999999999
 31
0.0
  0
LINE
  5
225
330
1E
100
AcDbEntity
  8
0
100
AcDbLine
 10
122.03265
 20
94.852
 30
0.0
 11
124.53265
 21
93.35939999999999
 31
0.0
  0
LINE
  5
226
330
1E
100
AcDbEntity
  8
0
100
AcDbLine
 10
120.11065
 20
96.9819
 30
0.0
 11
122.03265
 21
94.852
 31
0.0
  0
LINE
  5
227
330
1E
100
AcDbEntity
  8
0
100
AcDbLine
 10
117.82865
 20
98.80320000000001
 30
0.0
 11
120.11065
 21
96.9819
 31
0.0
  0
LINE
  5
228
330
1E
100
AcDbEntity
  8
0
100
AcDbLine
 10
121.43265
 20
98.41560000000001
 30
0.0
 11
123.1326499999999
 21
96.6135
 31
0.0
  0
LINE
  5
22A
330
1E
100
AcDbEntity
  8
0
100
AcDbLine
 10
120.43265
 20
100.4629999999999
 30
0.0
 11
121.43265
 21
98.41560000000001
 31
0.0
  0
LINE
  5
22B
330
1E
100
AcDbEntity
  8
0
100
AcDbLine
 10
115.07465
 20
104.022
 30
0.0
 11
117.82865
 21
105.34
 31
0.0
  0
LINE
  5
22C
330
1E
100
AcDbEntity
  8
0
100
AcDbLine
 10
120.43265
 20
104.8869999999999
 30
0.0
 11
121.43265
 21
106.935
 31
0.0
  0
LINE
  5
22D
330
1E
100
AcDbEntity
  8
0
100
AcDbLine
 10
120.03265
 20
102.675
 30
0.0
 11
120.43265
 21
100.4629999999999
 31
0.0
  0
LINE
  5
22E
330
1E
100
AcDbEntity
  8
0
100
AcDbLine
 10
120.03265
 20
102.675
 30
0.0
 11
120.43265
 21
104.8869999999999
 31
0.0
  0
LINE
  5
22F
330
1E
100
AcDbEntity
  8
0
100
AcDbLine
 10
115.07465
 20
100.506
 30
0.0
 11
117.82865
 21
98.80320000000001
 31
0.0
  0
LINE
  5
230
330
1E
100
AcDbEntity
  8
0
100
AcDbLine
 10
123.1326499999999
 20
96.6135
 30
0.0
 11
125.33265
 21
95.2209
 31
0.0
  0
LINE
  5
231
330
1E
100
AcDbEntity
  8
0
100
AcDbLine
 10
125.33265
 20
95.2209
 30
0.0
 11
127.83265
 21
94.40179999999999
 31
0.0
  0
LINE
  5
232
330
1E
100
AcDbEntity
  8
0
100
AcDbLine
 10
135.73265
 20
95.2209
 30
0.0
 11
137.9326499999999
 21
96.6135
 31
0.0
  0
LINE
  5
233
330
1E
100
AcDbEntity
  8
0
100
AcDbLine
 10
133.23265
 20
94.40179999999999
 30
0.0
 11
135.73265
 21
95.2209
 31
0.0
  0
LINE
  5
234
330
1E
100
AcDbEntity
  8
0
100
AcDbLine
 10
130.5326499999999
 20
94.0741
 30
0.0
 11
133.23265
 21
94.40179999999999
 31
0.0
  0
LINE
  5
235
330
1E
100
AcDbEntity
  8
0
100
AcDbLine
 10
137.9326499999999
 20
96.6135
 30
0.0
 11
139.63265
 21
98.41560000000001
 31
0.0
  0
LINE
  5
236
330
1E
100
AcDbEntity
  8
0
100
AcDbLine
 10
139.03265
 20
94.852
 30
0.0
 11
140.9546499999999
 21
96.9819
 31
0.0
  0
LINE
  5
238
330
1E
100
AcDbEntity
  8
0
100
AcDbLine
 10
139.63265
 20
98.41560000000001
 30
0.0
 11
140.63265
 21
100.4629999999999
 31
0.0
  0
LINE
  5
239
330
1E
100
AcDbEntity
  8
0
100
AcDbLine
 10
140.9546499999999
 20
96.9819
 30
0.0
 11
143.23665
 21
98.80320000000001
 31
0.0
  0
LINE
  5
23A
330
1E
100
AcDbEntity
  8
0
100
AcDbLine
 10
140.63265
 20
100.4629999999999
 30
0.0
 11
141.0326499999999
 21
102.675
 31
0.0
  0
LINE
  5
23B
330
1E
100
AcDbEntity
  8
0
100
AcDbLine
 10
140.63265
 20
104.8869999999999
 30
0.0
 11
141.0326499999999
 21
102.675
 31
0.0
  0
LINE
  5
23C
330
1E
100
AcDbEntity
  8
0
100
AcDbLine
 10
143.23665
 20
98.80320000000001
 30
0.0
 11
145.9906499999999
 21
100.506
 31
0.0
  0
LINE
  5
23D
330
1E
100
AcDbEntity
  8
0
100
AcDbLine
 10
143.4916499999999
 20
93.78159999999999
 30
0.0
 11
146.30465
 21
94.9516
 31
0.0
  0
LINE
  5
23E
330
1E
100
AcDbEntity
  8
0
100
AcDbLine
 10
143.4916499999999
 20
105.2589999999999
 30
0.0
 11
146.30465
 21
104.089
 31
0.0
  0
LINE
  5
23F
330
1E
100
AcDbEntity
  8
0
100
AcDbLine
 10
127.83265
 20
94.40179999999999
 30
0.0
 11
130.5326499999999
 21
94.0741
 31
0.0
  0
LINE
  5
240
330
1E
100
AcDbEntity
  8
0
100
AcDbLine
 10
143.066949539171
 20
93.49999999999999
 30
0.0
 11
144.83265
 21
93.49999999999999
 31
0.0
  0
LINE
  5
241
330
1E
100
AcDbEntity
  8
0
100
AcDbLine
 10
145.9906499999999
 20
100.506
 30
0.0
 11
149.53465
 21
101.665
 31
0.0
  0
LINE
  5
242
330
1E
100
AcDbEntity
  8
0
100
AcDbLine
 10
145.9906499999999
 20
104.022
 30
0.0
 11
149.53465
 21
103.467
 31
0.0
  0
LINE
  5
243
330
1E
100
AcDbEntity
  8
0
100
AcDbLine
 10
144.83265
 20
93.49999999999999
 30
0.0
 11
146.43265
 21
93.49999999999999
 31
0.0
  0
LINE
  5
244
330
1E
100
AcDbEntity
  8
0
100
AcDbLine
 10
145.43265
 20
93.0
 30
0.0
 11
146.0326499999999
 21
93.0
 31
0.0
  0
LINE
  5
245
330
1E
100
AcDbEntity
  8
0
100
AcDbLine
 10
146.30465
 20
94.9516
 30
0.0
 11
149.55465
 21
95.4814
 31
0.0
  0
LINE
  5
246
330
1E
100
AcDbEntity
  8
0
100
AcDbLine
 10
146.0326499999999
 20
93.0
 30
0.0
 11
147.0326499999999
 21
93.49999999999999
 31
0.0
  0
LINE
  5
247
330
1E
100
AcDbEntity
  8
0
100
AcDbLine
 10
145.5326499999999
 20
91.5
 30
0.0
 11
146.0326499999999
 21
93.0
 31
0.0
  0
LINE
  5
248
330
1E
100
AcDbEntity
  8
0
100
AcDbLine
 10
145.5326499999999
 20
91.5
 30
0.0
 11
145.5326499999999
 21
77.78540588235291
 31
0.0
  0
LINE
  5
249
330
1E
100
AcDbEntity
  8
0
100
AcDbLine
 10
146.43265
 20
75.71609999999999
 30
0.0
 11
147.0326499999999
 21
72.2756
 31
0.0
  0
LINE
  5
24A
330
1E
100
AcDbEntity
  8
0
100
AcDbLine
 10
146.601554492261
 20
95.0
 30
0.0
 11
146.93265
 21
95.0
 31
0.0
  0
LINE
  5
24B
330
1E
100
AcDbEntity
  8
0
100
AcDbLine
 10
146.93265
 20
95.0
 30
0.0
 11
147.5326499999999
 21
95.0
 31
0.0
  0
LINE
  5
24C
330
1E
100
AcDbEntity
  8
0
100
AcDbLine
 10
146.43265
 20
93.49999999999999
 30
0.0
 11
147.0326499999999
 21
93.49999999999999
 31
0.0
  0
LINE
  5
24D
330
1E
100
AcDbEntity
  8
0
100
AcDbLine
 10
155.4266499999999
 20
95.3531
 30
0.0
 11
156.7146499999999
 21
95.5189
 31
0.0
  0
LINE
  5
24E
330
1E
100
AcDbEntity
  8
0
100
AcDbLine
 10
147.484663229829
 20
95.14396031051191
 30
0.0
 11
147.5326499999999
 21
95.0
 31
0.0
  0
LINE
  5
24F
330
1E
100
AcDbEntity
  8
0
100
AcDbLine
 10
147.0326499999999
 20
93.49999999999999
 30
0.0
 11
147.5326499999999
 21
95.0
 31
0.0
  0
LINE
  5
250
330
1E
100
AcDbEntity
  8
0
100
AcDbLine
 10
149.55465
 20
95.4814
 30
0.0
 11
153.5336499999999
 21
95.40989999999998
 31
0.0
  0
LINE
  5
251
330
1E
100
AcDbEntity
  8
0
100
AcDbLine
 10
153.5336499999999
 20
95.40989999999998
 30
0.0
 11
155.4266499999999
 21
95.3531
 31
0.0
  0
LINE
  5
252
330
1E
100
AcDbEntity
  8
0
100
AcDbLine
 10
157.6766499999999
 20
95.8826
 30
0.0
 11
158.2536499999999
 21
96.25709999999999
 31
0.0
  0
LINE
  5
253
330
1E
100
AcDbEntity
  8
0
100
AcDbLine
 10
156.7146499999999
 20
95.5189
 30
0.0
 11
157.6766499999999
 21
95.8826
 31
0.0
  0
LINE
  5
257
330
1E
100
AcDbEntity
  8
0
100
AcDbLine
 10
153.5096499999999
 20
102.185
 30
0.0
 11
155.4076499999999
 21
102.254
 31
0.0
  0
LINE
  5
258
330
1E
100
AcDbEntity
  8
0
100
AcDbLine
 10
155.4076499999999
 20
102.254
 30
0.0
 11
156.9076499999999
 21
102.034
 31
0.0
  0
LINE
  5
259
330
1E
100
AcDbEntity
  8
0
100
AcDbLine
 10
156.9076499999999
 20
102.034
 30
0.0
 11
158.00365
 21
101.626
 31
0.0
  0
LINE
  5
25A
330
1E
100
AcDbEntity
  8
0
100
AcDbLine
 10
158.00365
 20
101.626
 30
0.0
 11
158.6576499999999
 21
101.185
 31
0.0
  0
LINE
  5
25B
330
1E
100
AcDbEntity
  8
0
100
AcDbLine
 10
158.6576499999999
 20
101.185
 30
0.0
 11
159.17665
 21
100.5449999999999
 31
0.0
  0
LINE
  5
25C
330
1E
100
AcDbEntity
  8
0
100
AcDbLine
 10
149.53465
 20
101.665
 30
0.0
 11
153.5096499999999
 21
102.185
 31
0.0
  0
LINE
  5
25D
330
1E
100
AcDbEntity
  8
0
100
AcDbLine
 10
158.2536499999999
 20
96.25709999999999
 30
0.0
 11
158.6576499999999
 21
96.54569999999999
 31
0.0
  0
LINE
  5
25E
330
1E
100
AcDbEntity
  8
0
100
AcDbLine
 10
159.17665
 20
97.18519999999999
 30
0.0
 11
159.5326499999999
 21
98.8652
 31
0.0
  0
LINE
  5
25F
330
1E
100
AcDbEntity
  8
0
100
AcDbLine
 10
159.5326499999999
 20
98.8652
 30
0.0
 11
159.5326499999999
 21
99.52049999999999
 31
0.0
  0
LINE
  5
260
330
1E
100
AcDbEntity
  8
0
100
AcDbLine
 10
159.5326499999999
 20
99.52049999999999
 30
0.0
 11
159.5326499999999
 21
100.1759999999999
 31
0.0
  0
LINE
  5
261
330
1E
100
AcDbEntity
  8
0
100
AcDbLine
 10
159.5326499999999
 20
99.52049999999999
 30
0.0
 11
159.5326499999999
 21
98.8652
 31
0.0
  0
LINE
  5
262
330
1E
100
AcDbEntity
  8
0
100
AcDbLine
 10
159.17665
 20
100.5449999999999
 30
0.0
 11
159.5326499999999
 21
98.8652
 31
0.0
  0
LINE
  5
263
330
1E
100
AcDbEntity
  8
0
100
AcDbLine
 10
159.17665
 20
101.856
 30
0.0
 11
159.5326499999999
 21
100.1759999999999
 31
0.0
  0
LINE
  5
264
330
1E
100
AcDbEntity
  8
0
100
AcDbLine
 10
159.5326499999999
 20
100.1759999999999
 30
0.0
 11
159.5326499999999
 21
99.52049999999999
 31
0.0
  0
LINE
  5
265
330
1E
100
AcDbEntity
  8
0
100
AcDbLine
 10
158.6576499999999
 20
96.54569999999999
 30
0.0
 11
159.17665
 21
97.18519999999999
 31
0.0
  0
LINE
  5
266
330
1E
100
AcDbEntity
  8
0
100
AcDbLine
 10
158.00365
 20
102.936
 30
0.0
 11
158.6576499999999
 21
102.495
 31
0.0
  0
LINE
  5
267
330
1E
100
AcDbEntity
  8
0
100
AcDbLine
 10
149.53465
 20
103.467
 30
0.0
 11
153.5096499999999
 21
103.496
 31
0.0
  0
LINE
  5
268
330
1E
100
AcDbEntity
  8
0
100
AcDbLine
 10
153.5096499999999
 20
103.496
 30
0.0
 11
155.4076499999999
 21
103.5649999999999
 31
0.0
  0
LINE
  5
269
330
1E
100
AcDbEntity
  8
0
100
AcDbLine
 10
155.4076499999999
 20
103.5649999999999
 30
0.0
 11
156.9076499999999
 21
103.3439999999999
 31
0.0
  0
LINE
  5
26A
330
1E
100
AcDbEntity
  8
0
100
AcDbLine
 10
149.55465
 20
103.56
 30
0.0
 11
153.5336499999999
 21
103.631
 31
0.0
  0
LINE
  5
26B
330
1E
100
AcDbEntity
  8
0
100
AcDbLine
 10
153.5336499999999
 20
103.631
 30
0.0
 11
155.4266499999999
 21
103.6879999999999
 31
0.0
  0
LINE
  5
26C
330
1E
100
AcDbEntity
  8
0
100
AcDbLine
 10
156.7146499999999
 20
103.522
 30
0.0
 11
157.6766499999999
 21
103.1579999999999
 31
0.0
  0
LINE
  5
26D
330
1E
100
AcDbEntity
  8
0
100
AcDbLine
 10
156.9076499999999
 20
103.3439999999999
 30
0.0
 11
158.00365
 21
102.936
 31
0.0
  0
LINE
  5
26E
330
1E
100
AcDbEntity
  8
0
100
AcDbLine
 10
155.4266499999999
 20
103.6879999999999
 30
0.0
 11
156.7146499999999
 21
103.522
 31
0.0
  0
LINE
  5
26F
330
1E
100
AcDbEntity
  8
0
100
AcDbLine
 10
157.6766499999999
 20
103.1579999999999
 30
0.0
 11
158.2536499999999
 21
102.7839999999999
 31
0.0
  0
LINE
  5
270
330
1E
100
AcDbEntity
  8
0
100
AcDbLine
 10
158.2536499999999
 20
102.7839999999999
 30
0.0
 11
158.6576499999999
 21
102.495
 31
0.0
  0
LINE
  5
271
330
1E
100
AcDbEntity
  8
0
100
AcDbLine
 10
158.6576499999999
 20
102.495
 30
0.0
 11
159.17665
 21
101.856
 31
0.0
  0
LINE
  5
272
330
1E
100
AcDbEntity
  8
0
100
AcDbLine
 10
146.30465
 20
104.089
 30
0.0
 11
149.55465
 21
103.56
 31
0.0
  0
LINE
  5
273
330
1E
100
AcDbEntity
  8
0
100
AcDbLine
 10
118.3966499999999
 20
186.423
 30
0.0
 11
119.62165
 21
180.2649999999999
 31
0.0
  0
LINE
  5
274
330
1E
100
AcDbEntity
  8
0
100
AcDbLine
 10
116.37865
 20
192.369
 30
0.0
 11
118.3966499999999
 21
186.423
 31
0.0
  0
LINE
  5
275
330
1E
100
AcDbEntity
  8
0
100
AcDbLine
 10
119.62165
 20
180.2649999999999
 30
0.0
 11
120.03265
 21
174.0
 31
0.0
  0
LINE
  5
276
330
1E
100
AcDbEntity
  8
0
100
AcDbLine
 10
117.82865
 20
105.34
 30
0.0
 11
120.11065
 21
106.812
 31
0.0
  0
LINE
  5
277
330
1E
100
AcDbEntity
  8
0
100
AcDbLine
 10
120.03265
 20
106.9978804402199
 30
0.0
 11
120.03265
 21
174.0
 31
0.0
  0
LINE
  5
278
330
1E
100
AcDbEntity
  8
0
100
AcDbLine
 10
120.11065
 20
106.812
 30
0.0
 11
122.03265
 21
108.7779999999999
 31
0.0
  0
LINE
  5
279
330
1E
100
AcDbEntity
  8
0
100
AcDbLine
 10
122.03265
 20
108.7779999999999
 30
0.0
 11
124.53265
 21
110.434
 31
0.0
  0
LINE
  5
27A
330
1E
100
AcDbEntity
  8
0
100
AcDbLine
 10
121.73265
 20
108.737
 30
0.0
 11
124.33265
 21
110.4589999999999
 31
0.0
  0
LINE
  5
27B
330
1E
100
AcDbEntity
  8
0
100
AcDbLine
 10
123.1326499999999
 20
108.737
 30
0.0
 11
125.33265
 21
110.1289999999999
 31
0.0
  0
LINE
  5
27C
330
1E
100
AcDbEntity
  8
0
100
AcDbLine
 10
124.53265
 20
110.434
 30
0.0
 11
126.54265
 21
112.4779999999999
 31
0.0
  0
LINE
  5
27D
330
1E
100
AcDbEntity
  8
0
100
AcDbLine
 10
124.33265
 20
110.4589999999999
 30
0.0
 11
126.2196499999999
 21
112.342
 31
0.0
  0
LINE
  5
27E
330
1E
100
AcDbEntity
  8
0
100
AcDbLine
 10
125.33265
 20
110.1289999999999
 30
0.0
 11
127.83265
 21
110.949
 31
0.0
  0
LINE
  5
27F
330
1E
100
AcDbEntity
  8
0
100
AcDbLine
 10
121.43265
 20
106.935
 30
0.0
 11
123.1326499999999
 21
108.737
 31
0.0
  0
LINE
  5
281
330
1E
100
AcDbEntity
  8
0
100
AcDbLine
 10
127.83265
 20
110.949
 30
0.0
 11
130.5326499999999
 21
111.276
 31
0.0
  0
LINE
  5
282
330
1E
100
AcDbEntity
  8
0
100
AcDbLine
 10
126.54265
 20
112.4779999999999
 30
0.0
 11
128.38665
 21
114.9259999999999
 31
0.0
  0
LINE
  5
283
330
1E
100
AcDbEntity
  8
0
100
AcDbLine
 10
126.2196499999999
 20
112.342
 30
0.0
 11
127.8143653750229
 21
114.7078995393799
 31
0.0
  0
LINE
  5
284
330
1E
100
AcDbEntity
  8
0
100
AcDbLine
 10
127.8143653750229
 20
114.7078995393799
 30
0.0
 11
128.33000487468
 21
116.147439747751
 31
0.0
  0
LINE
  5
285
330
1E
100
AcDbEntity
  8
0
100
AcDbLine
 10
140.9546499999999
 20
106.812
 30
0.0
 11
143.23665
 21
105.34
 31
0.0
  0
LINE
  5
286
330
1E
100
AcDbEntity
  8
0
100
AcDbLine
 10
141.33165
 20
106.692
 30
0.0
 11
143.4916499999999
 21
105.2589999999999
 31
0.0
  0
LINE
  5
287
330
1E
100
AcDbEntity
  8
0
100
AcDbLine
 10
136.5326499999999
 20
110.434
 30
0.0
 11
139.03265
 21
108.7779999999999
 31
0.0
  0
LINE
  5
288
330
1E
100
AcDbEntity
  8
0
100
AcDbLine
 10
136.73265
 20
110.4589999999999
 30
0.0
 11
139.33265
 21
108.737
 31
0.0
  0
LINE
  5
289
330
1E
100
AcDbEntity
  8
0
100
AcDbLine
 10
141.0326499999999
 20
106.9978804402199
 30
0.0
 11
141.0326499999999
 21
174.0
 31
0.0
  0
LINE
  5
28A
330
1E
100
AcDbEntity
  8
0
100
AcDbLine
 10
139.03265
 20
108.7779999999999
 30
0.0
 11
140.9546499999999
 21
106.812
 31
0.0
  0
LINE
  5
28B
330
1E
100
AcDbEntity
  8
0
100
AcDbLine
 10
139.33265
 20
108.737
 30
0.0
 11
141.33165
 21
106.692
 31
0.0
  0
LINE
  5
28C
330
1E
100
AcDbEntity
  8
0
100
AcDbLine
 10
137.9326499999999
 20
108.737
 30
0.0
 11
139.63265
 21
106.935
 31
0.0
  0
LINE
  5
28E
330
1E
100
AcDbEntity
  8
0
100
AcDbLine
 10
139.63265
 20
106.935
 30
0.0
 11
140.63265
 21
104.8869999999999
 31
0.0
  0
LINE
  5
28F
330
1E
100
AcDbEntity
  8
0
100
AcDbLine
 10
135.73265
 20
110.1289999999999
 30
0.0
 11
137.9326499999999
 21
108.737
 31
0.0
  0
LINE
  5
290
330
1E
100
AcDbEntity
  8
0
100
AcDbLine
 10
134.52265
 20
112.4779999999999
 30
0.0
 11
136.5326499999999
 21
110.434
 31
0.0
  0
LINE
  5
291
330
1E
100
AcDbEntity
  8
0
100
AcDbLine
 10
134.84565
 20
112.342
 30
0.0
 11
136.73265
 21
110.4589999999999
 31
0.0
  0
LINE
  5
292
330
1E
100
AcDbEntity
  8
0
100
AcDbLine
 10
133.23265
 20
110.949
 30
0.0
 11
135.73265
 21
110.1289999999999
 31
0.0
  0
LINE
  5
293
330
1E
100
AcDbEntity
  8
0
100
AcDbLine
 10
130.5326499999999
 20
111.276
 30
0.0
 11
133.23265
 21
110.949
 31
0.0
  0
LINE
  5
294
330
1E
100
AcDbEntity
  8
0
100
AcDbLine
 10
132.67865
 20
114.9259999999999
 30
0.0
 11
134.52265
 21
112.4779999999999
 31
0.0
  0
LINE
  5
295
330
1E
100
AcDbEntity
  8
0
100
AcDbLine
 10
133.2509346249765
 20
114.7078995393811
 30
0.0
 11
134.84565
 21
112.342
 31
0.0
  0
LINE
  5
296
330
1E
100
AcDbEntity
  8
0
100
AcDbLine
 10
143.23665
 20
105.34
 30
0.0
 11
145.9906499999999
 21
104.022
 31
0.0
  0
LINE
  5
297
330
1E
100
AcDbEntity
  8
0
100
AcDbLine
 10
128.38665
 20
114.9259999999999
 30
0.0
 11
129.4326499999999
 21
118.132
 31
0.0
  0
LINE
  5
298
330
1E
100
AcDbEntity
  8
0
100
AcDbLine
 10
128.33000487468
 20
116.1474397477499
 30
0.0
 11
128.5326499999999
 21
118.361
 31
0.0
  0
LINE
  5
299
330
1E
100
AcDbEntity
  8
0
100
AcDbLine
 10
128.5326499999999
 20
118.361
 30
0.0
 11
128.73265
 21
121.7489999999999
 31
0.0
  0
LINE
  5
29A
330
1E
100
AcDbEntity
  8
0
100
AcDbLine
 10
128.73265
 20
121.7489999999999
 30
0.0
 11
128.73265
 21
121.665
 31
0.0
  0
LINE
  5
29B
330
1E
100
AcDbEntity
  8
0
100
AcDbLine
 10
128.73265
 20
121.665
 30
0.0
 11
128.73265
 21
121.7489999999999
 31
0.0
  0
LINE
  5
29D
330
1E
100
AcDbEntity
  8
0
100
AcDbLine
 10
128.963419230769
 20
122.9397692307699
 30
0.0
 11
129.23265
 21
124.4269999999999
 31
0.0
  0
LINE
  5
2A2
330
1E
100
AcDbEntity
  8
0
100
AcDbLine
 10
120.03265
 20
174.0
 30
0.0
 11
120.03265
 21
106.9978804402199
 31
0.0
  0
LINE
  5
2A3
330
1E
100
AcDbEntity
  8
0
100
AcDbLine
 10
120.82265
 20
222.7899999999999
 30
0.0
 11
126.77365
 21
216.005
 31
0.0
  0
LINE
  5
2A4
330
1E
100
AcDbEntity
  8
0
100
AcDbLine
 10
126.77365
 20
216.005
 30
0.0
 11
131.7886499999999
 21
208.4999999999999
 31
0.0
  0
LINE
  5
2A5
330
1E
100
AcDbEntity
  8
0
100
AcDbLine
 10
129.23265
 20
124.4269999999999
 30
0.0
 11
129.73265
 21
124.8779999999999
 31
0.0
  0
LINE
  5
2A7
330
1E
100
AcDbEntity
  8
0
100
AcDbLine
 10
129.73265
 20
121.662
 30
0.0
 11
129.73265
 21
123.285
 31
0.0
  0
LINE
  5
2A8
330
1E
100
AcDbEntity
  8
0
100
AcDbLine
 10
129.73265
 20
123.285
 30
0.0
 11
129.73265
 21
121.662
 31
0.0
  0
LINE
  5
2A9
330
1E
100
AcDbEntity
  8
0
100
AcDbLine
 10
129.73265
 20
123.285
 30
0.0
 11
129.73265
 21
124.2939999999999
 31
0.0
  0
LINE
  5
2AA
330
1E
100
AcDbEntity
  8
0
100
AcDbLine
 10
129.73265
 20
124.2939999999999
 30
0.0
 11
129.73265
 21
123.285
 31
0.0
  0
LINE
  5
2AB
330
1E
100
AcDbEntity
  8
0
100
AcDbLine
 10
129.73265
 20
124.2939999999999
 30
0.0
 11
129.73265
 21
124.7839999999999
 31
0.0
  0
LINE
  5
2AC
330
1E
100
AcDbEntity
  8
0
100
AcDbLine
 10
131.63265
 20
118.132
 30
0.0
 11
132.67865
 21
114.9259999999999
 31
0.0
  0
LINE
  5
2AE
330
1E
100
AcDbEntity
  8
0
100
AcDbLine
 10
132.7352951253199
 20
116.147439747751
 30
0.0
 11
133.2509346249769
 21
114.7078995393799
 31
0.0
  0
LINE
  5
2AF
330
1E
100
AcDbEntity
  8
0
100
AcDbLine
 10
131.33265
 20
123.285
 30
0.0
 11
131.33265
 21
124.2939999999999
 31
0.0
  0
LINE
  5
2B0
330
1E
100
AcDbEntity
  8
0
100
AcDbLine
 10
131.33265
 20
123.285
 30
0.0
 11
131.33265
 21
121.662
 31
0.0
  0
LINE
  5
2B1
330
1E
100
AcDbEntity
  8
0
100
AcDbLine
 10
131.33265
 20
124.2939999999999
 30
0.0
 11
131.33265
 21
124.7839999999999
 31
0.0
  0
LINE
  5
2B2
330
1E
100
AcDbEntity
  8
0
100
AcDbLine
 10
131.33265
 20
124.2939999999999
 30
0.0
 11
131.33265
 21
123.285
 31
0.0
  0
LINE
  5
2B3
330
1E
100
AcDbEntity
  8
0
100
AcDbLine
 10
131.33265
 20
124.7839999999999
 30
0.0
 11
131.33265
 21
124.8779999999999
 31
0.0
  0
LINE
  5
2B4
330
1E
100
AcDbEntity
  8
0
100
AcDbLine
 10
131.33265
 20
124.7839999999999
 30
0.0
 11
131.33265
 21
124.2939999999999
 31
0.0
  0
LINE
  5
2B5
330
1E
100
AcDbEntity
  8
0
100
AcDbLine
 10
131.33265
 20
124.8779999999999
 30
0.0
 11
131.8326499999999
 21
124.4269999999999
 31
0.0
  0
LINE
  5
2B6
330
1E
100
AcDbEntity
  8
0
100
AcDbLine
 10
131.33265
 20
124.8779999999999
 30
0.0
 11
131.33265
 21
124.7839999999999
 31
0.0
  0
LINE
  5
2B7
330
1E
100
AcDbEntity
  8
0
100
AcDbLine
 10
130.5326499999999
 20
124.855
 30
0.0
 11
131.33265
 21
124.8779999999999
 31
0.0
  0
LINE
  5
2B9
330
1E
100
AcDbEntity
  8
0
100
AcDbLine
 10
132.33265
 20
121.7489999999999
 30
0.0
 11
132.5326499999999
 21
118.361
 31
0.0
  0
LINE
  5
2BC
330
1E
100
AcDbEntity
  8
0
100
AcDbLine
 10
131.8326499999999
 20
124.4269999999999
 30
0.0
 11
132.1018807692309
 21
122.9397692307699
 31
0.0
  0
LINE
  5
2C0
330
1E
100
AcDbEntity
  8
0
100
AcDbLine
 10
131.33265
 20
121.662
 30
0.0
 11
131.63265
 21
118.132
 31
0.0
  0
LINE
  5
2C1
330
1E
100
AcDbEntity
  8
0
100
AcDbLine
 10
131.33265
 20
121.662
 30
0.0
 11
131.33265
 21
123.285
 31
0.0
  0
LINE
  5
2C2
330
1E
100
AcDbEntity
  8
0
100
AcDbLine
 10
132.5326499999999
 20
118.361
 30
0.0
 11
132.7352951253199
 21
116.1474397477499
 31
0.0
  0
LINE
  5
2C3
330
1E
100
AcDbEntity
  8
0
100
AcDbLine
 10
129.73265
 20
124.7839999999999
 30
0.0
 11
129.73265
 21
124.2939999999999
 31
0.0
  0
LINE
  5
2C4
330
1E
100
AcDbEntity
  8
0
100
AcDbLine
 10
129.73265
 20
124.7839999999999
 30
0.0
 11
129.73265
 21
124.8779999999999
 31
0.0
  0
LINE
  5
2C5
330
1E
100
AcDbEntity
  8
0
100
AcDbLine
 10
138.6816499999999
 20
191.859
 30
0.0
 11
140.4426499999999
 21
183.0059999999999
 31
0.0
  0
LINE
  5
2C6
330
1E
100
AcDbEntity
  8
0
100
AcDbLine
 10
140.4426499999999
 20
183.0059999999999
 30
0.0
 11
141.0326499999999
 21
174.0
 31
0.0
  0
LINE
  5
2C7
330
1E
100
AcDbEntity
  8
0
100
AcDbLine
 10
135.78065
 20
200.4049999999999
 30
0.0
 11
138.6816499999999
 21
191.859
 31
0.0
  0
LINE
  5
2C8
330
1E
100
AcDbEntity
  8
0
100
AcDbLine
 10
131.7886499999999
 20
208.4999999999999
 30
0.0
 11
135.78065
 21
200.4049999999999
 31
0.0
  0
LINE
  5
2C9
330
1E
100
AcDbEntity
  8
0
100
AcDbLine
 10
141.0326499999999
 20
174.0
 30
0.0
 11
141.0326499999999
 21
106.9978804402199
 31
0.0
  0
LINE
  5
2CA
330
1E
100
AcDbEntity
  8
0
100
AcDbLine
 10
129.73265
 20
124.8779999999999
 30
0.0
 11
130.5326499999999
 21
124.855
 31
0.0
  0
LINE
  5
2CB
330
1E
100
AcDbEntity
  8
0
100
AcDbLine
 10
129.73265
 20
124.8779999999999
 30
0.0
 11
129.73265
 21
124.7839999999999
 31
0.0
  0
LINE
  5
2CC
330
1E
100
AcDbEntity
  8
0
100
AcDbLine
 10
129.4326499999999
 20
118.132
 30
0.0
 11
129.73265
 21
121.662
 31
0.0
  0
LINE
  5
2CE
330
1E
100
AcDbEntity
  8
0
100
AcDbLine
 10
119.73365
 20
106.692
 30
0.0
 11
120.03265
 21
106.9978804402199
 31
0.0
  0
LINE
  5
2CF
330
1E
100
AcDbEntity
  8
0
100
AcDbLine
 10
119.73365
 20
106.692
 30
0.0
 11
121.73265
 21
108.737
 31
0.0
  0
LINE
  5
2D0
330
1E
100
AcDbEntity
  8
0
100
AcDbLine
 10
117.5736499999999
 20
105.2589999999999
 30
0.0
 11
119.73365
 21
106.692
 31
0.0
  0
LINE
  5
2D1
330
1E
100
AcDbEntity
  8
0
100
AcDbLine
 10
115.03265
 20
76.7975823529412
 30
0.0
 11
115.03265
 21
79.41030000000001
 31
0.0
  0
LINE
  5
2D2
330
1E
100
AcDbEntity
  8
0
100
AcDbLine
 10
114.1326499999999
 20
75.01949999999999
 30
0.0
 11
115.03265
 21
76.7975823529412
 31
0.0
  0
LINE
  5
2D3
330
1E
100
AcDbEntity
  8
0
100
AcDbLine
 10
113.53265
 20
71.4153
 30
0.0
 11
114.1326499999999
 21
67.81100000000001
 31
0.0
  0
LINE
  5
2D4
330
1E
100
AcDbEntity
  8
0
100
AcDbLine
 10
113.53265
 20
71.4153
 30
0.0
 11
114.1326499999999
 21
75.01949999999999
 31
0.0
  0
LINE
  5
2D9
330
1E
100
AcDbEntity
  8
0
100
AcDbLine
 10
145.5326499999999
 20
28.6907247775306
 30
0.0
 11
145.5276652230909
 21
18.7327622056672
 31
0.0
  0
LINE
  5
2DA
330
1E
100
AcDbEntity
  8
0
100
AcDbLine
 10
128.963419230769
 20
122.9397692307699
 30
0.0
 11
128.73265
 21
121.7489999999999
 31
0.0
  0
LINE
  5
2DB
330
1E
100
AcDbEntity
  8
0
100
AcDbLine
 10
132.1018807692309
 20
122.9397692307699
 30
0.0
 11
132.33265
 21
121.7489999999999
 31
0.0
  0
ENDSEC
  0
SECTION
  2
OBJECTS
  0
DICTIONARY
  5
C
330
0
100
AcDbDictionary
281
     1
  3
ACAD_GROUP
350
D
  3
ACAD_LAYOUT
350
19
  3
ACAD_MLINESTYLE
350
16
  3
ACAD_PLOTSETTINGS
350
18
  3
ACAD_PLOTSTYLENAME
350
E
  3
AcDbVariableDictionary
350
2DC
  0
DICTIONARY
  5
D
102
{ACAD_REACTORS
330
C
102
}
330
C
100
AcDbDictionary
281
     1
  0
DICTIONARY
  5
19
102
{ACAD_REACTORS
330
C
102
}
330
C
100
AcDbDictionary
281
     1
  3
Layout1
350
1D
  3
Model
350
21
  0
DICTIONARY
  5
16
102
{ACAD_REACTORS
330
C
102
}
330
C
100
AcDbDictionary
281
     1
  3
Standard
350
17
  0
DICTIONARY
  5
18
102
{ACAD_REACTORS
330
C
102
}
330
C
100
AcDbDictionary
281
     1
  0
ACDBDICTIONARYWDFLT
  5
E
102
{ACAD_REACTORS
330
C
102
}
330
C
100
AcDbDictionary
281
     1
  3
Normal
350
F
100
AcDbDictionaryWithDefault
340
F
  0
DICTIONARY
  5
2DC
102
{ACAD_REACTORS
330
C
102
}
330
C
100
AcDbDictionary
281
     1
  3
DIMASSOC
350
2DD
  0
LAYOUT
  5
1D
102
{ACAD_REACTORS
330
19
102
}
330
19
100
AcDbPlotSettings
  1

  2
hp deskjet 980c series
  4

  6

 40
0.0
 41
0.0
 42
0.0
 43
0.0
 44
0.0
 45
0.0
 46
0.0
 47
0.0
 48
0.0
 49
0.0
140
0.0
141
0.0
142
1.0
143
1.0
 70
   688
 72
     0
 73
     0
 74
     5
  7

 75
    16
147
1.0
148
0.0
149
0.0
100
AcDbLayout
  1
Layout1
 70
     1
 71
     1
 10
0.0
 20
0.0
 11
12.0
 21
9.0
 12
0.0
 22
0.0
 32
0.0
 14
1.000000000000000E+20
 24
1.000000000000000E+20
 34
1.000000000000000E+20
 15
-1.000000000000000E+20
 25
-1.000000000000000E+20
 35
-1.000000000000000E+20
146
0.0
 13
0.0
 23
0.0
 33
0.0
 16
1.0
 26
0.0
 36
0.0
 17
0.0
 27
1.0
 37
0.0
 76
     0
330
1A
  0
LAYOUT
  5
21
102
{ACAD_REACTORS
330
19
102
}
330
19
100
AcDbPlotSettings
  1

  2
hp deskjet 980c series
  4

  6

 40
0.0
 41
0.0
 42
0.0
 43
0.0
 44
0.0
 45
0.0
 46
0.0
 47
0.0
 48
0.0
 49
0.0
140
0.0
141
0.0
142
1.0
143
1.0
 70
  1712
 72
     0
 73
     0
 74
     0
  7

 75
     0
147
1.0
148
0.0
149
0.0
100
AcDbLayout
  1
Model
 70
     1
 71
     0
 10
0.0
 20
0.0
 11
12.0
 21
9.0
 12
0.0
 22
0.0
 32
0.0
 14
0.0
 24
0.0
 34
0.0
 15
0.0
 25
0.0
 35
0.0
146
0.0
 13
0.0
 23
0.0
 33
0.0
 16
1.0
 26
0.0
 36
0.0
 17
0.0
 27
1.0
 37
0.0
 76
     0
330
1E
  0
MLINESTYLE
  5
17
102
{ACAD_REACTORS
330
16
102
}
330
16
100
AcDbMlineStyle
  2
STANDARD
 70
     0
  3

 62
   256
 51
90.0
 52
90.0
 71
     2
 49
0.5
 62
   256
  6
BYLAYER
 49
-0.5
 62
   256
  6
BYLAYER
  0
ACDBPLACEHOLDER
  5
F
102
{ACAD_REACTORS
330
E
102
}
330
E
  0
DICTIONARYVAR
  5
2DD
102
{ACAD_REACTORS
330
2DC
102
}
330
2DC
100
DictionaryVariables
280
     0
  1
1
  0
ENDSEC
  0
EOF
