  0
SECTION
  2
HEADER
  9
$ACADVER
  1
AC1015
  9
$ACADMAINTVER
 70
    13
  9
$DWGCODEPAGE
  3
ANSI_1252
  9
$INSBASE
 10
0.0
 20
0.0
 30
0.0
  9
$EXTMIN
 10
-0.18826899999999
 20
0.217571999999988
 30
0.0
  9
$EXTMAX
 10
175.1882689999999
 20
193.782428
 30
0.0
  9
$LIMMIN
 10
0.0
 20
0.0
  9
$LIMMAX
 10
12.0
 20
9.0
  9
$ORTHOMODE
 70
     0
  9
$REGENMODE
 70
     1
  9
$FILLMODE
 70
     1
  9
$QTEXTMODE
 70
     0
  9
$MIRRTEXT
 70
     1
  9
$LTSCALE
 40
1.0
  9
$ATTMODE
 70
     1
  9
$TEXTSIZE
 40
0.2
  9
$TRACEWID
 40
0.05
  9
$TEXTSTYLE
  7
Standard
  9
$CLAYER
  8
0
  9
$CELTYPE
  6
Continuous
  9
$CECOLOR
 62
   256
  9
$CELTSCALE
 40
1.0
  9
$DISPSILH
 70
     0
  9
$DIMSCALE
 40
1.0
  9
$DIMASZ
 40
0.18
  9
$DIMEXO
 40
0.0625
  9
$DIMDLI
 40
0.38
  9
$DIMRND
 40
0.0
  9
$DIMDLE
 40
0.0
  9
$DIMEXE
 40
0.18
  9
$DIMTP
 40
0.0
  9
$DIMTM
 40
0.0
  9
$DIMTXT
 40
0.18
  9
$DIMCEN
 40
0.09
  9
$DIMTSZ
 40
0.0
  9
$DIMTOL
 70
     0
  9
$DIMLIM
 70
     0
  9
$DIMTIH
 70
     1
  9
$DIMTOH
 70
     1
  9
$DIMSE1
 70
     0
  9
$DIMSE2
 70
     0
  9
$DIMTAD
 70
     0
  9
$DIMZIN
 70
     0
  9
$DIMBLK
  1

  9
$DIMASO
 70
     1
  9
$DIMSHO
 70
     1
  9
$DIMPOST
  1

  9
$DIMAPOST
  1

  9
$DIMALT
 70
     0
  9
$DIMALTD
 70
     2
  9
$DIMALTF
 40
25.4
  9
$DIMLFAC
 40
1.0
  9
$DIMTOFL
 70
     0
  9
$DIMTVP
 40
0.0
  9
$DIMTIX
 70
     0
  9
$DIMSOXD
 70
     0
  9
$DIMSAH
 70
     0
  9
$DIMBLK1
  1

  9
$DIMBLK2
  1

  9
$DIMSTYLE
  2
Standard
  9
$DIMCLRD
 70
     0
  9
$DIMCLRE
 70
     0
  9
$DIMCLRT
 70
     0
  9
$DIMTFAC
 40
1.0
  9
$DIMGAP
 40
0.09
  9
$DIMJUST
 70
     0
  9
$DIMSD1
 70
     0
  9
$DIMSD2
 70
     0
  9
$DIMTOLJ
 70
     1
  9
$DIMTZIN
 70
     0
  9
$DIMALTZ
 70
     0
  9
$DIMALTTZ
 70
     0
  9
$DIMUPT
 70
     0
  9
$DIMDEC
 70
     4
  9
$DIMTDEC
 70
     4
  9
$DIMALTU
 70
     2
  9
$DIMALTTD
 70
     2
  9
$DIMTXSTY
  7
Standard
  9
$DIMAUNIT
 70
     0
  9
$DIMADEC
 70
     0
  9
$DIMALTRND
 40
0.0
  9
$DIMAZIN
 70
     0
  9
$DIMDSEP
 70
    46
  9
$DIMATFIT
 70
     3
  9
$DIMFRAC
 70
     0
  9
$DIMLDRBLK
  1

  9
$DIMLUNIT
 70
     2
  9
$DIMLWD
 70
    -2
  9
$DIMLWE
 70
    -2
  9
$DIMTMOVE
 70
     0
  9
$LUNITS
 70
     2
  9
$LUPREC
 70
     4
  9
$SKETCHINC
 40
0.1
  9
$FILLETRAD
 40
0.0
  9
$AUNITS
 70
     0
  9
$AUPREC
 70
     0
  9
$MENU
  1
.
  9
$ELEVATION
 40
0.0
  9
$PELEVATION
 40
0.0
  9
$THICKNESS
 40
0.0
  9
$LIMCHECK
 70
     0
  9
$CHAMFERA
 40
0.0
  9
$CHAMFERB
 40
0.0
  9
$CHAMFERC
 40
0.0
  9
$CHAMFERD
 40
0.0
  9
$SKPOLY
 70
     0
  9
$TDCREATE
 40
2454750.854003356
  9
$TDUCREATE
 40
2454750.770670023
  9
$TDUPDATE
 40
2454750.855998263
  9
$TDUUPDATE
 40
2454750.772664930
  9
$TDINDWG
 40
0.0019949074
  9
$TDUSRTIMER
 40
0.0019949074
  9
$USRTIMER
 70
     1
  9
$ANGBASE
 50
0.0
  9
$ANGDIR
 70
     0
  9
$PDMODE
 70
     0
  9
$PDSIZE
 40
0.0
  9
$PLINEWID
 40
0.0
  9
$SPLFRAME
 70
     0
  9
$SPLINETYPE
 70
     6
  9
$SPLINESEGS
 70
     8
  9
$HANDSEED
  5
1C5
  9
$SURFTAB1
 70
     6
  9
$SURFTAB2
 70
     6
  9
$SURFTYPE
 70
     6
  9
$SURFU
 70
     6
  9
$SURFV
 70
     6
  9
$UCSBASE
  2

  9
$UCSNAME
  2

  9
$UCSORG
 10
0.0
 20
0.0
 30
0.0
  9
$UCSXDIR
 10
1.0
 20
0.0
 30
0.0
  9
$UCSYDIR
 10
0.0
 20
1.0
 30
0.0
  9
$UCSORTHOREF
  2

  9
$UCSORTHOVIEW
 70
     1
  9
$UCSORGTOP
 10
0.0
 20
0.0
 30
0.0
  9
$UCSORGBOTTOM
 10
0.0
 20
0.0
 30
0.0
  9
$UCSORGLEFT
 10
0.0
 20
0.0
 30
0.0
  9
$UCSORGRIGHT
 10
0.0
 20
0.0
 30
0.0
  9
$UCSORGFRONT
 10
0.0
 20
0.0
 30
0.0
  9
$UCSORGBACK
 10
0.0
 20
0.0
 30
0.0
  9
$PUCSBASE
  2

  9
$PUCSNAME
  2

  9
$PUCSORG
 10
0.0
 20
0.0
 30
0.0
  9
$PUCSXDIR
 10
1.0
 20
0.0
 30
0.0
  9
$PUCSYDIR
 10
0.0
 20
1.0
 30
0.0
  9
$PUCSORTHOREF
  2

  9
$PUCSORTHOVIEW
 70
     0
  9
$PUCSORGTOP
 10
0.0
 20
0.0
 30
0.0
  9
$PUCSORGBOTTOM
 10
0.0
 20
0.0
 30
0.0
  9
$PUCSORGLEFT
 10
0.0
 20
0.0
 30
0.0
  9
$PUCSORGRIGHT
 10
0.0
 20
0.0
 30
0.0
  9
$PUCSORGFRONT
 10
0.0
 20
0.0
 30
0.0
  9
$PUCSORGBACK
 10
0.0
 20
0.0
 30
0.0
  9
$USERI1
 70
     0
  9
$USERI2
 70
     0
  9
$USERI3
 70
     0
  9
$USERI4
 70
     0
  9
$USERI5
 70
     0
  9
$USERR1
 40
0.0
  9
$USERR2
 40
0.0
  9
$USERR3
 40
0.0
  9
$USERR4
 40
0.0
  9
$USERR5
 40
0.0
  9
$WORLDVIEW
 70
     1
  9
$SHADEDGE
 70
     3
  9
$SHADEDIF
 70
    70
  9
$TILEMODE
 70
     1
  9
$MAXACTVP
 70
    64
  9
$PINSBASE
 10
0.0
 20
0.0
 30
0.0
  9
$PLIMCHECK
 70
     0
  9
$PEXTMIN
 10
1.000000000000000E+20
 20
1.000000000000000E+20
 30
1.000000000000000E+20
  9
$PEXTMAX
 10
-1.000000000000000E+20
 20
-1.000000000000000E+20
 30
-1.000000000000000E+20
  9
$PLIMMIN
 10
0.0
 20
0.0
  9
$PLIMMAX
 10
12.0
 20
9.0
  9
$UNITMODE
 70
     0
  9
$VISRETAIN
 70
     1
  9
$PLINEGEN
 70
     0
  9
$PSLTSCALE
 70
     1
  9
$TREEDEPTH
 70
  3020
  9
$CMLSTYLE
  2
Standard
  9
$CMLJUST
 70
     0
  9
$CMLSCALE
 40
1.0
  9
$PROXYGRAPHICS
 70
     1
  9
$MEASUREMENT
 70
     0
  9
$CELWEIGHT
370
    -1
  9
$ENDCAPS
280
     0
  9
$JOINSTYLE
280
     0
  9
$LWDISPLAY
290
     0
  9
$INSUNITS
 70
     0
  9
$HYPERLINKBASE
  1

  9
$STYLESHEET
  1

  9
$XEDIT
290
     1
  9
$CEPSNTYPE
380
     0
  9
$PSTYLEMODE
290
     1
  9
$FINGERPRINTGUID
  2
{C4BC88FC-C91D-4DBE-BD7D-54A24463C1CA}
  9
$VERSIONGUID
  2
{74D95E5F-7701-45D9-B415-02D4DB54CC8A}
  9
$EXTNAMES
290
     1
  9
$PSVPSCALE
 40
0.0
  9
$OLESTARTUP
290
     0
  0
ENDSEC
  0
SECTION
  2
CLASSES
  0
CLASS
  1
ACDBDICTIONARYWDFLT
  2
AcDbDictionaryWithDefault
  3
AutoCAD 2000
 90
        0
280
     0
281
     0
  0
CLASS
  1
ACDBPLACEHOLDER
  2
AcDbPlaceHolder
  3
AutoCAD 2000
 90
        0
280
     0
281
     0
  0
CLASS
  1
LAYOUT
  2
AcDbLayout
  3
AutoCAD 2000
 90
        0
280
     0
281
     0
  0
CLASS
  1
DICTIONARYVAR
  2
AcDbDictionaryVar
  3
AutoCAD 2000
 90
        0
280
     0
281
     0
  0
ENDSEC
  0
SECTION
  2
TABLES
  0
TABLE
  2
VPORT
  5
8
330
0
100
AcDbSymbolTable
 70
     2
  0
VPORT
  5
1C4
330
8
100
AcDbSymbolTableRecord
100
AcDbViewportTableRecord
  2
*Active
 70
     0
 10
0.0
 20
0.0
 11
1.0
 21
1.0
 12
87.5
 22
97.0
 13
0.0
 23
0.0
 14
1.0
 24
1.0
 15
0.0
 25
0.0
 16
0.0
 26
0.0
 36
1.0
 17
0.0
 27
0.0
 37
0.0
 40
195.0500083478261
 41
2.078104993597951
 42
50.0
 43
0.0
 44
0.0
 50
0.0
 51
0.0
 71
     0
 72
   100
 73
     1
 74
     3
 75
     0
 76
     0
 77
     0
 78
     0
281
     0
 65
     1
110
0.0
120
0.0
130
0.0
111
1.0
121
0.0
131
0.0
112
0.0
122
1.0
132
0.0
 79
     1
146
0.0
  0
ENDTAB
  0
TABLE
  2
LTYPE
  5
5
330
0
100
AcDbSymbolTable
 70
     1
  0
LTYPE
  5
13
330
5
100
AcDbSymbolTableRecord
100
AcDbLinetypeTableRecord
  2
ByBlock
 70
     0
  3

 72
    65
 73
     0
 40
0.0
  0
LTYPE
  5
14
330
5
100
AcDbSymbolTableRecord
100
AcDbLinetypeTableRecord
  2
ByLayer
 70
     0
  3

 72
    65
 73
     0
 40
0.0
  0
LTYPE
  5
15
330
5
100
AcDbSymbolTableRecord
100
AcDbLinetypeTableRecord
  2
Continuous
 70
     0
  3
Solid line
 72
    65
 73
     0
 40
0.0
  0
ENDTAB
  0
TABLE
  2
LAYER
  5
2
330
0
100
AcDbSymbolTable
 70
     1
  0
LAYER
  5
10
330
2
100
AcDbSymbolTableRecord
100
AcDbLayerTableRecord
  2
0
 70
     0
 62
     7
  6
Continuous
370
    -3
390
F
  0
ENDTAB
  0
TABLE
  2
STYLE
  5
3
330
0
100
AcDbSymbolTable
 70
     1
  0
STYLE
  5
11
330
3
100
AcDbSymbolTableRecord
100
AcDbTextStyleTableRecord
  2
Standard
 70
     0
 40
0.0
 41
1.0
 50
0.0
 71
     0
 42
0.2
  3
txt
  4

  0
ENDTAB
  0
TABLE
  2
VIEW
  5
6
330
0
100
AcDbSymbolTable
 70
     0
  0
ENDTAB
  0
TABLE
  2
UCS
  5
7
330
0
100
AcDbSymbolTable
 70
     0
  0
ENDTAB
  0
TABLE
  2
APPID
  5
9
330
0
100
AcDbSymbolTable
 70
     1
  0
APPID
  5
12
330
9
100
AcDbSymbolTableRecord
100
AcDbRegAppTableRecord
  2
ACAD
 70
     0
  0
ENDTAB
  0
TABLE
  2
DIMSTYLE
  5
A
330
0
100
AcDbSymbolTable
 70
     1
100
AcDbDimStyleTable
 71
     0
  0
DIMSTYLE
105
1BE
330
A
100
AcDbSymbolTableRecord
100
AcDbDimStyleTableRecord
  2
Standard
 70
     0
340
11
  0
ENDTAB
  0
TABLE
  2
BLOCK_RECORD
  5
1
330
0
100
AcDbSymbolTable
 70
     0
  0
BLOCK_RECORD
  5
1E
330
1
100
AcDbSymbolTableRecord
100
AcDbBlockTableRecord
  2
*Model_Space
340
21
  0
BLOCK_RECORD
  5
1A
330
1
100
AcDbSymbolTableRecord
100
AcDbBlockTableRecord
  2
*Paper_Space
340
1D
  0
ENDTAB
  0
ENDSEC
  0
SECTION
  2
BLOCKS
  0
BLOCK
  5
1F
330
1E
100
AcDbEntity
  8
0
100
AcDbBlockBegin
  2
*Model_Space
 70
     0
 10
0.0
 20
0.0
 30
0.0
  3
*Model_Space
  1

  0
ENDBLK
  5
20
330
1E
100
AcDbEntity
  8
0
100
AcDbBlockEnd
  0
BLOCK
  5
1B
330
1A
100
AcDbEntity
 67
     1
  8
0
100
AcDbBlockBegin
  2
*Paper_Space
 70
     0
 10
0.0
 20
0.0
 30
0.0
  3
*Paper_Space
  1

  0
ENDBLK
  5
1C
330
1A
100
AcDbEntity
 67
     1
  8
0
100
AcDbBlockEnd
  0
ENDSEC
  0
SECTION
  2
ENTITIES
  0
LINE
  5
22
330
1E
100
AcDbEntity
  8
0
100
AcDbLine
 10
48.81176899999999
 20
102.1084279999999
 30
0.0
 11
51.361769
 21
97.691528
 31
0.0
  0
LINE
  5
23
330
1E
100
AcDbEntity
  8
0
100
AcDbLine
 10
50.22876899999999
 20
98.65392800000002
 30
0.0
 11
51.128669
 21
97.095128
 31
0.0
  0
LINE
  5
24
330
1E
100
AcDbEntity
  8
0
100
AcDbLine
 10
50.45546899997679
 20
98.26123996803671
 30
0.0
 11
50.628669
 21
97.96112800000001
 31
0.0
  0
LINE
  5
25
330
1E
100
AcDbEntity
  8
0
100
AcDbLine
 10
37.8366689999111
 20
120.1175880001539
 30
0.0
 11
38.078669
 21
119.698428
 31
0.0
  0
LINE
  5
26
330
1E
100
AcDbEntity
  8
0
100
AcDbLine
 10
39.111769
 20
118.909428
 30
0.0
 11
44.56176899999999
 21
109.469428
 31
0.0
  0
LINE
  5
27
330
1E
100
AcDbEntity
  8
0
100
AcDbLine
 10
38.078669
 20
119.698428
 30
0.0
 11
43.278669
 21
110.691428
 31
0.0
  0
LINE
  5
28
330
1E
100
AcDbEntity
  8
0
100
AcDbLine
 10
7.561729000000009
 20
173.555428
 30
0.0
 11
13.011769
 21
164.115428
 31
0.0
  0
LINE
  5
29
330
1E
100
AcDbEntity
  8
0
100
AcDbLine
 10
-0.18826899999999
 20
186.978428
 30
0.0
 11
0.128718000000009
 21
185.4294279999999
 31
0.0
  0
LINE
  5
2A
330
1E
100
AcDbEntity
  8
0
100
AcDbLine
 10
-0.18826899999999
 20
186.978428
 30
0.0
 11
0.8607690000000099
 21
188.1614279999999
 31
0.0
  0
LINE
  5
2B
330
1E
100
AcDbEntity
  8
0
100
AcDbLine
 10
-0.18826899999999
 20
186.978428
 30
0.0
 11
0.128718000000009
 21
185.4294279999999
 31
0.0
  0
LINE
  5
2C
330
1E
100
AcDbEntity
  8
0
100
AcDbLine
 10
-0.18826899999999
 20
186.978428
 30
0.0
 11
0.7617290000000092
 21
185.333428
 31
0.0
  0
LINE
  5
2D
330
1E
100
AcDbEntity
  8
0
100
AcDbLine
 10
3.311729000000009
 20
180.916428
 30
0.0
 11
7.561729000000009
 21
173.555428
 31
0.0
  0
LINE
  5
2E
330
1E
100
AcDbEntity
  8
0
100
AcDbLine
 10
3.528719000000009
 20
179.5404279999999
 30
0.0
 11
7.628719000000009
 21
172.439428
 31
0.0
  0
LINE
  5
2F
330
1E
100
AcDbEntity
  8
0
100
AcDbLine
 10
0.7617290000000092
 20
185.333428
 30
0.0
 11
3.311729000000009
 21
180.916428
 31
0.0
  0
LINE
  5
30
330
1E
100
AcDbEntity
  8
0
100
AcDbLine
 10
0.76172900000001
 20
185.333428
 30
0.0
 11
3.311729000000009
 21
180.916428
 31
0.0
  0
LINE
  5
31
330
1E
100
AcDbEntity
  8
0
100
AcDbLine
 10
1.028719000000009
 20
183.8704279999999
 30
0.0
 11
3.528719000000009
 21
179.5404279999999
 31
0.0
  0
LINE
  5
32
330
1E
100
AcDbEntity
  8
0
100
AcDbLine
 10
0.128718000000009
 20
185.4294279999999
 30
0.0
 11
1.028719000000009
 21
183.8704279999999
 31
0.0
  0
LINE
  5
33
330
1E
100
AcDbEntity
  8
0
100
AcDbLine
 10
3.792819000000009
 20
187.083428
 30
0.0
 11
6.342819000000009
 21
182.6664279999999
 31
0.0
  0
LINE
  5
34
330
1E
100
AcDbEntity
  8
0
100
AcDbLine
 10
1.028719000000009
 20
183.8704279999999
 30
0.0
 11
3.528719000000009
 21
179.5404279999999
 31
0.0
  0
LINE
  5
35
330
1E
100
AcDbEntity
  8
0
100
AcDbLine
 10
7.425829000000009
 20
181.790428
 30
0.0
 11
11.52586899999999
 21
174.689428
 31
0.0
  0
LINE
  5
36
330
1E
100
AcDbEntity
  8
0
100
AcDbLine
 10
4.925829000000009
 20
186.120428
 30
0.0
 11
7.425829000000009
 21
181.790428
 31
0.0
  0
LINE
  5
37
330
1E
100
AcDbEntity
  8
0
100
AcDbLine
 10
6.342819000000009
 20
182.6664279999999
 30
0.0
 11
10.592869
 21
175.305428
 31
0.0
  0
LINE
  5
38
330
1E
100
AcDbEntity
  8
0
100
AcDbLine
 10
4.025829000000009
 20
187.679428
 30
0.0
 11
9.038969000000008
 21
189.996428
 31
0.0
  0
LINE
  5
39
330
1E
100
AcDbEntity
  8
0
100
AcDbLine
 10
4.025829000000009
 20
187.679428
 30
0.0
 11
4.925829000000009
 21
186.120428
 31
0.0
  0
LINE
  5
3A
330
1E
100
AcDbEntity
  8
0
100
AcDbLine
 10
1.29377900000001
 20
188.411428
 30
0.0
 11
2.842819000000009
 21
188.728428
 31
0.0
  0
LINE
  5
3B
330
1E
100
AcDbEntity
  8
0
100
AcDbLine
 10
2.842819000000009
 20
188.728428
 30
0.0
 11
4.025829000000009
 21
187.679428
 31
0.0
  0
LINE
  5
3C
330
1E
100
AcDbEntity
  8
0
100
AcDbLine
 10
2.842819000000009
 20
188.728428
 30
0.0
 11
3.792819000000009
 21
187.083428
 31
0.0
  0
LINE
  5
3D
330
1E
100
AcDbEntity
  8
0
100
AcDbLine
 10
1.29377900000001
 20
188.411428
 30
0.0
 11
2.842819000000009
 21
188.728428
 31
0.0
  0
LINE
  5
3E
330
1E
100
AcDbEntity
  8
0
100
AcDbLine
 10
0.8607690000000099
 20
188.1614279999999
 30
0.0
 11
1.29377900000001
 21
188.411428
 31
0.0
  0
LINE
  5
3F
330
1E
100
AcDbEntity
  8
0
100
AcDbLine
 10
0.128718000000009
 20
185.4294279999999
 30
0.0
 11
1.028719000000009
 21
183.8704279999999
 31
0.0
  0
LINE
  5
40
330
1E
100
AcDbEntity
  8
0
100
AcDbLine
 10
10.592869
 20
175.305428
 30
0.0
 11
16.04286899999999
 21
165.865428
 31
0.0
  0
LINE
  5
41
330
1E
100
AcDbEntity
  8
0
100
AcDbLine
 10
11.52586899999999
 20
174.689428
 30
0.0
 11
16.825869
 21
165.509428
 31
0.0
  0
LINE
  5
42
330
1E
100
AcDbEntity
  8
0
100
AcDbLine
 10
13.011769
 20
164.115428
 30
0.0
 11
19.311769
 21
153.2034279999999
 31
0.0
  0
LINE
  5
43
330
1E
100
AcDbEntity
  8
0
100
AcDbLine
 10
13.4206690005636
 20
162.4072679990239
 30
0.0
 11
19.228669
 21
152.347428
 31
0.0
  0
LINE
  5
44
330
1E
100
AcDbEntity
  8
0
100
AcDbLine
 10
13.4206690005636
 20
162.4072679990239
 30
0.0
 11
19.228669
 21
152.347428
 31
0.0
  0
LINE
  5
45
330
1E
100
AcDbEntity
  8
0
100
AcDbLine
 10
16.825869
 20
165.509428
 30
0.0
 11
22.975869
 21
154.8574279999999
 31
0.0
  0
LINE
  5
46
330
1E
100
AcDbEntity
  8
0
100
AcDbLine
 10
18.92106899999999
 20
176.8804279999999
 30
0.0
 11
23.971069
 21
168.133428
 31
0.0
  0
LINE
  5
47
330
1E
100
AcDbEntity
  8
0
100
AcDbLine
 10
17.937969
 20
177.5834279999999
 30
0.0
 11
23.137969
 21
168.5764279999999
 31
0.0
  0
LINE
  5
48
330
1E
100
AcDbEntity
  8
0
100
AcDbLine
 10
16.04286899999999
 20
165.865428
 30
0.0
 11
22.342869
 21
154.953428
 31
0.0
  0
LINE
  5
49
330
1E
100
AcDbEntity
  8
0
100
AcDbLine
 10
22.975869
 20
154.8574279999999
 30
0.0
 11
29.525869
 21
143.5124279999999
 31
0.0
  0
LINE
  5
4A
330
1E
100
AcDbEntity
  8
0
100
AcDbLine
 10
23.971069
 20
168.133428
 30
0.0
 11
29.771069
 21
158.087428
 31
0.0
  0
LINE
  5
4B
330
1E
100
AcDbEntity
  8
0
100
AcDbLine
 10
23.137969
 20
168.5764279999999
 30
0.0
 11
29.187969
 21
158.097428
 31
0.0
  0
LINE
  5
4C
330
1E
100
AcDbEntity
  8
0
100
AcDbLine
 10
22.342869
 20
154.953428
 30
0.0
 11
29.092869
 21
143.2624279999999
 31
0.0
  0
LINE
  5
4D
330
1E
100
AcDbEntity
  8
0
100
AcDbLine
 10
19.311769
 20
153.2034279999999
 30
0.0
 11
26.061769
 21
141.512428
 31
0.0
  0
LINE
  5
4E
330
1E
100
AcDbEntity
  8
0
100
AcDbLine
 10
23.484169
 20
179.9764279999999
 30
0.0
 11
28.58416899999999
 21
171.1434279999999
 31
0.0
  0
LINE
  5
4F
330
1E
100
AcDbEntity
  8
0
100
AcDbLine
 10
21.669069
 20
178.120428
 30
0.0
 11
26.669069
 21
169.460428
 31
0.0
  0
LINE
  5
50
330
1E
100
AcDbEntity
  8
0
100
AcDbLine
 10
15.021069
 20
183.6354279999999
 30
0.0
 11
18.92106899999999
 21
176.8804279999999
 31
0.0
  0
LINE
  5
51
330
1E
100
AcDbEntity
  8
0
100
AcDbLine
 10
19.58416899999999
 20
186.731428
 30
0.0
 11
23.484169
 21
179.9764279999999
 31
0.0
  0
LINE
  5
52
330
1E
100
AcDbEntity
  8
0
100
AcDbLine
 10
17.819069
 20
184.789428
 30
0.0
 11
21.669069
 21
178.120428
 31
0.0
  0
LINE
  5
53
330
1E
100
AcDbEntity
  8
0
100
AcDbLine
 10
15.469069
 20
188.859428
 30
0.0
 11
17.819069
 21
184.789428
 31
0.0
  0
LINE
  5
54
330
1E
100
AcDbEntity
  8
0
100
AcDbLine
 10
12.671069
 20
187.705428
 30
0.0
 11
15.021069
 21
183.6354279999999
 31
0.0
  0
LINE
  5
55
330
1E
100
AcDbEntity
  8
0
100
AcDbLine
 10
13.937969
 20
184.5114279999999
 30
0.0
 11
17.937969
 21
177.5834279999999
 31
0.0
  0
LINE
  5
56
330
1E
100
AcDbEntity
  8
0
100
AcDbLine
 10
11.487969
 20
188.754428
 30
0.0
 11
13.937969
 21
184.5114279999999
 31
0.0
  0
LINE
  5
57
330
1E
100
AcDbEntity
  8
0
100
AcDbLine
 10
11.771069
 20
189.264428
 30
0.0
 11
13.503069
 21
190.264428
 31
0.0
  0
LINE
  5
58
330
1E
100
AcDbEntity
  8
0
100
AcDbLine
 10
11.771069
 20
189.264428
 30
0.0
 11
12.671069
 21
187.705428
 31
0.0
  0
LINE
  5
59
330
1E
100
AcDbEntity
  8
0
100
AcDbLine
 10
9.038969000000008
 20
189.996428
 30
0.0
 11
10.587969
 21
190.313428
 31
0.0
  0
LINE
  5
5A
330
1E
100
AcDbEntity
  8
0
100
AcDbLine
 10
10.587969
 20
190.313428
 30
0.0
 11
11.771069
 21
189.264428
 31
0.0
  0
LINE
  5
5B
330
1E
100
AcDbEntity
  8
0
100
AcDbLine
 10
10.587969
 20
190.313428
 30
0.0
 11
11.487969
 21
188.754428
 31
0.0
  0
LINE
  5
5C
330
1E
100
AcDbEntity
  8
0
100
AcDbLine
 10
17.184169
 20
190.888428
 30
0.0
 11
19.58416899999999
 21
186.731428
 31
0.0
  0
LINE
  5
5D
330
1E
100
AcDbEntity
  8
0
100
AcDbLine
 10
19.632269
 20
192.648428
 30
0.0
 11
22.047269
 21
193.465428
 31
0.0
  0
LINE
  5
5E
330
1E
100
AcDbEntity
  8
0
100
AcDbLine
 10
24.96236899999999
 20
193.416428
 30
0.0
 11
26.145369
 21
192.367428
 31
0.0
  0
LINE
  5
5F
330
1E
100
AcDbEntity
  8
0
100
AcDbLine
 10
23.59636899999999
 20
193.782428
 30
0.0
 11
24.96236899999999
 21
193.416428
 31
0.0
  0
LINE
  5
60
330
1E
100
AcDbEntity
  8
0
100
AcDbLine
 10
22.047269
 20
193.465428
 30
0.0
 11
23.59636899999999
 21
193.782428
 31
0.0
  0
LINE
  5
61
330
1E
100
AcDbEntity
  8
0
100
AcDbLine
 10
17.833169
 20
192.764428
 30
0.0
 11
19.632269
 21
192.648428
 31
0.0
  0
LINE
  5
62
330
1E
100
AcDbEntity
  8
0
100
AcDbLine
 10
16.28416899999999
 20
192.447428
 30
0.0
 11
17.833169
 21
192.764428
 31
0.0
  0
LINE
  5
63
330
1E
100
AcDbEntity
  8
0
100
AcDbLine
 10
16.28416899999999
 20
192.447428
 30
0.0
 11
17.184169
 21
190.888428
 31
0.0
  0
LINE
  5
64
330
1E
100
AcDbEntity
  8
0
100
AcDbLine
 10
15.235169
 20
191.264428
 30
0.0
 11
16.28416899999999
 21
192.447428
 31
0.0
  0
LINE
  5
65
330
1E
100
AcDbEntity
  8
0
100
AcDbLine
 10
14.61906899999999
 20
190.331428
 30
0.0
 11
15.235169
 21
191.264428
 31
0.0
  0
LINE
  5
66
330
1E
100
AcDbEntity
  8
0
100
AcDbLine
 10
14.61906899999999
 20
190.331428
 30
0.0
 11
15.469069
 21
188.859428
 31
0.0
  0
LINE
  5
67
330
1E
100
AcDbEntity
  8
0
100
AcDbLine
 10
13.503069
 20
190.264428
 30
0.0
 11
14.61906899999999
 21
190.331428
 31
0.0
  0
LINE
  5
68
330
1E
100
AcDbEntity
  8
0
100
AcDbLine
 10
7.628719000000009
 20
172.439428
 30
0.0
 11
13.4206690005636
 21
162.4072679990239
 31
0.0
  0
LINE
  5
69
330
1E
100
AcDbEntity
  8
0
100
AcDbLine
 10
19.228669
 20
152.347428
 30
0.0
 11
25.62866899999999
 21
141.2624279999999
 31
0.0
  0
LINE
  5
6A
330
1E
100
AcDbEntity
  8
0
100
AcDbLine
 10
32.811769
 20
129.821428
 30
0.0
 11
39.111769
 21
118.909428
 31
0.0
  0
LINE
  5
6B
330
1E
100
AcDbEntity
  8
0
100
AcDbLine
 10
42.225869
 20
121.5154279999999
 30
0.0
 11
47.52586899999999
 21
112.335428
 31
0.0
  0
LINE
  5
6C
330
1E
100
AcDbEntity
  8
0
100
AcDbLine
 10
42.142869
 20
120.659428
 30
0.0
 11
47.592869
 21
111.219428
 31
0.0
  0
LINE
  5
6D
330
1E
100
AcDbEntity
  8
0
100
AcDbLine
 10
26.061769
 20
141.512428
 30
0.0
 11
32.811769
 21
129.821428
 31
0.0
  0
LINE
  5
6E
330
1E
100
AcDbEntity
  8
0
100
AcDbLine
 10
42.27106899999999
 20
136.437428
 30
0.0
 11
48.071069
 21
126.391428
 31
0.0
  0
LINE
  5
6F
330
1E
100
AcDbEntity
  8
0
100
AcDbLine
 10
41.987969
 20
135.9274279999999
 30
0.0
 11
48.037969
 21
125.448428
 31
0.0
  0
LINE
  5
70
330
1E
100
AcDbEntity
  8
0
100
AcDbLine
 10
36.07586899999999
 20
132.167428
 30
0.0
 11
42.225869
 21
121.5154279999999
 31
0.0
  0
LINE
  5
71
330
1E
100
AcDbEntity
  8
0
100
AcDbLine
 10
35.842869
 20
131.5714279999999
 30
0.0
 11
42.142869
 21
120.659428
 31
0.0
  0
LINE
  5
72
330
1E
100
AcDbEntity
  8
0
100
AcDbLine
 10
29.187969
 20
158.097428
 30
0.0
 11
35.587969
 21
147.012428
 31
0.0
  0
LINE
  5
73
330
1E
100
AcDbEntity
  8
0
100
AcDbLine
 10
28.58416899999999
 20
171.1434279999999
 30
0.0
 11
34.484169
 21
160.924428
 31
0.0
  0
LINE
  5
74
330
1E
100
AcDbEntity
  8
0
100
AcDbLine
 10
26.669069
 20
169.460428
 30
0.0
 11
32.46906899999999
 21
159.414428
 31
0.0
  0
LINE
  5
75
330
1E
100
AcDbEntity
  8
0
100
AcDbLine
 10
29.771069
 20
158.087428
 30
0.0
 11
36.02106899999999
 21
147.2624279999999
 31
0.0
  0
LINE
  5
76
330
1E
100
AcDbEntity
  8
0
100
AcDbLine
 10
34.484169
 20
160.924428
 30
0.0
 11
40.78416899999999
 21
150.012428
 31
0.0
  0
LINE
  5
77
330
1E
100
AcDbEntity
  8
0
100
AcDbLine
 10
32.46906899999999
 20
159.414428
 30
0.0
 11
38.619069
 21
148.762428
 31
0.0
  0
LINE
  5
78
330
1E
100
AcDbEntity
  8
0
100
AcDbLine
 10
40.78416899999999
 20
150.012428
 30
0.0
 11
47.084169
 21
139.1004279999999
 31
0.0
  0
LINE
  5
79
330
1E
100
AcDbEntity
  8
0
100
AcDbLine
 10
38.619069
 20
148.762428
 30
0.0
 11
44.769069
 21
138.110428
 31
0.0
  0
LINE
  5
7A
330
1E
100
AcDbEntity
  8
0
100
AcDbLine
 10
36.02106899999999
 20
147.2624279999999
 30
0.0
 11
42.27106899999999
 21
136.437428
 31
0.0
  0
LINE
  5
7B
330
1E
100
AcDbEntity
  8
0
100
AcDbLine
 10
35.587969
 20
147.012428
 30
0.0
 11
41.987969
 21
135.9274279999999
 31
0.0
  0
LINE
  5
7C
330
1E
100
AcDbEntity
  8
0
100
AcDbLine
 10
29.525869
 20
143.5124279999999
 30
0.0
 11
36.07586899999999
 21
132.167428
 31
0.0
  0
LINE
  5
7D
330
1E
100
AcDbEntity
  8
0
100
AcDbLine
 10
29.092869
 20
143.2624279999999
 30
0.0
 11
35.842869
 21
131.5714279999999
 31
0.0
  0
LINE
  5
7E
330
1E
100
AcDbEntity
  8
0
100
AcDbLine
 10
43.243469
 20
168.752428
 30
0.0
 11
45.54246899999999
 21
167.770428
 31
0.0
  0
LINE
  5
7F
330
1E
100
AcDbEntity
  8
0
100
AcDbLine
 10
36.37746899999999
 20
178.645428
 30
0.0
 11
43.243469
 21
168.752428
 31
0.0
  0
LINE
  5
80
330
1E
100
AcDbEntity
  8
0
100
AcDbLine
 10
26.145369
 20
192.367428
 30
0.0
 11
36.37746899999999
 21
178.645428
 31
0.0
  0
LINE
  5
81
330
1E
100
AcDbEntity
  8
0
100
AcDbLine
 10
32.178669
 20
129.917428
 30
0.0
 11
37.8366689999111
 21
120.1175880001539
 31
0.0
  0
LINE
  5
82
330
1E
100
AcDbEntity
  8
0
100
AcDbLine
 10
32.178669
 20
129.917428
 30
0.0
 11
37.8366689999111
 21
120.1175880001539
 31
0.0
  0
LINE
  5
83
330
1E
100
AcDbEntity
  8
0
100
AcDbLine
 10
32.178669
 20
129.917428
 30
0.0
 11
38.32866899999999
 21
119.2654279999999
 31
0.0
  0
LINE
  5
84
330
1E
100
AcDbEntity
  8
0
100
AcDbLine
 10
25.62866899999999
 20
141.2624279999999
 30
0.0
 11
32.178669
 21
129.917428
 31
0.0
  0
LINE
  5
85
330
1E
100
AcDbEntity
  8
0
100
AcDbLine
 10
37.8366689999111
 20
120.1175880001539
 30
0.0
 11
38.078669
 21
119.698428
 31
0.0
  0
LINE
  5
86
330
1E
100
AcDbEntity
  8
0
100
AcDbLine
 10
47.52586899999999
 20
112.335428
 30
0.0
 11
51.625869
 21
105.234428
 31
0.0
  0
LINE
  5
87
330
1E
100
AcDbEntity
  8
0
100
AcDbLine
 10
47.592869
 20
111.219428
 30
0.0
 11
51.842869
 21
103.858428
 31
0.0
  0
LINE
  5
88
330
1E
100
AcDbEntity
  8
0
100
AcDbLine
 10
44.56176899999999
 20
109.469428
 30
0.0
 11
48.81176899999999
 21
102.1084279999999
 31
0.0
  0
LINE
  5
89
330
1E
100
AcDbEntity
  8
0
100
AcDbLine
 10
47.084169
 20
139.1004279999999
 30
0.0
 11
52.98416899999999
 21
128.8814279999999
 31
0.0
  0
LINE
  5
8A
330
1E
100
AcDbEntity
  8
0
100
AcDbLine
 10
44.769069
 20
138.110428
 30
0.0
 11
50.569069
 21
128.0644279999999
 31
0.0
  0
LINE
  5
8B
330
1E
100
AcDbEntity
  8
0
100
AcDbLine
 10
50.569069
 20
128.0644279999999
 30
0.0
 11
55.56906899999999
 21
119.4044279999999
 31
0.0
  0
LINE
  5
8C
330
1E
100
AcDbEntity
  8
0
100
AcDbLine
 10
48.071069
 20
126.391428
 30
0.0
 11
53.12106899999999
 21
117.644428
 31
0.0
  0
LINE
  5
8D
330
1E
100
AcDbEntity
  8
0
100
AcDbLine
 10
48.037969
 20
125.448428
 30
0.0
 11
53.23796899999999
 21
116.441428
 31
0.0
  0
LINE
  5
8E
330
1E
100
AcDbEntity
  8
0
100
AcDbLine
 10
48.024569
 20
167.471428
 30
0.0
 11
52.421669
 21
168.8554279999999
 31
0.0
  0
LINE
  5
8F
330
1E
100
AcDbEntity
  8
0
100
AcDbLine
 10
45.54246899999999
 20
167.770428
 30
0.0
 11
48.024569
 21
167.471428
 31
0.0
  0
LINE
  5
90
330
1E
100
AcDbEntity
  8
0
100
AcDbLine
 10
43.278669
 20
110.691428
 30
0.0
 11
47.278669
 21
103.763428
 31
0.0
  0
LINE
  5
91
330
1E
100
AcDbEntity
  8
0
100
AcDbLine
 10
47.278669
 20
103.763428
 30
0.0
 11
50.22876899999999
 21
98.65392800000002
 31
0.0
  0
LINE
  5
92
330
1E
100
AcDbEntity
  8
0
100
AcDbLine
 10
153.850269
 20
9.17686799999999
 30
0.0
 11
154.9662689999999
 21
9.24384799999999
 31
0.0
  0
LINE
  5
95
330
1E
100
AcDbEntity
  8
0
100
AcDbLine
 10
161.5912689999999
 20
0.3675719999999891
 30
0.0
 11
162.2842689999999
 21
0.767567999999989
 31
0.0
  0
LINE
  5
96
330
1E
100
AcDbEntity
  8
0
100
AcDbLine
 10
161.5912689999999
 20
0.3675719999999891
 30
0.0
 11
162.2842689999999
 21
0.767567999999989
 31
0.0
  0
LINE
  5
97
330
1E
100
AcDbEntity
  8
0
100
AcDbLine
 10
163.4102689999999
 20
1.417567999999989
 30
0.0
 11
164.7962689999999
 21
2.21756799999999
 31
0.0
  0
LINE
  5
98
330
1E
100
AcDbEntity
  8
0
100
AcDbLine
 10
162.2842689999999
 20
0.767567999999989
 30
0.0
 11
163.4102689999999
 21
1.417567999999989
 31
0.0
  0
LINE
  5
99
330
1E
100
AcDbEntity
  8
0
100
AcDbLine
 10
161.3322689999999
 20
0.2175719999999889
 30
0.0
 11
161.5912689999999
 21
0.3675719999999891
 31
0.0
  0
LINE
  5
9B
330
1E
100
AcDbEntity
  8
0
100
AcDbLine
 10
150.8012689999999
 20
11.45792799999999
 30
0.0
 11
152.2342689999999
 21
9.97592799999999
 31
0.0
  0
LINE
  5
9C
330
1E
100
AcDbEntity
  8
0
100
AcDbLine
 10
152.2342689999999
 20
9.97592799999999
 30
0.0
 11
153.850269
 21
9.17686799999999
 31
0.0
  0
LINE
  5
A3
330
1E
100
AcDbEntity
  8
0
100
AcDbLine
 10
155.8322689999999
 20
9.743827999999989
 30
0.0
 11
161.3322689999999
 21
0.2175719999999889
 31
0.0
  0
LINE
  5
A4
330
1E
100
AcDbEntity
  8
0
100
AcDbLine
 10
155.8322689999999
 20
9.743827999999989
 30
0.0
 11
155.9195886098279
 21
9.794399202602939
 31
0.0
  0
LINE
  5
A5
330
1E
100
AcDbEntity
  8
0
100
AcDbLine
 10
155.8322689999999
 20
9.743827999999989
 30
0.0
 11
161.3322689999999
 21
0.217571999999988
 31
0.0
  0
LINE
  5
A6
330
1E
100
AcDbEntity
  8
0
100
AcDbLine
 10
164.7962689999999
 20
2.21756799999999
 30
0.0
 11
166.4412689999999
 21
3.16756799999999
 31
0.0
  0
LINE
  5
A7
330
1E
100
AcDbEntity
  8
0
100
AcDbLine
 10
147.685269
 20
14.85502799999999
 30
0.0
 11
147.7522689999999
 21
13.73902799999999
 31
0.0
  0
LINE
  5
A8
330
1E
100
AcDbEntity
  8
0
100
AcDbLine
 10
147.685269
 20
14.85502799999999
 30
0.0
 11
148.3012689999999
 21
15.788128
 31
0.0
  0
LINE
  5
AA
330
1E
100
AcDbEntity
  8
0
100
AcDbLine
 10
148.3012689999999
 20
15.788128
 30
0.0
 11
148.647269
 21
15.988128
 31
0.0
  0
LINE
  5
AB
330
1E
100
AcDbEntity
  8
0
100
AcDbLine
 10
149.2242689999999
 20
14.58902799999999
 30
0.0
 11
151.042269
 21
15.639028
 31
0.0
  0
LINE
  5
AC
330
1E
100
AcDbEntity
  8
0
100
AcDbLine
 10
148.185269
 20
13.989028
 30
0.0
 11
149.2242689999999
 21
14.58902799999999
 31
0.0
  0
LINE
  5
AD
330
1E
100
AcDbEntity
  8
0
100
AcDbLine
 10
147.7522689999999
 20
13.73902799999999
 30
0.0
 11
148.685269
 21
13.123028
 31
0.0
  0
LINE
  5
AE
330
1E
100
AcDbEntity
  8
0
100
AcDbLine
 10
147.7522689999999
 20
13.73902799999999
 30
0.0
 11
148.185269
 21
13.989028
 31
0.0
  0
LINE
  5
AF
330
1E
100
AcDbEntity
  8
0
100
AcDbLine
 10
148.685269
 20
13.123028
 30
0.0
 11
149.8012689999999
 21
13.190028
 31
0.0
  0
LINE
  5
B1
330
1E
100
AcDbEntity
  8
0
100
AcDbLine
 10
151.1002689999999
 20
13.94002799999999
 30
0.0
 11
152.745269
 21
14.89002799999999
 31
0.0
  0
LINE
  5
B2
330
1E
100
AcDbEntity
  8
0
100
AcDbLine
 10
150.1472689999999
 20
13.390028
 30
0.0
 11
151.1002689999999
 21
13.94002799999999
 31
0.0
  0
LINE
  5
B3
330
1E
100
AcDbEntity
  8
0
100
AcDbLine
 10
151.042269
 20
15.639028
 30
0.0
 11
153.3812689999999
 21
16.989028
 31
0.0
  0
LINE
  5
B6
330
1E
100
AcDbEntity
  8
0
100
AcDbLine
 10
152.745269
 20
14.89002799999999
 30
0.0
 11
159.7602689999999
 21
18.940028
 31
0.0
  0
LINE
  5
B8
330
1E
100
AcDbEntity
  8
0
100
AcDbLine
 10
149.8012689999999
 20
13.190028
 30
0.0
 11
150.8012689999999
 21
11.45792799999999
 31
0.0
  0
LINE
  5
B9
330
1E
100
AcDbEntity
  8
0
100
AcDbLine
 10
149.8012689999999
 20
13.190028
 30
0.0
 11
150.1472689999999
 21
13.390028
 31
0.0
  0
LINE
  5
BB
330
1E
100
AcDbEntity
  8
0
100
AcDbLine
 10
166.4412689999999
 20
3.16756799999999
 30
0.0
 11
168.2602689999999
 21
4.21756799999999
 31
0.0
  0
LINE
  5
BC
330
1E
100
AcDbEntity
  8
0
100
AcDbLine
 10
149.600269
 20
16.538128
 30
0.0
 11
151.245269
 21
17.488128
 31
0.0
  0
LINE
  5
BD
330
1E
100
AcDbEntity
  8
0
100
AcDbLine
 10
148.647269
 20
15.988128
 30
0.0
 11
149.600269
 21
16.538128
 31
0.0
  0
LINE
  5
BE
330
1E
100
AcDbEntity
  8
0
100
AcDbLine
 10
153.3812689999999
 20
16.989028
 30
0.0
 11
156.1522689999999
 21
18.589028
 31
0.0
  0
LINE
  5
C1
330
1E
100
AcDbEntity
  8
0
100
AcDbLine
 10
151.245269
 20
17.488128
 30
0.0
 11
153.3242689999999
 21
18.68812799999999
 31
0.0
  0
LINE
  5
C2
330
1E
100
AcDbEntity
  8
0
100
AcDbLine
 10
153.3242689999999
 20
18.68812799999999
 30
0.0
 11
155.6622689999999
 21
20.03812799999999
 31
0.0
  0
LINE
  5
C3
330
1E
100
AcDbEntity
  8
0
100
AcDbLine
 10
155.6622689999999
 20
20.03812799999999
 30
0.0
 11
158.2602689999999
 21
21.538128
 31
0.0
  0
LINE
  5
C5
330
1E
100
AcDbEntity
  8
0
100
AcDbLine
 10
156.1522689999999
 20
18.589028
 30
0.0
 11
159.0102689999999
 21
20.239028
 31
0.0
  0
LINE
  5
C7
330
1E
100
AcDbEntity
  8
0
100
AcDbLine
 10
159.0102689999999
 20
20.239028
 30
0.0
 11
161.8682689999999
 21
21.889028
 31
0.0
  0
LINE
  5
C9
330
1E
100
AcDbEntity
  8
0
100
AcDbLine
 10
162.358269
 20
20.440028
 30
0.0
 11
164.696269
 21
21.790028
 31
0.0
  0
LINE
  5
CA
330
1E
100
AcDbEntity
  8
0
100
AcDbLine
 10
159.7602689999999
 20
18.940028
 30
0.0
 11
162.358269
 21
20.440028
 31
0.0
  0
LINE
  5
CB
330
1E
100
AcDbEntity
  8
0
100
AcDbLine
 10
164.6392689999999
 20
23.489028
 30
0.0
 11
166.977269
 21
24.839028
 31
0.0
  0
LINE
  5
CC
330
1E
100
AcDbEntity
  8
0
100
AcDbLine
 10
161.8682689999999
 20
21.889028
 30
0.0
 11
164.6392689999999
 21
23.489028
 31
0.0
  0
LINE
  5
CD
330
1E
100
AcDbEntity
  8
0
100
AcDbLine
 10
164.696269
 20
21.790028
 30
0.0
 11
166.7752689999999
 21
22.99002799999999
 31
0.0
  0
LINE
  5
CE
330
1E
100
AcDbEntity
  8
0
100
AcDbLine
 10
163.1962689999999
 20
24.388128
 30
0.0
 11
165.2752689999999
 21
25.588128
 31
0.0
  0
LINE
  5
CF
330
1E
100
AcDbEntity
  8
0
100
AcDbLine
 10
160.858269
 20
23.038128
 30
0.0
 11
163.1962689999999
 21
24.388128
 31
0.0
  0
LINE
  5
D0
330
1E
100
AcDbEntity
  8
0
100
AcDbLine
 10
158.2602689999999
 20
21.538128
 30
0.0
 11
160.858269
 21
23.038128
 31
0.0
  0
LINE
  5
D1
330
1E
100
AcDbEntity
  8
0
100
AcDbLine
 10
166.7752689999999
 20
22.99002799999999
 30
0.0
 11
168.420269
 21
23.940028
 31
0.0
  0
LINE
  5
D2
330
1E
100
AcDbEntity
  8
0
100
AcDbLine
 10
165.2752689999999
 20
25.588128
 30
0.0
 11
166.9202689999999
 21
26.538128
 31
0.0
  0
LINE
  5
D3
330
1E
100
AcDbEntity
  8
0
100
AcDbLine
 10
166.977269
 20
24.839028
 30
0.0
 11
168.7962689999999
 21
25.889028
 31
0.0
  0
LINE
  5
D4
330
1E
100
AcDbEntity
  8
0
100
AcDbLine
 10
166.9202689999999
 20
26.538128
 30
0.0
 11
167.8732689999999
 21
27.088128
 31
0.0
  0
LINE
  5
D5
330
1E
100
AcDbEntity
  8
0
100
AcDbLine
 10
167.8732689999999
 20
27.088128
 30
0.0
 11
168.2192689999999
 21
27.288128
 31
0.0
  0
LINE
  5
D8
330
1E
100
AcDbEntity
  8
0
100
AcDbLine
 10
141.0022689999999
 20
25.430428
 30
0.0
 11
148.3012689999999
 21
15.788128
 31
0.0
  0
LINE
  5
DA
330
1E
100
AcDbEntity
  8
0
100
AcDbLine
 10
168.420269
 20
23.940028
 30
0.0
 11
169.373269
 21
24.490028
 31
0.0
  0
LINE
  5
DC
330
1E
100
AcDbEntity
  8
0
100
AcDbLine
 10
168.7962689999999
 20
25.889028
 30
0.0
 11
169.8352689999999
 21
26.489028
 31
0.0
  0
LINE
  5
DD
330
1E
100
AcDbEntity
  8
0
100
AcDbLine
 10
169.373269
 20
24.490028
 30
0.0
 11
169.719269
 21
24.690028
 31
0.0
  0
LINE
  5
DE
330
1E
100
AcDbEntity
  8
0
100
AcDbLine
 10
154.9662689999999
 20
9.24384799999999
 30
0.0
 11
170.2942689999999
 21
18.09382799999999
 31
0.0
  0
LINE
  5
DF
330
1E
100
AcDbEntity
  8
0
100
AcDbLine
 10
168.2602689999999
 20
4.21756799999999
 30
0.0
 11
170.078269
 21
5.26756799999999
 31
0.0
  0
LINE
  5
E0
330
1E
100
AcDbEntity
  8
0
100
AcDbLine
 10
168.2192689999999
 20
27.288128
 30
0.0
 11
169.3352689999999
 21
27.355028
 31
0.0
  0
LINE
  5
E1
330
1E
100
AcDbEntity
  8
0
100
AcDbLine
 10
122.2692689999999
 20
53.875228
 30
0.0
 11
128.952269
 21
43.299928
 31
0.0
  0
LINE
  5
E2
330
1E
100
AcDbEntity
  8
0
100
AcDbLine
 10
128.952269
 20
43.299928
 30
0.0
 11
141.0022689999999
 21
25.430428
 31
0.0
  0
LINE
  5
E3
330
1E
100
AcDbEntity
  8
0
100
AcDbLine
 10
101.1852689999999
 20
95.39542800000001
 30
0.0
 11
102.3012689999999
 21
95.46242799999999
 31
0.0
  0
LINE
  5
E5
330
1E
100
AcDbEntity
  8
0
100
AcDbLine
 10
141.5672689999999
 20
79.450528
 30
0.0
 11
148.250269
 21
68.87522800000001
 31
0.0
  0
LINE
  5
E6
330
1E
100
AcDbEntity
  8
0
100
AcDbLine
 10
116.452269
 20
64.950528
 30
0.0
 11
122.2692689999999
 21
53.875228
 31
0.0
  0
LINE
  5
E7
330
1E
100
AcDbEntity
  8
0
100
AcDbLine
 10
107.002269
 20
84.320128
 30
0.0
 11
116.452269
 21
64.950528
 31
0.0
  0
LINE
  5
E8
330
1E
100
AcDbEntity
  8
0
100
AcDbLine
 10
100.6852689999999
 20
96.26142800000001
 30
0.0
 11
101.724269
 21
96.861428
 31
0.0
  0
LINE
  5
E9
330
1E
100
AcDbEntity
  8
0
100
AcDbLine
 10
103.6002689999999
 20
96.212428
 30
0.0
 11
105.2452689999999
 21
97.16242800000001
 31
0.0
  0
LINE
  5
EA
330
1E
100
AcDbEntity
  8
0
100
AcDbLine
 10
102.6472689999999
 20
95.66242800000001
 30
0.0
 11
103.6002689999999
 21
96.212428
 31
0.0
  0
LINE
  5
EB
330
1E
100
AcDbEntity
  8
0
100
AcDbLine
 10
100.2522689999999
 20
96.01142800000001
 30
0.0
 11
101.1852689999999
 21
95.39542800000001
 31
0.0
  0
LINE
  5
EC
330
1E
100
AcDbEntity
  8
0
100
AcDbLine
 10
100.2522689999999
 20
96.01142800000001
 30
0.0
 11
100.6852689999999
 21
96.26142800000001
 31
0.0
  0
LINE
  5
ED
330
1E
100
AcDbEntity
  8
0
100
AcDbLine
 10
102.3012689999999
 20
95.46242799999999
 30
0.0
 11
107.002269
 21
84.320128
 31
0.0
  0
LINE
  5
EE
330
1E
100
AcDbEntity
  8
0
100
AcDbLine
 10
102.3012689999999
 20
95.46242799999999
 30
0.0
 11
102.6472689999999
 21
95.66242800000001
 31
0.0
  0
LINE
  5
EF
330
1E
100
AcDbEntity
  8
0
100
AcDbLine
 10
148.250269
 20
68.87522800000001
 30
0.0
 11
154.0672689999999
 21
57.799928
 31
0.0
  0
LINE
  5
F0
330
1E
100
AcDbEntity
  8
0
100
AcDbLine
 10
154.0672689999999
 20
57.799928
 30
0.0
 11
163.518269
 21
38.430428
 31
0.0
  0
LINE
  5
F1
330
1E
100
AcDbEntity
  8
0
100
AcDbLine
 10
163.518269
 20
38.430428
 30
0.0
 11
168.2192689999999
 21
27.288128
 31
0.0
  0
LINE
  5
F2
330
1E
100
AcDbEntity
  8
0
100
AcDbLine
 10
169.3352689999999
 20
27.355028
 30
0.0
 11
170.268269
 21
26.739028
 31
0.0
  0
LINE
  5
F3
330
1E
100
AcDbEntity
  8
0
100
AcDbLine
 10
170.078269
 20
5.26756799999999
 30
0.0
 11
171.7242689999999
 21
6.21756799999999
 31
0.0
  0
LINE
  5
F4
330
1E
100
AcDbEntity
  8
0
100
AcDbLine
 10
171.7242689999999
 20
6.21756799999999
 30
0.0
 11
173.1102689999999
 21
7.01756799999999
 31
0.0
  0
LINE
  5
F5
330
1E
100
AcDbEntity
  8
0
100
AcDbLine
 10
169.8352689999999
 20
26.489028
 30
0.0
 11
170.268269
 21
26.739028
 31
0.0
  0
LINE
  5
F7
330
1E
100
AcDbEntity
  8
0
100
AcDbLine
 10
170.268269
 20
26.739028
 30
0.0
 11
170.3352689999999
 21
25.623028
 31
0.0
  0
LINE
  5
F8
330
1E
100
AcDbEntity
  8
0
100
AcDbLine
 10
169.719269
 20
24.690028
 30
0.0
 11
170.719269
 21
22.957928
 31
0.0
  0
LINE
  5
F9
330
1E
100
AcDbEntity
  8
0
100
AcDbLine
 10
169.719269
 20
24.690028
 30
0.0
 11
170.3352689999999
 21
25.623028
 31
0.0
  0
LINE
  5
FA
330
1E
100
AcDbEntity
  8
0
100
AcDbLine
 10
174.2352689999999
 20
7.66756799999999
 30
0.0
 11
174.928269
 21
8.06756799999999
 31
0.0
  0
LINE
  5
FB
330
1E
100
AcDbEntity
  8
0
100
AcDbLine
 10
174.928269
 20
8.06756799999999
 30
0.0
 11
175.1882689999999
 21
8.217567999999991
 31
0.0
  0
LINE
  5
FC
330
1E
100
AcDbEntity
  8
0
100
AcDbLine
 10
170.719269
 20
22.957928
 30
0.0
 11
171.286269
 21
20.975928
 31
0.0
  0
LINE
  5
FD
330
1E
100
AcDbEntity
  8
0
100
AcDbLine
 10
171.1702689999999
 20
19.176828
 30
0.0
 11
171.286269
 21
20.975928
 31
0.0
  0
LINE
  5
FE
330
1E
100
AcDbEntity
  8
0
100
AcDbLine
 10
170.554269
 20
18.243828
 30
0.0
 11
171.1702689999999
 21
19.176828
 31
0.0
  0
LINE
  5
FF
330
1E
100
AcDbEntity
  8
0
100
AcDbLine
 10
173.1102689999999
 20
7.01756799999999
 30
0.0
 11
174.2352689999999
 21
7.66756799999999
 31
0.0
  0
LINE
  5
100
330
1E
100
AcDbEntity
  8
0
100
AcDbLine
 10
169.688296789128
 20
17.7437798679171
 30
0.0
 11
175.1882689999999
 21
8.217567999999991
 31
0.0
  0
LINE
  5
101
330
1E
100
AcDbEntity
  8
0
100
AcDbLine
 10
169.688296789128
 20
17.7437798679171
 30
0.0
 11
170.554269
 21
18.243828
 31
0.0
  0
LINE
  5
102
330
1E
100
AcDbEntity
  8
0
100
AcDbLine
 10
101.724269
 20
96.861428
 30
0.0
 11
103.5422689999999
 21
97.91142800000001
 31
0.0
  0
LINE
  5
103
330
1E
100
AcDbEntity
  8
0
100
AcDbLine
 10
54.293769
 20
96.61302800000001
 30
0.0
 11
55.34286899999999
 21
97.79602800000001
 31
0.0
  0
LINE
  5
104
330
1E
100
AcDbEntity
  8
0
100
AcDbLine
 10
53.86076899999999
 20
96.36302800000001
 30
0.0
 11
54.293769
 21
96.61302800000001
 31
0.0
  0
LINE
  5
105
330
1E
100
AcDbEntity
  8
0
100
AcDbLine
 10
52.311769
 20
96.04602800000002
 30
0.0
 11
53.86076899999999
 21
96.36302800000001
 31
0.0
  0
LINE
  5
106
330
1E
100
AcDbEntity
  8
0
100
AcDbLine
 10
51.625869
 20
105.234428
 30
0.0
 11
54.12586899999999
 21
100.9044279999999
 31
0.0
  0
LINE
  5
107
330
1E
100
AcDbEntity
  8
0
100
AcDbLine
 10
51.842869
 20
103.858428
 30
0.0
 11
54.39286899999999
 21
99.44142800000001
 31
0.0
  0
LINE
  5
108
330
1E
100
AcDbEntity
  8
0
100
AcDbLine
 10
51.361769
 20
97.691528
 30
0.0
 11
52.311769
 21
96.04602800000002
 31
0.0
  0
LINE
  5
109
330
1E
100
AcDbEntity
  8
0
100
AcDbLine
 10
53.93766899999999
 20
168.229428
 30
0.0
 11
54.43766899999999
 21
167.3634279999999
 31
0.0
  0
LINE
  5
10A
330
1E
100
AcDbEntity
  8
0
100
AcDbLine
 10
53.78766899999999
 20
168.4894279999999
 30
0.0
 11
53.93766899999999
 21
168.229428
 31
0.0
  0
LINE
  5
10B
330
1E
100
AcDbEntity
  8
0
100
AcDbLine
 10
53.12106899999999
 20
117.644428
 30
0.0
 11
57.021069
 21
110.889428
 31
0.0
  0
LINE
  5
10C
330
1E
100
AcDbEntity
  8
0
100
AcDbLine
 10
53.23796899999999
 20
116.441428
 30
0.0
 11
57.23796899999999
 21
109.513428
 31
0.0
  0
LINE
  5
10D
330
1E
100
AcDbEntity
  8
0
100
AcDbLine
 10
54.68766899999999
 20
166.930428
 30
0.0
 11
55.08766899999999
 21
166.2384279999999
 31
0.0
  0
LINE
  5
10E
330
1E
100
AcDbEntity
  8
0
100
AcDbLine
 10
54.53766899999999
 20
167.1904279999999
 30
0.0
 11
60.56716899999999
 21
169.688428
 31
0.0
  0
LINE
  5
10F
330
1E
100
AcDbEntity
  8
0
100
AcDbLine
 10
54.53766899999999
 20
167.1904279999999
 30
0.0
 11
54.68766899999999
 21
166.930428
 31
0.0
  0
LINE
  5
110
330
1E
100
AcDbEntity
  8
0
100
AcDbLine
 10
54.43766899999999
 20
167.3634279999999
 30
0.0
 11
55.18766899999999
 21
166.0644279999999
 31
0.0
  0
LINE
  5
111
330
1E
100
AcDbEntity
  8
0
100
AcDbLine
 10
54.12586899999999
 20
100.9044279999999
 30
0.0
 11
55.02586899999999
 21
99.345128
 31
0.0
  0
LINE
  5
112
330
1E
100
AcDbEntity
  8
0
100
AcDbLine
 10
54.39286899999999
 20
99.44142800000001
 30
0.0
 11
55.34286899999999
 21
97.79602800000001
 31
0.0
  0
LINE
  5
113
330
1E
100
AcDbEntity
  8
0
100
AcDbLine
 10
52.98416899999999
 20
128.8814279999999
 30
0.0
 11
58.084169
 21
120.0474279999999
 31
0.0
  0
LINE
  5
114
330
1E
100
AcDbEntity
  8
0
100
AcDbLine
 10
52.421669
 20
168.8554279999999
 30
0.0
 11
53.78766899999999
 21
168.4894279999999
 31
0.0
  0
LINE
  5
115
330
1E
100
AcDbEntity
  8
0
100
AcDbLine
 10
101.1472689999999
 20
98.26052800000001
 30
0.0
 11
102.1002689999999
 21
98.810528
 31
0.0
  0
LINE
  5
116
330
1E
100
AcDbEntity
  8
0
100
AcDbLine
 10
100.8012689999999
 20
98.06052800000001
 30
0.0
 11
101.1472689999999
 21
98.26052800000001
 31
0.0
  0
LINE
  5
117
330
1E
100
AcDbEntity
  8
0
100
AcDbLine
 10
103.5422689999999
 20
97.91142800000001
 30
0.0
 11
105.8812689999999
 21
99.261428
 31
0.0
  0
LINE
  5
118
330
1E
100
AcDbEntity
  8
0
100
AcDbLine
 10
105.2452689999999
 20
97.16242800000001
 30
0.0
 11
107.3232689999999
 21
98.362428
 31
0.0
  0
LINE
  5
119
330
1E
100
AcDbEntity
  8
0
100
AcDbLine
 10
102.1002689999999
 20
98.810528
 30
0.0
 11
103.7452689999999
 21
99.76042800000001
 31
0.0
  0
LINE
  5
11A
330
1E
100
AcDbEntity
  8
0
100
AcDbLine
 10
103.7452689999999
 20
99.76042800000001
 30
0.0
 11
105.823269
 21
100.960428
 31
0.0
  0
LINE
  5
11C
330
1E
100
AcDbEntity
  8
0
100
AcDbLine
 10
105.8812689999999
 20
99.261428
 30
0.0
 11
108.652269
 21
100.8614279999999
 31
0.0
  0
LINE
  5
11D
330
1E
100
AcDbEntity
  8
0
100
AcDbLine
 10
108.652269
 20
100.8614279999999
 30
0.0
 11
111.510269
 21
102.511428
 31
0.0
  0
LINE
  5
11E
330
1E
100
AcDbEntity
  8
0
100
AcDbLine
 10
105.823269
 20
100.960428
 30
0.0
 11
108.1622689999999
 21
102.310428
 31
0.0
  0
LINE
  5
11F
330
1E
100
AcDbEntity
  8
0
100
AcDbLine
 10
107.3232689999999
 20
98.362428
 30
0.0
 11
109.662269
 21
99.712428
 31
0.0
  0
LINE
  5
121
330
1E
100
AcDbEntity
  8
0
100
AcDbLine
 10
112.2602689999999
 20
101.212428
 30
0.0
 11
114.858269
 21
102.712428
 31
0.0
  0
LINE
  5
122
330
1E
100
AcDbEntity
  8
0
100
AcDbLine
 10
109.662269
 20
99.712428
 30
0.0
 11
112.2602689999999
 21
101.212428
 31
0.0
  0
LINE
  5
123
330
1E
100
AcDbEntity
  8
0
100
AcDbLine
 10
100.1852689999999
 20
97.127528
 30
0.0
 11
100.8012689999999
 21
98.06052800000001
 31
0.0
  0
LINE
  5
124
330
1E
100
AcDbEntity
  8
0
100
AcDbLine
 10
100.1852689999999
 20
97.127528
 30
0.0
 11
100.2522689999999
 21
96.01142800000001
 31
0.0
  0
LINE
  5
126
330
1E
100
AcDbEntity
  8
0
100
AcDbLine
 10
99.801269
 20
99.79242800000001
 30
0.0
 11
100.8012689999999
 21
98.06052800000001
 31
0.0
  0
LINE
  5
127
330
1E
100
AcDbEntity
  8
0
100
AcDbLine
 10
111.510269
 20
102.511428
 30
0.0
 11
114.368269
 21
104.161428
 31
0.0
  0
LINE
  5
129
330
1E
100
AcDbEntity
  8
0
100
AcDbLine
 10
108.1622689999999
 20
102.310428
 30
0.0
 11
110.760269
 21
103.8104279999999
 31
0.0
  0
LINE
  5
12A
330
1E
100
AcDbEntity
  8
0
100
AcDbLine
 10
99.233869
 20
101.774428
 30
0.0
 11
99.349869
 21
103.573428
 31
0.0
  0
LINE
  5
12B
330
1E
100
AcDbEntity
  8
0
100
AcDbLine
 10
99.233869
 20
101.774428
 30
0.0
 11
99.801269
 21
99.79242800000001
 31
0.0
  0
LINE
  5
12C
330
1E
100
AcDbEntity
  8
0
100
AcDbLine
 10
129.518269
 20
97.32012799999999
 30
0.0
 11
141.5672689999999
 21
79.450528
 31
0.0
  0
LINE
  5
12D
330
1E
100
AcDbEntity
  8
0
100
AcDbLine
 10
57.021069
 20
110.889428
 30
0.0
 11
59.37106899999999
 21
106.8194279999999
 31
0.0
  0
LINE
  5
12E
330
1E
100
AcDbEntity
  8
0
100
AcDbLine
 10
59.37106899999999
 20
106.8194279999999
 30
0.0
 11
60.27106899999999
 21
105.260428
 31
0.0
  0
LINE
  5
12F
330
1E
100
AcDbEntity
  8
0
100
AcDbLine
 10
57.23796899999999
 20
109.513428
 30
0.0
 11
59.687969
 21
105.270428
 31
0.0
  0
LINE
  5
130
330
1E
100
AcDbEntity
  8
0
100
AcDbLine
 10
58.084169
 20
120.0474279999999
 30
0.0
 11
61.98416899999999
 21
113.292428
 31
0.0
  0
LINE
  5
131
330
1E
100
AcDbEntity
  8
0
100
AcDbLine
 10
55.56906899999999
 20
119.4044279999999
 30
0.0
 11
59.41906899999999
 21
112.735428
 31
0.0
  0
LINE
  5
132
330
1E
100
AcDbEntity
  8
0
100
AcDbLine
 10
59.687969
 20
105.270428
 30
0.0
 11
60.58796899999999
 21
103.7114279999999
 31
0.0
  0
LINE
  5
133
330
1E
100
AcDbEntity
  8
0
100
AcDbLine
 10
59.41906899999999
 20
112.735428
 30
0.0
 11
61.76906899999999
 21
108.665428
 31
0.0
  0
LINE
  5
134
330
1E
100
AcDbEntity
  8
0
100
AcDbLine
 10
56.53766899999999
 20
163.726428
 30
0.0
 11
57.48766899999999
 21
162.081428
 31
0.0
  0
LINE
  5
135
330
1E
100
AcDbEntity
  8
0
100
AcDbLine
 10
57.48766899999999
 20
162.081428
 30
0.0
 11
58.537669
 21
160.262428
 31
0.0
  0
LINE
  5
136
330
1E
100
AcDbEntity
  8
0
100
AcDbLine
 10
58.537669
 20
160.262428
 30
0.0
 11
59.737669
 21
158.184428
 31
0.0
  0
LINE
  5
137
330
1E
100
AcDbEntity
  8
0
100
AcDbLine
 10
57.33766899999999
 20
162.340428
 30
0.0
 11
58.537669
 21
160.262428
 31
0.0
  0
LINE
  5
138
330
1E
100
AcDbEntity
  8
0
100
AcDbLine
 10
55.08766899999999
 20
166.2384279999999
 30
0.0
 11
55.73766899999999
 21
165.1124279999999
 31
0.0
  0
LINE
  5
139
330
1E
100
AcDbEntity
  8
0
100
AcDbLine
 10
55.73766899999999
 20
165.1124279999999
 30
0.0
 11
56.53766899999999
 21
163.726428
 31
0.0
  0
LINE
  5
13A
330
1E
100
AcDbEntity
  8
0
100
AcDbLine
 10
55.18766899999999
 20
166.0644279999999
 30
0.0
 11
56.18766899999999
 21
164.3324279999999
 31
0.0
  0
LINE
  5
13B
330
1E
100
AcDbEntity
  8
0
100
AcDbLine
 10
56.18766899999999
 20
164.3324279999999
 30
0.0
 11
57.33766899999999
 21
162.340428
 31
0.0
  0
LINE
  5
13C
330
1E
100
AcDbEntity
  8
0
100
AcDbLine
 10
59.737669
 20
158.184428
 30
0.0
 11
60.88766899999999
 21
156.192428
 31
0.0
  0
LINE
  5
13D
330
1E
100
AcDbEntity
  8
0
100
AcDbLine
 10
59.52456899999999
 20
147.5534279999999
 30
0.0
 11
62.92166899999999
 21
150.669428
 31
0.0
  0
LINE
  5
13E
330
1E
100
AcDbEntity
  8
0
100
AcDbLine
 10
58.54246899999999
 20
145.2544279999999
 30
0.0
 11
59.52456899999999
 21
147.5534279999999
 31
0.0
  0
LINE
  5
13F
330
1E
100
AcDbEntity
  8
0
100
AcDbLine
 10
58.243469
 20
142.7724279999999
 30
0.0
 11
63.37746899999999
 21
131.8794279999999
 31
0.0
  0
LINE
  5
140
330
1E
100
AcDbEntity
  8
0
100
AcDbLine
 10
58.243469
 20
142.7724279999999
 30
0.0
 11
58.54246899999999
 21
145.2544279999999
 31
0.0
  0
LINE
  5
141
330
1E
100
AcDbEntity
  8
0
100
AcDbLine
 10
99.349869
 20
103.573428
 30
0.0
 11
99.966269
 21
104.506428
 31
0.0
  0
LINE
  5
142
330
1E
100
AcDbEntity
  8
0
100
AcDbLine
 10
114.368269
 20
104.161428
 30
0.0
 11
117.139269
 21
105.761428
 31
0.0
  0
LINE
  5
144
330
1E
100
AcDbEntity
  8
0
100
AcDbLine
 10
110.760269
 20
103.8104279999999
 30
0.0
 11
113.3582689999999
 21
105.310428
 31
0.0
  0
LINE
  5
146
330
1E
100
AcDbEntity
  8
0
100
AcDbLine
 10
117.139269
 20
105.761428
 30
0.0
 11
119.4772689999999
 21
107.1114279999999
 31
0.0
  0
LINE
  5
147
330
1E
100
AcDbEntity
  8
0
100
AcDbLine
 10
113.3582689999999
 20
105.310428
 30
0.0
 11
115.696269
 21
106.6604279999999
 31
0.0
  0
LINE
  5
14C
330
1E
100
AcDbEntity
  8
0
100
AcDbLine
 10
119.275269
 20
105.262428
 30
0.0
 11
120.9202689999999
 21
106.212428
 31
0.0
  0
LINE
  5
14D
330
1E
100
AcDbEntity
  8
0
100
AcDbLine
 10
120.9202689999999
 20
106.212428
 30
0.0
 11
121.8732689999999
 21
106.7624279999999
 31
0.0
  0
LINE
  5
14E
330
1E
100
AcDbEntity
  8
0
100
AcDbLine
 10
117.1962689999999
 20
104.062428
 30
0.0
 11
119.275269
 21
105.262428
 31
0.0
  0
LINE
  5
14F
330
1E
100
AcDbEntity
  8
0
100
AcDbLine
 10
114.858269
 20
102.712428
 30
0.0
 11
117.1962689999999
 21
104.062428
 31
0.0
  0
LINE
  5
150
330
1E
100
AcDbEntity
  8
0
100
AcDbLine
 10
99.966269
 20
104.506428
 30
0.0
 11
100.2252689999999
 21
104.656428
 31
0.0
  0
LINE
  5
151
330
1E
100
AcDbEntity
  8
0
100
AcDbLine
 10
61.887669
 20
154.460428
 30
0.0
 11
62.637669
 21
153.161428
 31
0.0
  0
LINE
  5
152
330
1E
100
AcDbEntity
  8
0
100
AcDbLine
 10
60.56716899999999
 20
169.688428
 30
0.0
 11
67.03766899999999
 21
170.5404279999999
 31
0.0
  0
LINE
  5
153
330
1E
100
AcDbEntity
  8
0
100
AcDbLine
 10
60.88766899999999
 20
156.192428
 30
0.0
 11
61.887669
 21
154.460428
 31
0.0
  0
LINE
  5
154
330
1E
100
AcDbEntity
  8
0
100
AcDbLine
 10
62.53776218921079
 20
153.334466596287
 30
0.0
 11
64.708269
 21
154.233428
 31
0.0
  0
LINE
  5
155
330
1E
100
AcDbEntity
  8
0
100
AcDbLine
 10
61.98416899999999
 20
113.292428
 30
0.0
 11
64.38416899999999
 21
109.136428
 31
0.0
  0
LINE
  5
156
330
1E
100
AcDbEntity
  8
0
100
AcDbLine
 10
61.76906899999999
 20
108.665428
 30
0.0
 11
62.61906899999999
 21
107.193428
 31
0.0
  0
LINE
  5
157
330
1E
100
AcDbEntity
  8
0
100
AcDbLine
 10
115.696269
 20
106.6604279999999
 30
0.0
 11
117.7752689999999
 21
107.8604279999999
 31
0.0
  0
LINE
  5
158
330
1E
100
AcDbEntity
  8
0
100
AcDbLine
 10
119.4772689999999
 20
107.1114279999999
 30
0.0
 11
121.2962689999999
 21
108.1614279999999
 31
0.0
  0
LINE
  5
159
330
1E
100
AcDbEntity
  8
0
100
AcDbLine
 10
100.2252689999999
 20
104.656428
 30
0.0
 11
105.9412689999999
 21
107.956428
 31
0.0
  0
LINE
  5
15A
330
1E
100
AcDbEntity
  8
0
100
AcDbLine
 10
121.8732689999999
 20
106.7624279999999
 30
0.0
 11
122.2192689999999
 21
106.9624279999999
 31
0.0
  0
LINE
  5
15B
330
1E
100
AcDbEntity
  8
0
100
AcDbLine
 10
122.2192689999999
 20
106.9624279999999
 30
0.0
 11
129.518269
 21
97.32012799999999
 31
0.0
  0
LINE
  5
15C
330
1E
100
AcDbEntity
  8
0
100
AcDbLine
 10
122.2192689999999
 20
106.9624279999999
 30
0.0
 11
122.8352689999999
 21
107.895428
 31
0.0
  0
LINE
  5
15D
330
1E
100
AcDbEntity
  8
0
100
AcDbLine
 10
64.38416899999999
 20
109.136428
 30
0.0
 11
65.28416899999999
 21
107.577428
 31
0.0
  0
LINE
  5
15E
330
1E
100
AcDbEntity
  8
0
100
AcDbLine
 10
62.637669
 20
153.161428
 30
0.0
 11
63.137669
 21
152.295428
 31
0.0
  0
LINE
  5
15F
330
1E
100
AcDbEntity
  8
0
100
AcDbLine
 10
64.708269
 20
154.233428
 30
0.0
 11
67.03766899999999
 21
154.5404279999999
 31
0.0
  0
LINE
  5
160
330
1E
100
AcDbEntity
  8
0
100
AcDbLine
 10
63.137669
 20
152.295428
 30
0.0
 11
63.28766899999999
 21
152.035428
 31
0.0
  0
LINE
  5
161
330
1E
100
AcDbEntity
  8
0
100
AcDbLine
 10
62.92166899999999
 20
150.669428
 30
0.0
 11
63.28766899999999
 21
152.035428
 31
0.0
  0
LINE
  5
162
330
1E
100
AcDbEntity
  8
0
100
AcDbLine
 10
63.37746899999999
 20
131.8794279999999
 30
0.0
 11
70.14536899999999
 21
116.1574279999999
 31
0.0
  0
LINE
  5
164
330
1E
100
AcDbEntity
  8
0
100
AcDbLine
 10
121.2962689999999
 20
108.1614279999999
 30
0.0
 11
122.335269
 21
108.761428
 31
0.0
  0
LINE
  5
165
330
1E
100
AcDbEntity
  8
0
100
AcDbLine
 10
117.7752689999999
 20
107.8604279999999
 30
0.0
 11
119.420269
 21
108.810428
 31
0.0
  0
LINE
  5
166
330
1E
100
AcDbEntity
  8
0
100
AcDbLine
 10
105.9412689999999
 20
107.956428
 30
0.0
 11
107.7602689999999
 21
109.0064279999999
 31
0.0
  0
LINE
  5
167
330
1E
100
AcDbEntity
  8
0
100
AcDbLine
 10
67.03766899999999
 20
170.5404279999999
 30
0.0
 11
73.50816899999999
 21
169.688428
 31
0.0
  0
LINE
  5
168
330
1E
100
AcDbEntity
  8
0
100
AcDbLine
 10
67.03766899999999
 20
154.5404279999999
 30
0.0
 11
69.367069
 21
154.233428
 31
0.0
  0
LINE
  5
169
330
1E
100
AcDbEntity
  8
0
100
AcDbLine
 10
109.7522689999999
 20
110.156428
 30
0.0
 11
111.6572689999999
 21
111.2564279999999
 31
0.0
  0
LINE
  5
16A
330
1E
100
AcDbEntity
  8
0
100
AcDbLine
 10
107.7602689999999
 20
109.0064279999999
 30
0.0
 11
109.7522689999999
 21
110.156428
 31
0.0
  0
LINE
  5
16B
330
1E
100
AcDbEntity
  8
0
100
AcDbLine
 10
119.420269
 20
108.810428
 30
0.0
 11
120.373269
 21
109.360428
 31
0.0
  0
LINE
  5
16C
330
1E
100
AcDbEntity
  8
0
100
AcDbLine
 10
111.6572689999999
 20
111.2564279999999
 30
0.0
 11
113.3022689999999
 21
112.206428
 31
0.0
  0
LINE
  5
16D
330
1E
100
AcDbEntity
  8
0
100
AcDbLine
 10
111.2242689999999
 20
111.006428
 30
0.0
 11
111.339769000016
 21
111.073094666676
 31
0.0
  0
LINE
  5
16E
330
1E
100
AcDbEntity
  8
0
100
AcDbLine
 10
110.8952689999719
 20
110.816427999984
 30
0.0
 11
111.339769000016
 21
111.073094666676
 31
0.0
  0
LINE
  5
16F
330
1E
100
AcDbEntity
  8
0
100
AcDbLine
 10
110.8952689999719
 20
110.816427999984
 30
0.0
 11
111.2242689999999
 21
111.006428
 31
0.0
  0
LINE
  5
170
330
1E
100
AcDbEntity
  8
0
100
AcDbLine
 10
122.335269
 20
108.761428
 30
0.0
 11
122.7682689999999
 21
109.011428
 31
0.0
  0
LINE
  5
172
330
1E
100
AcDbEntity
  8
0
100
AcDbLine
 10
120.373269
 20
109.360428
 30
0.0
 11
120.719269
 21
109.560428
 31
0.0
  0
LINE
  5
173
330
1E
100
AcDbEntity
  8
0
100
AcDbLine
 10
122.7682689999999
 20
109.011428
 30
0.0
 11
122.8352689999999
 21
107.895428
 31
0.0
  0
LINE
  5
174
330
1E
100
AcDbEntity
  8
0
100
AcDbLine
 10
121.8352689999999
 20
109.627428
 30
0.0
 11
122.7682689999999
 21
109.011428
 31
0.0
  0
LINE
  5
175
330
1E
100
AcDbEntity
  8
0
100
AcDbLine
 10
120.719269
 20
109.560428
 30
0.0
 11
121.8352689999999
 21
109.627428
 31
0.0
  0
LINE
  5
176
330
1E
100
AcDbEntity
  8
0
100
AcDbLine
 10
119.719269
 20
111.292428
 30
0.0
 11
120.719269
 21
109.560428
 31
0.0
  0
LINE
  5
177
330
1E
100
AcDbEntity
  8
0
100
AcDbLine
 10
69.367069
 20
154.233428
 30
0.0
 11
71.53766899999999
 21
153.334428
 31
0.0
  0
LINE
  5
178
330
1E
100
AcDbEntity
  8
0
100
AcDbLine
 10
113.3022689999999
 20
112.206428
 30
0.0
 11
114.5152689999999
 21
112.906428
 31
0.0
  0
LINE
  5
179
330
1E
100
AcDbEntity
  8
0
100
AcDbLine
 10
113.7352689999999
 20
112.4564279999999
 30
0.0
 11
114.428269
 21
112.856428
 31
0.0
  0
LINE
  5
17A
330
1E
100
AcDbEntity
  8
0
100
AcDbLine
 10
114.428269
 20
112.856428
 30
0.0
 11
114.6882689999999
 21
113.006428
 31
0.0
  0
LINE
  5
17B
330
1E
100
AcDbEntity
  8
0
100
AcDbLine
 10
113.557637421063
 20
112.353796421059
 30
0.0
 11
113.7352689999999
 21
112.4564279999999
 31
0.0
  0
LINE
  5
17C
330
1E
100
AcDbEntity
  8
0
100
AcDbLine
 10
113.557637421063
 20
112.353796421059
 30
0.0
 11
114.5152689999999
 21
112.906428
 31
0.0
  0
LINE
  5
17D
330
1E
100
AcDbEntity
  8
0
100
AcDbLine
 10
118.2862689999999
 20
112.7744279999999
 30
0.0
 11
119.719269
 21
111.292428
 31
0.0
  0
LINE
  5
17E
330
1E
100
AcDbEntity
  8
0
100
AcDbLine
 10
116.6702689999999
 20
113.573428
 30
0.0
 11
118.2862689999999
 21
112.7744279999999
 31
0.0
  0
LINE
  5
17F
330
1E
100
AcDbEntity
  8
0
100
AcDbLine
 10
115.5542689999999
 20
113.5064279999999
 30
0.0
 11
116.6702689999999
 21
113.573428
 31
0.0
  0
LINE
  5
180
330
1E
100
AcDbEntity
  8
0
100
AcDbLine
 10
114.5152689999999
 20
112.906428
 30
0.0
 11
115.5542689999999
 21
113.5064279999999
 31
0.0
  0
LINE
  5
181
330
1E
100
AcDbEntity
  8
0
100
AcDbLine
 10
71.53766899999999
 20
153.334428
 30
0.0
 11
73.40166899999999
 21
151.9034279999999
 31
0.0
  0
LINE
  5
182
330
1E
100
AcDbEntity
  8
0
100
AcDbLine
 10
75.24816899999999
 20
149.703428
 30
0.0
 11
75.497569
 21
149.847428
 31
0.0
  0
LINE
  5
183
330
1E
100
AcDbEntity
  8
0
100
AcDbLine
 10
75.45986899999999
 20
149.5284279999999
 30
0.0
 11
76.124969
 21
149.912428
 31
0.0
  0
LINE
  5
184
330
1E
100
AcDbEntity
  8
0
100
AcDbLine
 10
75.21046899999999
 20
149.384428
 30
0.0
 11
75.24816899999999
 21
149.703428
 31
0.0
  0
LINE
  5
185
330
1E
100
AcDbEntity
  8
0
100
AcDbLine
 10
75.21046899999999
 20
149.384428
 30
0.0
 11
100.832185712555
 21
105.006572257243
 31
0.0
  0
LINE
  5
186
330
1E
100
AcDbEntity
  8
0
100
AcDbLine
 10
75.21046899999999
 20
149.384428
 30
0.0
 11
75.45986899999999
 21
149.5284279999999
 31
0.0
  0
LINE
  5
187
330
1E
100
AcDbEntity
  8
0
100
AcDbLine
 10
75.21046899999999
 20
149.384428
 30
0.0
 11
100.832185712555
 21
105.006572257243
 31
0.0
  0
LINE
  5
188
330
1E
100
AcDbEntity
  8
0
100
AcDbLine
 10
75.497569
 20
149.847428
 30
0.0
 11
76.16266899999999
 21
150.231428
 31
0.0
  0
LINE
  5
189
330
1E
100
AcDbEntity
  8
0
100
AcDbLine
 10
74.95336899999999
 20
149.829428
 30
0.0
 11
76.97636899999999
 21
150.997428
 31
0.0
  0
LINE
  5
18A
330
1E
100
AcDbEntity
  8
0
100
AcDbLine
 10
76.16266899999999
 20
150.231428
 30
0.0
 11
77.24346899999999
 21
150.855428
 31
0.0
  0
LINE
  5
18B
330
1E
100
AcDbEntity
  8
0
100
AcDbLine
 10
76.124969
 20
149.912428
 30
0.0
 11
77.233469
 21
150.5524279999999
 31
0.0
  0
LINE
  5
18C
330
1E
100
AcDbEntity
  8
0
100
AcDbLine
 10
77.24346899999999
 20
150.855428
 30
0.0
 11
78.656869
 21
151.6714279999999
 31
0.0
  0
LINE
  5
18D
330
1E
100
AcDbEntity
  8
0
100
AcDbLine
 10
77.233469
 20
150.5524279999999
 30
0.0
 11
78.702269
 21
151.4004279999999
 31
0.0
  0
LINE
  5
18E
330
1E
100
AcDbEntity
  8
0
100
AcDbLine
 10
78.656869
 20
151.6714279999999
 30
0.0
 11
80.26416899999999
 21
152.5994279999999
 31
0.0
  0
LINE
  5
18F
330
1E
100
AcDbEntity
  8
0
100
AcDbLine
 10
78.702269
 20
151.4004279999999
 30
0.0
 11
80.36506899999999
 21
152.360428
 31
0.0
  0
LINE
  5
190
330
1E
100
AcDbEntity
  8
0
100
AcDbLine
 10
76.97636899999999
 20
150.997428
 30
0.0
 11
78.44516899999999
 21
151.845428
 31
0.0
  0
LINE
  5
191
330
1E
100
AcDbEntity
  8
0
100
AcDbLine
 10
78.44516899999999
 20
151.845428
 30
0.0
 11
80.107969
 21
152.805428
 31
0.0
  0
LINE
  5
192
330
1E
100
AcDbEntity
  8
0
100
AcDbLine
 10
81.881569
 20
153.829428
 30
0.0
 11
83.65516900000001
 21
154.853428
 31
0.0
  0
LINE
  5
193
330
1E
100
AcDbEntity
  8
0
100
AcDbLine
 10
80.26416899999999
 20
152.5994279999999
 30
0.0
 11
82.01006900000001
 21
153.607428
 31
0.0
  0
LINE
  5
194
330
1E
100
AcDbEntity
  8
0
100
AcDbLine
 10
80.36506899999999
 20
152.360428
 30
0.0
 11
82.13866899999999
 21
153.384428
 31
0.0
  0
LINE
  5
195
330
1E
100
AcDbEntity
  8
0
100
AcDbLine
 10
80.107969
 20
152.805428
 30
0.0
 11
81.881569
 21
153.829428
 31
0.0
  0
LINE
  5
196
330
1E
100
AcDbEntity
  8
0
100
AcDbLine
 10
83.65516900000001
 20
154.853428
 30
0.0
 11
85.31796899999999
 21
155.813428
 31
0.0
  0
LINE
  5
197
330
1E
100
AcDbEntity
  8
0
100
AcDbLine
 10
83.75606899999999
 20
154.615428
 30
0.0
 11
85.363369
 21
155.543428
 31
0.0
  0
LINE
  5
198
330
1E
100
AcDbEntity
  8
0
100
AcDbLine
 10
83.91226899999999
 20
154.408428
 30
0.0
 11
85.57506899999999
 21
155.3684279999999
 31
0.0
  0
LINE
  5
199
330
1E
100
AcDbEntity
  8
0
100
AcDbLine
 10
82.01006900000001
 20
153.607428
 30
0.0
 11
83.75606899999999
 21
154.615428
 31
0.0
  0
LINE
  5
19A
330
1E
100
AcDbEntity
  8
0
100
AcDbLine
 10
82.13866899999999
 20
153.384428
 30
0.0
 11
83.91226899999999
 21
154.408428
 31
0.0
  0
LINE
  5
19B
330
1E
100
AcDbEntity
  8
0
100
AcDbLine
 10
74.95336899999999
 20
149.829428
 30
0.0
 11
75.24816899999999
 21
149.703428
 31
0.0
  0
LINE
  5
19C
330
1E
100
AcDbEntity
  8
0
100
AcDbLine
 10
85.31796899999999
 20
155.813428
 30
0.0
 11
86.78666899999999
 21
156.661428
 31
0.0
  0
LINE
  5
19D
330
1E
100
AcDbEntity
  8
0
100
AcDbLine
 10
86.78666899999999
 20
156.661428
 30
0.0
 11
87.895269
 21
157.301428
 31
0.0
  0
LINE
  5
19E
330
1E
100
AcDbEntity
  8
0
100
AcDbLine
 10
86.776669
 20
156.359428
 30
0.0
 11
87.857569
 21
156.983428
 31
0.0
  0
LINE
  5
19F
330
1E
100
AcDbEntity
  8
0
100
AcDbLine
 10
87.04386900000001
 20
156.216428
 30
0.0
 11
88.152369
 21
156.8564279999999
 31
0.0
  0
LINE
  5
1A0
330
1E
100
AcDbEntity
  8
0
100
AcDbLine
 10
85.57506899999999
 20
155.3684279999999
 30
0.0
 11
87.04386900000001
 21
156.216428
 31
0.0
  0
LINE
  5
1A1
330
1E
100
AcDbEntity
  8
0
100
AcDbLine
 10
88.152369
 20
156.8564279999999
 30
0.0
 11
88.81746899999999
 21
157.240428
 31
0.0
  0
LINE
  5
1A2
330
1E
100
AcDbEntity
  8
0
100
AcDbLine
 10
87.895269
 20
157.301428
 30
0.0
 11
88.56036899999999
 21
157.685428
 31
0.0
  0
LINE
  5
1A3
330
1E
100
AcDbEntity
  8
0
100
AcDbLine
 10
88.522669
 20
157.3674279999999
 30
0.0
 11
88.77206899999999
 21
157.511428
 31
0.0
  0
LINE
  5
1A4
330
1E
100
AcDbEntity
  8
0
100
AcDbLine
 10
88.81746899999999
 20
157.240428
 30
0.0
 11
89.066869
 21
157.384428
 31
0.0
  0
LINE
  5
1A5
330
1E
100
AcDbEntity
  8
0
100
AcDbLine
 10
87.857569
 20
156.983428
 30
0.0
 11
88.522669
 21
157.3674279999999
 31
0.0
  0
LINE
  5
1A6
330
1E
100
AcDbEntity
  8
0
100
AcDbLine
 10
89.066869
 20
157.384428
 30
0.0
 11
114.6882689999999
 21
113.006428
 31
0.0
  0
LINE
  5
1A7
330
1E
100
AcDbEntity
  8
0
100
AcDbLine
 10
85.363369
 20
155.543428
 30
0.0
 11
86.776669
 21
156.359428
 31
0.0
  0
LINE
  5
1A8
330
1E
100
AcDbEntity
  8
0
100
AcDbLine
 10
88.56036899999999
 20
157.685428
 30
0.0
 11
88.80976899999998
 21
157.829428
 31
0.0
  0
LINE
  5
1A9
330
1E
100
AcDbEntity
  8
0
100
AcDbLine
 10
88.77206899999999
 20
157.511428
 30
0.0
 11
88.80976899999998
 21
157.829428
 31
0.0
  0
LINE
  5
1AA
330
1E
100
AcDbEntity
  8
0
100
AcDbLine
 10
88.77206899999999
 20
157.511428
 30
0.0
 11
89.066869
 21
157.384428
 31
0.0
  0
LINE
  5
1AB
330
1E
100
AcDbEntity
  8
0
100
AcDbLine
 10
84.715369
 20
163.217428
 30
0.0
 11
88.80976899999998
 21
157.829428
 31
0.0
  0
LINE
  5
1AC
330
1E
100
AcDbEntity
  8
0
100
AcDbLine
 10
73.50816899999999
 20
169.688428
 30
0.0
 11
79.53766899999999
 21
167.1904279999999
 31
0.0
  0
LINE
  5
1AD
330
1E
100
AcDbEntity
  8
0
100
AcDbLine
 10
79.53766899999999
 20
167.1904279999999
 30
0.0
 11
84.715369
 21
163.217428
 31
0.0
  0
LINE
  5
1AE
330
1E
100
AcDbEntity
  8
0
100
AcDbLine
 10
73.40166899999999
 20
151.9034279999999
 30
0.0
 11
74.95336899999999
 21
149.829428
 31
0.0
  0
LINE
  5
1AF
330
1E
100
AcDbEntity
  8
0
100
AcDbLine
 10
70.14536899999999
 20
116.1574279999999
 30
0.0
 11
70.462369
 21
114.6084279999999
 31
0.0
  0
LINE
  5
1B0
330
1E
100
AcDbEntity
  8
0
100
AcDbLine
 10
70.096369
 20
113.242428
 30
0.0
 11
70.462369
 21
114.6084279999999
 31
0.0
  0
LINE
  5
1B1
330
1E
100
AcDbEntity
  8
0
100
AcDbLine
 10
69.047269
 20
112.0594279999999
 30
0.0
 11
70.096369
 21
113.242428
 31
0.0
  0
LINE
  5
1B2
330
1E
100
AcDbEntity
  8
0
100
AcDbLine
 10
67.13226899999999
 20
110.376428
 30
0.0
 11
69.047269
 21
112.0594279999999
 31
0.0
  0
LINE
  5
1B3
330
1E
100
AcDbEntity
  8
0
100
AcDbLine
 10
66.333169
 20
108.760428
 30
0.0
 11
67.13226899999999
 21
110.376428
 31
0.0
  0
LINE
  5
1B4
330
1E
100
AcDbEntity
  8
0
100
AcDbLine
 10
65.28416899999999
 20
107.577428
 30
0.0
 11
66.333169
 21
108.760428
 31
0.0
  0
LINE
  5
1B5
330
1E
100
AcDbEntity
  8
0
100
AcDbLine
 10
63.73516899999999
 20
107.2604279999999
 30
0.0
 11
65.28416899999999
 21
107.577428
 31
0.0
  0
LINE
  5
1B6
330
1E
100
AcDbEntity
  8
0
100
AcDbLine
 10
62.61906899999999
 20
107.193428
 30
0.0
 11
63.73516899999999
 21
107.2604279999999
 31
0.0
  0
LINE
  5
1B7
330
1E
100
AcDbEntity
  8
0
100
AcDbLine
 10
62.003069
 20
106.2604279999999
 30
0.0
 11
62.61906899999999
 21
107.193428
 31
0.0
  0
LINE
  5
1B8
330
1E
100
AcDbEntity
  8
0
100
AcDbLine
 10
60.27106899999999
 20
105.260428
 30
0.0
 11
60.58796899999999
 21
103.7114279999999
 31
0.0
  0
LINE
  5
1B9
330
1E
100
AcDbEntity
  8
0
100
AcDbLine
 10
60.27106899999999
 20
105.260428
 30
0.0
 11
62.003069
 21
106.2604279999999
 31
0.0
  0
LINE
  5
1BA
330
1E
100
AcDbEntity
  8
0
100
AcDbLine
 10
59.538969
 20
102.528428
 30
0.0
 11
60.58796899999999
 21
103.7114279999999
 31
0.0
  0
LINE
  5
1BB
330
1E
100
AcDbEntity
  8
0
100
AcDbLine
 10
55.02586899999999
 20
99.345128
 30
0.0
 11
55.34286899999999
 21
97.79602800000001
 31
0.0
  0
LINE
  5
1BC
330
1E
100
AcDbEntity
  8
0
100
AcDbLine
 10
55.02586899999999
 20
99.345128
 30
0.0
 11
59.538969
 21
102.528428
 31
0.0
  0
LINE
  5
1BD
330
1E
100
AcDbEntity
  8
0
100
AcDbLine
 10
51.128669
 20
97.095128
 30
0.0
 11
52.311769
 21
96.04602800000002
 31
0.0
  0
ENDSEC
  0
SECTION
  2
OBJECTS
  0
DICTIONARY
  5
C
330
0
100
AcDbDictionary
281
     1
  3
ACAD_GROUP
350
D
  3
ACAD_LAYOUT
350
19
  3
ACAD_MLINESTYLE
350
16
  3
ACAD_PLOTSETTINGS
350
18
  3
ACAD_PLOTSTYLENAME
350
E
  3
AcDbVariableDictionary
350
1C2
  0
DICTIONARY
  5
D
102
{ACAD_REACTORS
330
C
102
}
330
C
100
AcDbDictionary
281
     1
  0
DICTIONARY
  5
19
102
{ACAD_REACTORS
330
C
102
}
330
C
100
AcDbDictionary
281
     1
  3
Layout1
350
1D
  3
Model
350
21
  0
DICTIONARY
  5
16
102
{ACAD_REACTORS
330
C
102
}
330
C
100
AcDbDictionary
281
     1
  3
Standard
350
17
  0
DICTIONARY
  5
18
102
{ACAD_REACTORS
330
C
102
}
330
C
100
AcDbDictionary
281
     1
  0
ACDBDICTIONARYWDFLT
  5
E
102
{ACAD_REACTORS
330
C
102
}
330
C
100
AcDbDictionary
281
     1
  3
Normal
350
F
100
AcDbDictionaryWithDefault
340
F
  0
DICTIONARY
  5
1C2
102
{ACAD_REACTORS
330
C
102
}
330
C
100
AcDbDictionary
281
     1
  3
DIMASSOC
350
1C3
  0
LAYOUT
  5
1D
102
{ACAD_REACTORS
330
19
102
}
330
19
100
AcDbPlotSettings
  1

  2
hp deskjet 980c series
  4

  6

 40
0.0
 41
0.0
 42
0.0
 43
0.0
 44
0.0
 45
0.0
 46
0.0
 47
0.0
 48
0.0
 49
0.0
140
0.0
141
0.0
142
1.0
143
1.0
 70
   688
 72
     0
 73
     0
 74
     5
  7

 75
    16
147
1.0
148
0.0
149
0.0
100
AcDbLayout
  1
Layout1
 70
     1
 71
     1
 10
0.0
 20
0.0
 11
12.0
 21
9.0
 12
0.0
 22
0.0
 32
0.0
 14
1.000000000000000E+20
 24
1.000000000000000E+20
 34
1.000000000000000E+20
 15
-1.000000000000000E+20
 25
-1.000000000000000E+20
 35
-1.000000000000000E+20
146
0.0
 13
0.0
 23
0.0
 33
0.0
 16
1.0
 26
0.0
 36
0.0
 17
0.0
 27
1.0
 37
0.0
 76
     0
330
1A
  0
LAYOUT
  5
21
102
{ACAD_REACTORS
330
19
102
}
330
19
100
AcDbPlotSettings
  1

  2
hp deskjet 980c series
  4

  6

 40
0.0
 41
0.0
 42
0.0
 43
0.0
 44
0.0
 45
0.0
 46
0.0
 47
0.0
 48
0.0
 49
0.0
140
0.0
141
0.0
142
1.0
143
1.0
 70
  1712
 72
     0
 73
     0
 74
     0
  7

 75
     0
147
1.0
148
0.0
149
0.0
100
AcDbLayout
  1
Model
 70
     1
 71
     0
 10
0.0
 20
0.0
 11
12.0
 21
9.0
 12
0.0
 22
0.0
 32
0.0
 14
0.0
 24
0.0
 34
0.0
 15
0.0
 25
0.0
 35
0.0
146
0.0
 13
0.0
 23
0.0
 33
0.0
 16
1.0
 26
0.0
 36
0.0
 17
0.0
 27
1.0
 37
0.0
 76
     0
330
1E
  0
MLINESTYLE
  5
17
102
{ACAD_REACTORS
330
16
102
}
330
16
100
AcDbMlineStyle
  2
STANDARD
 70
     0
  3

 62
   256
 51
90.0
 52
90.0
 71
     2
 49
0.5
 62
   256
  6
BYLAYER
 49
-0.5
 62
   256
  6
BYLAYER
  0
ACDBPLACEHOLDER
  5
F
102
{ACAD_REACTORS
330
E
102
}
330
E
  0
DICTIONARYVAR
  5
1C3
102
{ACAD_REACTORS
330
1C2
102
}
330
1C2
100
DictionaryVariables
280
     0
  1
1
  0
ENDSEC
  0
EOF
