  0
SECTION
  2
HEADER
  9
$ACADVER
  1
AC1015
  9
$ACADMAINTVER
 70
    13
  9
$DWGCODEPAGE
  3
ANSI_1252
  9
$INSBASE
 10
0.0
 20
0.0
 30
0.0
  9
$EXTMIN
 10
0.0000000000000044
 20
0.0000000000000044
 30
0.0
  9
$EXTMAX
 10
280.0
 20
280.0
 30
0.0
  9
$LIMMIN
 10
0.0
 20
0.0
  9
$LIMMAX
 10
12.0
 20
9.0
  9
$ORTHOMODE
 70
     0
  9
$REGENMODE
 70
     1
  9
$FILLMODE
 70
     1
  9
$QTEXTMODE
 70
     0
  9
$MIRRTEXT
 70
     1
  9
$LTSCALE
 40
1.0
  9
$ATTMODE
 70
     1
  9
$TEXTSIZE
 40
0.2
  9
$TRACEWID
 40
0.05
  9
$TEXTSTYLE
  7
Standard
  9
$CLAYER
  8
0
  9
$CELTYPE
  6
Continuous
  9
$CECOLOR
 62
   256
  9
$CELTSCALE
 40
1.0
  9
$DISPSILH
 70
     0
  9
$DIMSCALE
 40
1.0
  9
$DIMASZ
 40
0.18
  9
$DIMEXO
 40
0.0625
  9
$DIMDLI
 40
0.38
  9
$DIMRND
 40
0.0
  9
$DIMDLE
 40
0.0
  9
$DIMEXE
 40
0.18
  9
$DIMTP
 40
0.0
  9
$DIMTM
 40
0.0
  9
$DIMTXT
 40
0.18
  9
$DIMCEN
 40
0.09
  9
$DIMTSZ
 40
0.0
  9
$DIMTOL
 70
     0
  9
$DIMLIM
 70
     0
  9
$DIMTIH
 70
     1
  9
$DIMTOH
 70
     1
  9
$DIMSE1
 70
     0
  9
$DIMSE2
 70
     0
  9
$DIMTAD
 70
     0
  9
$DIMZIN
 70
     0
  9
$DIMBLK
  1

  9
$DIMASO
 70
     1
  9
$DIMSHO
 70
     1
  9
$DIMPOST
  1

  9
$DIMAPOST
  1

  9
$DIMALT
 70
     0
  9
$DIMALTD
 70
     2
  9
$DIMALTF
 40
25.4
  9
$DIMLFAC
 40
1.0
  9
$DIMTOFL
 70
     0
  9
$DIMTVP
 40
0.0
  9
$DIMTIX
 70
     0
  9
$DIMSOXD
 70
     0
  9
$DIMSAH
 70
     0
  9
$DIMBLK1
  1

  9
$DIMBLK2
  1

  9
$DIMSTYLE
  2
Standard
  9
$DIMCLRD
 70
     0
  9
$DIMCLRE
 70
     0
  9
$DIMCLRT
 70
     0
  9
$DIMTFAC
 40
1.0
  9
$DIMGAP
 40
0.09
  9
$DIMJUST
 70
     0
  9
$DIMSD1
 70
     0
  9
$DIMSD2
 70
     0
  9
$DIMTOLJ
 70
     1
  9
$DIMTZIN
 70
     0
  9
$DIMALTZ
 70
     0
  9
$DIMALTTZ
 70
     0
  9
$DIMUPT
 70
     0
  9
$DIMDEC
 70
     4
  9
$DIMTDEC
 70
     4
  9
$DIMALTU
 70
     2
  9
$DIMALTTD
 70
     2
  9
$DIMTXSTY
  7
Standard
  9
$DIMAUNIT
 70
     0
  9
$DIMADEC
 70
     0
  9
$DIMALTRND
 40
0.0
  9
$DIMAZIN
 70
     0
  9
$DIMDSEP
 70
    46
  9
$DIMATFIT
 70
     3
  9
$DIMFRAC
 70
     0
  9
$DIMLDRBLK
  1

  9
$DIMLUNIT
 70
     2
  9
$DIMLWD
 70
    -2
  9
$DIMLWE
 70
    -2
  9
$DIMTMOVE
 70
     0
  9
$LUNITS
 70
     2
  9
$LUPREC
 70
     4
  9
$SKETCHINC
 40
0.1
  9
$FILLETRAD
 40
0.0
  9
$AUNITS
 70
     0
  9
$AUPREC
 70
     0
  9
$MENU
  1
.
  9
$ELEVATION
 40
0.0
  9
$PELEVATION
 40
0.0
  9
$THICKNESS
 40
0.0
  9
$LIMCHECK
 70
     0
  9
$CHAMFERA
 40
0.0
  9
$CHAMFERB
 40
0.0
  9
$CHAMFERC
 40
0.0
  9
$CHAMFERD
 40
0.0
  9
$SKPOLY
 70
     0
  9
$TDCREATE
 40
2454745.687841435
  9
$TDUCREATE
 40
2454745.604508102
  9
$TDUPDATE
 40
2454745.689583692
  9
$TDUUPDATE
 40
2454745.606250358
  9
$TDINDWG
 40
0.0017422569
  9
$TDUSRTIMER
 40
0.0017422569
  9
$USRTIMER
 70
     1
  9
$ANGBASE
 50
0.0
  9
$ANGDIR
 70
     0
  9
$PDMODE
 70
     0
  9
$PDSIZE
 40
0.0
  9
$PLINEWID
 40
0.0
  9
$SPLFRAME
 70
     0
  9
$SPLINETYPE
 70
     6
  9
$SPLINESEGS
 70
     8
  9
$HANDSEED
  5
1D0
  9
$SURFTAB1
 70
     6
  9
$SURFTAB2
 70
     6
  9
$SURFTYPE
 70
     6
  9
$SURFU
 70
     6
  9
$SURFV
 70
     6
  9
$UCSBASE
  2

  9
$UCSNAME
  2

  9
$UCSORG
 10
0.0
 20
0.0
 30
0.0
  9
$UCSXDIR
 10
1.0
 20
0.0
 30
0.0
  9
$UCSYDIR
 10
0.0
 20
1.0
 30
0.0
  9
$UCSORTHOREF
  2

  9
$UCSORTHOVIEW
 70
     1
  9
$UCSORGTOP
 10
0.0
 20
0.0
 30
0.0
  9
$UCSORGBOTTOM
 10
0.0
 20
0.0
 30
0.0
  9
$UCSORGLEFT
 10
0.0
 20
0.0
 30
0.0
  9
$UCSORGRIGHT
 10
0.0
 20
0.0
 30
0.0
  9
$UCSORGFRONT
 10
0.0
 20
0.0
 30
0.0
  9
$UCSORGBACK
 10
0.0
 20
0.0
 30
0.0
  9
$PUCSBASE
  2

  9
$PUCSNAME
  2

  9
$PUCSORG
 10
0.0
 20
0.0
 30
0.0
  9
$PUCSXDIR
 10
1.0
 20
0.0
 30
0.0
  9
$PUCSYDIR
 10
0.0
 20
1.0
 30
0.0
  9
$PUCSORTHOREF
  2

  9
$PUCSORTHOVIEW
 70
     0
  9
$PUCSORGTOP
 10
0.0
 20
0.0
 30
0.0
  9
$PUCSORGBOTTOM
 10
0.0
 20
0.0
 30
0.0
  9
$PUCSORGLEFT
 10
0.0
 20
0.0
 30
0.0
  9
$PUCSORGRIGHT
 10
0.0
 20
0.0
 30
0.0
  9
$PUCSORGFRONT
 10
0.0
 20
0.0
 30
0.0
  9
$PUCSORGBACK
 10
0.0
 20
0.0
 30
0.0
  9
$USERI1
 70
     0
  9
$USERI2
 70
     0
  9
$USERI3
 70
     0
  9
$USERI4
 70
     0
  9
$USERI5
 70
     0
  9
$USERR1
 40
0.0
  9
$USERR2
 40
0.0
  9
$USERR3
 40
0.0
  9
$USERR4
 40
0.0
  9
$USERR5
 40
0.0
  9
$WORLDVIEW
 70
     1
  9
$SHADEDGE
 70
     3
  9
$SHADEDIF
 70
    70
  9
$TILEMODE
 70
     1
  9
$MAXACTVP
 70
    64
  9
$PINSBASE
 10
0.0
 20
0.0
 30
0.0
  9
$PLIMCHECK
 70
     0
  9
$PEXTMIN
 10
1.000000000000000E+20
 20
1.000000000000000E+20
 30
1.000000000000000E+20
  9
$PEXTMAX
 10
-1.000000000000000E+20
 20
-1.000000000000000E+20
 30
-1.000000000000000E+20
  9
$PLIMMIN
 10
0.0
 20
0.0
  9
$PLIMMAX
 10
12.0
 20
9.0
  9
$UNITMODE
 70
     0
  9
$VISRETAIN
 70
     1
  9
$PLINEGEN
 70
     0
  9
$PSLTSCALE
 70
     1
  9
$TREEDEPTH
 70
  3020
  9
$CMLSTYLE
  2
Standard
  9
$CMLJUST
 70
     0
  9
$CMLSCALE
 40
1.0
  9
$PROXYGRAPHICS
 70
     1
  9
$MEASUREMENT
 70
     0
  9
$CELWEIGHT
370
    -1
  9
$ENDCAPS
280
     0
  9
$JOINSTYLE
280
     0
  9
$LWDISPLAY
290
     0
  9
$INSUNITS
 70
     0
  9
$HYPERLINKBASE
  1

  9
$STYLESHEET
  1

  9
$XEDIT
290
     1
  9
$CEPSNTYPE
380
     0
  9
$PSTYLEMODE
290
     1
  9
$FINGERPRINTGUID
  2
{045531D6-4AAE-435D-A654-2602D5423C0E}
  9
$VERSIONGUID
  2
{5AB709C0-8B14-4FEC-8F88-98E45C446D05}
  9
$EXTNAMES
290
     1
  9
$PSVPSCALE
 40
0.0
  9
$OLESTARTUP
290
     0
  0
ENDSEC
  0
SECTION
  2
CLASSES
  0
CLASS
  1
ACDBDICTIONARYWDFLT
  2
AcDbDictionaryWithDefault
  3
AutoCAD 2000
 90
        0
280
     0
281
     0
  0
CLASS
  1
ACDBPLACEHOLDER
  2
AcDbPlaceHolder
  3
AutoCAD 2000
 90
        0
280
     0
281
     0
  0
CLASS
  1
LAYOUT
  2
AcDbLayout
  3
AutoCAD 2000
 90
        0
280
     0
281
     0
  0
CLASS
  1
DICTIONARYVAR
  2
AcDbDictionaryVar
  3
AutoCAD 2000
 90
        0
280
     0
281
     0
  0
ENDSEC
  0
SECTION
  2
TABLES
  0
TABLE
  2
VPORT
  5
8
330
0
100
AcDbSymbolTable
 70
     2
  0
VPORT
  5
1CF
330
8
100
AcDbSymbolTableRecord
100
AcDbViewportTableRecord
  2
*Active
 70
     0
 10
0.0
 20
0.0
 11
1.0
 21
1.0
 12
140.0
 22
140.0
 13
0.0
 23
0.0
 14
1.0
 24
1.0
 15
0.0
 25
0.0
 16
0.0
 26
0.0
 36
1.0
 17
0.0
 27
0.0
 37
0.0
 40
282.1483375959079
 41
2.078104993597951
 42
50.0
 43
0.0
 44
0.0
 50
0.0
 51
0.0
 71
     0
 72
   100
 73
     1
 74
     3
 75
     0
 76
     0
 77
     0
 78
     0
281
     0
 65
     1
110
0.0
120
0.0
130
0.0
111
1.0
121
0.0
131
0.0
112
0.0
122
1.0
132
0.0
 79
     1
146
0.0
  0
ENDTAB
  0
TABLE
  2
LTYPE
  5
5
330
0
100
AcDbSymbolTable
 70
     1
  0
LTYPE
  5
13
330
5
100
AcDbSymbolTableRecord
100
AcDbLinetypeTableRecord
  2
ByBlock
 70
     0
  3

 72
    65
 73
     0
 40
0.0
  0
LTYPE
  5
14
330
5
100
AcDbSymbolTableRecord
100
AcDbLinetypeTableRecord
  2
ByLayer
 70
     0
  3

 72
    65
 73
     0
 40
0.0
  0
LTYPE
  5
15
330
5
100
AcDbSymbolTableRecord
100
AcDbLinetypeTableRecord
  2
Continuous
 70
     0
  3
Solid line
 72
    65
 73
     0
 40
0.0
  0
ENDTAB
  0
TABLE
  2
LAYER
  5
2
330
0
100
AcDbSymbolTable
 70
     1
  0
LAYER
  5
10
330
2
100
AcDbSymbolTableRecord
100
AcDbLayerTableRecord
  2
0
 70
     0
 62
     7
  6
Continuous
370
    -3
390
F
  0
ENDTAB
  0
TABLE
  2
STYLE
  5
3
330
0
100
AcDbSymbolTable
 70
     1
  0
STYLE
  5
11
330
3
100
AcDbSymbolTableRecord
100
AcDbTextStyleTableRecord
  2
Standard
 70
     0
 40
0.0
 41
1.0
 50
0.0
 71
     0
 42
0.2
  3
txt
  4

  0
ENDTAB
  0
TABLE
  2
VIEW
  5
6
330
0
100
AcDbSymbolTable
 70
     0
  0
ENDTAB
  0
TABLE
  2
UCS
  5
7
330
0
100
AcDbSymbolTable
 70
     0
  0
ENDTAB
  0
TABLE
  2
APPID
  5
9
330
0
100
AcDbSymbolTable
 70
     1
  0
APPID
  5
12
330
9
100
AcDbSymbolTableRecord
100
AcDbRegAppTableRecord
  2
ACAD
 70
     0
  0
ENDTAB
  0
TABLE
  2
DIMSTYLE
  5
A
330
0
100
AcDbSymbolTable
 70
     1
100
AcDbDimStyleTable
 71
     0
  0
DIMSTYLE
105
1C9
330
A
100
AcDbSymbolTableRecord
100
AcDbDimStyleTableRecord
  2
Standard
 70
     0
340
11
  0
ENDTAB
  0
TABLE
  2
BLOCK_RECORD
  5
1
330
0
100
AcDbSymbolTable
 70
     0
  0
BLOCK_RECORD
  5
1E
330
1
100
AcDbSymbolTableRecord
100
AcDbBlockTableRecord
  2
*Model_Space
340
21
  0
BLOCK_RECORD
  5
1A
330
1
100
AcDbSymbolTableRecord
100
AcDbBlockTableRecord
  2
*Paper_Space
340
1D
  0
ENDTAB
  0
ENDSEC
  0
SECTION
  2
BLOCKS
  0
BLOCK
  5
1F
330
1E
100
AcDbEntity
  8
0
100
AcDbBlockBegin
  2
*Model_Space
 70
     0
 10
0.0
 20
0.0
 30
0.0
  3
*Model_Space
  1

  0
ENDBLK
  5
20
330
1E
100
AcDbEntity
  8
0
100
AcDbBlockEnd
  0
BLOCK
  5
1B
330
1A
100
AcDbEntity
 67
     1
  8
0
100
AcDbBlockBegin
  2
*Paper_Space
 70
     0
 10
0.0
 20
0.0
 30
0.0
  3
*Paper_Space
  1

  0
ENDBLK
  5
1C
330
1A
100
AcDbEntity
 67
     1
  8
0
100
AcDbBlockEnd
  0
ENDSEC
  0
SECTION
  2
ENTITIES
  0
LINE
  5
22
330
1E
100
AcDbEntity
  8
0
100
AcDbLine
 10
50.12
 20
33.04
 30
0.0
 11
59.64
 21
25.48
 31
0.0
  0
LINE
  5
23
330
1E
100
AcDbEntity
  8
0
100
AcDbLine
 10
50.12
 20
33.04
 30
0.0
 11
59.64
 21
25.48
 31
0.0
  0
LINE
  5
24
330
1E
100
AcDbEntity
  8
0
100
AcDbLine
 10
41.15999999999999
 20
41.15999999999999
 30
0.0
 11
50.12
 21
33.04
 31
0.0
  0
LINE
  5
25
330
1E
100
AcDbEntity
  8
0
100
AcDbLine
 10
33.04
 20
50.12
 30
0.0
 11
41.15999999999999
 21
41.15999999999999
 31
0.0
  0
LINE
  5
26
330
1E
100
AcDbEntity
  8
0
100
AcDbLine
 10
25.48
 20
59.64
 30
0.0
 11
33.04
 21
50.12
 31
0.0
  0
LINE
  5
27
330
1E
100
AcDbEntity
  8
0
100
AcDbLine
 10
19.03999999999999
 20
70.28
 30
0.0
 11
25.48
 21
59.64
 31
0.0
  0
LINE
  5
28
330
1E
100
AcDbEntity
  8
0
100
AcDbLine
 10
13.44
 20
80.92
 30
0.0
 11
19.03999999999999
 21
70.28
 31
0.0
  0
LINE
  5
29
330
1E
100
AcDbEntity
  8
0
100
AcDbLine
 10
57.0493
 20
85.9131000000001
 30
0.0
 11
57.8128
 21
83.5013000000001
 31
0.0
  0
LINE
  5
2A
330
1E
100
AcDbEntity
  8
0
100
AcDbLine
 10
8.679999999999999
 20
92.12000000000001
 30
0.0
 11
13.44
 21
80.92
 31
0.0
  0
LINE
  5
2B
330
1E
100
AcDbEntity
  8
0
100
AcDbLine
 10
56.8667
 20
88.3762000000001
 30
0.0
 11
57.3015
 21
90.66980000000009
 31
0.0
  0
LINE
  5
2C
330
1E
100
AcDbEntity
  8
0
100
AcDbLine
 10
56.8667
 20
88.3762000000001
 30
0.0
 11
57.0493
 21
85.9131000000001
 31
0.0
  0
LINE
  5
2D
330
1E
100
AcDbEntity
  8
0
100
AcDbLine
 10
59.64
 20
25.48
 30
0.0
 11
70.28
 21
19.03999999999999
 31
0.0
  0
LINE
  5
2E
330
1E
100
AcDbEntity
  8
0
100
AcDbLine
 10
59.64
 20
25.48
 30
0.0
 11
70.28
 21
19.03999999999999
 31
0.0
  0
LINE
  5
2F
330
1E
100
AcDbEntity
  8
0
100
AcDbLine
 10
59.0983
 20
81.2215000000001
 30
0.0
 11
60.8692
 21
79.2944000000001
 31
0.0
  0
LINE
  5
30
330
1E
100
AcDbEntity
  8
0
100
AcDbLine
 10
57.8128
 20
83.5013000000001
 30
0.0
 11
59.0983
 21
81.2215000000001
 31
0.0
  0
LINE
  5
31
330
1E
100
AcDbEntity
  8
0
100
AcDbLine
 10
57.3015
 20
90.66980000000009
 30
0.0
 11
58.39059999999999
 21
92.57350000000009
 31
0.0
  0
LINE
  5
32
330
1E
100
AcDbEntity
  8
0
100
AcDbLine
 10
5.04
 20
103.6
 30
0.0
 11
8.679999999999999
 21
92.12000000000001
 31
0.0
  0
LINE
  5
33
330
1E
100
AcDbEntity
  8
0
100
AcDbLine
 10
58.39059999999999
 20
92.57350000000009
 30
0.0
 11
59.7735
 21
94.07270000000009
 31
0.0
  0
LINE
  5
34
330
1E
100
AcDbEntity
  8
0
100
AcDbLine
 10
60.8692
 20
79.2944000000001
 30
0.0
 11
62.9271
 21
77.82300000000009
 31
0.0
  0
LINE
  5
35
330
1E
100
AcDbEntity
  8
0
100
AcDbLine
 10
62.9271
 20
77.82300000000009
 30
0.0
 11
65.2132
 21
76.88810000000009
 31
0.0
  0
LINE
  5
36
330
1E
100
AcDbEntity
  8
0
100
AcDbLine
 10
65.2132
 20
76.88810000000009
 30
0.0
 11
67.529
 21
76.5929000000001
 31
0.0
  0
LINE
  5
37
330
1E
100
AcDbEntity
  8
0
100
AcDbLine
 10
67.529
 20
76.5929000000001
 30
0.0
 11
69.676
 21
77.04040000000009
 31
0.0
  0
LINE
  5
38
330
1E
100
AcDbEntity
  8
0
100
AcDbLine
 10
70.28
 20
19.03999999999999
 30
0.0
 11
80.92
 21
13.44
 31
0.0
  0
LINE
  5
39
330
1E
100
AcDbEntity
  8
0
100
AcDbLine
 10
70.28
 20
19.03999999999999
 30
0.0
 11
80.92
 21
13.44
 31
0.0
  0
LINE
  5
3A
330
1E
100
AcDbEntity
  8
0
100
AcDbLine
 10
80.92
 20
13.44
 30
0.0
 11
92.12000000000001
 21
8.679999999999999
 31
0.0
  0
LINE
  5
3B
330
1E
100
AcDbEntity
  8
0
100
AcDbLine
 10
80.92
 20
13.44
 30
0.0
 11
92.12000000000001
 21
8.68000000000001
 31
0.0
  0
LINE
  5
3C
330
1E
100
AcDbEntity
  8
0
100
AcDbLine
 10
72.36620000000001
 20
90.86120000000009
 30
0.0
 11
73.6517
 21
88.58140000000011
 31
0.0
  0
LINE
  5
3D
330
1E
100
AcDbEntity
  8
0
100
AcDbLine
 10
73.6517
 20
88.58140000000011
 30
0.0
 11
74.4152
 21
86.16950000000009
 31
0.0
  0
LINE
  5
3E
330
1E
100
AcDbEntity
  8
0
100
AcDbLine
 10
74.4152
 20
86.16950000000009
 30
0.0
 11
74.59780000000001
 21
83.7065000000001
 31
0.0
  0
LINE
  5
3F
330
1E
100
AcDbEntity
  8
0
100
AcDbLine
 10
74.1629
 20
81.41280000000008
 30
0.0
 11
74.59780000000001
 21
83.7065000000001
 31
0.0
  0
LINE
  5
40
330
1E
100
AcDbEntity
  8
0
100
AcDbLine
 10
73.07389999999999
 20
79.50910000000009
 30
0.0
 11
74.1629
 21
81.41280000000008
 31
0.0
  0
LINE
  5
41
330
1E
100
AcDbEntity
  8
0
100
AcDbLine
 10
71.5292
 20
77.8924000000001
 30
0.0
 11
90.18489999999999
 21
90.45770000000009
 31
0.0
  0
LINE
  5
42
330
1E
100
AcDbEntity
  8
0
100
AcDbLine
 10
71.5292
 20
77.8924000000001
 30
0.0
 11
73.07389999999999
 21
79.50910000000009
 31
0.0
  0
LINE
  5
43
330
1E
100
AcDbEntity
  8
0
100
AcDbLine
 10
69.676
 20
77.04040000000009
 30
0.0
 11
71.5292
 21
77.8924000000001
 31
0.0
  0
LINE
  5
44
330
1E
100
AcDbEntity
  8
0
100
AcDbLine
 10
92.12000000000001
 20
8.68000000000001
 30
0.0
 11
103.6
 21
5.040000000000009
 31
0.0
  0
LINE
  5
45
330
1E
100
AcDbEntity
  8
0
100
AcDbLine
 10
103.6
 20
5.040000000000009
 30
0.0
 11
115.64
 21
2.240000000000009
 31
0.0
  0
LINE
  5
46
330
1E
100
AcDbEntity
  8
0
100
AcDbLine
 10
92.12000000000001
 20
8.679999999999999
 30
0.0
 11
103.6
 21
5.04
 31
0.0
  0
LINE
  5
47
330
1E
100
AcDbEntity
  8
0
100
AcDbLine
 10
103.6
 20
5.04
 30
0.0
 11
115.64
 21
2.24
 31
0.0
  0
LINE
  5
48
330
1E
100
AcDbEntity
  8
0
100
AcDbLine
 10
90.18489999999999
 20
90.45770000000009
 30
0.0
 11
107.414
 21
102.11
 31
0.0
  0
LINE
  5
49
330
1E
100
AcDbEntity
  8
0
100
AcDbLine
 10
70.5952
 20
92.78830000000009
 30
0.0
 11
72.36620000000001
 21
90.86120000000009
 31
0.0
  0
LINE
  5
4A
330
1E
100
AcDbEntity
  8
0
100
AcDbLine
 10
68.5373
 20
94.2597000000001
 30
0.0
 11
70.5952
 21
92.78830000000009
 31
0.0
  0
LINE
  5
4B
330
1E
100
AcDbEntity
  8
0
100
AcDbLine
 10
107.414
 20
102.11
 30
0.0
 11
114.2619999999999
 21
106.715
 31
0.0
  0
LINE
  5
4C
330
1E
100
AcDbEntity
  8
0
100
AcDbLine
 10
66.2513
 20
95.19450000000009
 30
0.0
 11
68.5373
 21
94.2597000000001
 31
0.0
  0
LINE
  5
4D
330
1E
100
AcDbEntity
  8
0
100
AcDbLine
 10
63.9355
 20
95.48970000000009
 30
0.0
 11
66.2513
 21
95.19450000000009
 31
0.0
  0
LINE
  5
4E
330
1E
100
AcDbEntity
  8
0
100
AcDbLine
 10
61.7884
 20
95.04220000000008
 30
0.0
 11
63.9355
 21
95.48970000000009
 31
0.0
  0
LINE
  5
4F
330
1E
100
AcDbEntity
  8
0
100
AcDbLine
 10
59.7735
 20
94.07270000000009
 30
0.0
 11
77.4887
 21
107.932
 31
0.0
  0
LINE
  5
50
330
1E
100
AcDbEntity
  8
0
100
AcDbLine
 10
59.7735
 20
94.07270000000009
 30
0.0
 11
61.7884
 21
95.04220000000008
 31
0.0
  0
LINE
  5
51
330
1E
100
AcDbEntity
  8
0
100
AcDbLine
 10
2.24
 20
115.64
 30
0.0
 11
5.04
 21
103.6
 31
0.0
  0
LINE
  5
52
330
1E
100
AcDbEntity
  8
0
100
AcDbLine
 10
2.24
 20
115.64
 30
0.0
 11
5.04
 21
103.6
 31
0.0
  0
LINE
  5
53
330
1E
100
AcDbEntity
  8
0
100
AcDbLine
 10
0.8400000000000041
 20
127.68
 30
0.0
 11
2.24
 21
115.64
 31
0.0
  0
LINE
  5
54
330
1E
100
AcDbEntity
  8
0
100
AcDbLine
 10
0.8400000000000041
 20
127.68
 30
0.0
 11
2.24
 21
115.64
 31
0.0
  0
LINE
  5
55
330
1E
100
AcDbEntity
  8
0
100
AcDbLine
 10
0.0000000000000044
 20
140.0
 30
0.0
 11
0.8400000000000041
 21
127.68
 31
0.0
  0
LINE
  5
56
330
1E
100
AcDbEntity
  8
0
100
AcDbLine
 10
0.0000000000000044
 20
140.0
 30
0.0
 11
0.8400000000000041
 21
152.3199999999999
 31
0.0
  0
LINE
  5
57
330
1E
100
AcDbEntity
  8
0
100
AcDbLine
 10
100.39
 20
125.807
 30
0.0
 11
110.0589999999999
 21
133.203
 31
0.0
  0
LINE
  5
58
330
1E
100
AcDbEntity
  8
0
100
AcDbLine
 10
93.8954
 20
120.7179999999999
 30
0.0
 11
100.39
 21
125.807
 31
0.0
  0
LINE
  5
59
330
1E
100
AcDbEntity
  8
0
100
AcDbLine
 10
77.4887
 20
107.932
 30
0.0
 11
93.8954
 21
120.7179999999999
 31
0.0
  0
LINE
  5
5A
330
1E
100
AcDbEntity
  8
0
100
AcDbLine
 10
115.64
 20
2.240000000000009
 30
0.0
 11
127.68
 21
0.8400000000000058
 31
0.0
  0
LINE
  5
5B
330
1E
100
AcDbEntity
  8
0
100
AcDbLine
 10
115.64
 20
2.24
 30
0.0
 11
127.68
 21
0.8400000000000041
 31
0.0
  0
LINE
  5
5C
330
1E
100
AcDbEntity
  8
0
100
AcDbLine
 10
114.2619999999999
 20
106.715
 30
0.0
 11
124.2839999999999
 21
113.6249999999999
 31
0.0
  0
LINE
  5
5D
330
1E
100
AcDbEntity
  8
0
100
AcDbLine
 10
127.0
 20
140.0
 30
0.0
 11
127.5
 21
136.5999999999999
 31
0.0
  0
LINE
  5
5E
330
1E
100
AcDbEntity
  8
0
100
AcDbLine
 10
127.0
 20
140.0
 30
0.0
 11
127.5
 21
143.4
 31
0.0
  0
LINE
  5
5F
330
1E
100
AcDbEntity
  8
0
100
AcDbLine
 10
127.0
 20
140.0
 30
0.0
 11
127.5
 21
136.5999999999999
 31
0.0
  0
LINE
  5
60
330
1E
100
AcDbEntity
  8
0
100
AcDbLine
 10
124.2839999999999
 20
113.6249999999999
 30
0.0
 11
133.441215962569
 21
119.814312788399
 31
0.0
  0
LINE
  5
61
330
1E
100
AcDbEntity
  8
0
100
AcDbLine
 10
110.0589999999999
 20
133.203
 30
0.0
 11
119.342
 21
140.442
 31
0.0
  0
LINE
  5
62
330
1E
100
AcDbEntity
  8
0
100
AcDbLine
 10
119.342
 20
140.442
 30
0.0
 11
126.4889999999999
 21
146.2529999999999
 31
0.0
  0
LINE
  5
69
330
1E
100
AcDbEntity
  8
0
100
AcDbLine
 10
127.68
 20
0.8400000000000058
 30
0.0
 11
140.0
 21
0.0000000000000058
 31
0.0
  0
LINE
  5
6A
330
1E
100
AcDbEntity
  8
0
100
AcDbLine
 10
127.68
 20
0.8400000000000058
 30
0.0
 11
140.0
 21
0.0000000000000058
 31
0.0
  0
LINE
  5
6B
330
1E
100
AcDbEntity
  8
0
100
AcDbLine
 10
127.68
 20
0.8400000000000041
 30
0.0
 11
140.0
 21
0.0000000000000044
 31
0.0
  0
LINE
  5
6C
330
1E
100
AcDbEntity
  8
0
100
AcDbLine
 10
128.0825070486479
 20
134.6104583006049
 30
0.0
 11
129.8779999999999
 21
129.0829999999999
 31
0.0
  0
LINE
  5
6D
330
1E
100
AcDbEntity
  8
0
100
AcDbLine
 10
127.5
 20
143.4
 30
0.0
 11
128.6999999999999
 21
146.5
 31
0.0
  0
LINE
  5
6E
330
1E
100
AcDbEntity
  8
0
100
AcDbLine
 10
127.5
 20
140.0
 30
0.0
 11
128.0
 21
136.6999999999999
 31
0.0
  0
LINE
  5
6F
330
1E
100
AcDbEntity
  8
0
100
AcDbLine
 10
127.5
 20
140.0
 30
0.0
 11
128.0
 21
143.3
 31
0.0
  0
LINE
  5
70
330
1E
100
AcDbEntity
  8
0
100
AcDbLine
 10
127.5
 20
136.5999999999999
 30
0.0
 11
128.6999999999999
 21
133.4999999999999
 31
0.0
  0
LINE
  5
71
330
1E
100
AcDbEntity
  8
0
100
AcDbLine
 10
127.5
 20
136.5999999999999
 30
0.0
 11
128.6999999999999
 21
133.4999999999999
 31
0.0
  0
LINE
  5
72
330
1E
100
AcDbEntity
  8
0
100
AcDbLine
 10
127.5594384601799
 20
136.446450644535
 30
0.0
 11
127.636
 21
135.983
 31
0.0
  0
LINE
  5
76
330
1E
100
AcDbEntity
  8
0
100
AcDbLine
 10
127.5594384601799
 20
136.446450644535
 30
0.0
 11
127.636
 21
135.983
 31
0.0
  0
LINE
  5
77
330
1E
100
AcDbEntity
  8
0
100
AcDbLine
 10
128.0
 20
143.3
 30
0.0
 11
129.1999999999999
 21
146.3
 31
0.0
  0
LINE
  5
78
330
1E
100
AcDbEntity
  8
0
100
AcDbLine
 10
128.0
 20
136.6999999999999
 30
0.0
 11
129.1999999999999
 21
133.6999999999999
 31
0.0
  0
LINE
  5
7B
330
1E
100
AcDbEntity
  8
0
100
AcDbLine
 10
127.636
 20
135.983
 30
0.0
 11
128.0739999999999
 21
134.6349999999999
 31
0.0
  0
LINE
  5
7F
330
1E
100
AcDbEntity
  8
0
100
AcDbLine
 10
129.1999999999999
 20
133.6999999999999
 30
0.0
 11
131.1999999999999
 21
131.0999999999999
 31
0.0
  0
LINE
  5
80
330
1E
100
AcDbEntity
  8
0
100
AcDbLine
 10
128.6999999999999
 20
133.4999999999999
 30
0.0
 11
130.8
 21
130.8
 31
0.0
  0
LINE
  5
81
330
1E
100
AcDbEntity
  8
0
100
AcDbLine
 10
128.6999999999999
 20
133.4999999999999
 30
0.0
 11
130.8
 21
130.8
 31
0.0
  0
LINE
  5
82
330
1E
100
AcDbEntity
  8
0
100
AcDbLine
 10
130.8
 20
130.8
 30
0.0
 11
133.4999999999999
 21
128.6999999999999
 31
0.0
  0
LINE
  5
83
330
1E
100
AcDbEntity
  8
0
100
AcDbLine
 10
130.8
 20
130.8
 30
0.0
 11
133.4999999999999
 21
128.6999999999999
 31
0.0
  0
LINE
  5
84
330
1E
100
AcDbEntity
  8
0
100
AcDbLine
 10
129.8779999999999
 20
129.0829999999999
 30
0.0
 11
133.196
 21
120.49
 31
0.0
  0
LINE
  5
85
330
1E
100
AcDbEntity
  8
0
100
AcDbLine
 10
133.196
 20
120.49
 30
0.0
 11
137.212
 21
109.4239999999999
 31
0.0
  0
LINE
  5
86
330
1E
100
AcDbEntity
  8
0
100
AcDbLine
 10
133.4999999999999
 20
128.6999999999999
 30
0.0
 11
136.6999999999999
 21
127.5
 31
0.0
  0
LINE
  5
87
330
1E
100
AcDbEntity
  8
0
100
AcDbLine
 10
133.8
 20
129.0999999999999
 30
0.0
 11
136.8
 21
127.9
 31
0.0
  0
LINE
  5
88
330
1E
100
AcDbEntity
  8
0
100
AcDbLine
 10
133.4999999999999
 20
128.6999999999999
 30
0.0
 11
136.6999999999999
 21
127.5
 31
0.0
  0
LINE
  5
8A
330
1E
100
AcDbEntity
  8
0
100
AcDbLine
 10
136.8
 20
127.9
 30
0.0
 11
140.0
 21
127.5
 31
0.0
  0
LINE
  5
8B
330
1E
100
AcDbEntity
  8
0
100
AcDbLine
 10
136.6999999999999
 20
127.5
 30
0.0
 11
140.0
 21
127.0
 31
0.0
  0
LINE
  5
8C
330
1E
100
AcDbEntity
  8
0
100
AcDbLine
 10
136.6999999999999
 20
127.5
 30
0.0
 11
140.0
 21
127.0
 31
0.0
  0
LINE
  5
8D
330
1E
100
AcDbEntity
  8
0
100
AcDbLine
 10
137.212
 20
109.4239999999999
 30
0.0
 11
141.2579999999999
 21
97.9431000000001
 31
0.0
  0
LINE
  5
8F
330
1E
100
AcDbEntity
  8
0
100
AcDbLine
 10
140.0
 20
127.0
 30
0.0
 11
143.3
 21
127.5
 31
0.0
  0
LINE
  5
90
330
1E
100
AcDbEntity
  8
0
100
AcDbLine
 10
140.0
 20
127.0
 30
0.0
 11
143.3
 21
127.5
 31
0.0
  0
LINE
  5
91
330
1E
100
AcDbEntity
  8
0
100
AcDbLine
 10
140.0
 20
0.0000000000000058
 30
0.0
 11
152.3199999999999
 21
0.8400000000000058
 31
0.0
  0
LINE
  5
92
330
1E
100
AcDbEntity
  8
0
100
AcDbLine
 10
140.0
 20
0.0000000000000058
 30
0.0
 11
152.3199999999999
 21
0.8400000000000058
 31
0.0
  0
LINE
  5
93
330
1E
100
AcDbEntity
  8
0
100
AcDbLine
 10
140.0
 20
0.0000000000000044
 30
0.0
 11
152.3199999999999
 21
0.8400000000000041
 31
0.0
  0
LINE
  5
94
330
1E
100
AcDbEntity
  8
0
100
AcDbLine
 10
151.181
 20
70.63880000000009
 30
0.0
 11
158.888
 21
49.5077000000001
 31
0.0
  0
LINE
  5
95
330
1E
100
AcDbEntity
  8
0
100
AcDbLine
 10
141.2579999999999
 20
97.9431000000001
 30
0.0
 11
144.091
 21
90.1934000000001
 31
0.0
  0
LINE
  5
96
330
1E
100
AcDbEntity
  8
0
100
AcDbLine
 10
144.091
 20
90.1934000000001
 30
0.0
 11
151.181
 21
70.63880000000009
 31
0.0
  0
LINE
  5
98
330
1E
100
AcDbEntity
  8
0
100
AcDbLine
 10
143.1999999999999
 20
127.9
 30
0.0
 11
146.1999999999999
 21
129.0999999999999
 31
0.0
  0
LINE
  5
99
330
1E
100
AcDbEntity
  8
0
100
AcDbLine
 10
140.0
 20
127.5
 30
0.0
 11
143.1999999999999
 21
127.9
 31
0.0
  0
LINE
  5
9A
330
1E
100
AcDbEntity
  8
0
100
AcDbLine
 10
143.3
 20
127.5
 30
0.0
 11
146.5
 21
128.6999999999999
 31
0.0
  0
LINE
  5
9B
330
1E
100
AcDbEntity
  8
0
100
AcDbLine
 10
143.3
 20
127.5
 30
0.0
 11
146.5
 21
128.6999999999999
 31
0.0
  0
LINE
  5
A0
330
1E
100
AcDbEntity
  8
0
100
AcDbLine
 10
146.1999999999999
 20
129.0999999999999
 30
0.0
 11
148.8
 21
131.0999999999999
 31
0.0
  0
LINE
  5
A1
330
1E
100
AcDbEntity
  8
0
100
AcDbLine
 10
146.5
 20
128.6999999999999
 30
0.0
 11
149.1999999999999
 21
130.8
 31
0.0
  0
LINE
  5
A2
330
1E
100
AcDbEntity
  8
0
100
AcDbLine
 10
146.5
 20
128.6999999999999
 30
0.0
 11
149.1999999999999
 21
130.8
 31
0.0
  0
LINE
  5
A3
330
1E
100
AcDbEntity
  8
0
100
AcDbLine
 10
147.096
 20
129.1619999999999
 30
0.0
 11
147.138262295081
 21
129.1964262295079
 31
0.0
  0
LINE
  5
A6
330
1E
100
AcDbEntity
  8
0
100
AcDbLine
 10
131.1999999999999
 20
131.0999999999999
 30
0.0
 11
133.8
 21
129.0999999999999
 31
0.0
  0
LINE
  5
A7
330
1E
100
AcDbEntity
  8
0
100
AcDbLine
 10
149.1999999999999
 20
130.8
 30
0.0
 11
151.3
 21
133.4999999999999
 31
0.0
  0
LINE
  5
A8
330
1E
100
AcDbEntity
  8
0
100
AcDbLine
 10
149.1999999999999
 20
130.8
 30
0.0
 11
151.3
 21
133.4999999999999
 31
0.0
  0
LINE
  5
A9
330
1E
100
AcDbEntity
  8
0
100
AcDbLine
 10
148.8
 20
131.0999999999999
 30
0.0
 11
150.8
 21
133.6999999999999
 31
0.0
  0
LINE
  5
AB
330
1E
100
AcDbEntity
  8
0
100
AcDbLine
 10
150.8
 20
133.6999999999999
 30
0.0
 11
152.0
 21
136.6999999999999
 31
0.0
  0
LINE
  5
AC
330
1E
100
AcDbEntity
  8
0
100
AcDbLine
 10
151.3
 20
133.4999999999999
 30
0.0
 11
152.5
 21
136.5999999999999
 31
0.0
  0
LINE
  5
AD
330
1E
100
AcDbEntity
  8
0
100
AcDbLine
 10
151.3
 20
133.4999999999999
 30
0.0
 11
152.5
 21
136.5999999999999
 31
0.0
  0
LINE
  5
B8
330
1E
100
AcDbEntity
  8
0
100
AcDbLine
 10
110.0589999999999
 20
146.797
 30
0.0
 11
118.7751971266749
 21
140.0
 31
0.0
  0
LINE
  5
B9
330
1E
100
AcDbEntity
  8
0
100
AcDbLine
 10
129.1999999999999
 20
146.3
 30
0.0
 11
131.1999999999999
 21
148.9
 31
0.0
  0
LINE
  5
BA
330
1E
100
AcDbEntity
  8
0
100
AcDbLine
 10
128.6999999999999
 20
146.5
 30
0.0
 11
130.8
 21
149.1999999999999
 31
0.0
  0
LINE
  5
BC
330
1E
100
AcDbEntity
  8
0
100
AcDbLine
 10
148.8
 20
148.9
 30
0.0
 11
150.8
 21
146.3
 31
0.0
  0
LINE
  5
BD
330
1E
100
AcDbEntity
  8
0
100
AcDbLine
 10
131.1999999999999
 20
148.9
 30
0.0
 11
133.8
 21
150.9
 31
0.0
  0
LINE
  5
C0
330
1E
100
AcDbEntity
  8
0
100
AcDbLine
 10
126.4889999999999
 20
146.2529999999999
 30
0.0
 11
131.7919999999999
 21
150.106
 31
0.0
  0
LINE
  5
C1
330
1E
100
AcDbEntity
  8
0
100
AcDbLine
 10
130.8
 20
149.1999999999999
 30
0.0
 11
133.4999999999999
 21
151.3
 31
0.0
  0
LINE
  5
C2
330
1E
100
AcDbEntity
  8
0
100
AcDbLine
 10
0.8400000000000041
 20
152.3199999999999
 30
0.0
 11
2.24
 21
164.36
 31
0.0
  0
LINE
  5
C3
330
1E
100
AcDbEntity
  8
0
100
AcDbLine
 10
131.7919999999999
 20
150.106
 30
0.0
 11
132.359
 21
150.5169999999999
 31
0.0
  0
LINE
  5
C5
330
1E
100
AcDbEntity
  8
0
100
AcDbLine
 10
147.641
 20
150.5169999999999
 30
0.0
 11
147.963003660322
 21
150.199333089312
 31
0.0
  0
LINE
  5
C6
330
1E
100
AcDbEntity
  8
0
100
AcDbLine
 10
149.1999999999999
 20
149.1999999999999
 30
0.0
 11
151.3
 21
146.5
 31
0.0
  0
LINE
  5
C8
330
1E
100
AcDbEntity
  8
0
100
AcDbLine
 10
133.8
 20
150.9
 30
0.0
 11
136.8
 21
152.0999999999999
 31
0.0
  0
LINE
  5
C9
330
1E
100
AcDbEntity
  8
0
100
AcDbLine
 10
133.4999999999999
 20
151.3
 30
0.0
 11
136.6999999999999
 21
152.5
 31
0.0
  0
LINE
  5
CA
330
1E
100
AcDbEntity
  8
0
100
AcDbLine
 10
132.861737704918
 20
150.803573770492
 30
0.0
 11
132.9039999999999
 21
150.838
 31
0.0
  0
LINE
  5
CE
330
1E
100
AcDbEntity
  8
0
100
AcDbLine
 10
146.1999999999999
 20
150.9
 30
0.0
 11
148.8
 21
148.9
 31
0.0
  0
LINE
  5
CF
330
1E
100
AcDbEntity
  8
0
100
AcDbLine
 10
146.5
 20
151.3
 30
0.0
 11
149.1999999999999
 21
149.1999999999999
 31
0.0
  0
LINE
  5
D1
330
1E
100
AcDbEntity
  8
0
100
AcDbLine
 10
147.0749999999999
 20
150.929
 30
0.0
 11
147.640999999981
 21
150.517000000014
 31
0.0
  0
LINE
  5
D5
330
1E
100
AcDbEntity
  8
0
100
AcDbLine
 10
143.1999999999999
 20
152.0999999999999
 30
0.0
 11
146.1999999999999
 21
150.9
 31
0.0
  0
LINE
  5
D6
330
1E
100
AcDbEntity
  8
0
100
AcDbLine
 10
136.8
 20
152.0999999999999
 30
0.0
 11
140.0
 21
152.5
 31
0.0
  0
LINE
  5
DB
330
1E
100
AcDbEntity
  8
0
100
AcDbLine
 10
132.359
 20
150.5169999999999
 30
0.0
 11
132.761139763211
 21
150.725330926942
 31
0.0
  0
LINE
  5
DE
330
1E
100
AcDbEntity
  8
0
100
AcDbLine
 10
150.8
 20
146.3
 30
0.0
 11
152.0
 21
143.3
 31
0.0
  0
LINE
  5
DF
330
1E
100
AcDbEntity
  8
0
100
AcDbLine
 10
151.3
 20
146.5
 30
0.0
 11
152.5
 21
143.4
 31
0.0
  0
LINE
  5
E6
330
1E
100
AcDbEntity
  8
0
100
AcDbLine
 10
152.3199999999999
 20
0.8400000000000058
 30
0.0
 11
164.36
 21
2.240000000000009
 31
0.0
  0
LINE
  5
E7
330
1E
100
AcDbEntity
  8
0
100
AcDbLine
 10
152.5
 20
136.5999999999999
 30
0.0
 11
153.0
 21
140.0
 31
0.0
  0
LINE
  5
E8
330
1E
100
AcDbEntity
  8
0
100
AcDbLine
 10
152.5
 20
136.5999999999999
 30
0.0
 11
153.0
 21
140.0
 31
0.0
  0
LINE
  5
E9
330
1E
100
AcDbEntity
  8
0
100
AcDbLine
 10
152.3199999999999
 20
0.8400000000000041
 30
0.0
 11
164.36
 21
2.24
 31
0.0
  0
LINE
  5
EA
330
1E
100
AcDbEntity
  8
0
100
AcDbLine
 10
152.0
 20
136.6999999999999
 30
0.0
 11
152.5
 21
140.0
 31
0.0
  0
LINE
  5
EF
330
1E
100
AcDbEntity
  8
0
100
AcDbLine
 10
156.972
 20
128.215
 30
0.0
 11
160.2279999999999
 21
116.9019999999999
 31
0.0
  0
LINE
  5
F1
330
1E
100
AcDbEntity
  8
0
100
AcDbLine
 10
154.6059999999999
 20
137.117
 30
0.0
 11
156.972
 21
128.215
 31
0.0
  0
LINE
  5
F2
330
1E
100
AcDbEntity
  8
0
100
AcDbLine
 10
152.8070131647089
 20
142.6524807162899
 30
0.0
 11
154.6059999999999
 21
137.117
 31
0.0
  0
LINE
  5
F3
330
1E
100
AcDbEntity
  8
0
100
AcDbLine
 10
152.0
 20
143.3
 30
0.0
 11
152.5
 21
140.0
 31
0.0
  0
LINE
  5
F4
330
1E
100
AcDbEntity
  8
0
100
AcDbLine
 10
152.5
 20
143.4
 30
0.0
 11
153.0
 21
140.0
 31
0.0
  0
LINE
  5
F6
330
1E
100
AcDbEntity
  8
0
100
AcDbLine
 10
152.364
 20
144.0169999999999
 30
0.0
 11
152.802
 21
142.6689999999999
 31
0.0
  0
LINE
  5
F9
330
1E
100
AcDbEntity
  8
0
100
AcDbLine
 10
151.9127085541259
 20
144.9171695685089
 30
0.0
 11
152.364
 21
144.0169999999999
 31
0.0
  0
LINE
  5
FD
330
1E
100
AcDbEntity
  8
0
100
AcDbLine
 10
156.972
 20
151.7849999999999
 30
0.0
 11
160.2279999999999
 21
163.0979999999999
 31
0.0
  0
LINE
  5
FE
330
1E
100
AcDbEntity
  8
0
100
AcDbLine
 10
153.0
 20
140.0
 30
0.0
 11
156.972
 21
151.7849999999999
 31
0.0
  0
LINE
  5
100
330
1E
100
AcDbEntity
  8
0
100
AcDbLine
 10
2.24
 20
164.36
 30
0.0
 11
5.04
 21
176.4
 31
0.0
  0
LINE
  5
101
330
1E
100
AcDbEntity
  8
0
100
AcDbLine
 10
93.8954
 20
159.282
 30
0.0
 11
100.39
 21
154.1929999999999
 31
0.0
  0
LINE
  5
102
330
1E
100
AcDbEntity
  8
0
100
AcDbLine
 10
100.39
 20
154.1929999999999
 30
0.0
 11
110.0589999999999
 21
146.797
 31
0.0
  0
LINE
  5
103
330
1E
100
AcDbEntity
  8
0
100
AcDbLine
 10
8.679999999999999
 20
187.88
 30
0.0
 11
13.44
 21
199.08
 31
0.0
  0
LINE
  5
104
330
1E
100
AcDbEntity
  8
0
100
AcDbLine
 10
5.04
 20
176.4
 30
0.0
 11
8.679999999999999
 21
187.88
 31
0.0
  0
LINE
  5
105
330
1E
100
AcDbEntity
  8
0
100
AcDbLine
 10
57.8128
 20
196.499
 30
0.0
 11
59.0983
 21
198.779
 31
0.0
  0
LINE
  5
106
330
1E
100
AcDbEntity
  8
0
100
AcDbLine
 10
57.0493
 20
194.087
 30
0.0
 11
57.8128
 21
196.499
 31
0.0
  0
LINE
  5
107
330
1E
100
AcDbEntity
  8
0
100
AcDbLine
 10
56.8667
 20
191.624
 30
0.0
 11
57.3015
 21
189.33
 31
0.0
  0
LINE
  5
108
330
1E
100
AcDbEntity
  8
0
100
AcDbLine
 10
56.8667
 20
191.624
 30
0.0
 11
57.0493
 21
194.087
 31
0.0
  0
LINE
  5
109
330
1E
100
AcDbEntity
  8
0
100
AcDbLine
 10
57.3015
 20
189.33
 30
0.0
 11
58.39059999999999
 21
187.4259999999999
 31
0.0
  0
LINE
  5
10A
330
1E
100
AcDbEntity
  8
0
100
AcDbLine
 10
59.7735
 20
185.927
 30
0.0
 11
77.4887
 21
172.0679999999999
 31
0.0
  0
LINE
  5
10B
330
1E
100
AcDbEntity
  8
0
100
AcDbLine
 10
59.7735
 20
185.927
 30
0.0
 11
61.7884
 21
184.9579999999999
 31
0.0
  0
LINE
  5
10C
330
1E
100
AcDbEntity
  8
0
100
AcDbLine
 10
58.39059999999999
 20
187.4259999999999
 30
0.0
 11
59.7735
 21
185.927
 31
0.0
  0
LINE
  5
10D
330
1E
100
AcDbEntity
  8
0
100
AcDbLine
 10
13.44
 20
199.08
 30
0.0
 11
19.03999999999999
 21
209.7199999999999
 31
0.0
  0
LINE
  5
10E
330
1E
100
AcDbEntity
  8
0
100
AcDbLine
 10
59.0983
 20
198.779
 30
0.0
 11
60.8692
 21
200.706
 31
0.0
  0
LINE
  5
10F
330
1E
100
AcDbEntity
  8
0
100
AcDbLine
 10
66.2513
 20
184.8059999999999
 30
0.0
 11
68.5373
 21
185.74
 31
0.0
  0
LINE
  5
110
330
1E
100
AcDbEntity
  8
0
100
AcDbLine
 10
63.9355
 20
184.51
 30
0.0
 11
66.2513
 21
184.8059999999999
 31
0.0
  0
LINE
  5
111
330
1E
100
AcDbEntity
  8
0
100
AcDbLine
 10
70.5952
 20
187.212
 30
0.0
 11
72.36620000000001
 21
189.139
 31
0.0
  0
LINE
  5
112
330
1E
100
AcDbEntity
  8
0
100
AcDbLine
 10
68.5373
 20
185.74
 30
0.0
 11
70.5952
 21
187.212
 31
0.0
  0
LINE
  5
113
330
1E
100
AcDbEntity
  8
0
100
AcDbLine
 10
61.7884
 20
184.9579999999999
 30
0.0
 11
63.9355
 21
184.51
 31
0.0
  0
LINE
  5
114
330
1E
100
AcDbEntity
  8
0
100
AcDbLine
 10
72.36620000000001
 20
189.139
 30
0.0
 11
73.6517
 21
191.4189999999999
 31
0.0
  0
LINE
  5
115
330
1E
100
AcDbEntity
  8
0
100
AcDbLine
 10
73.6517
 20
191.4189999999999
 30
0.0
 11
74.4152
 21
193.83
 31
0.0
  0
LINE
  5
116
330
1E
100
AcDbEntity
  8
0
100
AcDbLine
 10
77.4887
 20
172.0679999999999
 30
0.0
 11
93.8954
 21
159.282
 31
0.0
  0
LINE
  5
117
330
1E
100
AcDbEntity
  8
0
100
AcDbLine
 10
74.4152
 20
193.83
 30
0.0
 11
74.59780000000001
 21
196.294
 31
0.0
  0
LINE
  5
118
330
1E
100
AcDbEntity
  8
0
100
AcDbLine
 10
74.1629
 20
198.587
 30
0.0
 11
74.59780000000001
 21
196.294
 31
0.0
  0
LINE
  5
119
330
1E
100
AcDbEntity
  8
0
100
AcDbLine
 10
73.07389999999999
 20
200.4909999999999
 30
0.0
 11
74.1629
 21
198.587
 31
0.0
  0
LINE
  5
11A
330
1E
100
AcDbEntity
  8
0
100
AcDbLine
 10
60.8692
 20
200.706
 30
0.0
 11
62.9271
 21
202.177
 31
0.0
  0
LINE
  5
11B
330
1E
100
AcDbEntity
  8
0
100
AcDbLine
 10
62.9271
 20
202.177
 30
0.0
 11
65.2132
 21
203.112
 31
0.0
  0
LINE
  5
11C
330
1E
100
AcDbEntity
  8
0
100
AcDbLine
 10
65.2132
 20
203.112
 30
0.0
 11
67.529
 21
203.407
 31
0.0
  0
LINE
  5
11D
330
1E
100
AcDbEntity
  8
0
100
AcDbLine
 10
50.12
 20
246.96
 30
0.0
 11
59.64
 21
254.52
 31
0.0
  0
LINE
  5
11E
330
1E
100
AcDbEntity
  8
0
100
AcDbLine
 10
59.64
 20
254.52
 30
0.0
 11
70.28
 21
260.9599999999999
 31
0.0
  0
LINE
  5
11F
330
1E
100
AcDbEntity
  8
0
100
AcDbLine
 10
41.15999999999999
 20
238.84
 30
0.0
 11
50.12
 21
246.96
 31
0.0
  0
LINE
  5
120
330
1E
100
AcDbEntity
  8
0
100
AcDbLine
 10
33.04
 20
229.8799999999999
 30
0.0
 11
41.15999999999999
 21
238.84
 31
0.0
  0
LINE
  5
121
330
1E
100
AcDbEntity
  8
0
100
AcDbLine
 10
25.48
 20
220.36
 30
0.0
 11
33.04
 21
229.8799999999999
 31
0.0
  0
LINE
  5
122
330
1E
100
AcDbEntity
  8
0
100
AcDbLine
 10
19.03999999999999
 20
209.7199999999999
 30
0.0
 11
25.48
 21
220.36
 31
0.0
  0
LINE
  5
123
330
1E
100
AcDbEntity
  8
0
100
AcDbLine
 10
67.529
 20
203.407
 30
0.0
 11
69.676
 21
202.96
 31
0.0
  0
LINE
  5
124
330
1E
100
AcDbEntity
  8
0
100
AcDbLine
 10
80.92
 20
266.5599999999999
 30
0.0
 11
92.12000000000001
 21
271.32
 31
0.0
  0
LINE
  5
125
330
1E
100
AcDbEntity
  8
0
100
AcDbLine
 10
70.28
 20
260.9599999999999
 30
0.0
 11
80.92
 21
266.5599999999999
 31
0.0
  0
LINE
  5
126
330
1E
100
AcDbEntity
  8
0
100
AcDbLine
 10
69.676
 20
202.96
 30
0.0
 11
71.5292
 21
202.1079999999999
 31
0.0
  0
LINE
  5
127
330
1E
100
AcDbEntity
  8
0
100
AcDbLine
 10
71.5292
 20
202.1079999999999
 30
0.0
 11
90.18489999999999
 21
189.542
 31
0.0
  0
LINE
  5
128
330
1E
100
AcDbEntity
  8
0
100
AcDbLine
 10
71.5292
 20
202.1079999999999
 30
0.0
 11
73.07389999999999
 21
200.4909999999999
 31
0.0
  0
LINE
  5
129
330
1E
100
AcDbEntity
  8
0
100
AcDbLine
 10
114.2619999999999
 20
173.285
 30
0.0
 11
124.2839999999999
 21
166.375
 31
0.0
  0
LINE
  5
12A
330
1E
100
AcDbEntity
  8
0
100
AcDbLine
 10
103.6
 20
274.96
 30
0.0
 11
115.64
 21
277.76
 31
0.0
  0
LINE
  5
12B
330
1E
100
AcDbEntity
  8
0
100
AcDbLine
 10
115.64
 20
277.76
 30
0.0
 11
127.68
 21
279.16
 31
0.0
  0
LINE
  5
12C
330
1E
100
AcDbEntity
  8
0
100
AcDbLine
 10
92.12000000000001
 20
271.32
 30
0.0
 11
103.6
 21
274.96
 31
0.0
  0
LINE
  5
12D
330
1E
100
AcDbEntity
  8
0
100
AcDbLine
 10
127.68
 20
279.16
 30
0.0
 11
140.0
 21
280.0
 31
0.0
  0
LINE
  5
12E
330
1E
100
AcDbEntity
  8
0
100
AcDbLine
 10
107.414
 20
177.8899999999999
 30
0.0
 11
114.2619999999999
 21
173.285
 31
0.0
  0
LINE
  5
12F
330
1E
100
AcDbEntity
  8
0
100
AcDbLine
 10
90.18489999999999
 20
189.542
 30
0.0
 11
107.414
 21
177.8899999999999
 31
0.0
  0
LINE
  5
130
330
1E
100
AcDbEntity
  8
0
100
AcDbLine
 10
124.2839999999999
 20
166.375
 30
0.0
 11
134.037
 21
159.7829999999999
 31
0.0
  0
LINE
  5
131
330
1E
100
AcDbEntity
  8
0
100
AcDbLine
 10
136.6999999999999
 20
152.5
 30
0.0
 11
140.0
 21
153.0
 31
0.0
  0
LINE
  5
132
330
1E
100
AcDbEntity
  8
0
100
AcDbLine
 10
134.037
 20
159.7829999999999
 30
0.0
 11
141.772
 21
154.782
 31
0.0
  0
LINE
  5
134
330
1E
100
AcDbEntity
  8
0
100
AcDbLine
 10
140.0
 20
152.5
 30
0.0
 11
143.1999999999999
 21
152.0999999999999
 31
0.0
  0
LINE
  5
138
330
1E
100
AcDbEntity
  8
0
100
AcDbLine
 10
143.3
 20
152.5
 30
0.0
 11
146.5
 21
151.3
 31
0.0
  0
LINE
  5
13C
330
1E
100
AcDbEntity
  8
0
100
AcDbLine
 10
140.0
 20
153.0
 30
0.0
 11
143.3
 21
152.5
 31
0.0
  0
LINE
  5
13E
330
1E
100
AcDbEntity
  8
0
100
AcDbLine
 10
141.772
 20
154.782
 30
0.0
 11
147.0749999999999
 21
150.929
 31
0.0
  0
LINE
  5
144
330
1E
100
AcDbEntity
  8
0
100
AcDbLine
 10
140.0
 20
280.0
 30
0.0
 11
152.3199999999999
 21
279.16
 31
0.0
  0
LINE
  5
145
330
1E
100
AcDbEntity
  8
0
100
AcDbLine
 10
152.3199999999999
 20
279.16
 30
0.0
 11
164.36
 21
277.76
 31
0.0
  0
LINE
  5
146
330
1E
100
AcDbEntity
  8
0
100
AcDbLine
 10
151.181
 20
209.3609999999999
 30
0.0
 11
158.888
 21
230.492
 31
0.0
  0
LINE
  5
147
330
1E
100
AcDbEntity
  8
0
100
AcDbLine
 10
144.091
 20
189.807
 30
0.0
 11
151.181
 21
209.3609999999999
 31
0.0
  0
LINE
  5
148
330
1E
100
AcDbEntity
  8
0
100
AcDbLine
 10
141.2579999999999
 20
182.057
 30
0.0
 11
144.091
 21
189.807
 31
0.0
  0
LINE
  5
149
330
1E
100
AcDbEntity
  8
0
100
AcDbLine
 10
137.212
 20
170.5759999999999
 30
0.0
 11
141.2579999999999
 21
182.057
 31
0.0
  0
LINE
  5
14A
330
1E
100
AcDbEntity
  8
0
100
AcDbLine
 10
133.441215962569
 20
160.185687211601
 30
0.0
 11
137.212
 21
170.5759999999999
 31
0.0
  0
LINE
  5
14B
330
1E
100
AcDbEntity
  8
0
100
AcDbLine
 10
157.1707609807139
 20
152.475596736737
 30
0.0
 11
168.2179999999999
 21
152.0999999999999
 31
0.0
  0
LINE
  5
14C
330
1E
100
AcDbEntity
  8
0
100
AcDbLine
 10
158.827
 20
53.9039000000001
 30
0.0
 11
159.8229999999999
 21
56.0151000000001
 31
0.0
  0
LINE
  5
14D
330
1E
100
AcDbEntity
  8
0
100
AcDbLine
 10
158.589
 20
51.72370000000011
 30
0.0
 11
158.888
 21
49.5077000000001
 31
0.0
  0
LINE
  5
14E
330
1E
100
AcDbEntity
  8
0
100
AcDbLine
 10
158.589
 20
51.72370000000011
 30
0.0
 11
158.827
 21
53.9039000000001
 31
0.0
  0
LINE
  5
14F
330
1E
100
AcDbEntity
  8
0
100
AcDbLine
 10
164.36
 20
2.240000000000009
 30
0.0
 11
176.4
 21
5.040000000000009
 31
0.0
  0
LINE
  5
150
330
1E
100
AcDbEntity
  8
0
100
AcDbLine
 10
164.36
 20
2.24
 30
0.0
 11
176.4
 21
5.04
 31
0.0
  0
LINE
  5
151
330
1E
100
AcDbEntity
  8
0
100
AcDbLine
 10
176.4
 20
5.040000000000009
 30
0.0
 11
187.88
 21
8.68000000000001
 31
0.0
  0
LINE
  5
152
330
1E
100
AcDbEntity
  8
0
100
AcDbLine
 10
176.4
 20
5.04
 30
0.0
 11
187.88
 21
8.679999999999999
 31
0.0
  0
LINE
  5
153
330
1E
100
AcDbEntity
  8
0
100
AcDbLine
 10
170.902
 20
44.89430000000011
 30
0.0
 11
173.282
 21
45.98310000000011
 31
0.0
  0
LINE
  5
154
330
1E
100
AcDbEntity
  8
0
100
AcDbLine
 10
168.3359999999999
 20
44.3762000000001
 30
0.0
 11
170.902
 21
44.89430000000011
 31
0.0
  0
LINE
  5
155
330
1E
100
AcDbEntity
  8
0
100
AcDbLine
 10
165.807
 20
44.3954000000001
 30
0.0
 11
168.3359999999999
 21
44.3762000000001
 31
0.0
  0
LINE
  5
156
330
1E
100
AcDbEntity
  8
0
100
AcDbLine
 10
173.282
 20
45.98310000000011
 30
0.0
 11
175.317
 21
47.4856000000001
 31
0.0
  0
LINE
  5
157
330
1E
100
AcDbEntity
  8
0
100
AcDbLine
 10
175.317
 20
47.4856000000001
 30
0.0
 11
176.9129999999999
 21
49.37090000000011
 31
0.0
  0
LINE
  5
158
330
1E
100
AcDbEntity
  8
0
100
AcDbLine
 10
163.4079999999999
 20
44.9829000000001
 30
0.0
 11
165.807
 21
44.3954000000001
 31
0.0
  0
LINE
  5
159
330
1E
100
AcDbEntity
  8
0
100
AcDbLine
 10
161.3609999999999
 20
46.1052000000001
 30
0.0
 11
163.4079999999999
 21
44.9829000000001
 31
0.0
  0
LINE
  5
15A
330
1E
100
AcDbEntity
  8
0
100
AcDbLine
 10
176.9129999999999
 20
49.37090000000011
 30
0.0
 11
177.909
 21
51.4821000000001
 31
0.0
  0
LINE
  5
15B
330
1E
100
AcDbEntity
  8
0
100
AcDbLine
 10
176.849
 20
57.6568000000001
 30
0.0
 11
177.909
 21
55.6881000000001
 31
0.0
  0
LINE
  5
15C
330
1E
100
AcDbEntity
  8
0
100
AcDbLine
 10
177.909
 20
51.4821000000001
 30
0.0
 11
178.147
 21
53.66240000000011
 31
0.0
  0
LINE
  5
15D
330
1E
100
AcDbEntity
  8
0
100
AcDbLine
 10
177.909
 20
55.6881000000001
 30
0.0
 11
178.147
 21
53.66240000000011
 31
0.0
  0
LINE
  5
15E
330
1E
100
AcDbEntity
  8
0
100
AcDbLine
 10
160.2279999999999
 20
116.9019999999999
 30
0.0
 11
163.703
 21
105.2359999999999
 31
0.0
  0
LINE
  5
15F
330
1E
100
AcDbEntity
  8
0
100
AcDbLine
 10
165.834
 20
60.4917000000001
 30
0.0
 11
168.399
 21
61.0098000000001
 31
0.0
  0
LINE
  5
160
330
1E
100
AcDbEntity
  8
0
100
AcDbLine
 10
168.399
 20
61.0098000000001
 30
0.0
 11
170.929
 21
60.99060000000011
 31
0.0
  0
LINE
  5
161
330
1E
100
AcDbEntity
  8
0
100
AcDbLine
 10
170.929
 20
60.99060000000011
 30
0.0
 11
173.328
 21
60.40320000000011
 31
0.0
  0
LINE
  5
162
330
1E
100
AcDbEntity
  8
0
100
AcDbLine
 10
173.328
 20
60.40320000000011
 30
0.0
 11
175.375
 21
59.28080000000011
 31
0.0
  0
LINE
  5
163
330
1E
100
AcDbEntity
  8
0
100
AcDbLine
 10
175.375
 20
59.28080000000011
 30
0.0
 11
176.849
 21
57.6568000000001
 31
0.0
  0
LINE
  5
164
330
1E
100
AcDbEntity
  8
0
100
AcDbLine
 10
171.724
 20
77.31360000000009
 30
0.0
 11
177.909
 21
55.6881000000001
 31
0.0
  0
LINE
  5
165
330
1E
100
AcDbEntity
  8
0
100
AcDbLine
 10
165.9659999999999
 20
97.30080000000009
 30
0.0
 11
171.724
 21
77.31360000000009
 31
0.0
  0
LINE
  5
166
330
1E
100
AcDbEntity
  8
0
100
AcDbLine
 10
163.703
 20
105.2359999999999
 30
0.0
 11
165.9659999999999
 21
97.30080000000009
 31
0.0
  0
LINE
  5
167
330
1E
100
AcDbEntity
  8
0
100
AcDbLine
 10
163.454
 20
59.4029000000001
 30
0.0
 11
165.834
 21
60.4917000000001
 31
0.0
  0
LINE
  5
168
330
1E
100
AcDbEntity
  8
0
100
AcDbLine
 10
161.418
 20
57.9004000000001
 30
0.0
 11
163.454
 21
59.4029000000001
 31
0.0
  0
LINE
  5
169
330
1E
100
AcDbEntity
  8
0
100
AcDbLine
 10
159.8229999999999
 20
56.0151000000001
 30
0.0
 11
161.418
 21
57.9004000000001
 31
0.0
  0
LINE
  5
16A
330
1E
100
AcDbEntity
  8
0
100
AcDbLine
 10
159.8869999999999
 20
47.7292000000001
 30
0.0
 11
161.3609999999999
 21
46.1052000000001
 31
0.0
  0
LINE
  5
16B
330
1E
100
AcDbEntity
  8
0
100
AcDbLine
 10
158.888
 20
49.5077000000001
 30
0.0
 11
159.8869999999999
 21
47.7292000000001
 31
0.0
  0
LINE
  5
16C
330
1E
100
AcDbEntity
  8
0
100
AcDbLine
 10
168.2179999999999
 20
127.9
 30
0.0
 11
180.387
 21
128.1999999999999
 31
0.0
  0
LINE
  5
16D
330
1E
100
AcDbEntity
  8
0
100
AcDbLine
 10
209.7199999999999
 20
19.03999999999999
 30
0.0
 11
220.36
 21
25.48
 31
0.0
  0
LINE
  5
16E
330
1E
100
AcDbEntity
  8
0
100
AcDbLine
 10
199.08
 20
13.44
 30
0.0
 11
209.7199999999999
 21
19.03999999999999
 31
0.0
  0
LINE
  5
16F
330
1E
100
AcDbEntity
  8
0
100
AcDbLine
 10
187.88
 20
8.68000000000001
 30
0.0
 11
199.08
 21
13.44
 31
0.0
  0
LINE
  5
170
330
1E
100
AcDbEntity
  8
0
100
AcDbLine
 10
238.84
 20
41.15999999999999
 30
0.0
 11
246.96
 21
50.12
 31
0.0
  0
LINE
  5
171
330
1E
100
AcDbEntity
  8
0
100
AcDbLine
 10
246.96
 20
50.12
 30
0.0
 11
254.52
 21
59.64
 31
0.0
  0
LINE
  5
172
330
1E
100
AcDbEntity
  8
0
100
AcDbLine
 10
254.52
 20
59.64
 30
0.0
 11
260.9599999999999
 21
70.28
 31
0.0
  0
LINE
  5
173
330
1E
100
AcDbEntity
  8
0
100
AcDbLine
 10
260.9599999999999
 20
70.28
 30
0.0
 11
266.5599999999999
 21
80.92
 31
0.0
  0
LINE
  5
174
330
1E
100
AcDbEntity
  8
0
100
AcDbLine
 10
266.5599999999999
 20
80.92
 30
0.0
 11
271.32
 21
92.12000000000001
 31
0.0
  0
LINE
  5
175
330
1E
100
AcDbEntity
  8
0
100
AcDbLine
 10
271.32
 20
92.12000000000001
 30
0.0
 11
274.96
 21
103.6
 31
0.0
  0
LINE
  5
176
330
1E
100
AcDbEntity
  8
0
100
AcDbLine
 10
274.96
 20
103.6
 30
0.0
 11
277.76
 21
115.64
 31
0.0
  0
LINE
  5
177
330
1E
100
AcDbEntity
  8
0
100
AcDbLine
 10
277.76
 20
115.64
 30
0.0
 11
279.16
 21
127.68
 31
0.0
  0
LINE
  5
178
330
1E
100
AcDbEntity
  8
0
100
AcDbLine
 10
279.16
 20
127.68
 30
0.0
 11
280.0
 21
140.0
 31
0.0
  0
LINE
  5
179
330
1E
100
AcDbEntity
  8
0
100
AcDbLine
 10
229.8799999999999
 20
33.04
 30
0.0
 11
238.84
 21
41.15999999999999
 31
0.0
  0
LINE
  5
17A
330
1E
100
AcDbEntity
  8
0
100
AcDbLine
 10
220.36
 20
25.48
 30
0.0
 11
229.8799999999999
 21
33.04
 31
0.0
  0
LINE
  5
17B
330
1E
100
AcDbEntity
  8
0
100
AcDbLine
 10
209.7199999999999
 20
19.03999999999999
 30
0.0
 11
220.36
 21
25.48
 31
0.0
  0
LINE
  5
17C
330
1E
100
AcDbEntity
  8
0
100
AcDbLine
 10
187.88
 20
8.679999999999999
 30
0.0
 11
199.08
 21
13.44
 31
0.0
  0
LINE
  5
17D
330
1E
100
AcDbEntity
  8
0
100
AcDbLine
 10
180.387
 20
128.1999999999999
 30
0.0
 11
188.6329999999999
 21
128.4999999999999
 31
0.0
  0
LINE
  5
17E
330
1E
100
AcDbEntity
  8
0
100
AcDbLine
 10
209.4209999999999
 20
150.8
 30
0.0
 11
231.8999999999999
 21
150.0
 31
0.0
  0
LINE
  5
17F
330
1E
100
AcDbEntity
  8
0
100
AcDbLine
 10
188.6329999999999
 20
151.5
 30
0.0
 11
209.4209999999999
 21
150.8
 31
0.0
  0
LINE
  5
180
330
1E
100
AcDbEntity
  8
0
100
AcDbLine
 10
180.387
 20
151.8
 30
0.0
 11
188.6329999999999
 21
151.5
 31
0.0
  0
LINE
  5
181
330
1E
100
AcDbEntity
  8
0
100
AcDbLine
 10
160.2279999999999
 20
163.0979999999999
 30
0.0
 11
163.703
 21
174.764
 31
0.0
  0
LINE
  5
182
330
1E
100
AcDbEntity
  8
0
100
AcDbLine
 10
163.454
 20
220.597
 30
0.0
 11
165.834
 21
219.5079999999999
 31
0.0
  0
LINE
  5
183
330
1E
100
AcDbEntity
  8
0
100
AcDbLine
 10
161.418
 20
222.1
 30
0.0
 11
163.454
 21
220.597
 31
0.0
  0
LINE
  5
184
330
1E
100
AcDbEntity
  8
0
100
AcDbLine
 10
159.8229999999999
 20
223.985
 30
0.0
 11
161.418
 21
222.1
 31
0.0
  0
LINE
  5
185
330
1E
100
AcDbEntity
  8
0
100
AcDbLine
 10
158.827
 20
226.0959999999999
 30
0.0
 11
159.8229999999999
 21
223.985
 31
0.0
  0
LINE
  5
186
330
1E
100
AcDbEntity
  8
0
100
AcDbLine
 10
158.589
 20
228.2759999999999
 30
0.0
 11
158.888
 21
230.492
 31
0.0
  0
LINE
  5
187
330
1E
100
AcDbEntity
  8
0
100
AcDbLine
 10
158.589
 20
228.2759999999999
 30
0.0
 11
158.827
 21
226.0959999999999
 31
0.0
  0
LINE
  5
188
330
1E
100
AcDbEntity
  8
0
100
AcDbLine
 10
164.36
 20
277.76
 30
0.0
 11
176.4
 21
274.96
 31
0.0
  0
LINE
  5
189
330
1E
100
AcDbEntity
  8
0
100
AcDbLine
 10
165.807
 20
235.6049999999999
 30
0.0
 11
168.3359999999999
 21
235.624
 31
0.0
  0
LINE
  5
18A
330
1E
100
AcDbEntity
  8
0
100
AcDbLine
 10
163.4079999999999
 20
235.0169999999999
 30
0.0
 11
165.807
 21
235.6049999999999
 31
0.0
  0
LINE
  5
18B
330
1E
100
AcDbEntity
  8
0
100
AcDbLine
 10
161.3609999999999
 20
233.895
 30
0.0
 11
163.4079999999999
 21
235.0169999999999
 31
0.0
  0
LINE
  5
18C
330
1E
100
AcDbEntity
  8
0
100
AcDbLine
 10
159.8869999999999
 20
232.2709999999999
 30
0.0
 11
161.3609999999999
 21
233.895
 31
0.0
  0
LINE
  5
18D
330
1E
100
AcDbEntity
  8
0
100
AcDbLine
 10
158.888
 20
230.492
 30
0.0
 11
159.8869999999999
 21
232.2709999999999
 31
0.0
  0
LINE
  5
18E
330
1E
100
AcDbEntity
  8
0
100
AcDbLine
 10
165.834
 20
219.5079999999999
 30
0.0
 11
168.399
 21
218.99
 31
0.0
  0
LINE
  5
18F
330
1E
100
AcDbEntity
  8
0
100
AcDbLine
 10
163.703
 20
174.764
 30
0.0
 11
165.9659999999999
 21
182.699
 31
0.0
  0
LINE
  5
190
330
1E
100
AcDbEntity
  8
0
100
AcDbLine
 10
168.399
 20
218.99
 30
0.0
 11
170.929
 21
219.009
 31
0.0
  0
LINE
  5
191
330
1E
100
AcDbEntity
  8
0
100
AcDbLine
 10
170.929
 20
219.009
 30
0.0
 11
173.328
 21
219.5969999999999
 31
0.0
  0
LINE
  5
192
330
1E
100
AcDbEntity
  8
0
100
AcDbLine
 10
173.328
 20
219.5969999999999
 30
0.0
 11
175.375
 21
220.719
 31
0.0
  0
LINE
  5
193
330
1E
100
AcDbEntity
  8
0
100
AcDbLine
 10
175.375
 20
220.719
 30
0.0
 11
176.849
 21
222.343
 31
0.0
  0
LINE
  5
194
330
1E
100
AcDbEntity
  8
0
100
AcDbLine
 10
176.849
 20
222.343
 30
0.0
 11
177.909
 21
224.312
 31
0.0
  0
LINE
  5
195
330
1E
100
AcDbEntity
  8
0
100
AcDbLine
 10
168.3359999999999
 20
235.624
 30
0.0
 11
170.902
 21
235.1059999999999
 31
0.0
  0
LINE
  5
196
330
1E
100
AcDbEntity
  8
0
100
AcDbLine
 10
170.902
 20
235.1059999999999
 30
0.0
 11
173.282
 21
234.017
 31
0.0
  0
LINE
  5
197
330
1E
100
AcDbEntity
  8
0
100
AcDbLine
 10
176.4
 20
274.96
 30
0.0
 11
187.88
 21
271.32
 31
0.0
  0
LINE
  5
198
330
1E
100
AcDbEntity
  8
0
100
AcDbLine
 10
173.282
 20
234.017
 30
0.0
 11
175.317
 21
232.514
 31
0.0
  0
LINE
  5
199
330
1E
100
AcDbEntity
  8
0
100
AcDbLine
 10
175.317
 20
232.514
 30
0.0
 11
176.9129999999999
 21
230.629
 31
0.0
  0
LINE
  5
19A
330
1E
100
AcDbEntity
  8
0
100
AcDbLine
 10
176.9129999999999
 20
230.629
 30
0.0
 11
177.909
 21
228.5179999999999
 31
0.0
  0
LINE
  5
19B
330
1E
100
AcDbEntity
  8
0
100
AcDbLine
 10
177.909
 20
228.5179999999999
 30
0.0
 11
178.147
 21
226.338
 31
0.0
  0
LINE
  5
19C
330
1E
100
AcDbEntity
  8
0
100
AcDbLine
 10
199.08
 20
266.5599999999999
 30
0.0
 11
209.7199999999999
 21
260.9599999999999
 31
0.0
  0
LINE
  5
19D
330
1E
100
AcDbEntity
  8
0
100
AcDbLine
 10
187.88
 20
271.32
 30
0.0
 11
199.08
 21
266.5599999999999
 31
0.0
  0
LINE
  5
19E
330
1E
100
AcDbEntity
  8
0
100
AcDbLine
 10
177.909
 20
224.312
 30
0.0
 11
178.147
 21
226.338
 31
0.0
  0
LINE
  5
19F
330
1E
100
AcDbEntity
  8
0
100
AcDbLine
 10
171.724
 20
202.6859999999999
 30
0.0
 11
177.909
 21
224.312
 31
0.0
  0
LINE
  5
1A0
330
1E
100
AcDbEntity
  8
0
100
AcDbLine
 10
165.9659999999999
 20
182.699
 30
0.0
 11
171.724
 21
202.6859999999999
 31
0.0
  0
LINE
  5
1A1
330
1E
100
AcDbEntity
  8
0
100
AcDbLine
 10
168.2179999999999
 20
152.0999999999999
 30
0.0
 11
180.387
 21
151.8
 31
0.0
  0
LINE
  5
1A2
330
1E
100
AcDbEntity
  8
0
100
AcDbLine
 10
220.36
 20
254.52
 30
0.0
 11
229.8799999999999
 21
246.96
 31
0.0
  0
LINE
  5
1A3
330
1E
100
AcDbEntity
  8
0
100
AcDbLine
 10
209.7199999999999
 20
260.9599999999999
 30
0.0
 11
220.36
 21
254.52
 31
0.0
  0
LINE
  5
1A4
330
1E
100
AcDbEntity
  8
0
100
AcDbLine
 10
223.9
 20
142.5999999999999
 30
0.0
 11
224.6999999999999
 21
145.0
 31
0.0
  0
LINE
  5
1A5
330
1E
100
AcDbEntity
  8
0
100
AcDbLine
 10
224.6999999999999
 20
145.0
 30
0.0
 11
226.0
 21
147.0999999999999
 31
0.0
  0
LINE
  5
1A6
330
1E
100
AcDbEntity
  8
0
100
AcDbLine
 10
223.6
 20
140.0
 30
0.0
 11
223.9
 21
137.4
 31
0.0
  0
LINE
  5
1A7
330
1E
100
AcDbEntity
  8
0
100
AcDbLine
 10
223.6
 20
140.0
 30
0.0
 11
223.9
 21
142.5999999999999
 31
0.0
  0
LINE
  5
1A8
330
1E
100
AcDbEntity
  8
0
100
AcDbLine
 10
223.9
 20
137.4
 30
0.0
 11
224.6999999999999
 21
135.0
 31
0.0
  0
LINE
  5
1A9
330
1E
100
AcDbEntity
  8
0
100
AcDbLine
 10
226.0
 20
147.0999999999999
 30
0.0
 11
227.7
 21
148.6999999999999
 31
0.0
  0
LINE
  5
1AA
330
1E
100
AcDbEntity
  8
0
100
AcDbLine
 10
227.7
 20
148.6999999999999
 30
0.0
 11
229.7
 21
149.5999999999999
 31
0.0
  0
LINE
  5
1AB
330
1E
100
AcDbEntity
  8
0
100
AcDbLine
 10
224.6999999999999
 20
135.0
 30
0.0
 11
226.0
 21
132.9
 31
0.0
  0
LINE
  5
1AC
330
1E
100
AcDbEntity
  8
0
100
AcDbLine
 10
226.0
 20
132.9
 30
0.0
 11
227.7
 21
131.3
 31
0.0
  0
LINE
  5
1AD
330
1E
100
AcDbEntity
  8
0
100
AcDbLine
 10
229.7
 20
149.5999999999999
 30
0.0
 11
231.8999999999999
 21
150.0
 31
0.0
  0
LINE
  5
1AE
330
1E
100
AcDbEntity
  8
0
100
AcDbLine
 10
233.8999999999999
 20
149.5999999999999
 30
0.0
 11
235.8999999999999
 21
148.6999999999999
 31
0.0
  0
LINE
  5
1AF
330
1E
100
AcDbEntity
  8
0
100
AcDbLine
 10
229.8799999999999
 20
246.96
 30
0.0
 11
238.84
 21
238.84
 31
0.0
  0
LINE
  5
1B0
330
1E
100
AcDbEntity
  8
0
100
AcDbLine
 10
231.8999999999999
 20
150.0
 30
0.0
 11
233.8999999999999
 21
149.5999999999999
 31
0.0
  0
LINE
  5
1B1
330
1E
100
AcDbEntity
  8
0
100
AcDbLine
 10
227.7
 20
131.3
 30
0.0
 11
229.7
 21
130.4
 31
0.0
  0
LINE
  5
1B2
330
1E
100
AcDbEntity
  8
0
100
AcDbLine
 10
229.7
 20
130.4
 30
0.0
 11
231.8999999999999
 21
130.0
 31
0.0
  0
LINE
  5
1B3
330
1E
100
AcDbEntity
  8
0
100
AcDbLine
 10
237.5999999999999
 20
147.0999999999999
 30
0.0
 11
238.9
 21
145.0
 31
0.0
  0
LINE
  5
1B4
330
1E
100
AcDbEntity
  8
0
100
AcDbLine
 10
235.8999999999999
 20
148.6999999999999
 30
0.0
 11
237.5999999999999
 21
147.0999999999999
 31
0.0
  0
LINE
  5
1B5
330
1E
100
AcDbEntity
  8
0
100
AcDbLine
 10
239.6999999999999
 20
142.5999999999999
 30
0.0
 11
240.0
 21
140.0
 31
0.0
  0
LINE
  5
1B6
330
1E
100
AcDbEntity
  8
0
100
AcDbLine
 10
238.84
 20
238.84
 30
0.0
 11
246.96
 21
229.8799999999999
 31
0.0
  0
LINE
  5
1B7
330
1E
100
AcDbEntity
  8
0
100
AcDbLine
 10
238.9
 20
145.0
 30
0.0
 11
239.6999999999999
 21
142.5999999999999
 31
0.0
  0
LINE
  5
1B8
330
1E
100
AcDbEntity
  8
0
100
AcDbLine
 10
279.16
 20
152.3199999999999
 30
0.0
 11
280.0
 21
140.0
 31
0.0
  0
LINE
  5
1B9
330
1E
100
AcDbEntity
  8
0
100
AcDbLine
 10
246.96
 20
229.8799999999999
 30
0.0
 11
254.52
 21
220.36
 31
0.0
  0
LINE
  5
1BA
330
1E
100
AcDbEntity
  8
0
100
AcDbLine
 10
254.52
 20
220.36
 30
0.0
 11
260.9599999999999
 21
209.7199999999999
 31
0.0
  0
LINE
  5
1BB
330
1E
100
AcDbEntity
  8
0
100
AcDbLine
 10
260.9599999999999
 20
209.7199999999999
 30
0.0
 11
266.5599999999999
 21
199.08
 31
0.0
  0
LINE
  5
1BC
330
1E
100
AcDbEntity
  8
0
100
AcDbLine
 10
266.5599999999999
 20
199.08
 30
0.0
 11
271.32
 21
187.88
 31
0.0
  0
LINE
  5
1BD
330
1E
100
AcDbEntity
  8
0
100
AcDbLine
 10
274.96
 20
176.4
 30
0.0
 11
277.76
 21
164.36
 31
0.0
  0
LINE
  5
1BE
330
1E
100
AcDbEntity
  8
0
100
AcDbLine
 10
271.32
 20
187.88
 30
0.0
 11
274.96
 21
176.4
 31
0.0
  0
LINE
  5
1BF
330
1E
100
AcDbEntity
  8
0
100
AcDbLine
 10
277.76
 20
164.36
 30
0.0
 11
279.16
 21
152.3199999999999
 31
0.0
  0
LINE
  5
1C0
330
1E
100
AcDbEntity
  8
0
100
AcDbLine
 10
239.6999999999999
 20
137.4
 30
0.0
 11
240.0
 21
140.0
 31
0.0
  0
LINE
  5
1C1
330
1E
100
AcDbEntity
  8
0
100
AcDbLine
 10
238.9
 20
135.0
 30
0.0
 11
239.6999999999999
 21
137.4
 31
0.0
  0
LINE
  5
1C2
330
1E
100
AcDbEntity
  8
0
100
AcDbLine
 10
237.5999999999999
 20
132.9
 30
0.0
 11
238.9
 21
135.0
 31
0.0
  0
LINE
  5
1C3
330
1E
100
AcDbEntity
  8
0
100
AcDbLine
 10
235.8999999999999
 20
131.3
 30
0.0
 11
237.5999999999999
 21
132.9
 31
0.0
  0
LINE
  5
1C4
330
1E
100
AcDbEntity
  8
0
100
AcDbLine
 10
233.8999999999999
 20
130.4
 30
0.0
 11
235.8999999999999
 21
131.3
 31
0.0
  0
LINE
  5
1C5
330
1E
100
AcDbEntity
  8
0
100
AcDbLine
 10
231.8999999999999
 20
130.0
 30
0.0
 11
233.8999999999999
 21
130.4
 31
0.0
  0
LINE
  5
1C6
330
1E
100
AcDbEntity
  8
0
100
AcDbLine
 10
209.4209999999999
 20
129.1999999999999
 30
0.0
 11
231.8999999999999
 21
130.0
 31
0.0
  0
LINE
  5
1C7
330
1E
100
AcDbEntity
  8
0
100
AcDbLine
 10
188.6329999999999
 20
128.4999999999999
 30
0.0
 11
209.4209999999999
 21
129.1999999999999
 31
0.0
  0
LINE
  5
1C8
330
1E
100
AcDbEntity
  8
0
100
AcDbLine
 10
157.1707609807139
 20
127.5244032632629
 30
0.0
 11
168.2179999999999
 21
127.9
 31
0.0
  0
ENDSEC
  0
SECTION
  2
OBJECTS
  0
DICTIONARY
  5
C
330
0
100
AcDbDictionary
281
     1
  3
ACAD_GROUP
350
D
  3
ACAD_LAYOUT
350
19
  3
ACAD_MLINESTYLE
350
16
  3
ACAD_PLOTSETTINGS
350
18
  3
ACAD_PLOTSTYLENAME
350
E
  3
AcDbVariableDictionary
350
1CD
  0
DICTIONARY
  5
D
102
{ACAD_REACTORS
330
C
102
}
330
C
100
AcDbDictionary
281
     1
  0
DICTIONARY
  5
19
102
{ACAD_REACTORS
330
C
102
}
330
C
100
AcDbDictionary
281
     1
  3
Layout1
350
1D
  3
Model
350
21
  0
DICTIONARY
  5
16
102
{ACAD_REACTORS
330
C
102
}
330
C
100
AcDbDictionary
281
     1
  3
Standard
350
17
  0
DICTIONARY
  5
18
102
{ACAD_REACTORS
330
C
102
}
330
C
100
AcDbDictionary
281
     1
  0
ACDBDICTIONARYWDFLT
  5
E
102
{ACAD_REACTORS
330
C
102
}
330
C
100
AcDbDictionary
281
     1
  3
Normal
350
F
100
AcDbDictionaryWithDefault
340
F
  0
DICTIONARY
  5
1CD
102
{ACAD_REACTORS
330
C
102
}
330
C
100
AcDbDictionary
281
     1
  3
DIMASSOC
350
1CE
  0
LAYOUT
  5
1D
102
{ACAD_REACTORS
330
19
102
}
330
19
100
AcDbPlotSettings
  1

  2
hp deskjet 980c series
  4

  6

 40
0.0
 41
0.0
 42
0.0
 43
0.0
 44
0.0
 45
0.0
 46
0.0
 47
0.0
 48
0.0
 49
0.0
140
0.0
141
0.0
142
1.0
143
1.0
 70
   688
 72
     0
 73
     0
 74
     5
  7

 75
    16
147
1.0
148
0.0
149
0.0
100
AcDbLayout
  1
Layout1
 70
     1
 71
     1
 10
0.0
 20
0.0
 11
12.0
 21
9.0
 12
0.0
 22
0.0
 32
0.0
 14
1.000000000000000E+20
 24
1.000000000000000E+20
 34
1.000000000000000E+20
 15
-1.000000000000000E+20
 25
-1.000000000000000E+20
 35
-1.000000000000000E+20
146
0.0
 13
0.0
 23
0.0
 33
0.0
 16
1.0
 26
0.0
 36
0.0
 17
0.0
 27
1.0
 37
0.0
 76
     0
330
1A
  0
LAYOUT
  5
21
102
{ACAD_REACTORS
330
19
102
}
330
19
100
AcDbPlotSettings
  1

  2
hp deskjet 980c series
  4

  6

 40
0.0
 41
0.0
 42
0.0
 43
0.0
 44
0.0
 45
0.0
 46
0.0
 47
0.0
 48
0.0
 49
0.0
140
0.0
141
0.0
142
1.0
143
1.0
 70
  1712
 72
     0
 73
     0
 74
     0
  7

 75
     0
147
1.0
148
0.0
149
0.0
100
AcDbLayout
  1
Model
 70
     1
 71
     0
 10
0.0
 20
0.0
 11
12.0
 21
9.0
 12
0.0
 22
0.0
 32
0.0
 14
0.0
 24
0.0
 34
0.0
 15
0.0
 25
0.0
 35
0.0
146
0.0
 13
0.0
 23
0.0
 33
0.0
 16
1.0
 26
0.0
 36
0.0
 17
0.0
 27
1.0
 37
0.0
 76
     0
330
1E
  0
MLINESTYLE
  5
17
102
{ACAD_REACTORS
330
16
102
}
330
16
100
AcDbMlineStyle
  2
STANDARD
 70
     0
  3

 62
   256
 51
90.0
 52
90.0
 71
     2
 49
0.5
 62
   256
  6
BYLAYER
 49
-0.5
 62
   256
  6
BYLAYER
  0
ACDBPLACEHOLDER
  5
F
102
{ACAD_REACTORS
330
E
102
}
330
E
  0
DICTIONARYVAR
  5
1CE
102
{ACAD_REACTORS
330
1CD
102
}
330
1CD
100
DictionaryVariables
280
     0
  1
1
  0
ENDSEC
  0
EOF
