  0
SECTION
  2
HEADER
  9
$ACADVER
  1
AC1015
  9
$ACADMAINTVER
 70
    13
  9
$DWGCODEPAGE
  3
ANSI_1252
  9
$INSBASE
 10
0.0
 20
0.0
 30
0.0
  9
$EXTMIN
 10
0.0000000000000001
 20
-0.0955000000000066
 30
0.0
  9
$EXTMAX
 10
183.0
 20
147.0954999999999
 30
0.0
  9
$LIMMIN
 10
0.0
 20
0.0
  9
$LIMMAX
 10
12.0
 20
9.0
  9
$ORTHOMODE
 70
     0
  9
$REGENMODE
 70
     1
  9
$FILLMODE
 70
     1
  9
$QTEXTMODE
 70
     0
  9
$MIRRTEXT
 70
     1
  9
$LTSCALE
 40
1.0
  9
$ATTMODE
 70
     1
  9
$TEXTSIZE
 40
0.2
  9
$TRACEWID
 40
0.05
  9
$TEXTSTYLE
  7
Standard
  9
$CLAYER
  8
0
  9
$CELTYPE
  6
Continuous
  9
$CECOLOR
 62
   256
  9
$CELTSCALE
 40
1.0
  9
$DISPSILH
 70
     0
  9
$DIMSCALE
 40
1.0
  9
$DIMASZ
 40
0.18
  9
$DIMEXO
 40
0.0625
  9
$DIMDLI
 40
0.38
  9
$DIMRND
 40
0.0
  9
$DIMDLE
 40
0.0
  9
$DIMEXE
 40
0.18
  9
$DIMTP
 40
0.0
  9
$DIMTM
 40
0.0
  9
$DIMTXT
 40
0.18
  9
$DIMCEN
 40
0.09
  9
$DIMTSZ
 40
0.0
  9
$DIMTOL
 70
     0
  9
$DIMLIM
 70
     0
  9
$DIMTIH
 70
     1
  9
$DIMTOH
 70
     1
  9
$DIMSE1
 70
     0
  9
$DIMSE2
 70
     0
  9
$DIMTAD
 70
     0
  9
$DIMZIN
 70
     0
  9
$DIMBLK
  1

  9
$DIMASO
 70
     1
  9
$DIMSHO
 70
     1
  9
$DIMPOST
  1

  9
$DIMAPOST
  1

  9
$DIMALT
 70
     0
  9
$DIMALTD
 70
     2
  9
$DIMALTF
 40
25.4
  9
$DIMLFAC
 40
1.0
  9
$DIMTOFL
 70
     0
  9
$DIMTVP
 40
0.0
  9
$DIMTIX
 70
     0
  9
$DIMSOXD
 70
     0
  9
$DIMSAH
 70
     0
  9
$DIMBLK1
  1

  9
$DIMBLK2
  1

  9
$DIMSTYLE
  2
Standard
  9
$DIMCLRD
 70
     0
  9
$DIMCLRE
 70
     0
  9
$DIMCLRT
 70
     0
  9
$DIMTFAC
 40
1.0
  9
$DIMGAP
 40
0.09
  9
$DIMJUST
 70
     0
  9
$DIMSD1
 70
     0
  9
$DIMSD2
 70
     0
  9
$DIMTOLJ
 70
     1
  9
$DIMTZIN
 70
     0
  9
$DIMALTZ
 70
     0
  9
$DIMALTTZ
 70
     0
  9
$DIMUPT
 70
     0
  9
$DIMDEC
 70
     4
  9
$DIMTDEC
 70
     4
  9
$DIMALTU
 70
     2
  9
$DIMALTTD
 70
     2
  9
$DIMTXSTY
  7
Standard
  9
$DIMAUNIT
 70
     0
  9
$DIMADEC
 70
     0
  9
$DIMALTRND
 40
0.0
  9
$DIMAZIN
 70
     0
  9
$DIMDSEP
 70
    46
  9
$DIMATFIT
 70
     3
  9
$DIMFRAC
 70
     0
  9
$DIMLDRBLK
  1

  9
$DIMLUNIT
 70
     2
  9
$DIMLWD
 70
    -2
  9
$DIMLWE
 70
    -2
  9
$DIMTMOVE
 70
     0
  9
$LUNITS
 70
     2
  9
$LUPREC
 70
     4
  9
$SKETCHINC
 40
0.1
  9
$FILLETRAD
 40
0.0
  9
$AUNITS
 70
     0
  9
$AUPREC
 70
     0
  9
$MENU
  1
.
  9
$ELEVATION
 40
0.0
  9
$PELEVATION
 40
0.0
  9
$THICKNESS
 40
0.0
  9
$LIMCHECK
 70
     0
  9
$CHAMFERA
 40
0.0
  9
$CHAMFERB
 40
0.0
  9
$CHAMFERC
 40
0.0
  9
$CHAMFERD
 40
0.0
  9
$SKPOLY
 70
     0
  9
$TDCREATE
 40
2454745.682163078
  9
$TDUCREATE
 40
2454745.598829745
  9
$TDUPDATE
 40
2454745.683473125
  9
$TDUUPDATE
 40
2454745.600139792
  9
$TDINDWG
 40
0.0013100463
  9
$TDUSRTIMER
 40
0.0013100463
  9
$USRTIMER
 70
     1
  9
$ANGBASE
 50
0.0
  9
$ANGDIR
 70
     0
  9
$PDMODE
 70
     0
  9
$PDSIZE
 40
0.0
  9
$PLINEWID
 40
0.0
  9
$SPLFRAME
 70
     0
  9
$SPLINETYPE
 70
     6
  9
$SPLINESEGS
 70
     8
  9
$HANDSEED
  5
14F
  9
$SURFTAB1
 70
     6
  9
$SURFTAB2
 70
     6
  9
$SURFTYPE
 70
     6
  9
$SURFU
 70
     6
  9
$SURFV
 70
     6
  9
$UCSBASE
  2

  9
$UCSNAME
  2

  9
$UCSORG
 10
0.0
 20
0.0
 30
0.0
  9
$UCSXDIR
 10
1.0
 20
0.0
 30
0.0
  9
$UCSYDIR
 10
0.0
 20
1.0
 30
0.0
  9
$UCSORTHOREF
  2

  9
$UCSORTHOVIEW
 70
     1
  9
$UCSORGTOP
 10
0.0
 20
0.0
 30
0.0
  9
$UCSORGBOTTOM
 10
0.0
 20
0.0
 30
0.0
  9
$UCSORGLEFT
 10
0.0
 20
0.0
 30
0.0
  9
$UCSORGRIGHT
 10
0.0
 20
0.0
 30
0.0
  9
$UCSORGFRONT
 10
0.0
 20
0.0
 30
0.0
  9
$UCSORGBACK
 10
0.0
 20
0.0
 30
0.0
  9
$PUCSBASE
  2

  9
$PUCSNAME
  2

  9
$PUCSORG
 10
0.0
 20
0.0
 30
0.0
  9
$PUCSXDIR
 10
1.0
 20
0.0
 30
0.0
  9
$PUCSYDIR
 10
0.0
 20
1.0
 30
0.0
  9
$PUCSORTHOREF
  2

  9
$PUCSORTHOVIEW
 70
     0
  9
$PUCSORGTOP
 10
0.0
 20
0.0
 30
0.0
  9
$PUCSORGBOTTOM
 10
0.0
 20
0.0
 30
0.0
  9
$PUCSORGLEFT
 10
0.0
 20
0.0
 30
0.0
  9
$PUCSORGRIGHT
 10
0.0
 20
0.0
 30
0.0
  9
$PUCSORGFRONT
 10
0.0
 20
0.0
 30
0.0
  9
$PUCSORGBACK
 10
0.0
 20
0.0
 30
0.0
  9
$USERI1
 70
     0
  9
$USERI2
 70
     0
  9
$USERI3
 70
     0
  9
$USERI4
 70
     0
  9
$USERI5
 70
     0
  9
$USERR1
 40
0.0
  9
$USERR2
 40
0.0
  9
$USERR3
 40
0.0
  9
$USERR4
 40
0.0
  9
$USERR5
 40
0.0
  9
$WORLDVIEW
 70
     1
  9
$SHADEDGE
 70
     3
  9
$SHADEDIF
 70
    70
  9
$TILEMODE
 70
     1
  9
$MAXACTVP
 70
    64
  9
$PINSBASE
 10
0.0
 20
0.0
 30
0.0
  9
$PLIMCHECK
 70
     0
  9
$PEXTMIN
 10
1.000000000000000E+20
 20
1.000000000000000E+20
 30
1.000000000000000E+20
  9
$PEXTMAX
 10
-1.000000000000000E+20
 20
-1.000000000000000E+20
 30
-1.000000000000000E+20
  9
$PLIMMIN
 10
0.0
 20
0.0
  9
$PLIMMAX
 10
12.0
 20
9.0
  9
$UNITMODE
 70
     0
  9
$VISRETAIN
 70
     1
  9
$PLINEGEN
 70
     0
  9
$PSLTSCALE
 70
     1
  9
$TREEDEPTH
 70
  3020
  9
$CMLSTYLE
  2
Standard
  9
$CMLJUST
 70
     0
  9
$CMLSCALE
 40
1.0
  9
$PROXYGRAPHICS
 70
     1
  9
$MEASUREMENT
 70
     0
  9
$CELWEIGHT
370
    -1
  9
$ENDCAPS
280
     0
  9
$JOINSTYLE
280
     0
  9
$LWDISPLAY
290
     0
  9
$INSUNITS
 70
     0
  9
$HYPERLINKBASE
  1

  9
$STYLESHEET
  1

  9
$XEDIT
290
     1
  9
$CEPSNTYPE
380
     0
  9
$PSTYLEMODE
290
     1
  9
$FINGERPRINTGUID
  2
{5E7F5B25-39F8-4790-94D2-1F99597B6173}
  9
$VERSIONGUID
  2
{2001B029-4535-4B0D-9362-10F144B66300}
  9
$EXTNAMES
290
     1
  9
$PSVPSCALE
 40
0.0
  9
$OLESTARTUP
290
     0
  0
ENDSEC
  0
SECTION
  2
CLASSES
  0
CLASS
  1
ACDBDICTIONARYWDFLT
  2
AcDbDictionaryWithDefault
  3
AutoCAD 2000
 90
        0
280
     0
281
     0
  0
CLASS
  1
ACDBPLACEHOLDER
  2
AcDbPlaceHolder
  3
AutoCAD 2000
 90
        0
280
     0
281
     0
  0
CLASS
  1
LAYOUT
  2
AcDbLayout
  3
AutoCAD 2000
 90
        0
280
     0
281
     0
  0
CLASS
  1
DICTIONARYVAR
  2
AcDbDictionaryVar
  3
AutoCAD 2000
 90
        0
280
     0
281
     0
  0
ENDSEC
  0
SECTION
  2
TABLES
  0
TABLE
  2
VPORT
  5
8
330
0
100
AcDbSymbolTable
 70
     2
  0
VPORT
  5
14E
330
8
100
AcDbSymbolTableRecord
100
AcDbViewportTableRecord
  2
*Active
 70
     0
 10
0.0
 20
0.0
 11
1.0
 21
1.0
 12
91.5
 22
73.5
 13
0.0
 23
0.0
 14
1.0
 24
1.0
 15
0.0
 25
0.0
 16
0.0
 26
0.0
 36
1.0
 17
0.0
 27
0.0
 37
0.0
 40
148.3203427109974
 41
2.078104993597951
 42
50.0
 43
0.0
 44
0.0
 50
0.0
 51
0.0
 71
     0
 72
   100
 73
     1
 74
     3
 75
     0
 76
     0
 77
     0
 78
     0
281
     0
 65
     1
110
0.0
120
0.0
130
0.0
111
1.0
121
0.0
131
0.0
112
0.0
122
1.0
132
0.0
 79
     1
146
0.0
  0
ENDTAB
  0
TABLE
  2
LTYPE
  5
5
330
0
100
AcDbSymbolTable
 70
     1
  0
LTYPE
  5
13
330
5
100
AcDbSymbolTableRecord
100
AcDbLinetypeTableRecord
  2
ByBlock
 70
     0
  3

 72
    65
 73
     0
 40
0.0
  0
LTYPE
  5
14
330
5
100
AcDbSymbolTableRecord
100
AcDbLinetypeTableRecord
  2
ByLayer
 70
     0
  3

 72
    65
 73
     0
 40
0.0
  0
LTYPE
  5
15
330
5
100
AcDbSymbolTableRecord
100
AcDbLinetypeTableRecord
  2
Continuous
 70
     0
  3
Solid line
 72
    65
 73
     0
 40
0.0
  0
ENDTAB
  0
TABLE
  2
LAYER
  5
2
330
0
100
AcDbSymbolTable
 70
     1
  0
LAYER
  5
10
330
2
100
AcDbSymbolTableRecord
100
AcDbLayerTableRecord
  2
0
 70
     0
 62
     7
  6
Continuous
370
    -3
390
F
  0
ENDTAB
  0
TABLE
  2
STYLE
  5
3
330
0
100
AcDbSymbolTable
 70
     1
  0
STYLE
  5
11
330
3
100
AcDbSymbolTableRecord
100
AcDbTextStyleTableRecord
  2
Standard
 70
     0
 40
0.0
 41
1.0
 50
0.0
 71
     0
 42
0.2
  3
txt
  4

  0
ENDTAB
  0
TABLE
  2
VIEW
  5
6
330
0
100
AcDbSymbolTable
 70
     0
  0
ENDTAB
  0
TABLE
  2
UCS
  5
7
330
0
100
AcDbSymbolTable
 70
     0
  0
ENDTAB
  0
TABLE
  2
APPID
  5
9
330
0
100
AcDbSymbolTable
 70
     1
  0
APPID
  5
12
330
9
100
AcDbSymbolTableRecord
100
AcDbRegAppTableRecord
  2
ACAD
 70
     0
  0
ENDTAB
  0
TABLE
  2
DIMSTYLE
  5
A
330
0
100
AcDbSymbolTable
 70
     1
100
AcDbDimStyleTable
 71
     0
  0
DIMSTYLE
105
148
330
A
100
AcDbSymbolTableRecord
100
AcDbDimStyleTableRecord
  2
Standard
 70
     0
340
11
  0
ENDTAB
  0
TABLE
  2
BLOCK_RECORD
  5
1
330
0
100
AcDbSymbolTable
 70
     0
  0
BLOCK_RECORD
  5
1E
330
1
100
AcDbSymbolTableRecord
100
AcDbBlockTableRecord
  2
*Model_Space
340
21
  0
BLOCK_RECORD
  5
1A
330
1
100
AcDbSymbolTableRecord
100
AcDbBlockTableRecord
  2
*Paper_Space
340
1D
  0
ENDTAB
  0
ENDSEC
  0
SECTION
  2
BLOCKS
  0
BLOCK
  5
1F
330
1E
100
AcDbEntity
  8
0
100
AcDbBlockBegin
  2
*Model_Space
 70
     0
 10
0.0
 20
0.0
 30
0.0
  3
*Model_Space
  1

  0
ENDBLK
  5
20
330
1E
100
AcDbEntity
  8
0
100
AcDbBlockEnd
  0
BLOCK
  5
1B
330
1A
100
AcDbEntity
 67
     1
  8
0
100
AcDbBlockBegin
  2
*Paper_Space
 70
     0
 10
0.0
 20
0.0
 30
0.0
  3
*Paper_Space
  1

  0
ENDBLK
  5
1C
330
1A
100
AcDbEntity
 67
     1
  8
0
100
AcDbBlockEnd
  0
ENDSEC
  0
SECTION
  2
ENTITIES
  0
LINE
  5
22
330
1E
100
AcDbEntity
  8
0
100
AcDbLine
 10
0.5769230000000021
 20
96.9045
 30
0.0
 11
62.1009877446497
 21
96.9045
 31
0.0
  0
LINE
  5
23
330
1E
100
AcDbEntity
  8
0
100
AcDbLine
 10
0.0000000000000001
 20
109.4244999999999
 30
0.0
 11
0.0000000000000001
 21
106.9045
 31
0.0
  0
LINE
  5
24
330
1E
100
AcDbEntity
  8
0
100
AcDbLine
 10
0.0000000000000001
 20
109.4244999999999
 30
0.0
 11
0.0000000000000001
 21
111.7445
 31
0.0
  0
LINE
  5
25
330
1E
100
AcDbEntity
  8
0
100
AcDbLine
 10
0.0000000000000001
 20
109.4244999999999
 30
0.0
 11
0.0000000000000001
 21
111.7445
 31
0.0
  0
LINE
  5
26
330
1E
100
AcDbEntity
  8
0
100
AcDbLine
 10
0.0000000000000001
 20
109.4244999999999
 30
0.0
 11
0.0000000000000001
 21
106.9045
 31
0.0
  0
LINE
  5
27
330
1E
100
AcDbEntity
  8
0
100
AcDbLine
 10
0.0000000000000001
 20
111.7445
 30
0.0
 11
0.0000000000000001
 21
113.7844999999999
 31
0.0
  0
LINE
  5
28
330
1E
100
AcDbEntity
  8
0
100
AcDbLine
 10
0.0000000000000001
 20
111.7445
 30
0.0
 11
0.0000000000000001
 21
109.4244999999999
 31
0.0
  0
LINE
  5
29
330
1E
100
AcDbEntity
  8
0
100
AcDbLine
 10
0.0000000000000001
 20
111.7445
 30
0.0
 11
0.0000000000000001
 21
109.4244999999999
 31
0.0
  0
LINE
  5
2A
330
1E
100
AcDbEntity
  8
0
100
AcDbLine
 10
0.0000000000000001
 20
113.7844999999999
 30
0.0
 11
0.0000000000000001
 21
115.3445
 31
0.0
  0
LINE
  5
2B
330
1E
100
AcDbEntity
  8
0
100
AcDbLine
 10
0.0000000000000001
 20
113.7844999999999
 30
0.0
 11
0.0000000000000001
 21
111.7445
 31
0.0
  0
LINE
  5
2C
330
1E
100
AcDbEntity
  8
0
100
AcDbLine
 10
0.0000000000000001
 20
115.3445
 30
0.0
 11
0.0000000000000001
 21
116.3045
 31
0.0
  0
LINE
  5
2D
330
1E
100
AcDbEntity
  8
0
100
AcDbLine
 10
0.0000000000000001
 20
115.3445
 30
0.0
 11
0.0000000000000001
 21
113.7844999999999
 31
0.0
  0
LINE
  5
2E
330
1E
100
AcDbEntity
  8
0
100
AcDbLine
 10
0.0000000000000001
 20
116.3045
 30
0.0
 11
0.0000000000000001
 21
116.6645
 31
0.0
  0
LINE
  5
2F
330
1E
100
AcDbEntity
  8
0
100
AcDbLine
 10
0.0000000000000001
 20
116.3045
 30
0.0
 11
0.0000000000000001
 21
115.3445
 31
0.0
  0
LINE
  5
30
330
1E
100
AcDbEntity
  8
0
100
AcDbLine
 10
0.0000000000000001
 20
116.6645
 30
0.0
 11
0.576923
 21
116.9045
 31
0.0
  0
LINE
  5
31
330
1E
100
AcDbEntity
  8
0
100
AcDbLine
 10
0.0000000000000001
 20
116.6645
 30
0.0
 11
0.0000000000000001
 21
116.3045
 31
0.0
  0
LINE
  5
32
330
1E
100
AcDbEntity
  8
0
100
AcDbLine
 10
0.0000000000000001
 20
106.9045
 30
0.0
 11
0.0000000000000001
 21
104.3845
 31
0.0
  0
LINE
  5
33
330
1E
100
AcDbEntity
  8
0
100
AcDbLine
 10
0.0000000000000001
 20
106.9045
 30
0.0
 11
0.0000000000000001
 21
109.4244999999999
 31
0.0
  0
LINE
  5
34
330
1E
100
AcDbEntity
  8
0
100
AcDbLine
 10
0.0000000000000001
 20
106.9045
 30
0.0
 11
0.0000000000000001
 21
109.4244999999999
 31
0.0
  0
LINE
  5
35
330
1E
100
AcDbEntity
  8
0
100
AcDbLine
 10
0.0000000000000001
 20
104.3845
 30
0.0
 11
0.0000000000000001
 21
106.9045
 31
0.0
  0
LINE
  5
36
330
1E
100
AcDbEntity
  8
0
100
AcDbLine
 10
0.0000000000000001
 20
104.3845
 30
0.0
 11
0.0000000000000001
 21
102.0645
 31
0.0
  0
LINE
  5
37
330
1E
100
AcDbEntity
  8
0
100
AcDbLine
 10
0.0000000000000001
 20
102.0645
 30
0.0
 11
0.0000000000000001
 21
104.3845
 31
0.0
  0
LINE
  5
38
330
1E
100
AcDbEntity
  8
0
100
AcDbLine
 10
0.0000000000000001
 20
102.0645
 30
0.0
 11
0.0000000000000001
 21
100.0245
 31
0.0
  0
LINE
  5
39
330
1E
100
AcDbEntity
  8
0
100
AcDbLine
 10
0.0000000000000001
 20
100.0245
 30
0.0
 11
0.0000000000000001
 21
102.0645
 31
0.0
  0
LINE
  5
3A
330
1E
100
AcDbEntity
  8
0
100
AcDbLine
 10
0.0000000000000001
 20
100.0245
 30
0.0
 11
0.0000000000000001
 21
98.4645
 31
0.0
  0
LINE
  5
3B
330
1E
100
AcDbEntity
  8
0
100
AcDbLine
 10
0.0000000000000001
 20
98.4645
 30
0.0
 11
0.0000000000000001
 21
100.0245
 31
0.0
  0
LINE
  5
3C
330
1E
100
AcDbEntity
  8
0
100
AcDbLine
 10
0.0000000000000001
 20
98.4645
 30
0.0
 11
0.0000000000000001
 21
97.5045
 31
0.0
  0
LINE
  5
3D
330
1E
100
AcDbEntity
  8
0
100
AcDbLine
 10
0.5769230000000021
 20
116.9045
 30
0.0
 11
72.0
 21
116.9045
 31
0.0
  0
LINE
  5
3E
330
1E
100
AcDbEntity
  8
0
100
AcDbLine
 10
0.576923
 20
116.9045
 30
0.0
 11
72.0
 21
116.9045
 31
0.0
  0
LINE
  5
3F
330
1E
100
AcDbEntity
  8
0
100
AcDbLine
 10
0.0000000000000001
 20
97.5045
 30
0.0
 11
0.0000000000000001
 21
98.4645
 31
0.0
  0
LINE
  5
40
330
1E
100
AcDbEntity
  8
0
100
AcDbLine
 10
0.0000000000000001
 20
97.5045
 30
0.0
 11
0.0000000000000001
 21
97.14449999999999
 31
0.0
  0
LINE
  5
41
330
1E
100
AcDbEntity
  8
0
100
AcDbLine
 10
0.0000000000000001
 20
97.14449999999999
 30
0.0
 11
0.0000000000000001
 21
97.5045
 31
0.0
  0
LINE
  5
42
330
1E
100
AcDbEntity
  8
0
100
AcDbLine
 10
0.0000000000000001
 20
97.14449999999999
 30
0.0
 11
0.576923
 21
96.9045
 31
0.0
  0
LINE
  5
43
330
1E
100
AcDbEntity
  8
0
100
AcDbLine
 10
0.5769230000000021
 20
96.9045
 30
0.0
 11
62.1009877446497
 21
96.9045
 31
0.0
  0
LINE
  5
44
330
1E
100
AcDbEntity
  8
0
100
AcDbLine
 10
43.64772727272722
 20
53.54995454545345
 30
0.0
 11
43.89999999999999
 21
59.6045
 31
0.0
  0
LINE
  5
45
330
1E
100
AcDbEntity
  8
0
100
AcDbLine
 10
43.5
 20
51.30449999999999
 30
0.0
 11
43.6477272727273
 21
53.54995454545459
 31
0.0
  0
LINE
  5
46
330
1E
100
AcDbEntity
  8
0
100
AcDbLine
 10
43.0
 20
39.9045
 30
0.0
 11
43.5
 21
28.5045
 31
0.0
  0
LINE
  5
47
330
1E
100
AcDbEntity
  8
0
100
AcDbLine
 10
43.0
 20
39.9045
 30
0.0
 11
43.5
 21
51.30449999999999
 31
0.0
  0
LINE
  5
48
330
1E
100
AcDbEntity
  8
0
100
AcDbLine
 10
45.0
 20
86.30450000000001
 30
0.0
 11
45.572972972973
 21
96.9045
 31
0.0
  0
LINE
  5
49
330
1E
100
AcDbEntity
  8
0
100
AcDbLine
 10
44.59999999999999
 20
77.6045
 30
0.0
 11
45.0
 21
86.30450000000001
 31
0.0
  0
LINE
  5
4A
330
1E
100
AcDbEntity
  8
0
100
AcDbLine
 10
44.29999999999999
 20
68.3045
 30
0.0
 11
44.59999999999999
 21
77.6045
 31
0.0
  0
LINE
  5
4B
330
1E
100
AcDbEntity
  8
0
100
AcDbLine
 10
43.89999999999999
 20
59.6045
 30
0.0
 11
44.29999999999999
 21
68.3045
 31
0.0
  0
LINE
  5
4C
330
1E
100
AcDbEntity
  8
0
100
AcDbLine
 10
43.5
 20
28.5045
 30
0.0
 11
44.7
 21
17.5045
 31
0.0
  0
LINE
  5
4D
330
1E
100
AcDbEntity
  8
0
100
AcDbLine
 10
44.7
 20
17.5045
 30
0.0
 11
46.79999999999999
 21
9.504499999999991
 31
0.0
  0
LINE
  5
4E
330
1E
100
AcDbEntity
  8
0
100
AcDbLine
 10
46.79999999999999
 20
9.504499999999991
 30
0.0
 11
49.5
 21
3.80449999999999
 31
0.0
  0
LINE
  5
4F
330
1E
100
AcDbEntity
  8
0
100
AcDbLine
 10
46.79999999999999
 20
9.504499999999991
 30
0.0
 11
49.5
 21
3.80449999999999
 31
0.0
  0
LINE
  5
50
330
1E
100
AcDbEntity
  8
0
100
AcDbLine
 10
49.5
 20
3.80449999999999
 30
0.0
 11
52.6
 21
1.004499999999989
 31
0.0
  0
LINE
  5
51
330
1E
100
AcDbEntity
  8
0
100
AcDbLine
 10
52.6
 20
1.004499999999989
 30
0.0
 11
56.0
 21
-0.0955000000000066
 31
0.0
  0
LINE
  5
52
330
1E
100
AcDbEntity
  8
0
100
AcDbLine
 10
52.6
 20
1.004499999999989
 30
0.0
 11
56.0
 21
-0.0955000000000066
 31
0.0
  0
LINE
  5
53
330
1E
100
AcDbEntity
  8
0
100
AcDbLine
 10
56.0
 20
-0.0955000000000066
 30
0.0
 11
59.4
 21
1.004499999999989
 31
0.0
  0
LINE
  5
54
330
1E
100
AcDbEntity
  8
0
100
AcDbLine
 10
62.1009877446497
 20
96.9045
 30
0.0
 11
72.0
 21
96.9045
 31
0.0
  0
LINE
  5
55
330
1E
100
AcDbEntity
  8
0
100
AcDbLine
 10
62.1009877446497
 20
96.9045
 30
0.0
 11
72.0
 21
96.9045
 31
0.0
  0
LINE
  5
56
330
1E
100
AcDbEntity
  8
0
100
AcDbLine
 10
62.5
 20
3.80449999999999
 30
0.0
 11
65.2
 21
9.504499999999991
 31
0.0
  0
LINE
  5
57
330
1E
100
AcDbEntity
  8
0
100
AcDbLine
 10
66.42702702702699
 20
96.9045
 30
0.0
 11
67.0
 21
86.30450000000001
 31
0.0
  0
LINE
  5
58
330
1E
100
AcDbEntity
  8
0
100
AcDbLine
 10
67.0
 20
86.30450000000001
 30
0.0
 11
67.40000000000001
 21
77.6045
 31
0.0
  0
LINE
  5
59
330
1E
100
AcDbEntity
  8
0
100
AcDbLine
 10
67.40000000000001
 20
77.6045
 30
0.0
 11
67.7
 21
68.3045
 31
0.0
  0
LINE
  5
5A
330
1E
100
AcDbEntity
  8
0
100
AcDbLine
 10
67.7
 20
68.3045
 30
0.0
 11
68.09999999999999
 21
59.6045
 31
0.0
  0
LINE
  5
5B
330
1E
100
AcDbEntity
  8
0
100
AcDbLine
 10
68.09999999999999
 20
59.6045
 30
0.0
 11
68.35227272727275
 21
53.54995454545385
 31
0.0
  0
LINE
  5
5C
330
1E
100
AcDbEntity
  8
0
100
AcDbLine
 10
68.3522727272727
 20
53.54995454545459
 30
0.0
 11
68.5
 21
51.30449999999999
 31
0.0
  0
LINE
  5
5D
330
1E
100
AcDbEntity
  8
0
100
AcDbLine
 10
172.0
 20
47.1105
 30
0.0
 11
172.0
 21
49.1354
 31
0.0
  0
LINE
  5
5E
330
1E
100
AcDbEntity
  8
0
100
AcDbLine
 10
72.0
 20
48.6851
 30
0.0
 11
72.0
 21
47.1105
 31
0.0
  0
LINE
  5
5F
330
1E
100
AcDbEntity
  8
0
100
AcDbLine
 10
72.0
 20
48.6851
 30
0.0
 11
72.0
 21
53.37489999999999
 31
0.0
  0
LINE
  5
60
330
1E
100
AcDbEntity
  8
0
100
AcDbLine
 10
72.0
 20
53.37489999999999
 30
0.0
 11
72.0
 21
48.6851
 31
0.0
  0
LINE
  5
61
330
1E
100
AcDbEntity
  8
0
100
AcDbLine
 10
72.0
 20
53.37489999999999
 30
0.0
 11
72.0
 21
61.1922
 31
0.0
  0
LINE
  5
62
330
1E
100
AcDbEntity
  8
0
100
AcDbLine
 10
72.0
 20
61.1922
 30
0.0
 11
72.0
 21
53.37489999999999
 31
0.0
  0
LINE
  5
63
330
1E
100
AcDbEntity
  8
0
100
AcDbLine
 10
72.0
 20
61.1922
 30
0.0
 11
72.0
 21
71.45100000000001
 31
0.0
  0
LINE
  5
64
330
1E
100
AcDbEntity
  8
0
100
AcDbLine
 10
72.0
 20
69.9045
 30
0.0
 11
72.0
 21
110.8424999999999
 31
0.0
  0
LINE
  5
65
330
1E
100
AcDbEntity
  8
0
100
AcDbLine
 10
72.0
 20
69.9045
 30
0.0
 11
172.0
 21
69.9045
 31
0.0
  0
LINE
  5
66
330
1E
100
AcDbEntity
  8
0
100
AcDbLine
 10
72.0
 20
71.45100000000001
 30
0.0
 11
72.0
 21
61.1922
 31
0.0
  0
LINE
  5
67
330
1E
100
AcDbEntity
  8
0
100
AcDbLine
 10
72.0
 20
71.45100000000001
 30
0.0
 11
72.0
 21
83.3636
 31
0.0
  0
LINE
  5
68
330
1E
100
AcDbEntity
  8
0
100
AcDbLine
 10
72.0
 20
83.3636
 30
0.0
 11
72.0
 21
71.45100000000001
 31
0.0
  0
LINE
  5
69
330
1E
100
AcDbEntity
  8
0
100
AcDbLine
 10
72.0
 20
83.3636
 30
0.0
 11
72.0
 21
96.23029999999999
 31
0.0
  0
LINE
  5
6A
330
1E
100
AcDbEntity
  8
0
100
AcDbLine
 10
72.0
 20
82.7589
 30
0.0
 11
72.0
 21
86.80249999999999
 31
0.0
  0
LINE
  5
6B
330
1E
100
AcDbEntity
  8
0
100
AcDbLine
 10
72.0
 20
82.7589
 30
0.0
 11
72.0
 21
79.631
 31
0.0
  0
LINE
  5
6C
330
1E
100
AcDbEntity
  8
0
100
AcDbLine
 10
72.0
 20
79.631
 30
0.0
 11
72.0
 21
82.7589
 31
0.0
  0
LINE
  5
6D
330
1E
100
AcDbEntity
  8
0
100
AcDbLine
 10
72.0
 20
79.631
 30
0.0
 11
72.0
 21
77.7168
 31
0.0
  0
LINE
  5
6E
330
1E
100
AcDbEntity
  8
0
100
AcDbLine
 10
72.0
 20
77.7168
 30
0.0
 11
72.0
 21
79.631
 31
0.0
  0
LINE
  5
6F
330
1E
100
AcDbEntity
  8
0
100
AcDbLine
 10
72.0
 20
77.7168
 30
0.0
 11
72.0
 21
77.1059
 31
0.0
  0
LINE
  5
70
330
1E
100
AcDbEntity
  8
0
100
AcDbLine
 10
72.0
 20
77.1059
 30
0.0
 11
72.0
 21
77.89480000000001
 31
0.0
  0
LINE
  5
71
330
1E
100
AcDbEntity
  8
0
100
AcDbLine
 10
72.0
 20
77.1059
 30
0.0
 11
72.0
 21
77.7168
 31
0.0
  0
LINE
  5
72
330
1E
100
AcDbEntity
  8
0
100
AcDbLine
 10
72.0
 20
91.6669
 30
0.0
 11
72.0
 21
96.7539
 31
0.0
  0
LINE
  5
73
330
1E
100
AcDbEntity
  8
0
100
AcDbLine
 10
72.0
 20
91.6669
 30
0.0
 11
72.0
 21
86.80249999999999
 31
0.0
  0
LINE
  5
74
330
1E
100
AcDbEntity
  8
0
100
AcDbLine
 10
72.0
 20
96.9045
 30
0.0
 11
72.0
 21
96.23029999999999
 31
0.0
  0
LINE
  5
75
330
1E
100
AcDbEntity
  8
0
100
AcDbLine
 10
72.0
 20
96.9045
 30
0.0
 11
72.0
 21
96.7539
 31
0.0
  0
LINE
  5
76
330
1E
100
AcDbEntity
  8
0
100
AcDbLine
 10
72.0
 20
96.7539
 30
0.0
 11
72.0
 21
91.6669
 31
0.0
  0
LINE
  5
77
330
1E
100
AcDbEntity
  8
0
100
AcDbLine
 10
72.0
 20
96.7539
 30
0.0
 11
72.0
 21
96.9045
 31
0.0
  0
LINE
  5
78
330
1E
100
AcDbEntity
  8
0
100
AcDbLine
 10
72.0
 20
96.23029999999999
 30
0.0
 11
72.0
 21
83.3636
 31
0.0
  0
LINE
  5
79
330
1E
100
AcDbEntity
  8
0
100
AcDbLine
 10
72.0
 20
96.23029999999999
 30
0.0
 11
72.0
 21
96.9045
 31
0.0
  0
LINE
  5
7A
330
1E
100
AcDbEntity
  8
0
100
AcDbLine
 10
72.0
 20
86.80249999999999
 30
0.0
 11
72.0
 21
91.6669
 31
0.0
  0
LINE
  5
7B
330
1E
100
AcDbEntity
  8
0
100
AcDbLine
 10
72.0
 20
86.80249999999999
 30
0.0
 11
72.0
 21
82.7589
 31
0.0
  0
LINE
  5
7C
330
1E
100
AcDbEntity
  8
0
100
AcDbLine
 10
72.0
 20
85.04600000000001
 30
0.0
 11
72.0
 21
97.97550000000001
 31
0.0
  0
LINE
  5
7D
330
1E
100
AcDbEntity
  8
0
100
AcDbLine
 10
72.0
 20
85.04600000000001
 30
0.0
 11
72.0
 21
72.9624
 31
0.0
  0
LINE
  5
7E
330
1E
100
AcDbEntity
  8
0
100
AcDbLine
 10
72.0
 20
92.34050000000001
 30
0.0
 11
72.0
 21
87.40630000000001
 31
0.0
  0
LINE
  5
7F
330
1E
100
AcDbEntity
  8
0
100
AcDbLine
 10
72.0
 20
92.34050000000001
 30
0.0
 11
72.0
 21
97.45200000000002
 31
0.0
  0
LINE
  5
80
330
1E
100
AcDbEntity
  8
0
100
AcDbLine
 10
72.0
 20
72.9624
 30
0.0
 11
72.0
 21
85.04600000000001
 31
0.0
  0
LINE
  5
81
330
1E
100
AcDbEntity
  8
0
100
AcDbLine
 10
72.0
 20
72.9624
 30
0.0
 11
72.0
 21
62.4243
 31
0.0
  0
LINE
  5
82
330
1E
100
AcDbEntity
  8
0
100
AcDbLine
 10
72.0
 20
87.40630000000001
 30
0.0
 11
72.0
 21
83.2511
 31
0.0
  0
LINE
  5
83
330
1E
100
AcDbEntity
  8
0
100
AcDbLine
 10
72.0
 20
87.40630000000001
 30
0.0
 11
72.0
 21
92.34050000000001
 31
0.0
  0
LINE
  5
84
330
1E
100
AcDbEntity
  8
0
100
AcDbLine
 10
72.0
 20
62.4243
 30
0.0
 11
72.0
 21
72.9624
 31
0.0
  0
LINE
  5
85
330
1E
100
AcDbEntity
  8
0
100
AcDbLine
 10
72.0
 20
62.4243
 30
0.0
 11
72.0
 21
54.244
 31
0.0
  0
LINE
  5
86
330
1E
100
AcDbEntity
  8
0
100
AcDbLine
 10
72.0
 20
83.2511
 30
0.0
 11
72.0
 21
79.98000000000001
 31
0.0
  0
LINE
  5
87
330
1E
100
AcDbEntity
  8
0
100
AcDbLine
 10
72.0
 20
83.2511
 30
0.0
 11
72.0
 21
87.40630000000001
 31
0.0
  0
LINE
  5
88
330
1E
100
AcDbEntity
  8
0
100
AcDbLine
 10
72.0
 20
54.244
 30
0.0
 11
72.0
 21
62.4243
 31
0.0
  0
LINE
  5
89
330
1E
100
AcDbEntity
  8
0
100
AcDbLine
 10
72.0
 20
54.244
 30
0.0
 11
72.0
 21
49.1354
 31
0.0
  0
LINE
  5
8A
330
1E
100
AcDbEntity
  8
0
100
AcDbLine
 10
72.0
 20
79.98000000000001
 30
0.0
 11
72.0
 21
77.89480000000001
 31
0.0
  0
LINE
  5
8B
330
1E
100
AcDbEntity
  8
0
100
AcDbLine
 10
72.0
 20
79.98000000000001
 30
0.0
 11
72.0
 21
83.2511
 31
0.0
  0
LINE
  5
8C
330
1E
100
AcDbEntity
  8
0
100
AcDbLine
 10
72.0
 20
49.1354
 30
0.0
 11
72.0
 21
54.244
 31
0.0
  0
LINE
  5
8D
330
1E
100
AcDbEntity
  8
0
100
AcDbLine
 10
72.0
 20
49.1354
 30
0.0
 11
72.0
 21
47.1105
 31
0.0
  0
LINE
  5
8E
330
1E
100
AcDbEntity
  8
0
100
AcDbLine
 10
172.0
 20
69.9045
 30
0.0
 11
172.0
 21
62.4243
 31
0.0
  0
LINE
  5
8F
330
1E
100
AcDbEntity
  8
0
100
AcDbLine
 10
172.0
 20
62.4243
 30
0.0
 11
172.0
 21
69.9045
 31
0.0
  0
LINE
  5
90
330
1E
100
AcDbEntity
  8
0
100
AcDbLine
 10
172.0
 20
62.4243
 30
0.0
 11
172.0
 21
54.244
 31
0.0
  0
LINE
  5
91
330
1E
100
AcDbEntity
  8
0
100
AcDbLine
 10
172.0
 20
54.244
 30
0.0
 11
172.0
 21
62.4243
 31
0.0
  0
LINE
  5
92
330
1E
100
AcDbEntity
  8
0
100
AcDbLine
 10
172.0
 20
54.244
 30
0.0
 11
172.0
 21
49.1354
 31
0.0
  0
LINE
  5
93
330
1E
100
AcDbEntity
  8
0
100
AcDbLine
 10
172.0
 20
49.1354
 30
0.0
 11
172.0
 21
54.244
 31
0.0
  0
LINE
  5
94
330
1E
100
AcDbEntity
  8
0
100
AcDbLine
 10
172.0
 20
49.1354
 30
0.0
 11
172.0
 21
47.1105
 31
0.0
  0
LINE
  5
95
330
1E
100
AcDbEntity
  8
0
100
AcDbLine
 10
72.0
 20
77.89480000000001
 30
0.0
 11
72.0
 21
77.1059
 31
0.0
  0
LINE
  5
96
330
1E
100
AcDbEntity
  8
0
100
AcDbLine
 10
72.0
 20
77.89480000000001
 30
0.0
 11
72.0
 21
79.98000000000001
 31
0.0
  0
LINE
  5
97
330
1E
100
AcDbEntity
  8
0
100
AcDbLine
 10
72.0
 20
47.1105
 30
0.0
 11
72.0
 21
49.1354
 31
0.0
  0
LINE
  5
98
330
1E
100
AcDbEntity
  8
0
100
AcDbLine
 10
72.0
 20
47.1105
 30
0.0
 11
172.0
 21
47.1105
 31
0.0
  0
LINE
  5
99
330
1E
100
AcDbEntity
  8
0
100
AcDbLine
 10
72.0
 20
47.1105
 30
0.0
 11
72.0
 21
48.6851
 31
0.0
  0
LINE
  5
9A
330
1E
100
AcDbEntity
  8
0
100
AcDbLine
 10
180.1149999999999
 20
91.9045
 30
0.0
 11
182.8849999999999
 21
91.9045
 31
0.0
  0
LINE
  5
9B
330
1E
100
AcDbEntity
  8
0
100
AcDbLine
 10
180.1149999999999
 20
91.9045
 30
0.0
 11
180.1149999999999
 21
92.4445
 31
0.0
  0
LINE
  5
9C
330
1E
100
AcDbEntity
  8
0
100
AcDbLine
 10
180.0
 20
92.8045
 30
0.0
 11
180.0
 21
92.26449999999999
 31
0.0
  0
LINE
  5
9D
330
1E
100
AcDbEntity
  8
0
100
AcDbLine
 10
180.0
 20
92.8045
 30
0.0
 11
180.0
 21
94.2445
 31
0.0
  0
LINE
  5
9E
330
1E
100
AcDbEntity
  8
0
100
AcDbLine
 10
180.0
 20
92.26449999999999
 30
0.0
 11
180.1149999999999
 21
91.9045
 31
0.0
  0
LINE
  5
9F
330
1E
100
AcDbEntity
  8
0
100
AcDbLine
 10
180.0
 20
92.26449999999999
 30
0.0
 11
180.0
 21
92.8045
 31
0.0
  0
LINE
  5
A0
330
1E
100
AcDbEntity
  8
0
100
AcDbLine
 10
180.1149999999999
 20
93.8845
 30
0.0
 11
180.1149999999999
 21
92.4445
 31
0.0
  0
LINE
  5
A1
330
1E
100
AcDbEntity
  8
0
100
AcDbLine
 10
180.1149999999999
 20
93.8845
 30
0.0
 11
180.1149999999999
 21
96.2845
 31
0.0
  0
LINE
  5
A2
330
1E
100
AcDbEntity
  8
0
100
AcDbLine
 10
180.1149999999999
 20
92.4445
 30
0.0
 11
180.1149999999999
 21
91.9045
 31
0.0
  0
LINE
  5
A3
330
1E
100
AcDbEntity
  8
0
100
AcDbLine
 10
180.1149999999999
 20
92.4445
 30
0.0
 11
180.1149999999999
 21
93.8845
 31
0.0
  0
LINE
  5
A4
330
1E
100
AcDbEntity
  8
0
100
AcDbLine
 10
180.0
 20
94.2445
 30
0.0
 11
180.0
 21
92.8045
 31
0.0
  0
LINE
  5
A5
330
1E
100
AcDbEntity
  8
0
100
AcDbLine
 10
180.0
 20
94.2445
 30
0.0
 11
180.0
 21
96.58450000000001
 31
0.0
  0
LINE
  5
A6
330
1E
100
AcDbEntity
  8
0
100
AcDbLine
 10
180.0
 20
96.58450000000001
 30
0.0
 11
180.0
 21
94.2445
 31
0.0
  0
LINE
  5
A7
330
1E
100
AcDbEntity
  8
0
100
AcDbLine
 10
180.0
 20
96.58450000000001
 30
0.0
 11
180.0
 21
99.64449999999999
 31
0.0
  0
LINE
  5
A8
330
1E
100
AcDbEntity
  8
0
100
AcDbLine
 10
180.1149999999999
 20
96.2845
 30
0.0
 11
180.1149999999999
 21
93.8845
 31
0.0
  0
LINE
  5
A9
330
1E
100
AcDbEntity
  8
0
100
AcDbLine
 10
180.1149999999999
 20
96.2845
 30
0.0
 11
180.1149999999999
 21
99.4645
 31
0.0
  0
LINE
  5
AA
330
1E
100
AcDbEntity
  8
0
100
AcDbLine
 10
182.8849999999999
 20
96.2845
 30
0.0
 11
182.8849999999999
 21
93.8845
 31
0.0
  0
LINE
  5
AB
330
1E
100
AcDbEntity
  8
0
100
AcDbLine
 10
182.8849999999999
 20
96.2845
 30
0.0
 11
182.8849999999999
 21
99.4645
 31
0.0
  0
LINE
  5
AC
330
1E
100
AcDbEntity
  8
0
100
AcDbLine
 10
182.8849999999999
 20
93.8845
 30
0.0
 11
182.8849999999999
 21
92.4445
 31
0.0
  0
LINE
  5
AD
330
1E
100
AcDbEntity
  8
0
100
AcDbLine
 10
182.8849999999999
 20
93.8845
 30
0.0
 11
182.8849999999999
 21
96.2845
 31
0.0
  0
LINE
  5
AE
330
1E
100
AcDbEntity
  8
0
100
AcDbLine
 10
183.0
 20
96.58450000000001
 30
0.0
 11
183.0
 21
99.64449999999999
 31
0.0
  0
LINE
  5
AF
330
1E
100
AcDbEntity
  8
0
100
AcDbLine
 10
183.0
 20
96.58450000000001
 30
0.0
 11
183.0
 21
94.2445
 31
0.0
  0
LINE
  5
B0
330
1E
100
AcDbEntity
  8
0
100
AcDbLine
 10
183.0
 20
94.2445
 30
0.0
 11
183.0
 21
96.58450000000001
 31
0.0
  0
LINE
  5
B1
330
1E
100
AcDbEntity
  8
0
100
AcDbLine
 10
183.0
 20
94.2445
 30
0.0
 11
183.0
 21
92.8045
 31
0.0
  0
LINE
  5
B2
330
1E
100
AcDbEntity
  8
0
100
AcDbLine
 10
183.0
 20
92.8045
 30
0.0
 11
183.0
 21
94.2445
 31
0.0
  0
LINE
  5
B3
330
1E
100
AcDbEntity
  8
0
100
AcDbLine
 10
183.0
 20
92.8045
 30
0.0
 11
183.0
 21
92.26449999999999
 31
0.0
  0
LINE
  5
B4
330
1E
100
AcDbEntity
  8
0
100
AcDbLine
 10
183.0
 20
92.26449999999999
 30
0.0
 11
183.0
 21
92.8045
 31
0.0
  0
LINE
  5
B5
330
1E
100
AcDbEntity
  8
0
100
AcDbLine
 10
182.8849999999999
 20
92.4445
 30
0.0
 11
182.8849999999999
 21
91.9045
 31
0.0
  0
LINE
  5
B6
330
1E
100
AcDbEntity
  8
0
100
AcDbLine
 10
182.8849999999999
 20
92.4445
 30
0.0
 11
182.8849999999999
 21
93.8845
 31
0.0
  0
LINE
  5
B7
330
1E
100
AcDbEntity
  8
0
100
AcDbLine
 10
182.8849999999999
 20
91.9045
 30
0.0
 11
183.0
 21
92.26449999999999
 31
0.0
  0
LINE
  5
B8
330
1E
100
AcDbEntity
  8
0
100
AcDbLine
 10
182.8849999999999
 20
91.9045
 30
0.0
 11
182.8849999999999
 21
92.4445
 31
0.0
  0
LINE
  5
B9
330
1E
100
AcDbEntity
  8
0
100
AcDbLine
 10
172.0
 20
96.9045
 30
0.0
 11
180.0
 21
96.9045
 31
0.0
  0
LINE
  5
BA
330
1E
100
AcDbEntity
  8
0
100
AcDbLine
 10
72.0
 20
97.97550000000001
 30
0.0
 11
72.0
 21
85.04600000000001
 31
0.0
  0
LINE
  5
BB
330
1E
100
AcDbEntity
  8
0
100
AcDbLine
 10
72.0
 20
97.97550000000001
 30
0.0
 11
72.0
 21
110.8424999999999
 31
0.0
  0
LINE
  5
BC
330
1E
100
AcDbEntity
  8
0
100
AcDbLine
 10
72.0
 20
97.45200000000002
 30
0.0
 11
72.0
 21
92.34050000000001
 31
0.0
  0
LINE
  5
BD
330
1E
100
AcDbEntity
  8
0
100
AcDbLine
 10
72.0
 20
97.45200000000002
 30
0.0
 11
72.0
 21
102.5384999999999
 31
0.0
  0
LINE
  5
BE
330
1E
100
AcDbEntity
  8
0
100
AcDbLine
 10
180.0
 20
99.64449999999999
 30
0.0
 11
180.0
 21
96.58450000000001
 31
0.0
  0
LINE
  5
BF
330
1E
100
AcDbEntity
  8
0
100
AcDbLine
 10
180.0
 20
99.64449999999999
 30
0.0
 11
180.0
 21
103.1244999999999
 31
0.0
  0
LINE
  5
C0
330
1E
100
AcDbEntity
  8
0
100
AcDbLine
 10
72.0
 20
102.5384999999999
 30
0.0
 11
72.0
 21
97.45200000000002
 31
0.0
  0
LINE
  5
C1
330
1E
100
AcDbEntity
  8
0
100
AcDbLine
 10
72.0
 20
102.5384999999999
 30
0.0
 11
72.0
 21
107.4035
 31
0.0
  0
LINE
  5
C2
330
1E
100
AcDbEntity
  8
0
100
AcDbLine
 10
180.0
 20
103.1244999999999
 30
0.0
 11
180.0
 21
99.64449999999999
 31
0.0
  0
LINE
  5
C3
330
1E
100
AcDbEntity
  8
0
100
AcDbLine
 10
180.0
 20
103.1244999999999
 30
0.0
 11
180.0
 21
106.9045
 31
0.0
  0
LINE
  5
C4
330
1E
100
AcDbEntity
  8
0
100
AcDbLine
 10
72.0
 20
110.8424999999999
 30
0.0
 11
72.0
 21
122.7544999999999
 31
0.0
  0
LINE
  5
C5
330
1E
100
AcDbEntity
  8
0
100
AcDbLine
 10
72.0
 20
110.8424999999999
 30
0.0
 11
172.0
 21
110.8424999999999
 31
0.0
  0
LINE
  5
C6
330
1E
100
AcDbEntity
  8
0
100
AcDbLine
 10
72.0
 20
110.8424999999999
 30
0.0
 11
72.0
 21
97.97550000000001
 31
0.0
  0
LINE
  5
C7
330
1E
100
AcDbEntity
  8
0
100
AcDbLine
 10
72.0
 20
107.4035
 30
0.0
 11
72.0
 21
102.5384999999999
 31
0.0
  0
LINE
  5
C8
330
1E
100
AcDbEntity
  8
0
100
AcDbLine
 10
72.0
 20
107.4035
 30
0.0
 11
72.0
 21
111.4465
 31
0.0
  0
LINE
  5
C9
330
1E
100
AcDbEntity
  8
0
100
AcDbLine
 10
72.0
 20
111.4465
 30
0.0
 11
72.0
 21
107.4035
 31
0.0
  0
LINE
  5
CA
330
1E
100
AcDbEntity
  8
0
100
AcDbLine
 10
72.0
 20
111.4465
 30
0.0
 11
72.0
 21
114.5745
 31
0.0
  0
LINE
  5
CB
330
1E
100
AcDbEntity
  8
0
100
AcDbLine
 10
172.0
 20
110.8424999999999
 30
0.0
 11
172.0
 21
122.7544999999999
 31
0.0
  0
LINE
  5
CC
330
1E
100
AcDbEntity
  8
0
100
AcDbLine
 10
172.0
 20
110.8424999999999
 30
0.0
 11
172.0
 21
69.9045
 31
0.0
  0
LINE
  5
CD
330
1E
100
AcDbEntity
  8
0
100
AcDbLine
 10
72.0
 20
114.5745
 30
0.0
 11
72.0
 21
111.4465
 31
0.0
  0
LINE
  5
CE
330
1E
100
AcDbEntity
  8
0
100
AcDbLine
 10
72.0
 20
114.5745
 30
0.0
 11
72.0
 21
116.4884999999999
 31
0.0
  0
LINE
  5
CF
330
1E
100
AcDbEntity
  8
0
100
AcDbLine
 10
72.0
 20
116.9045
 30
0.0
 11
72.0
 21
117.0995
 31
0.0
  0
LINE
  5
D0
330
1E
100
AcDbEntity
  8
0
100
AcDbLine
 10
72.0
 20
116.9045
 30
0.0
 11
72.0
 21
121.2434999999999
 31
0.0
  0
LINE
  5
D1
330
1E
100
AcDbEntity
  8
0
100
AcDbLine
 10
72.0
 20
116.4884999999999
 30
0.0
 11
72.0
 21
114.5745
 31
0.0
  0
LINE
  5
D2
330
1E
100
AcDbEntity
  8
0
100
AcDbLine
 10
72.0
 20
116.4884999999999
 30
0.0
 11
72.0
 21
117.0995
 31
0.0
  0
LINE
  5
D3
330
1E
100
AcDbEntity
  8
0
100
AcDbLine
 10
180.0
 20
110.6845
 30
0.0
 11
180.0
 21
106.9045
 31
0.0
  0
LINE
  5
D4
330
1E
100
AcDbEntity
  8
0
100
AcDbLine
 10
180.0
 20
110.6845
 30
0.0
 11
180.0
 21
114.1645
 31
0.0
  0
LINE
  5
D5
330
1E
100
AcDbEntity
  8
0
100
AcDbLine
 10
180.0
 20
109.4645
 30
0.0
 11
180.0
 21
106.9045
 31
0.0
  0
LINE
  5
D6
330
1E
100
AcDbEntity
  8
0
100
AcDbLine
 10
180.0
 20
111.8645
 30
0.0
 11
180.0
 21
109.4645
 31
0.0
  0
LINE
  5
D7
330
1E
100
AcDbEntity
  8
0
100
AcDbLine
 10
180.0
 20
114.1645
 30
0.0
 11
180.0
 21
110.6845
 31
0.0
  0
LINE
  5
D8
330
1E
100
AcDbEntity
  8
0
100
AcDbLine
 10
180.0
 20
114.1645
 30
0.0
 11
180.0
 21
117.2244999999999
 31
0.0
  0
LINE
  5
D9
330
1E
100
AcDbEntity
  8
0
100
AcDbLine
 10
180.0
 20
113.9844999999999
 30
0.0
 11
180.0
 21
111.8645
 31
0.0
  0
LINE
  5
DA
330
1E
100
AcDbEntity
  8
0
100
AcDbLine
 10
180.0
 20
115.5845
 30
0.0
 11
180.0
 21
113.9844999999999
 31
0.0
  0
LINE
  5
DB
330
1E
100
AcDbEntity
  8
0
100
AcDbLine
 10
180.0
 20
116.5445
 30
0.0
 11
180.0
 21
115.5845
 31
0.0
  0
LINE
  5
DC
330
1E
100
AcDbEntity
  8
0
100
AcDbLine
 10
172.0
 20
116.9045
 30
0.0
 11
180.0
 21
116.9045
 31
0.0
  0
LINE
  5
DD
330
1E
100
AcDbEntity
  8
0
100
AcDbLine
 10
72.0
 20
117.0995
 30
0.0
 11
72.0
 21
116.4884999999999
 31
0.0
  0
LINE
  5
DE
330
1E
100
AcDbEntity
  8
0
100
AcDbLine
 10
72.0
 20
117.0995
 30
0.0
 11
72.0
 21
116.9045
 31
0.0
  0
LINE
  5
DF
330
1E
100
AcDbEntity
  8
0
100
AcDbLine
 10
180.0
 20
117.2244999999999
 30
0.0
 11
180.0
 21
114.1645
 31
0.0
  0
LINE
  5
E0
330
1E
100
AcDbEntity
  8
0
100
AcDbLine
 10
180.0
 20
117.2244999999999
 30
0.0
 11
180.0
 21
119.5645
 31
0.0
  0
LINE
  5
E1
330
1E
100
AcDbEntity
  8
0
100
AcDbLine
 10
180.0
 20
119.5645
 30
0.0
 11
180.0
 21
117.2244999999999
 31
0.0
  0
LINE
  5
E2
330
1E
100
AcDbEntity
  8
0
100
AcDbLine
 10
180.0
 20
119.5645
 30
0.0
 11
180.0
 21
121.0045
 31
0.0
  0
LINE
  5
E3
330
1E
100
AcDbEntity
  8
0
100
AcDbLine
 10
72.0
 20
121.2434999999999
 30
0.0
 11
72.0
 21
116.9045
 31
0.0
  0
LINE
  5
E4
330
1E
100
AcDbEntity
  8
0
100
AcDbLine
 10
72.0
 20
121.2434999999999
 30
0.0
 11
72.0
 21
131.7814999999999
 31
0.0
  0
LINE
  5
E5
330
1E
100
AcDbEntity
  8
0
100
AcDbLine
 10
72.0
 20
131.7814999999999
 30
0.0
 11
72.0
 21
121.2434999999999
 31
0.0
  0
LINE
  5
E6
330
1E
100
AcDbEntity
  8
0
100
AcDbLine
 10
72.0
 20
131.7814999999999
 30
0.0
 11
72.0
 21
139.9615
 31
0.0
  0
LINE
  5
E7
330
1E
100
AcDbEntity
  8
0
100
AcDbLine
 10
72.0
 20
139.9615
 30
0.0
 11
72.0
 21
131.7814999999999
 31
0.0
  0
LINE
  5
E8
330
1E
100
AcDbEntity
  8
0
100
AcDbLine
 10
72.0
 20
139.9615
 30
0.0
 11
72.0
 21
145.0705
 31
0.0
  0
LINE
  5
E9
330
1E
100
AcDbEntity
  8
0
100
AcDbLine
 10
72.0
 20
122.7544999999999
 30
0.0
 11
72.0
 21
133.0135
 31
0.0
  0
LINE
  5
EA
330
1E
100
AcDbEntity
  8
0
100
AcDbLine
 10
72.0
 20
122.7544999999999
 30
0.0
 11
72.0
 21
110.8424999999999
 31
0.0
  0
LINE
  5
EB
330
1E
100
AcDbEntity
  8
0
100
AcDbLine
 10
72.0
 20
133.0135
 30
0.0
 11
72.0
 21
140.8305
 31
0.0
  0
LINE
  5
EC
330
1E
100
AcDbEntity
  8
0
100
AcDbLine
 10
72.0
 20
133.0135
 30
0.0
 11
72.0
 21
122.7544999999999
 31
0.0
  0
LINE
  5
ED
330
1E
100
AcDbEntity
  8
0
100
AcDbLine
 10
72.0
 20
145.0705
 30
0.0
 11
72.0
 21
139.9615
 31
0.0
  0
LINE
  5
EE
330
1E
100
AcDbEntity
  8
0
100
AcDbLine
 10
72.0
 20
145.0705
 30
0.0
 11
72.0
 21
147.0954999999999
 31
0.0
  0
LINE
  5
EF
330
1E
100
AcDbEntity
  8
0
100
AcDbLine
 10
72.0
 20
147.0954999999999
 30
0.0
 11
72.0
 21
145.5205
 31
0.0
  0
LINE
  5
F0
330
1E
100
AcDbEntity
  8
0
100
AcDbLine
 10
72.0
 20
147.0954999999999
 30
0.0
 11
172.0
 21
147.0954999999999
 31
0.0
  0
LINE
  5
F1
330
1E
100
AcDbEntity
  8
0
100
AcDbLine
 10
72.0
 20
147.0954999999999
 30
0.0
 11
72.0
 21
145.0705
 31
0.0
  0
LINE
  5
F2
330
1E
100
AcDbEntity
  8
0
100
AcDbLine
 10
72.0
 20
140.8305
 30
0.0
 11
72.0
 21
145.5205
 31
0.0
  0
LINE
  5
F3
330
1E
100
AcDbEntity
  8
0
100
AcDbLine
 10
72.0
 20
140.8305
 30
0.0
 11
72.0
 21
133.0135
 31
0.0
  0
LINE
  5
F4
330
1E
100
AcDbEntity
  8
0
100
AcDbLine
 10
172.0
 20
122.7544999999999
 30
0.0
 11
172.0
 21
133.0135
 31
0.0
  0
LINE
  5
F5
330
1E
100
AcDbEntity
  8
0
100
AcDbLine
 10
172.0
 20
122.7544999999999
 30
0.0
 11
172.0
 21
110.8424999999999
 31
0.0
  0
LINE
  5
F6
330
1E
100
AcDbEntity
  8
0
100
AcDbLine
 10
172.0
 20
133.0135
 30
0.0
 11
172.0
 21
140.8305
 31
0.0
  0
LINE
  5
F7
330
1E
100
AcDbEntity
  8
0
100
AcDbLine
 10
172.0
 20
133.0135
 30
0.0
 11
172.0
 21
122.7544999999999
 31
0.0
  0
LINE
  5
F8
330
1E
100
AcDbEntity
  8
0
100
AcDbLine
 10
172.0
 20
140.8305
 30
0.0
 11
172.0
 21
145.5205
 31
0.0
  0
LINE
  5
F9
330
1E
100
AcDbEntity
  8
0
100
AcDbLine
 10
172.0
 20
140.8305
 30
0.0
 11
172.0
 21
133.0135
 31
0.0
  0
LINE
  5
FA
330
1E
100
AcDbEntity
  8
0
100
AcDbLine
 10
172.0
 20
147.0954999999999
 30
0.0
 11
172.0
 21
145.5205
 31
0.0
  0
LINE
  5
FB
330
1E
100
AcDbEntity
  8
0
100
AcDbLine
 10
172.0
 20
145.5205
 30
0.0
 11
172.0
 21
147.0954999999999
 31
0.0
  0
LINE
  5
FC
330
1E
100
AcDbEntity
  8
0
100
AcDbLine
 10
172.0
 20
145.5205
 30
0.0
 11
172.0
 21
140.8305
 31
0.0
  0
LINE
  5
FD
330
1E
100
AcDbEntity
  8
0
100
AcDbLine
 10
72.0
 20
145.5205
 30
0.0
 11
72.0
 21
147.0954999999999
 31
0.0
  0
LINE
  5
FE
330
1E
100
AcDbEntity
  8
0
100
AcDbLine
 10
72.0
 20
145.5205
 30
0.0
 11
72.0
 21
140.8305
 31
0.0
  0
LINE
  5
FF
330
1E
100
AcDbEntity
  8
0
100
AcDbLine
 10
180.0
 20
121.0045
 30
0.0
 11
180.0
 21
119.5645
 31
0.0
  0
LINE
  5
100
330
1E
100
AcDbEntity
  8
0
100
AcDbLine
 10
180.0
 20
121.0045
 30
0.0
 11
180.0
 21
121.5445
 31
0.0
  0
LINE
  5
101
330
1E
100
AcDbEntity
  8
0
100
AcDbLine
 10
180.0
 20
121.5445
 30
0.0
 11
180.0
 21
121.0045
 31
0.0
  0
LINE
  5
102
330
1E
100
AcDbEntity
  8
0
100
AcDbLine
 10
180.0
 20
121.5445
 30
0.0
 11
180.1149999999999
 21
121.9044999999999
 31
0.0
  0
LINE
  5
103
330
1E
100
AcDbEntity
  8
0
100
AcDbLine
 10
180.0
 20
116.9045
 30
0.0
 11
180.0
 21
116.5445
 31
0.0
  0
LINE
  5
104
330
1E
100
AcDbEntity
  8
0
100
AcDbLine
 10
180.0
 20
106.9045
 30
0.0
 11
180.0
 21
104.3444999999999
 31
0.0
  0
LINE
  5
105
330
1E
100
AcDbEntity
  8
0
100
AcDbLine
 10
180.0
 20
106.9045
 30
0.0
 11
180.0
 21
103.1244999999999
 31
0.0
  0
LINE
  5
106
330
1E
100
AcDbEntity
  8
0
100
AcDbLine
 10
180.0
 20
106.9045
 30
0.0
 11
180.0
 21
110.6845
 31
0.0
  0
LINE
  5
107
330
1E
100
AcDbEntity
  8
0
100
AcDbLine
 10
180.0
 20
104.3444999999999
 30
0.0
 11
180.0
 21
101.9445
 31
0.0
  0
LINE
  5
108
330
1E
100
AcDbEntity
  8
0
100
AcDbLine
 10
180.0
 20
101.9445
 30
0.0
 11
180.0
 21
99.8245
 31
0.0
  0
LINE
  5
109
330
1E
100
AcDbEntity
  8
0
100
AcDbLine
 10
180.0
 20
99.8245
 30
0.0
 11
180.0
 21
98.22450000000001
 31
0.0
  0
LINE
  5
10A
330
1E
100
AcDbEntity
  8
0
100
AcDbLine
 10
180.1149999999999
 20
99.4645
 30
0.0
 11
180.1149999999999
 21
96.2845
 31
0.0
  0
LINE
  5
10B
330
1E
100
AcDbEntity
  8
0
100
AcDbLine
 10
180.1149999999999
 20
99.4645
 30
0.0
 11
180.1149999999999
 21
103.0645
 31
0.0
  0
LINE
  5
10C
330
1E
100
AcDbEntity
  8
0
100
AcDbLine
 10
180.1149999999999
 20
106.9045
 30
0.0
 11
180.1149999999999
 21
103.0645
 31
0.0
  0
LINE
  5
10D
330
1E
100
AcDbEntity
  8
0
100
AcDbLine
 10
180.1149999999999
 20
106.9045
 30
0.0
 11
180.1149999999999
 21
110.7445
 31
0.0
  0
LINE
  5
10E
330
1E
100
AcDbEntity
  8
0
100
AcDbLine
 10
180.1149999999999
 20
103.0645
 30
0.0
 11
180.1149999999999
 21
99.4645
 31
0.0
  0
LINE
  5
10F
330
1E
100
AcDbEntity
  8
0
100
AcDbLine
 10
180.1149999999999
 20
103.0645
 30
0.0
 11
180.1149999999999
 21
106.9045
 31
0.0
  0
LINE
  5
110
330
1E
100
AcDbEntity
  8
0
100
AcDbLine
 10
180.1149999999999
 20
110.7445
 30
0.0
 11
180.1149999999999
 21
106.9045
 31
0.0
  0
LINE
  5
111
330
1E
100
AcDbEntity
  8
0
100
AcDbLine
 10
180.1149999999999
 20
110.7445
 30
0.0
 11
180.1149999999999
 21
114.3445
 31
0.0
  0
LINE
  5
112
330
1E
100
AcDbEntity
  8
0
100
AcDbLine
 10
180.1149999999999
 20
114.3445
 30
0.0
 11
180.1149999999999
 21
110.7445
 31
0.0
  0
LINE
  5
113
330
1E
100
AcDbEntity
  8
0
100
AcDbLine
 10
180.1149999999999
 20
114.3445
 30
0.0
 11
180.1149999999999
 21
117.5245
 31
0.0
  0
LINE
  5
114
330
1E
100
AcDbEntity
  8
0
100
AcDbLine
 10
182.8849999999999
 20
110.7445
 30
0.0
 11
182.8849999999999
 21
114.3445
 31
0.0
  0
LINE
  5
115
330
1E
100
AcDbEntity
  8
0
100
AcDbLine
 10
182.8849999999999
 20
110.7445
 30
0.0
 11
182.8849999999999
 21
106.9045
 31
0.0
  0
LINE
  5
116
330
1E
100
AcDbEntity
  8
0
100
AcDbLine
 10
182.8849999999999
 20
114.3445
 30
0.0
 11
182.8849999999999
 21
117.5245
 31
0.0
  0
LINE
  5
117
330
1E
100
AcDbEntity
  8
0
100
AcDbLine
 10
182.8849999999999
 20
114.3445
 30
0.0
 11
182.8849999999999
 21
110.7445
 31
0.0
  0
LINE
  5
118
330
1E
100
AcDbEntity
  8
0
100
AcDbLine
 10
180.1149999999999
 20
117.5245
 30
0.0
 11
180.1149999999999
 21
114.3445
 31
0.0
  0
LINE
  5
119
330
1E
100
AcDbEntity
  8
0
100
AcDbLine
 10
180.1149999999999
 20
117.5245
 30
0.0
 11
180.1149999999999
 21
119.9244999999999
 31
0.0
  0
LINE
  5
11A
330
1E
100
AcDbEntity
  8
0
100
AcDbLine
 10
180.1149999999999
 20
119.9244999999999
 30
0.0
 11
180.1149999999999
 21
117.5245
 31
0.0
  0
LINE
  5
11B
330
1E
100
AcDbEntity
  8
0
100
AcDbLine
 10
180.1149999999999
 20
119.9244999999999
 30
0.0
 11
180.1149999999999
 21
121.3645
 31
0.0
  0
LINE
  5
11C
330
1E
100
AcDbEntity
  8
0
100
AcDbLine
 10
182.8849999999999
 20
117.5245
 30
0.0
 11
182.8849999999999
 21
119.9244999999999
 31
0.0
  0
LINE
  5
11D
330
1E
100
AcDbEntity
  8
0
100
AcDbLine
 10
182.8849999999999
 20
117.5245
 30
0.0
 11
182.8849999999999
 21
114.3445
 31
0.0
  0
LINE
  5
11E
330
1E
100
AcDbEntity
  8
0
100
AcDbLine
 10
182.8849999999999
 20
121.9044999999999
 30
0.0
 11
182.8849999999999
 21
121.3645
 31
0.0
  0
LINE
  5
11F
330
1E
100
AcDbEntity
  8
0
100
AcDbLine
 10
182.8849999999999
 20
121.9044999999999
 30
0.0
 11
183.0
 21
121.5445
 31
0.0
  0
LINE
  5
120
330
1E
100
AcDbEntity
  8
0
100
AcDbLine
 10
180.1149999999999
 20
121.3645
 30
0.0
 11
180.1149999999999
 21
119.9244999999999
 31
0.0
  0
LINE
  5
121
330
1E
100
AcDbEntity
  8
0
100
AcDbLine
 10
180.1149999999999
 20
121.3645
 30
0.0
 11
180.1149999999999
 21
121.9044999999999
 31
0.0
  0
LINE
  5
122
330
1E
100
AcDbEntity
  8
0
100
AcDbLine
 10
182.8849999999999
 20
119.9244999999999
 30
0.0
 11
182.8849999999999
 21
121.3645
 31
0.0
  0
LINE
  5
123
330
1E
100
AcDbEntity
  8
0
100
AcDbLine
 10
182.8849999999999
 20
119.9244999999999
 30
0.0
 11
182.8849999999999
 21
117.5245
 31
0.0
  0
LINE
  5
124
330
1E
100
AcDbEntity
  8
0
100
AcDbLine
 10
180.1149999999999
 20
121.9044999999999
 30
0.0
 11
180.1149999999999
 21
121.3645
 31
0.0
  0
LINE
  5
125
330
1E
100
AcDbEntity
  8
0
100
AcDbLine
 10
180.1149999999999
 20
121.9044999999999
 30
0.0
 11
182.8849999999999
 21
121.9044999999999
 31
0.0
  0
LINE
  5
126
330
1E
100
AcDbEntity
  8
0
100
AcDbLine
 10
182.8849999999999
 20
121.3645
 30
0.0
 11
182.8849999999999
 21
121.9044999999999
 31
0.0
  0
LINE
  5
127
330
1E
100
AcDbEntity
  8
0
100
AcDbLine
 10
182.8849999999999
 20
121.3645
 30
0.0
 11
182.8849999999999
 21
119.9244999999999
 31
0.0
  0
LINE
  5
128
330
1E
100
AcDbEntity
  8
0
100
AcDbLine
 10
182.8849999999999
 20
106.9045
 30
0.0
 11
182.8849999999999
 21
103.0645
 31
0.0
  0
LINE
  5
129
330
1E
100
AcDbEntity
  8
0
100
AcDbLine
 10
182.8849999999999
 20
106.9045
 30
0.0
 11
182.8849999999999
 21
110.7445
 31
0.0
  0
LINE
  5
12A
330
1E
100
AcDbEntity
  8
0
100
AcDbLine
 10
183.0
 20
110.6845
 30
0.0
 11
183.0
 21
114.1645
 31
0.0
  0
LINE
  5
12B
330
1E
100
AcDbEntity
  8
0
100
AcDbLine
 10
183.0
 20
110.6845
 30
0.0
 11
183.0
 21
106.9045
 31
0.0
  0
LINE
  5
12C
330
1E
100
AcDbEntity
  8
0
100
AcDbLine
 10
183.0
 20
114.1645
 30
0.0
 11
183.0
 21
117.2244999999999
 31
0.0
  0
LINE
  5
12D
330
1E
100
AcDbEntity
  8
0
100
AcDbLine
 10
183.0
 20
114.1645
 30
0.0
 11
183.0
 21
110.6845
 31
0.0
  0
LINE
  5
12E
330
1E
100
AcDbEntity
  8
0
100
AcDbLine
 10
183.0
 20
117.2244999999999
 30
0.0
 11
183.0
 21
119.5645
 31
0.0
  0
LINE
  5
12F
330
1E
100
AcDbEntity
  8
0
100
AcDbLine
 10
183.0
 20
117.2244999999999
 30
0.0
 11
183.0
 21
114.1645
 31
0.0
  0
LINE
  5
130
330
1E
100
AcDbEntity
  8
0
100
AcDbLine
 10
183.0
 20
121.5445
 30
0.0
 11
183.0
 21
121.0045
 31
0.0
  0
LINE
  5
131
330
1E
100
AcDbEntity
  8
0
100
AcDbLine
 10
183.0
 20
119.5645
 30
0.0
 11
183.0
 21
121.0045
 31
0.0
  0
LINE
  5
132
330
1E
100
AcDbEntity
  8
0
100
AcDbLine
 10
183.0
 20
119.5645
 30
0.0
 11
183.0
 21
117.2244999999999
 31
0.0
  0
LINE
  5
133
330
1E
100
AcDbEntity
  8
0
100
AcDbLine
 10
183.0
 20
121.0045
 30
0.0
 11
183.0
 21
121.5445
 31
0.0
  0
LINE
  5
134
330
1E
100
AcDbEntity
  8
0
100
AcDbLine
 10
183.0
 20
121.0045
 30
0.0
 11
183.0
 21
119.5645
 31
0.0
  0
LINE
  5
135
330
1E
100
AcDbEntity
  8
0
100
AcDbLine
 10
183.0
 20
106.9045
 30
0.0
 11
183.0
 21
103.1244999999999
 31
0.0
  0
LINE
  5
136
330
1E
100
AcDbEntity
  8
0
100
AcDbLine
 10
183.0
 20
106.9045
 30
0.0
 11
183.0
 21
110.6845
 31
0.0
  0
LINE
  5
137
330
1E
100
AcDbEntity
  8
0
100
AcDbLine
 10
183.0
 20
103.1244999999999
 30
0.0
 11
183.0
 21
106.9045
 31
0.0
  0
LINE
  5
138
330
1E
100
AcDbEntity
  8
0
100
AcDbLine
 10
183.0
 20
103.1244999999999
 30
0.0
 11
183.0
 21
99.64449999999999
 31
0.0
  0
LINE
  5
139
330
1E
100
AcDbEntity
  8
0
100
AcDbLine
 10
183.0
 20
99.64449999999999
 30
0.0
 11
183.0
 21
103.1244999999999
 31
0.0
  0
LINE
  5
13A
330
1E
100
AcDbEntity
  8
0
100
AcDbLine
 10
183.0
 20
99.64449999999999
 30
0.0
 11
183.0
 21
96.58450000000001
 31
0.0
  0
LINE
  5
13B
330
1E
100
AcDbEntity
  8
0
100
AcDbLine
 10
182.8849999999999
 20
103.0645
 30
0.0
 11
182.8849999999999
 21
99.4645
 31
0.0
  0
LINE
  5
13C
330
1E
100
AcDbEntity
  8
0
100
AcDbLine
 10
182.8849999999999
 20
103.0645
 30
0.0
 11
182.8849999999999
 21
106.9045
 31
0.0
  0
LINE
  5
13D
330
1E
100
AcDbEntity
  8
0
100
AcDbLine
 10
182.8849999999999
 20
99.4645
 30
0.0
 11
182.8849999999999
 21
96.2845
 31
0.0
  0
LINE
  5
13E
330
1E
100
AcDbEntity
  8
0
100
AcDbLine
 10
182.8849999999999
 20
99.4645
 30
0.0
 11
182.8849999999999
 21
103.0645
 31
0.0
  0
LINE
  5
13F
330
1E
100
AcDbEntity
  8
0
100
AcDbLine
 10
180.0
 20
98.22450000000001
 30
0.0
 11
180.0
 21
97.26449999999999
 31
0.0
  0
LINE
  5
140
330
1E
100
AcDbEntity
  8
0
100
AcDbLine
 10
180.0
 20
97.26449999999999
 30
0.0
 11
180.0
 21
96.9045
 31
0.0
  0
LINE
  5
141
330
1E
100
AcDbEntity
  8
0
100
AcDbLine
 10
68.5
 20
51.30449999999999
 30
0.0
 11
69.0
 21
39.9045
 31
0.0
  0
LINE
  5
142
330
1E
100
AcDbEntity
  8
0
100
AcDbLine
 10
68.5
 20
28.5045
 30
0.0
 11
69.0
 21
39.9045
 31
0.0
  0
LINE
  5
143
330
1E
100
AcDbEntity
  8
0
100
AcDbLine
 10
67.3
 20
17.5045
 30
0.0
 11
68.5
 21
28.5045
 31
0.0
  0
LINE
  5
144
330
1E
100
AcDbEntity
  8
0
100
AcDbLine
 10
65.2
 20
9.504499999999991
 30
0.0
 11
67.3
 21
17.5045
 31
0.0
  0
LINE
  5
145
330
1E
100
AcDbEntity
  8
0
100
AcDbLine
 10
62.5
 20
3.80449999999999
 30
0.0
 11
65.2
 21
9.504499999999991
 31
0.0
  0
LINE
  5
146
330
1E
100
AcDbEntity
  8
0
100
AcDbLine
 10
59.4
 20
1.004499999999989
 30
0.0
 11
62.5
 21
3.80449999999999
 31
0.0
  0
LINE
  5
147
330
1E
100
AcDbEntity
  8
0
100
AcDbLine
 10
56.0
 20
-0.0955000000000066
 30
0.0
 11
59.4
 21
1.004499999999989
 31
0.0
  0
ENDSEC
  0
SECTION
  2
OBJECTS
  0
DICTIONARY
  5
C
330
0
100
AcDbDictionary
281
     1
  3
ACAD_GROUP
350
D
  3
ACAD_LAYOUT
350
19
  3
ACAD_MLINESTYLE
350
16
  3
ACAD_PLOTSETTINGS
350
18
  3
ACAD_PLOTSTYLENAME
350
E
  3
AcDbVariableDictionary
350
14C
  0
DICTIONARY
  5
D
102
{ACAD_REACTORS
330
C
102
}
330
C
100
AcDbDictionary
281
     1
  0
DICTIONARY
  5
19
102
{ACAD_REACTORS
330
C
102
}
330
C
100
AcDbDictionary
281
     1
  3
Layout1
350
1D
  3
Model
350
21
  0
DICTIONARY
  5
16
102
{ACAD_REACTORS
330
C
102
}
330
C
100
AcDbDictionary
281
     1
  3
Standard
350
17
  0
DICTIONARY
  5
18
102
{ACAD_REACTORS
330
C
102
}
330
C
100
AcDbDictionary
281
     1
  0
ACDBDICTIONARYWDFLT
  5
E
102
{ACAD_REACTORS
330
C
102
}
330
C
100
AcDbDictionary
281
     1
  3
Normal
350
F
100
AcDbDictionaryWithDefault
340
F
  0
DICTIONARY
  5
14C
102
{ACAD_REACTORS
330
C
102
}
330
C
100
AcDbDictionary
281
     1
  3
DIMASSOC
350
14D
  0
LAYOUT
  5
1D
102
{ACAD_REACTORS
330
19
102
}
330
19
100
AcDbPlotSettings
  1

  2
hp deskjet 980c series
  4

  6

 40
0.0
 41
0.0
 42
0.0
 43
0.0
 44
0.0
 45
0.0
 46
0.0
 47
0.0
 48
0.0
 49
0.0
140
0.0
141
0.0
142
1.0
143
1.0
 70
   688
 72
     0
 73
     0
 74
     5
  7

 75
    16
147
1.0
148
0.0
149
0.0
100
AcDbLayout
  1
Layout1
 70
     1
 71
     1
 10
0.0
 20
0.0
 11
12.0
 21
9.0
 12
0.0
 22
0.0
 32
0.0
 14
1.000000000000000E+20
 24
1.000000000000000E+20
 34
1.000000000000000E+20
 15
-1.000000000000000E+20
 25
-1.000000000000000E+20
 35
-1.000000000000000E+20
146
0.0
 13
0.0
 23
0.0
 33
0.0
 16
1.0
 26
0.0
 36
0.0
 17
0.0
 27
1.0
 37
0.0
 76
     0
330
1A
  0
LAYOUT
  5
21
102
{ACAD_REACTORS
330
19
102
}
330
19
100
AcDbPlotSettings
  1

  2
hp deskjet 980c series
  4

  6

 40
0.0
 41
0.0
 42
0.0
 43
0.0
 44
0.0
 45
0.0
 46
0.0
 47
0.0
 48
0.0
 49
0.0
140
0.0
141
0.0
142
1.0
143
1.0
 70
  1712
 72
     0
 73
     0
 74
     0
  7

 75
     0
147
1.0
148
0.0
149
0.0
100
AcDbLayout
  1
Model
 70
     1
 71
     0
 10
0.0
 20
0.0
 11
12.0
 21
9.0
 12
0.0
 22
0.0
 32
0.0
 14
0.0
 24
0.0
 34
0.0
 15
0.0
 25
0.0
 35
0.0
146
0.0
 13
0.0
 23
0.0
 33
0.0
 16
1.0
 26
0.0
 36
0.0
 17
0.0
 27
1.0
 37
0.0
 76
     0
330
1E
  0
MLINESTYLE
  5
17
102
{ACAD_REACTORS
330
16
102
}
330
16
100
AcDbMlineStyle
  2
STANDARD
 70
     0
  3

 62
   256
 51
90.0
 52
90.0
 71
     2
 49
0.5
 62
   256
  6
BYLAYER
 49
-0.5
 62
   256
  6
BYLAYER
  0
ACDBPLACEHOLDER
  5
F
102
{ACAD_REACTORS
330
E
102
}
330
E
  0
DICTIONARYVAR
  5
14D
102
{ACAD_REACTORS
330
14C
102
}
330
14C
100
DictionaryVariables
280
     0
  1
1
  0
ENDSEC
  0
EOF
