  0
SECTION
  2
HEADER
  9
$ACADVER
  1
AC1015
  9
$ACADMAINTVER
 70
    13
  9
$DWGCODEPAGE
  3
ANSI_1252
  9
$INSBASE
 10
0.0
 20
0.0
 30
0.0
  9
$EXTMIN
 10
0.0
 20
-0.0000000000000021
 30
0.0
  9
$EXTMAX
 10
195.0
 20
100.0
 30
0.0
  9
$LIMMIN
 10
0.0
 20
0.0
  9
$LIMMAX
 10
12.0
 20
9.0
  9
$ORTHOMODE
 70
     0
  9
$REGENMODE
 70
     1
  9
$FILLMODE
 70
     1
  9
$QTEXTMODE
 70
     0
  9
$MIRRTEXT
 70
     1
  9
$LTSCALE
 40
1.0
  9
$ATTMODE
 70
     1
  9
$TEXTSIZE
 40
0.2
  9
$TRACEWID
 40
0.05
  9
$TEXTSTYLE
  7
Standard
  9
$CLAYER
  8
0
  9
$CELTYPE
  6
Continuous
  9
$CECOLOR
 62
   256
  9
$CELTSCALE
 40
1.0
  9
$DISPSILH
 70
     0
  9
$DIMSCALE
 40
1.0
  9
$DIMASZ
 40
0.18
  9
$DIMEXO
 40
0.0625
  9
$DIMDLI
 40
0.38
  9
$DIMRND
 40
0.0
  9
$DIMDLE
 40
0.0
  9
$DIMEXE
 40
0.18
  9
$DIMTP
 40
0.0
  9
$DIMTM
 40
0.0
  9
$DIMTXT
 40
0.18
  9
$DIMCEN
 40
0.09
  9
$DIMTSZ
 40
0.0
  9
$DIMTOL
 70
     0
  9
$DIMLIM
 70
     0
  9
$DIMTIH
 70
     1
  9
$DIMTOH
 70
     1
  9
$DIMSE1
 70
     0
  9
$DIMSE2
 70
     0
  9
$DIMTAD
 70
     0
  9
$DIMZIN
 70
     0
  9
$DIMBLK
  1

  9
$DIMASO
 70
     1
  9
$DIMSHO
 70
     1
  9
$DIMPOST
  1

  9
$DIMAPOST
  1

  9
$DIMALT
 70
     0
  9
$DIMALTD
 70
     2
  9
$DIMALTF
 40
25.4
  9
$DIMLFAC
 40
1.0
  9
$DIMTOFL
 70
     0
  9
$DIMTVP
 40
0.0
  9
$DIMTIX
 70
     0
  9
$DIMSOXD
 70
     0
  9
$DIMSAH
 70
     0
  9
$DIMBLK1
  1

  9
$DIMBLK2
  1

  9
$DIMSTYLE
  2
Standard
  9
$DIMCLRD
 70
     0
  9
$DIMCLRE
 70
     0
  9
$DIMCLRT
 70
     0
  9
$DIMTFAC
 40
1.0
  9
$DIMGAP
 40
0.09
  9
$DIMJUST
 70
     0
  9
$DIMSD1
 70
     0
  9
$DIMSD2
 70
     0
  9
$DIMTOLJ
 70
     1
  9
$DIMTZIN
 70
     0
  9
$DIMALTZ
 70
     0
  9
$DIMALTTZ
 70
     0
  9
$DIMUPT
 70
     0
  9
$DIMDEC
 70
     4
  9
$DIMTDEC
 70
     4
  9
$DIMALTU
 70
     2
  9
$DIMALTTD
 70
     2
  9
$DIMTXSTY
  7
Standard
  9
$DIMAUNIT
 70
     0
  9
$DIMADEC
 70
     0
  9
$DIMALTRND
 40
0.0
  9
$DIMAZIN
 70
     0
  9
$DIMDSEP
 70
    46
  9
$DIMATFIT
 70
     3
  9
$DIMFRAC
 70
     0
  9
$DIMLDRBLK
  1

  9
$DIMLUNIT
 70
     2
  9
$DIMLWD
 70
    -2
  9
$DIMLWE
 70
    -2
  9
$DIMTMOVE
 70
     0
  9
$LUNITS
 70
     2
  9
$LUPREC
 70
     4
  9
$SKETCHINC
 40
0.1
  9
$FILLETRAD
 40
0.0
  9
$AUNITS
 70
     0
  9
$AUPREC
 70
     0
  9
$MENU
  1
.
  9
$ELEVATION
 40
0.0
  9
$PELEVATION
 40
0.0
  9
$THICKNESS
 40
0.0
  9
$LIMCHECK
 70
     0
  9
$CHAMFERA
 40
0.0
  9
$CHAMFERB
 40
0.0
  9
$CHAMFERC
 40
0.0
  9
$CHAMFERD
 40
0.0
  9
$SKPOLY
 70
     0
  9
$TDCREATE
 40
2454745.656318715
  9
$TDUCREATE
 40
2454745.572985382
  9
$TDUPDATE
 40
2454745.670758101
  9
$TDUUPDATE
 40
2454745.587424768
  9
$TDINDWG
 40
0.0144393866
  9
$TDUSRTIMER
 40
0.0144393866
  9
$USRTIMER
 70
     1
  9
$ANGBASE
 50
0.0
  9
$ANGDIR
 70
     0
  9
$PDMODE
 70
     0
  9
$PDSIZE
 40
0.0
  9
$PLINEWID
 40
0.0
  9
$SPLFRAME
 70
     0
  9
$SPLINETYPE
 70
     6
  9
$SPLINESEGS
 70
     8
  9
$HANDSEED
  5
16C
  9
$SURFTAB1
 70
     6
  9
$SURFTAB2
 70
     6
  9
$SURFTYPE
 70
     6
  9
$SURFU
 70
     6
  9
$SURFV
 70
     6
  9
$UCSBASE
  2

  9
$UCSNAME
  2

  9
$UCSORG
 10
0.0
 20
0.0
 30
0.0
  9
$UCSXDIR
 10
1.0
 20
0.0
 30
0.0
  9
$UCSYDIR
 10
0.0
 20
1.0
 30
0.0
  9
$UCSORTHOREF
  2

  9
$UCSORTHOVIEW
 70
     1
  9
$UCSORGTOP
 10
0.0
 20
0.0
 30
0.0
  9
$UCSORGBOTTOM
 10
0.0
 20
0.0
 30
0.0
  9
$UCSORGLEFT
 10
0.0
 20
0.0
 30
0.0
  9
$UCSORGRIGHT
 10
0.0
 20
0.0
 30
0.0
  9
$UCSORGFRONT
 10
0.0
 20
0.0
 30
0.0
  9
$UCSORGBACK
 10
0.0
 20
0.0
 30
0.0
  9
$PUCSBASE
  2

  9
$PUCSNAME
  2

  9
$PUCSORG
 10
0.0
 20
0.0
 30
0.0
  9
$PUCSXDIR
 10
1.0
 20
0.0
 30
0.0
  9
$PUCSYDIR
 10
0.0
 20
1.0
 30
0.0
  9
$PUCSORTHOREF
  2

  9
$PUCSORTHOVIEW
 70
     0
  9
$PUCSORGTOP
 10
0.0
 20
0.0
 30
0.0
  9
$PUCSORGBOTTOM
 10
0.0
 20
0.0
 30
0.0
  9
$PUCSORGLEFT
 10
0.0
 20
0.0
 30
0.0
  9
$PUCSORGRIGHT
 10
0.0
 20
0.0
 30
0.0
  9
$PUCSORGFRONT
 10
0.0
 20
0.0
 30
0.0
  9
$PUCSORGBACK
 10
0.0
 20
0.0
 30
0.0
  9
$USERI1
 70
     0
  9
$USERI2
 70
     0
  9
$USERI3
 70
     0
  9
$USERI4
 70
     0
  9
$USERI5
 70
     0
  9
$USERR1
 40
0.0
  9
$USERR2
 40
0.0
  9
$USERR3
 40
0.0
  9
$USERR4
 40
0.0
  9
$USERR5
 40
0.0
  9
$WORLDVIEW
 70
     1
  9
$SHADEDGE
 70
     3
  9
$SHADEDIF
 70
    70
  9
$TILEMODE
 70
     1
  9
$MAXACTVP
 70
    64
  9
$PINSBASE
 10
0.0
 20
0.0
 30
0.0
  9
$PLIMCHECK
 70
     0
  9
$PEXTMIN
 10
1.000000000000000E+20
 20
1.000000000000000E+20
 30
1.000000000000000E+20
  9
$PEXTMAX
 10
-1.000000000000000E+20
 20
-1.000000000000000E+20
 30
-1.000000000000000E+20
  9
$PLIMMIN
 10
0.0
 20
0.0
  9
$PLIMMAX
 10
12.0
 20
9.0
  9
$UNITMODE
 70
     0
  9
$VISRETAIN
 70
     1
  9
$PLINEGEN
 70
     0
  9
$PSLTSCALE
 70
     1
  9
$TREEDEPTH
 70
  3020
  9
$CMLSTYLE
  2
Standard
  9
$CMLJUST
 70
     0
  9
$CMLSCALE
 40
1.0
  9
$PROXYGRAPHICS
 70
     1
  9
$MEASUREMENT
 70
     0
  9
$CELWEIGHT
370
    -1
  9
$ENDCAPS
280
     0
  9
$JOINSTYLE
280
     0
  9
$LWDISPLAY
290
     0
  9
$INSUNITS
 70
     0
  9
$HYPERLINKBASE
  1

  9
$STYLESHEET
  1

  9
$XEDIT
290
     1
  9
$CEPSNTYPE
380
     0
  9
$PSTYLEMODE
290
     1
  9
$FINGERPRINTGUID
  2
{BF7546DB-49C4-4A94-AB26-F7A8BF6D254F}
  9
$VERSIONGUID
  2
{3B457C84-D63D-48FC-AF03-4F3C3F47587C}
  9
$EXTNAMES
290
     1
  9
$PSVPSCALE
 40
0.0
  9
$OLESTARTUP
290
     0
  0
ENDSEC
  0
SECTION
  2
CLASSES
  0
CLASS
  1
ACDBDICTIONARYWDFLT
  2
AcDbDictionaryWithDefault
  3
AutoCAD 2000
 90
        0
280
     0
281
     0
  0
CLASS
  1
ACDBPLACEHOLDER
  2
AcDbPlaceHolder
  3
AutoCAD 2000
 90
        0
280
     0
281
     0
  0
CLASS
  1
LAYOUT
  2
AcDbLayout
  3
AutoCAD 2000
 90
        0
280
     0
281
     0
  0
CLASS
  1
DICTIONARYVAR
  2
AcDbDictionaryVar
  3
AutoCAD 2000
 90
        0
280
     0
281
     0
  0
ENDSEC
  0
SECTION
  2
TABLES
  0
TABLE
  2
VPORT
  5
8
330
0
100
AcDbSymbolTable
 70
     2
  0
VPORT
  5
16B
330
8
100
AcDbSymbolTableRecord
100
AcDbViewportTableRecord
  2
*Active
 70
     0
 10
0.0
 20
0.0
 11
1.0
 21
1.0
 12
97.5
 22
50.0
 13
0.0
 23
0.0
 14
1.0
 24
1.0
 15
0.0
 25
0.0
 16
0.0
 26
0.0
 36
1.0
 17
0.0
 27
0.0
 37
0.0
 40
100.7672634271099
 41
2.078104993597951
 42
50.0
 43
0.0
 44
0.0
 50
0.0
 51
0.0
 71
     0
 72
   100
 73
     1
 74
     3
 75
     0
 76
     0
 77
     0
 78
     0
281
     0
 65
     1
110
0.0
120
0.0
130
0.0
111
1.0
121
0.0
131
0.0
112
0.0
122
1.0
132
0.0
 79
     1
146
0.0
  0
ENDTAB
  0
TABLE
  2
LTYPE
  5
5
330
0
100
AcDbSymbolTable
 70
     1
  0
LTYPE
  5
13
330
5
100
AcDbSymbolTableRecord
100
AcDbLinetypeTableRecord
  2
ByBlock
 70
     0
  3

 72
    65
 73
     0
 40
0.0
  0
LTYPE
  5
14
330
5
100
AcDbSymbolTableRecord
100
AcDbLinetypeTableRecord
  2
ByLayer
 70
     0
  3

 72
    65
 73
     0
 40
0.0
  0
LTYPE
  5
15
330
5
100
AcDbSymbolTableRecord
100
AcDbLinetypeTableRecord
  2
Continuous
 70
     0
  3
Solid line
 72
    65
 73
     0
 40
0.0
  0
ENDTAB
  0
TABLE
  2
LAYER
  5
2
330
0
100
AcDbSymbolTable
 70
     1
  0
LAYER
  5
10
330
2
100
AcDbSymbolTableRecord
100
AcDbLayerTableRecord
  2
0
 70
     0
 62
     7
  6
Continuous
370
    -3
390
F
  0
ENDTAB
  0
TABLE
  2
STYLE
  5
3
330
0
100
AcDbSymbolTable
 70
     1
  0
STYLE
  5
11
330
3
100
AcDbSymbolTableRecord
100
AcDbTextStyleTableRecord
  2
Standard
 70
     0
 40
0.0
 41
1.0
 50
0.0
 71
     0
 42
0.2
  3
txt
  4

  0
ENDTAB
  0
TABLE
  2
VIEW
  5
6
330
0
100
AcDbSymbolTable
 70
     0
  0
ENDTAB
  0
TABLE
  2
UCS
  5
7
330
0
100
AcDbSymbolTable
 70
     0
  0
ENDTAB
  0
TABLE
  2
APPID
  5
9
330
0
100
AcDbSymbolTable
 70
     1
  0
APPID
  5
12
330
9
100
AcDbSymbolTableRecord
100
AcDbRegAppTableRecord
  2
ACAD
 70
     0
  0
ENDTAB
  0
TABLE
  2
DIMSTYLE
  5
A
330
0
100
AcDbSymbolTable
 70
     1
100
AcDbDimStyleTable
 71
     0
  0
DIMSTYLE
105
164
330
A
100
AcDbSymbolTableRecord
100
AcDbDimStyleTableRecord
  2
Standard
 70
     0
340
11
  0
ENDTAB
  0
TABLE
  2
BLOCK_RECORD
  5
1
330
0
100
AcDbSymbolTable
 70
     0
  0
BLOCK_RECORD
  5
1E
330
1
100
AcDbSymbolTableRecord
100
AcDbBlockTableRecord
  2
*Model_Space
340
21
  0
BLOCK_RECORD
  5
1A
330
1
100
AcDbSymbolTableRecord
100
AcDbBlockTableRecord
  2
*Paper_Space
340
1D
  0
ENDTAB
  0
ENDSEC
  0
SECTION
  2
BLOCKS
  0
BLOCK
  5
1F
330
1E
100
AcDbEntity
  8
0
100
AcDbBlockBegin
  2
*Model_Space
 70
     0
 10
0.0
 20
0.0
 30
0.0
  3
*Model_Space
  1

  0
ENDBLK
  5
20
330
1E
100
AcDbEntity
  8
0
100
AcDbBlockEnd
  0
BLOCK
  5
1B
330
1A
100
AcDbEntity
 67
     1
  8
0
100
AcDbBlockBegin
  2
*Paper_Space
 70
     0
 10
0.0
 20
0.0
 30
0.0
  3
*Paper_Space
  1

  0
ENDBLK
  5
1C
330
1A
100
AcDbEntity
 67
     1
  8
0
100
AcDbBlockEnd
  0
ENDSEC
  0
SECTION
  2
ENTITIES
  0
LINE
  5
22
330
1E
100
AcDbEntity
  8
0
100
AcDbLine
 10
73.0
 20
9.0
 30
0.0
 11
73.0
 21
24.0
 31
0.0
  0
LINE
  5
23
330
1E
100
AcDbEntity
  8
0
100
AcDbLine
 10
73.0
 20
9.0
 30
0.0
 11
73.0
 21
-0.0000000000000014
 31
0.0
  0
LINE
  5
24
330
1E
100
AcDbEntity
  8
0
100
AcDbLine
 10
73.0
 20
-0.0000000000000019
 30
0.0
 11
73.9
 21
-0.000000000000002
 31
0.0
  0
LINE
  5
25
330
1E
100
AcDbEntity
  8
0
100
AcDbLine
 10
73.0
 20
-0.0000000000000019
 30
0.0
 11
73.0
 21
9.0
 31
0.0
  0
LINE
  5
26
330
1E
100
AcDbEntity
  8
0
100
AcDbLine
 10
73.0
 20
39.5
 30
0.0
 11
73.0
 21
40.2
 31
0.0
  0
LINE
  5
27
330
1E
100
AcDbEntity
  8
0
100
AcDbLine
 10
73.0
 20
40.2
 30
0.0
 11
73.0
 21
39.5
 31
0.0
  0
LINE
  5
28
330
1E
100
AcDbEntity
  8
0
100
AcDbLine
 10
73.0
 20
40.2
 30
0.0
 11
73.0
 21
42.09999999999999
 31
0.0
  0
LINE
  5
29
330
1E
100
AcDbEntity
  8
0
100
AcDbLine
 10
73.0
 20
40.2
 30
0.0
 11
73.0
 21
42.09999999999999
 31
0.0
  0
LINE
  5
2A
330
1E
100
AcDbEntity
  8
0
100
AcDbLine
 10
73.0
 20
42.09999999999999
 30
0.0
 11
73.0
 21
45.2
 31
0.0
  0
LINE
  5
2B
330
1E
100
AcDbEntity
  8
0
100
AcDbLine
 10
73.0
 20
42.09999999999999
 30
0.0
 11
73.0
 21
40.2
 31
0.0
  0
LINE
  5
2C
330
1E
100
AcDbEntity
  8
0
100
AcDbLine
 10
73.0
 20
45.2
 30
0.0
 11
73.0
 21
42.09999999999999
 31
0.0
  0
LINE
  5
2D
330
1E
100
AcDbEntity
  8
0
100
AcDbLine
 10
73.0
 20
45.2
 30
0.0
 11
73.0
 21
49.29999999999999
 31
0.0
  0
LINE
  5
2E
330
1E
100
AcDbEntity
  8
0
100
AcDbLine
 10
73.0
 20
45.2
 30
0.0
 11
73.0
 21
49.29999999999999
 31
0.0
  0
LINE
  5
2F
330
1E
100
AcDbEntity
  8
0
100
AcDbLine
 10
73.0
 20
45.2
 30
0.0
 11
73.0
 21
42.09999999999999
 31
0.0
  0
LINE
  5
30
330
1E
100
AcDbEntity
  8
0
100
AcDbLine
 10
73.0
 20
42.09999999999999
 30
0.0
 11
73.0
 21
40.2
 31
0.0
  0
LINE
  5
31
330
1E
100
AcDbEntity
  8
0
100
AcDbLine
 10
73.0
 20
42.09999999999999
 30
0.0
 11
73.0
 21
45.2
 31
0.0
  0
LINE
  5
32
330
1E
100
AcDbEntity
  8
0
100
AcDbLine
 10
73.0
 20
49.1
 30
0.0
 11
73.0
 21
44.9
 31
0.0
  0
LINE
  5
33
330
1E
100
AcDbEntity
  8
0
100
AcDbLine
 10
73.0
 20
49.1
 30
0.0
 11
73.0
 21
53.9
 31
0.0
  0
LINE
  5
34
330
1E
100
AcDbEntity
  8
0
100
AcDbLine
 10
73.0
 20
49.0
 30
0.0
 11
73.0
 21
53.79999999999999
 31
0.0
  0
LINE
  5
35
330
1E
100
AcDbEntity
  8
0
100
AcDbLine
 10
73.0
 20
49.0
 30
0.0
 11
73.0
 21
44.9
 31
0.0
  0
LINE
  5
36
330
1E
100
AcDbEntity
  8
0
100
AcDbLine
 10
73.0
 20
44.9
 30
0.0
 11
73.0
 21
49.0
 31
0.0
  0
LINE
  5
37
330
1E
100
AcDbEntity
  8
0
100
AcDbLine
 10
73.0
 20
44.9
 30
0.0
 11
73.0
 21
41.7
 31
0.0
  0
LINE
  5
38
330
1E
100
AcDbEntity
  8
0
100
AcDbLine
 10
73.0
 20
44.9
 30
0.0
 11
73.0
 21
49.1
 31
0.0
  0
LINE
  5
39
330
1E
100
AcDbEntity
  8
0
100
AcDbLine
 10
0.0
 20
56.5
 30
0.0
 11
73.0
 21
56.5
 31
0.0
  0
LINE
  5
3A
330
1E
100
AcDbEntity
  8
0
100
AcDbLine
 10
73.0
 20
49.29999999999999
 30
0.0
 11
73.0
 21
54.0
 31
0.0
  0
LINE
  5
3B
330
1E
100
AcDbEntity
  8
0
100
AcDbLine
 10
73.0
 20
49.29999999999999
 30
0.0
 11
73.0
 21
45.2
 31
0.0
  0
LINE
  5
3C
330
1E
100
AcDbEntity
  8
0
100
AcDbLine
 10
73.0
 20
53.9
 30
0.0
 11
73.0
 21
49.1
 31
0.0
  0
LINE
  5
3D
330
1E
100
AcDbEntity
  8
0
100
AcDbLine
 10
73.0
 20
53.9
 30
0.0
 11
73.0
 21
56.5
 31
0.0
  0
LINE
  5
3E
330
1E
100
AcDbEntity
  8
0
100
AcDbLine
 10
73.0
 20
49.29999999999999
 30
0.0
 11
73.0
 21
45.2
 31
0.0
  0
LINE
  5
3F
330
1E
100
AcDbEntity
  8
0
100
AcDbLine
 10
73.0
 20
49.29999999999999
 30
0.0
 11
73.0
 21
54.0
 31
0.0
  0
LINE
  5
40
330
1E
100
AcDbEntity
  8
0
100
AcDbLine
 10
73.0
 20
56.5
 30
0.0
 11
73.0
 21
53.9
 31
0.0
  0
LINE
  5
41
330
1E
100
AcDbEntity
  8
0
100
AcDbLine
 10
73.0
 20
56.5
 30
0.0
 11
73.0
 21
54.0
 31
0.0
  0
LINE
  5
42
330
1E
100
AcDbEntity
  8
0
100
AcDbLine
 10
73.0
 20
56.5
 30
0.0
 11
73.0
 21
53.79999999999999
 31
0.0
  0
LINE
  5
43
330
1E
100
AcDbEntity
  8
0
100
AcDbLine
 10
73.0
 20
54.0
 30
0.0
 11
73.0
 21
49.29999999999999
 31
0.0
  0
LINE
  5
44
330
1E
100
AcDbEntity
  8
0
100
AcDbLine
 10
73.0
 20
54.0
 30
0.0
 11
73.0
 21
59.0
 31
0.0
  0
LINE
  5
45
330
1E
100
AcDbEntity
  8
0
100
AcDbLine
 10
73.0
 20
54.0
 30
0.0
 11
73.0
 21
56.5
 31
0.0
  0
LINE
  5
46
330
1E
100
AcDbEntity
  8
0
100
AcDbLine
 10
73.0
 20
54.0
 30
0.0
 11
73.0
 21
49.29999999999999
 31
0.0
  0
LINE
  5
47
330
1E
100
AcDbEntity
  8
0
100
AcDbLine
 10
0.0000000000000001
 20
56.5
 30
0.0
 11
73.0
 21
56.5
 31
0.0
  0
LINE
  5
48
330
1E
100
AcDbEntity
  8
0
100
AcDbLine
 10
0.0000000000000001
 20
56.5
 30
0.0
 11
0.0000000000000001
 21
56.6
 31
0.0
  0
LINE
  5
49
330
1E
100
AcDbEntity
  8
0
100
AcDbLine
 10
0.0000000000000001
 20
57.8
 30
0.0
 11
0.0000000000000001
 21
57.2
 31
0.0
  0
LINE
  5
4A
330
1E
100
AcDbEntity
  8
0
100
AcDbLine
 10
0.0000000000000001
 20
57.8
 30
0.0
 11
0.0000000000000001
 21
58.39999999999999
 31
0.0
  0
LINE
  5
4B
330
1E
100
AcDbEntity
  8
0
100
AcDbLine
 10
0.0000000000000001
 20
58.39999999999999
 30
0.0
 11
0.0000000000000001
 21
57.8
 31
0.0
  0
LINE
  5
4C
330
1E
100
AcDbEntity
  8
0
100
AcDbLine
 10
0.0000000000000001
 20
58.39999999999999
 30
0.0
 11
0.0000000000000001
 21
59.0
 31
0.0
  0
LINE
  5
4D
330
1E
100
AcDbEntity
  8
0
100
AcDbLine
 10
0.0000000000000001
 20
59.0
 30
0.0
 11
0.0000000000000001
 21
58.39999999999999
 31
0.0
  0
LINE
  5
4E
330
1E
100
AcDbEntity
  8
0
100
AcDbLine
 10
0.0000000000000001
 20
59.0
 30
0.0
 11
0.0000000000000001
 21
59.6
 31
0.0
  0
LINE
  5
4F
330
1E
100
AcDbEntity
  8
0
100
AcDbLine
 10
0.0000000000000001
 20
57.2
 30
0.0
 11
0.0000000000000001
 21
56.79999999999999
 31
0.0
  0
LINE
  5
50
330
1E
100
AcDbEntity
  8
0
100
AcDbLine
 10
0.0000000000000001
 20
57.2
 30
0.0
 11
0.0000000000000001
 21
57.8
 31
0.0
  0
LINE
  5
51
330
1E
100
AcDbEntity
  8
0
100
AcDbLine
 10
0.0000000000000001
 20
56.79999999999999
 30
0.0
 11
0.0000000000000001
 21
56.6
 31
0.0
  0
LINE
  5
52
330
1E
100
AcDbEntity
  8
0
100
AcDbLine
 10
0.0000000000000001
 20
56.79999999999999
 30
0.0
 11
0.0000000000000001
 21
57.2
 31
0.0
  0
LINE
  5
53
330
1E
100
AcDbEntity
  8
0
100
AcDbLine
 10
0.0000000000000001
 20
56.6
 30
0.0
 11
0.0000000000000001
 21
56.5
 31
0.0
  0
LINE
  5
54
330
1E
100
AcDbEntity
  8
0
100
AcDbLine
 10
0.0000000000000001
 20
56.6
 30
0.0
 11
0.0000000000000001
 21
56.79999999999999
 31
0.0
  0
LINE
  5
55
330
1E
100
AcDbEntity
  8
0
100
AcDbLine
 10
73.0
 20
53.79999999999999
 30
0.0
 11
73.0
 21
56.5
 31
0.0
  0
LINE
  5
56
330
1E
100
AcDbEntity
  8
0
100
AcDbLine
 10
73.0
 20
53.79999999999999
 30
0.0
 11
73.0
 21
49.0
 31
0.0
  0
LINE
  5
57
330
1E
100
AcDbEntity
  8
0
100
AcDbLine
 10
0.0000000000000001
 20
61.2
 30
0.0
 11
0.0000000000000001
 21
60.8
 31
0.0
  0
LINE
  5
58
330
1E
100
AcDbEntity
  8
0
100
AcDbLine
 10
0.0000000000000001
 20
61.2
 30
0.0
 11
0.0000000000000001
 21
61.4
 31
0.0
  0
LINE
  5
59
330
1E
100
AcDbEntity
  8
0
100
AcDbLine
 10
0.0000000000000001
 20
61.4
 30
0.0
 11
0.0000000000000001
 21
61.2
 31
0.0
  0
LINE
  5
5A
330
1E
100
AcDbEntity
  8
0
100
AcDbLine
 10
0.0000000000000001
 20
61.4
 30
0.0
 11
0.0000000000000001
 21
61.5
 31
0.0
  0
LINE
  5
5B
330
1E
100
AcDbEntity
  8
0
100
AcDbLine
 10
0.0
 20
61.5
 30
0.0
 11
73.0
 21
61.5
 31
0.0
  0
LINE
  5
5C
330
1E
100
AcDbEntity
  8
0
100
AcDbLine
 10
0.0000000000000001
 20
61.5
 30
0.0
 11
0.0000000000000001
 21
61.4
 31
0.0
  0
LINE
  5
5D
330
1E
100
AcDbEntity
  8
0
100
AcDbLine
 10
0.0000000000000001
 20
61.5
 30
0.0
 11
73.0
 21
61.5
 31
0.0
  0
LINE
  5
5E
330
1E
100
AcDbEntity
  8
0
100
AcDbLine
 10
0.0000000000000001
 20
60.8
 30
0.0
 11
0.0000000000000001
 21
60.2
 31
0.0
  0
LINE
  5
5F
330
1E
100
AcDbEntity
  8
0
100
AcDbLine
 10
0.0000000000000001
 20
60.8
 30
0.0
 11
0.0000000000000001
 21
61.2
 31
0.0
  0
LINE
  5
60
330
1E
100
AcDbEntity
  8
0
100
AcDbLine
 10
0.0000000000000001
 20
60.2
 30
0.0
 11
0.0000000000000001
 21
59.6
 31
0.0
  0
LINE
  5
61
330
1E
100
AcDbEntity
  8
0
100
AcDbLine
 10
0.0000000000000001
 20
60.2
 30
0.0
 11
0.0000000000000001
 21
60.8
 31
0.0
  0
LINE
  5
62
330
1E
100
AcDbEntity
  8
0
100
AcDbLine
 10
0.0000000000000001
 20
59.6
 30
0.0
 11
0.0000000000000001
 21
59.0
 31
0.0
  0
LINE
  5
63
330
1E
100
AcDbEntity
  8
0
100
AcDbLine
 10
0.0000000000000001
 20
59.6
 30
0.0
 11
0.0000000000000001
 21
60.2
 31
0.0
  0
LINE
  5
64
330
1E
100
AcDbEntity
  8
0
100
AcDbLine
 10
73.0
 20
64.0
 30
0.0
 11
73.0
 21
59.0
 31
0.0
  0
LINE
  5
65
330
1E
100
AcDbEntity
  8
0
100
AcDbLine
 10
73.0
 20
64.0
 30
0.0
 11
73.0
 21
68.7
 31
0.0
  0
LINE
  5
66
330
1E
100
AcDbEntity
  8
0
100
AcDbLine
 10
73.0
 20
64.0
 30
0.0
 11
73.0
 21
61.5
 31
0.0
  0
LINE
  5
67
330
1E
100
AcDbEntity
  8
0
100
AcDbLine
 10
73.0
 20
75.9
 30
0.0
 11
73.0
 21
77.8
 31
0.0
  0
LINE
  5
68
330
1E
100
AcDbEntity
  8
0
100
AcDbLine
 10
73.0
 20
75.9
 30
0.0
 11
73.0
 21
72.8
 31
0.0
  0
LINE
  5
69
330
1E
100
AcDbEntity
  8
0
100
AcDbLine
 10
73.0
 20
75.9
 30
0.0
 11
73.0
 21
72.8
 31
0.0
  0
LINE
  5
6A
330
1E
100
AcDbEntity
  8
0
100
AcDbLine
 10
73.0
 20
75.9
 30
0.0
 11
73.0
 21
77.8
 31
0.0
  0
LINE
  5
6B
330
1E
100
AcDbEntity
  8
0
100
AcDbLine
 10
73.0
 20
73.09999999999999
 30
0.0
 11
73.0
 21
76.29999999999999
 31
0.0
  0
LINE
  5
6C
330
1E
100
AcDbEntity
  8
0
100
AcDbLine
 10
73.0
 20
73.09999999999999
 30
0.0
 11
73.0
 21
68.9
 31
0.0
  0
LINE
  5
6D
330
1E
100
AcDbEntity
  8
0
100
AcDbLine
 10
73.0
 20
73.09999999999999
 30
0.0
 11
73.0
 21
88.0
 31
0.0
  0
LINE
  5
6E
330
1E
100
AcDbEntity
  8
0
100
AcDbLine
 10
73.0
 20
72.8
 30
0.0
 11
73.0
 21
68.7
 31
0.0
  0
LINE
  5
6F
330
1E
100
AcDbEntity
  8
0
100
AcDbLine
 10
73.0
 20
72.8
 30
0.0
 11
73.0
 21
75.9
 31
0.0
  0
LINE
  5
70
330
1E
100
AcDbEntity
  8
0
100
AcDbLine
 10
73.0
 20
72.8
 30
0.0
 11
73.0
 21
75.9
 31
0.0
  0
LINE
  5
71
330
1E
100
AcDbEntity
  8
0
100
AcDbLine
 10
73.0
 20
68.7
 30
0.0
 11
73.0
 21
64.0
 31
0.0
  0
LINE
  5
72
330
1E
100
AcDbEntity
  8
0
100
AcDbLine
 10
73.0
 20
68.7
 30
0.0
 11
73.0
 21
72.8
 31
0.0
  0
LINE
  5
73
330
1E
100
AcDbEntity
  8
0
100
AcDbLine
 10
73.0
 20
77.8
 30
0.0
 11
73.0
 21
75.9
 31
0.0
  0
LINE
  5
74
330
1E
100
AcDbEntity
  8
0
100
AcDbLine
 10
73.0
 20
77.8
 30
0.0
 11
73.0
 21
78.5
 31
0.0
  0
LINE
  5
75
330
1E
100
AcDbEntity
  8
0
100
AcDbLine
 10
73.0
 20
77.8
 30
0.0
 11
73.0
 21
75.9
 31
0.0
  0
LINE
  5
76
330
1E
100
AcDbEntity
  8
0
100
AcDbLine
 10
73.0
 20
76.29999999999999
 30
0.0
 11
73.0
 21
78.3
 31
0.0
  0
LINE
  5
77
330
1E
100
AcDbEntity
  8
0
100
AcDbLine
 10
73.0
 20
76.29999999999999
 30
0.0
 11
73.0
 21
73.09999999999999
 31
0.0
  0
LINE
  5
78
330
1E
100
AcDbEntity
  8
0
100
AcDbLine
 10
46.73329999999999
 20
88.0
 30
0.0
 11
73.0
 21
88.0
 31
0.0
  0
LINE
  5
79
330
1E
100
AcDbEntity
  8
0
100
AcDbLine
 10
46.73329999999999
 20
88.0
 30
0.0
 11
193.267
 21
88.0
 31
0.0
  0
LINE
  5
7A
330
1E
100
AcDbEntity
  8
0
100
AcDbLine
 10
46.73329999999999
 20
88.0
 30
0.0
 11
193.267
 21
88.0
 31
0.0
  0
LINE
  5
7B
330
1E
100
AcDbEntity
  8
0
100
AcDbLine
 10
46.73329999999999
 20
88.0
 30
0.0
 11
73.0
 21
88.0
 31
0.0
  0
LINE
  5
7C
330
1E
100
AcDbEntity
  8
0
100
AcDbLine
 10
45.8667
 20
88.0
 30
0.0
 11
46.73329999999999
 21
88.0
 31
0.0
  0
LINE
  5
7D
330
1E
100
AcDbEntity
  8
0
100
AcDbLine
 10
46.73329999999999
 20
88.3
 30
0.0
 11
193.267
 21
88.3
 31
0.0
  0
LINE
  5
7E
330
1E
100
AcDbEntity
  8
0
100
AcDbLine
 10
46.73329999999999
 20
88.3
 30
0.0
 11
193.267
 21
88.3
 31
0.0
  0
LINE
  5
7F
330
1E
100
AcDbEntity
  8
0
100
AcDbLine
 10
45.8667
 20
88.0
 30
0.0
 11
46.73329999999999
 21
88.0
 31
0.0
  0
LINE
  5
80
330
1E
100
AcDbEntity
  8
0
100
AcDbLine
 10
45.69329999999999
 20
88.3
 30
0.0
 11
46.73329999999999
 21
88.3
 31
0.0
  0
LINE
  5
81
330
1E
100
AcDbEntity
  8
0
100
AcDbLine
 10
45.0
 20
99.0
 30
0.0
 11
45.0
 21
89.0
 31
0.0
  0
LINE
  5
82
330
1E
100
AcDbEntity
  8
0
100
AcDbLine
 10
45.0
 20
89.0
 30
0.0
 11
45.25999999999999
 21
88.3
 31
0.0
  0
LINE
  5
83
330
1E
100
AcDbEntity
  8
0
100
AcDbLine
 10
45.0
 20
89.0
 30
0.0
 11
45.0
 21
99.0
 31
0.0
  0
LINE
  5
84
330
1E
100
AcDbEntity
  8
0
100
AcDbLine
 10
45.0
 20
99.0
 30
0.0
 11
45.25999999999999
 21
99.7
 31
0.0
  0
LINE
  5
85
330
1E
100
AcDbEntity
  8
0
100
AcDbLine
 10
45.25999999999999
 20
99.7
 30
0.0
 11
45.69329999999999
 21
99.7
 31
0.0
  0
LINE
  5
86
330
1E
100
AcDbEntity
  8
0
100
AcDbLine
 10
45.25999999999999
 20
99.7
 30
0.0
 11
45.8667
 21
100.0
 31
0.0
  0
LINE
  5
89
330
1E
100
AcDbEntity
  8
0
100
AcDbLine
 10
46.73329999999999
 20
99.7
 30
0.0
 11
193.267
 21
99.7
 31
0.0
  0
LINE
  5
8A
330
1E
100
AcDbEntity
  8
0
100
AcDbLine
 10
46.73329999999999
 20
99.7
 30
0.0
 11
193.267
 21
99.7
 31
0.0
  0
LINE
  5
8B
330
1E
100
AcDbEntity
  8
0
100
AcDbLine
 10
45.69329999999999
 20
99.7
 30
0.0
 11
46.73329999999999
 21
99.7
 31
0.0
  0
LINE
  5
8E
330
1E
100
AcDbEntity
  8
0
100
AcDbLine
 10
45.25999999999999
 20
88.3
 30
0.0
 11
45.69329999999999
 21
88.3
 31
0.0
  0
LINE
  5
8F
330
1E
100
AcDbEntity
  8
0
100
AcDbLine
 10
45.25999999999999
 20
88.3
 30
0.0
 11
45.8667
 21
88.0
 31
0.0
  0
LINE
  5
90
330
1E
100
AcDbEntity
  8
0
100
AcDbLine
 10
73.0
 20
88.0
 30
0.0
 11
73.0
 21
79.0361
 31
0.0
  0
LINE
  5
91
330
1E
100
AcDbEntity
  8
0
100
AcDbLine
 10
73.0
 20
88.0
 30
0.0
 11
73.0
 21
73.09999999999999
 31
0.0
  0
LINE
  5
92
330
1E
100
AcDbEntity
  8
0
100
AcDbLine
 10
73.0
 20
88.0
 30
0.0
 11
76.2443
 21
88.0
 31
0.0
  0
LINE
  5
93
330
1E
100
AcDbEntity
  8
0
100
AcDbLine
 10
73.0
 20
79.0
 30
0.0
 11
73.0
 21
78.3
 31
0.0
  0
LINE
  5
94
330
1E
100
AcDbEntity
  8
0
100
AcDbLine
 10
73.0
 20
78.5
 30
0.0
 11
73.0
 21
77.8
 31
0.0
  0
LINE
  5
95
330
1E
100
AcDbEntity
  8
0
100
AcDbLine
 10
73.0
 20
78.3
 30
0.0
 11
73.0
 21
79.0
 31
0.0
  0
LINE
  5
96
330
1E
100
AcDbEntity
  8
0
100
AcDbLine
 10
73.0
 20
78.3
 30
0.0
 11
73.0
 21
76.29999999999999
 31
0.0
  0
LINE
  5
97
330
1E
100
AcDbEntity
  8
0
100
AcDbLine
 10
73.0
 20
79.0361
 30
0.0
 11
73.0
 21
88.0
 31
0.0
  0
LINE
  5
98
330
1E
100
AcDbEntity
  8
0
100
AcDbLine
 10
73.0
 20
79.0361
 30
0.0
 11
73.0
 21
76.2201
 31
0.0
  0
LINE
  5
99
330
1E
100
AcDbEntity
  8
0
100
AcDbLine
 10
73.0
 20
76.2201
 30
0.0
 11
73.0
 21
79.0361
 31
0.0
  0
LINE
  5
9A
330
1E
100
AcDbEntity
  8
0
100
AcDbLine
 10
73.0
 20
76.2201
 30
0.0
 11
73.0
 21
73.03279999999999
 31
0.0
  0
LINE
  5
9B
330
1E
100
AcDbEntity
  8
0
100
AcDbLine
 10
73.0
 20
73.03279999999999
 30
0.0
 11
73.0
 21
76.2201
 31
0.0
  0
LINE
  5
9C
330
1E
100
AcDbEntity
  8
0
100
AcDbLine
 10
73.0
 20
73.03279999999999
 30
0.0
 11
73.0
 21
68.9
 31
0.0
  0
LINE
  5
9D
330
1E
100
AcDbEntity
  8
0
100
AcDbLine
 10
73.0
 20
64.1
 30
0.0
 11
73.0
 21
68.9
 31
0.0
  0
LINE
  5
9E
330
1E
100
AcDbEntity
  8
0
100
AcDbLine
 10
73.0
 20
64.1
 30
0.0
 11
73.0
 21
61.5
 31
0.0
  0
LINE
  5
9F
330
1E
100
AcDbEntity
  8
0
100
AcDbLine
 10
73.0
 20
68.9
 30
0.0
 11
73.0
 21
64.1
 31
0.0
  0
LINE
  5
A0
330
1E
100
AcDbEntity
  8
0
100
AcDbLine
 10
73.0
 20
68.9
 30
0.0
 11
73.0
 21
73.03279999999999
 31
0.0
  0
LINE
  5
A1
330
1E
100
AcDbEntity
  8
0
100
AcDbLine
 10
73.0
 20
68.9
 30
0.0
 11
73.0
 21
73.09999999999999
 31
0.0
  0
LINE
  5
A2
330
1E
100
AcDbEntity
  8
0
100
AcDbLine
 10
73.0
 20
68.9
 30
0.0
 11
73.0
 21
64.1
 31
0.0
  0
LINE
  5
A3
330
1E
100
AcDbEntity
  8
0
100
AcDbLine
 10
73.0
 20
61.5
 30
0.0
 11
73.0
 21
64.1
 31
0.0
  0
LINE
  5
A4
330
1E
100
AcDbEntity
  8
0
100
AcDbLine
 10
73.0
 20
61.5
 30
0.0
 11
73.0
 21
64.0
 31
0.0
  0
LINE
  5
A5
330
1E
100
AcDbEntity
  8
0
100
AcDbLine
 10
73.0
 20
64.1
 30
0.0
 11
73.0
 21
59.0
 31
0.0
  0
LINE
  5
A6
330
1E
100
AcDbEntity
  8
0
100
AcDbLine
 10
73.0
 20
64.1
 30
0.0
 11
73.0
 21
68.9
 31
0.0
  0
LINE
  5
A7
330
1E
100
AcDbEntity
  8
0
100
AcDbLine
 10
73.0
 20
59.0
 30
0.0
 11
73.0
 21
53.9
 31
0.0
  0
LINE
  5
A8
330
1E
100
AcDbEntity
  8
0
100
AcDbLine
 10
73.0
 20
59.0
 30
0.0
 11
73.0
 21
54.0
 31
0.0
  0
LINE
  5
A9
330
1E
100
AcDbEntity
  8
0
100
AcDbLine
 10
73.0
 20
59.0
 30
0.0
 11
73.0
 21
64.1
 31
0.0
  0
LINE
  5
AA
330
1E
100
AcDbEntity
  8
0
100
AcDbLine
 10
73.0
 20
59.0
 30
0.0
 11
73.0
 21
64.0
 31
0.0
  0
LINE
  5
AB
330
1E
100
AcDbEntity
  8
0
100
AcDbLine
 10
73.0
 20
53.9
 30
0.0
 11
73.0
 21
49.1
 31
0.0
  0
LINE
  5
AC
330
1E
100
AcDbEntity
  8
0
100
AcDbLine
 10
73.0
 20
53.9
 30
0.0
 11
73.0
 21
59.0
 31
0.0
  0
LINE
  5
AD
330
1E
100
AcDbEntity
  8
0
100
AcDbLine
 10
73.0
 20
49.1
 30
0.0
 11
73.0
 21
44.9
 31
0.0
  0
LINE
  5
AE
330
1E
100
AcDbEntity
  8
0
100
AcDbLine
 10
73.0
 20
49.1
 30
0.0
 11
73.0
 21
53.9
 31
0.0
  0
LINE
  5
AF
330
1E
100
AcDbEntity
  8
0
100
AcDbLine
 10
73.0
 20
44.9
 30
0.0
 11
73.0
 21
41.7
 31
0.0
  0
LINE
  5
B0
330
1E
100
AcDbEntity
  8
0
100
AcDbLine
 10
73.0
 20
44.9
 30
0.0
 11
73.0
 21
49.1
 31
0.0
  0
LINE
  5
B1
330
1E
100
AcDbEntity
  8
0
100
AcDbLine
 10
73.0
 20
41.7
 30
0.0
 11
73.0
 21
39.7
 31
0.0
  0
LINE
  5
B2
330
1E
100
AcDbEntity
  8
0
100
AcDbLine
 10
73.0
 20
41.7
 30
0.0
 11
73.0
 21
44.9
 31
0.0
  0
LINE
  5
B3
330
1E
100
AcDbEntity
  8
0
100
AcDbLine
 10
73.0
 20
41.7
 30
0.0
 11
73.0
 21
44.9
 31
0.0
  0
LINE
  5
B4
330
1E
100
AcDbEntity
  8
0
100
AcDbLine
 10
73.0
 20
39.7
 30
0.0
 11
73.0
 21
39.0
 31
0.0
  0
LINE
  5
B5
330
1E
100
AcDbEntity
  8
0
100
AcDbLine
 10
73.0
 20
39.7
 30
0.0
 11
73.0
 21
41.7
 31
0.0
  0
LINE
  5
B6
330
1E
100
AcDbEntity
  8
0
100
AcDbLine
 10
73.0
 20
39.7
 30
0.0
 11
73.0
 21
24.0
 31
0.0
  0
LINE
  5
B7
330
1E
100
AcDbEntity
  8
0
100
AcDbLine
 10
73.0
 20
39.0
 30
0.0
 11
73.0
 21
24.0
 31
0.0
  0
LINE
  5
B9
330
1E
100
AcDbEntity
  8
0
100
AcDbLine
 10
73.0
 20
39.0
 30
0.0
 11
73.0
 21
39.7
 31
0.0
  0
LINE
  5
BA
330
1E
100
AcDbEntity
  8
0
100
AcDbLine
 10
73.0
 20
24.0
 30
0.0
 11
73.0
 21
9.0
 31
0.0
  0
LINE
  5
BB
330
1E
100
AcDbEntity
  8
0
100
AcDbLine
 10
73.0
 20
24.0
 30
0.0
 11
73.0
 21
39.7
 31
0.0
  0
LINE
  5
BC
330
1E
100
AcDbEntity
  8
0
100
AcDbLine
 10
73.0
 20
24.0
 30
0.0
 11
73.0
 21
9.0
 31
0.0
  0
LINE
  5
BD
330
1E
100
AcDbEntity
  8
0
100
AcDbLine
 10
73.0
 20
24.0
 30
0.0
 11
73.0
 21
39.0
 31
0.0
  0
LINE
  5
BE
330
1E
100
AcDbEntity
  8
0
100
AcDbLine
 10
73.0
 20
9.0
 30
0.0
 11
73.0
 21
0.0
 31
0.0
  0
LINE
  5
BF
330
1E
100
AcDbEntity
  8
0
100
AcDbLine
 10
73.0
 20
9.0
 30
0.0
 11
73.0
 21
24.0
 31
0.0
  0
LINE
  5
C0
330
1E
100
AcDbEntity
  8
0
100
AcDbLine
 10
102.6
 20
-0.0000000000000021
 30
0.0
 11
108.2999999999999
 21
-0.0000000000000021
 31
0.0
  0
LINE
  5
C1
330
1E
100
AcDbEntity
  8
0
100
AcDbLine
 10
96.5
 20
-0.0000000000000021
 30
0.0
 11
102.6
 21
-0.0000000000000021
 31
0.0
  0
LINE
  5
C2
330
1E
100
AcDbEntity
  8
0
100
AcDbLine
 10
113.2
 20
-0.000000000000002
 30
0.0
 11
116.9
 21
-0.000000000000002
 31
0.0
  0
LINE
  5
C3
330
1E
100
AcDbEntity
  8
0
100
AcDbLine
 10
108.2999999999999
 20
-0.0000000000000021
 30
0.0
 11
113.2
 21
-0.000000000000002
 31
0.0
  0
LINE
  5
C4
330
1E
100
AcDbEntity
  8
0
100
AcDbLine
 10
90.5
 20
-0.0000000000000021
 30
0.0
 11
96.5
 21
-0.0000000000000021
 31
0.0
  0
LINE
  5
C5
330
1E
100
AcDbEntity
  8
0
100
AcDbLine
 10
84.8
 20
-0.0000000000000021
 30
0.0
 11
90.5
 21
-0.0000000000000021
 31
0.0
  0
LINE
  5
C6
330
1E
100
AcDbEntity
  8
0
100
AcDbLine
 10
119.1999999999999
 20
-0.000000000000002
 30
0.0
 11
120.1
 21
-0.0000000000000019
 31
0.0
  0
LINE
  5
C7
330
1E
100
AcDbEntity
  8
0
100
AcDbLine
 10
116.9
 20
-0.000000000000002
 30
0.0
 11
119.1999999999999
 21
-0.000000000000002
 31
0.0
  0
LINE
  5
C8
330
1E
100
AcDbEntity
  8
0
100
AcDbLine
 10
79.90000000000001
 20
-0.000000000000002
 30
0.0
 11
84.8
 21
-0.0000000000000021
 31
0.0
  0
LINE
  5
C9
330
1E
100
AcDbEntity
  8
0
100
AcDbLine
 10
76.2
 20
-0.000000000000002
 30
0.0
 11
79.90000000000001
 21
-0.000000000000002
 31
0.0
  0
LINE
  5
CA
330
1E
100
AcDbEntity
  8
0
100
AcDbLine
 10
73.9
 20
-0.000000000000002
 30
0.0
 11
76.2
 21
-0.000000000000002
 31
0.0
  0
LINE
  5
CB
330
1E
100
AcDbEntity
  8
0
100
AcDbLine
 10
120.1
 20
-0.0000000000000019
 30
0.0
 11
122.5
 21
9.0
 31
0.0
  0
LINE
  5
CC
330
1E
100
AcDbEntity
  8
0
100
AcDbLine
 10
120.1
 20
-0.0000000000000014
 30
0.0
 11
122.5
 21
9.0
 31
0.0
  0
LINE
  5
CD
330
1E
100
AcDbEntity
  8
0
100
AcDbLine
 10
119.1999999999999
 20
-0.0000000000000003
 30
0.0
 11
120.1
 21
-0.0000000000000007
 31
0.0
  0
LINE
  5
CE
330
1E
100
AcDbEntity
  8
0
100
AcDbLine
 10
76.2
 20
0.0000000000000001
 30
0.0
 11
79.90000000000001
 21
0.0000000000000004
 31
0.0
  0
LINE
  5
CF
330
1E
100
AcDbEntity
  8
0
100
AcDbLine
 10
116.9
 20
0.0000000000000001
 30
0.0
 11
119.1999999999999
 21
-0.0000000000000003
 31
0.0
  0
LINE
  5
D0
330
1E
100
AcDbEntity
  8
0
100
AcDbLine
 10
116.9
 20
0.0000000000000001
 30
0.0
 11
119.1999999999999
 21
-0.0000000000000003
 31
0.0
  0
LINE
  5
D1
330
1E
100
AcDbEntity
  8
0
100
AcDbLine
 10
113.2
 20
0.0000000000000004
 30
0.0
 11
116.9
 21
0.0000000000000001
 31
0.0
  0
LINE
  5
D2
330
1E
100
AcDbEntity
  8
0
100
AcDbLine
 10
113.2
 20
0.0000000000000004
 30
0.0
 11
116.9
 21
0.0000000000000001
 31
0.0
  0
LINE
  5
D3
330
1E
100
AcDbEntity
  8
0
100
AcDbLine
 10
84.60359999999999
 20
88.0
 30
0.0
 11
100.5
 21
88.0
 31
0.0
  0
LINE
  5
D4
330
1E
100
AcDbEntity
  8
0
100
AcDbLine
 10
79.42529999999999
 20
88.0
 30
0.0
 11
84.60359999999999
 21
88.0
 31
0.0
  0
LINE
  5
D5
330
1E
100
AcDbEntity
  8
0
100
AcDbLine
 10
76.2443
 20
88.0
 30
0.0
 11
79.42529999999999
 21
88.0
 31
0.0
  0
LINE
  5
D6
330
1E
100
AcDbEntity
  8
0
100
AcDbLine
 10
108.2999999999999
 20
0.0000000000000006
 30
0.0
 11
113.2
 21
0.0000000000000004
 31
0.0
  0
LINE
  5
D7
330
1E
100
AcDbEntity
  8
0
100
AcDbLine
 10
102.6
 20
0.0000000000000007
 30
0.0
 11
108.2999999999999
 21
0.0000000000000006
 31
0.0
  0
LINE
  5
D8
330
1E
100
AcDbEntity
  8
0
100
AcDbLine
 10
122.5
 20
9.0
 30
0.0
 11
126.4
 21
24.0
 31
0.0
  0
LINE
  5
D9
330
1E
100
AcDbEntity
  8
0
100
AcDbLine
 10
125.6
 20
60.1
 30
0.0
 11
130.4
 21
62.8
 31
0.0
  0
LINE
  5
DA
330
1E
100
AcDbEntity
  8
0
100
AcDbLine
 10
120.5
 20
59.0
 30
0.0
 11
125.6
 21
60.1
 31
0.0
  0
LINE
  5
DB
330
1E
100
AcDbEntity
  8
0
100
AcDbLine
 10
112.331
 20
67.2276
 30
0.0
 11
113.2039999999999
 21
65.1498
 31
0.0
  0
LINE
  5
DC
330
1E
100
AcDbEntity
  8
0
100
AcDbLine
 10
113.2039999999999
 20
65.1498
 30
0.0
 11
114.622
 21
63.3228
 31
0.0
  0
LINE
  5
DD
330
1E
100
AcDbEntity
  8
0
100
AcDbLine
 10
112.1129999999999
 20
67.2615
 30
0.0
 11
112.985
 21
65.1121
 31
0.0
  0
LINE
  5
DE
330
1E
100
AcDbEntity
  8
0
100
AcDbLine
 10
112.985
 20
65.1121
 30
0.0
 11
114.44
 21
63.2135
 31
0.0
  0
LINE
  5
DF
330
1E
100
AcDbEntity
  8
0
100
AcDbLine
 10
114.622
 20
63.3228
 30
0.0
 11
116.476
 21
61.92569999999999
 31
0.0
  0
LINE
  5
E0
330
1E
100
AcDbEntity
  8
0
100
AcDbLine
 10
116.476
 20
61.92569999999999
 30
0.0
 11
118.585
 21
61.0659
 31
0.0
  0
LINE
  5
E1
330
1E
100
AcDbEntity
  8
0
100
AcDbLine
 10
114.44
 20
63.2135
 30
0.0
 11
116.3669999999999
 21
61.7805
 31
0.0
  0
LINE
  5
E2
330
1E
100
AcDbEntity
  8
0
100
AcDbLine
 10
116.3669999999999
 20
61.7805
 30
0.0
 11
118.5489999999999
 21
60.92069999999999
 31
0.0
  0
LINE
  5
E3
330
1E
100
AcDbEntity
  8
0
100
AcDbLine
 10
118.585
 20
61.0659
 30
0.0
 11
120.876
 21
60.74349999999999
 31
0.0
  0
LINE
  5
E4
330
1E
100
AcDbEntity
  8
0
100
AcDbLine
 10
118.5489999999999
 20
60.92069999999999
 30
0.0
 11
120.876
 21
60.5983
 31
0.0
  0
LINE
  5
E5
330
1E
100
AcDbEntity
  8
0
100
AcDbLine
 10
120.876
 20
60.74349999999999
 30
0.0
 11
123.167
 21
61.0659
 31
0.0
  0
LINE
  5
E6
330
1E
100
AcDbEntity
  8
0
100
AcDbLine
 10
125.276
 20
61.92569999999999
 30
0.0
 11
127.1309999999999
 21
63.3228
 31
0.0
  0
LINE
  5
E7
330
1E
100
AcDbEntity
  8
0
100
AcDbLine
 10
123.167
 20
61.0659
 30
0.0
 11
125.276
 21
61.92569999999999
 31
0.0
  0
LINE
  5
E8
330
1E
100
AcDbEntity
  8
0
100
AcDbLine
 10
125.385
 20
61.7805
 30
0.0
 11
127.3129999999999
 21
63.2135
 31
0.0
  0
LINE
  5
E9
330
1E
100
AcDbEntity
  8
0
100
AcDbLine
 10
123.204
 20
60.92069999999999
 30
0.0
 11
125.385
 21
61.7805
 31
0.0
  0
LINE
  5
EA
330
1E
100
AcDbEntity
  8
0
100
AcDbLine
 10
120.876
 20
60.5983
 30
0.0
 11
123.204
 21
60.92069999999999
 31
0.0
  0
LINE
  5
EB
330
1E
100
AcDbEntity
  8
0
100
AcDbLine
 10
115.4
 20
60.1
 30
0.0
 11
120.5
 21
59.0
 31
0.0
  0
LINE
  5
EC
330
1E
100
AcDbEntity
  8
0
100
AcDbLine
 10
110.5999999999999
 20
62.8
 30
0.0
 11
115.4
 21
60.1
 31
0.0
  0
LINE
  5
ED
330
1E
100
AcDbEntity
  8
0
100
AcDbLine
 10
111.4759999999999
 20
70.1668
 30
0.0
 11
111.811723048024
 21
69.3674993764965
 31
0.0
  0
LINE
  5
EE
330
1E
100
AcDbEntity
  8
0
100
AcDbLine
 10
111.236
 20
70.21930000000001
 30
0.0
 11
111.9367602369699
 21
68.4934589288871
 31
0.0
  0
LINE
  5
EF
330
1E
100
AcDbEntity
  8
0
100
AcDbLine
 10
110.8759999999999
 20
73.4158
 30
0.0
 11
110.8759999999999
 21
72.74129999999999
 31
0.0
  0
LINE
  5
F0
330
1E
100
AcDbEntity
  8
0
100
AcDbLine
 10
110.8759999999999
 20
73.4158
 30
0.0
 11
111.236
 21
75.93779999999999
 31
0.0
  0
LINE
  5
F1
330
1E
100
AcDbEntity
  8
0
100
AcDbLine
 10
111.4759999999999
 20
75.13200000000001
 30
0.0
 11
112.436
 21
77.4175
 31
0.0
  0
LINE
  5
F2
330
1E
100
AcDbEntity
  8
0
100
AcDbLine
 10
111.236
 20
75.93779999999999
 30
0.0
 11
112.196
 21
78.3022
 31
0.0
  0
LINE
  5
F3
330
1E
100
AcDbEntity
  8
0
100
AcDbLine
 10
111.1159999999999
 20
72.6494
 30
0.0
 11
111.4759999999999
 21
70.1668
 31
0.0
  0
LINE
  5
F4
330
1E
100
AcDbEntity
  8
0
100
AcDbLine
 10
111.1159999999999
 20
72.6494
 30
0.0
 11
111.4759999999999
 21
75.13200000000001
 31
0.0
  0
LINE
  5
F5
330
1E
100
AcDbEntity
  8
0
100
AcDbLine
 10
110.8759999999999
 20
72.74129999999999
 30
0.0
 11
111.236
 21
70.21930000000001
 31
0.0
  0
LINE
  5
F6
330
1E
100
AcDbEntity
  8
0
100
AcDbLine
 10
110.8759999999999
 20
72.74129999999999
 30
0.0
 11
110.8759999999999
 21
73.4158
 31
0.0
  0
LINE
  5
F7
330
1E
100
AcDbEntity
  8
0
100
AcDbLine
 10
111.785
 20
72.5748
 30
0.0
 11
111.785
 21
69.55429999999999
 31
0.0
  0
LINE
  5
F8
330
1E
100
AcDbEntity
  8
0
100
AcDbLine
 10
111.785
 20
72.5748
 30
0.0
 11
112.1129999999999
 21
74.86740000000001
 31
0.0
  0
LINE
  5
F9
330
1E
100
AcDbEntity
  8
0
100
AcDbLine
 10
112.331
 20
71.7415
 30
0.0
 11
113.2039999999999
 21
73.8192
 31
0.0
  0
LINE
  5
FA
330
1E
100
AcDbEntity
  8
0
100
AcDbLine
 10
112.436
 20
77.4175
 30
0.0
 11
113.996
 21
79.4272
 31
0.0
  0
LINE
  5
FB
330
1E
100
AcDbEntity
  8
0
100
AcDbLine
 10
112.196
 20
78.3022
 30
0.0
 11
113.796
 21
80.3907
 31
0.0
  0
LINE
  5
FC
330
1E
100
AcDbEntity
  8
0
100
AcDbLine
 10
112.1129999999999
 20
74.86740000000001
 30
0.0
 11
112.985
 21
77.01690000000001
 31
0.0
  0
LINE
  5
FD
330
1E
100
AcDbEntity
  8
0
100
AcDbLine
 10
113.2039999999999
 20
73.8192
 30
0.0
 11
114.622
 21
75.64619999999999
 31
0.0
  0
LINE
  5
FE
330
1E
100
AcDbEntity
  8
0
100
AcDbLine
 10
114.622
 20
75.64619999999999
 30
0.0
 11
116.476
 21
77.04340000000001
 31
0.0
  0
LINE
  5
FF
330
1E
100
AcDbEntity
  8
0
100
AcDbLine
 10
116.476
 20
77.04340000000001
 30
0.0
 11
118.585
 21
77.90309999999999
 31
0.0
  0
LINE
  5
100
330
1E
100
AcDbEntity
  8
0
100
AcDbLine
 10
118.585
 20
77.90309999999999
 30
0.0
 11
120.876
 21
78.22549999999999
 31
0.0
  0
LINE
  5
101
330
1E
100
AcDbEntity
  8
0
100
AcDbLine
 10
112.985
 20
77.01690000000001
 30
0.0
 11
114.44
 21
78.91549999999999
 31
0.0
  0
LINE
  5
102
330
1E
100
AcDbEntity
  8
0
100
AcDbLine
 10
113.996
 20
79.4272
 30
0.0
 11
116.036
 21
80.9641
 31
0.0
  0
LINE
  5
103
330
1E
100
AcDbEntity
  8
0
100
AcDbLine
 10
114.44
 20
78.91549999999999
 30
0.0
 11
116.3669999999999
 21
80.3485
 31
0.0
  0
LINE
  5
104
330
1E
100
AcDbEntity
  8
0
100
AcDbLine
 10
125.276
 20
77.04340000000001
 30
0.0
 11
127.1309999999999
 21
75.64619999999999
 31
0.0
  0
LINE
  5
105
330
1E
100
AcDbEntity
  8
0
100
AcDbLine
 10
123.167
 20
77.90309999999999
 30
0.0
 11
125.276
 21
77.04340000000001
 31
0.0
  0
LINE
  5
106
330
1E
100
AcDbEntity
  8
0
100
AcDbLine
 10
120.876
 20
78.22549999999999
 30
0.0
 11
123.167
 21
77.90309999999999
 31
0.0
  0
LINE
  5
107
330
1E
100
AcDbEntity
  8
0
100
AcDbLine
 10
112.0039999999999
 20
69.4846
 30
0.0
 11
112.331
 21
67.2276
 31
0.0
  0
LINE
  5
108
330
1E
100
AcDbEntity
  8
0
100
AcDbLine
 10
112.0039999999999
 20
69.4846
 30
0.0
 11
112.331
 21
71.7415
 31
0.0
  0
LINE
  5
109
330
1E
100
AcDbEntity
  8
0
100
AcDbLine
 10
111.785
 20
69.55429999999999
 30
0.0
 11
112.1129999999999
 21
67.2615
 31
0.0
  0
LINE
  5
10A
330
1E
100
AcDbEntity
  8
0
100
AcDbLine
 10
111.785
 20
69.55429999999999
 30
0.0
 11
111.785
 21
72.5748
 31
0.0
  0
LINE
  5
10B
330
1E
100
AcDbEntity
  8
0
100
AcDbLine
 10
106.0999999999999
 20
67.29
 30
0.0
 11
110.5999999999999
 21
62.8
 31
0.0
  0
LINE
  5
10C
330
1E
100
AcDbEntity
  8
0
100
AcDbLine
 10
103.2
 20
72.9896
 30
0.0
 11
106.0999999999999
 21
67.29
 31
0.0
  0
LINE
  5
10D
330
1E
100
AcDbEntity
  8
0
100
AcDbLine
 10
116.036
 20
80.9641
 30
0.0
 11
118.356
 21
81.90980000000001
 31
0.0
  0
LINE
  5
10E
330
1E
100
AcDbEntity
  8
0
100
AcDbLine
 10
113.796
 20
80.3907
 30
0.0
 11
115.9159999999999
 21
81.9669
 31
0.0
  0
LINE
  5
10F
330
1E
100
AcDbEntity
  8
0
100
AcDbLine
 10
115.9159999999999
 20
81.9669
 30
0.0
 11
118.3159999999999
 21
82.9127
 31
0.0
  0
LINE
  5
110
330
1E
100
AcDbEntity
  8
0
100
AcDbLine
 10
118.356
 20
81.90980000000001
 30
0.0
 11
120.876
 21
82.26449999999999
 31
0.0
  0
LINE
  5
111
330
1E
100
AcDbEntity
  8
0
100
AcDbLine
 10
118.3159999999999
 20
82.9127
 30
0.0
 11
120.876
 21
83.26730000000001
 31
0.0
  0
LINE
  5
112
330
1E
100
AcDbEntity
  8
0
100
AcDbLine
 10
116.3669999999999
 20
80.3485
 30
0.0
 11
118.5489999999999
 21
81.20829999999999
 31
0.0
  0
LINE
  5
113
330
1E
100
AcDbEntity
  8
0
100
AcDbLine
 10
118.5489999999999
 20
81.20829999999999
 30
0.0
 11
120.876
 21
81.53069999999999
 31
0.0
  0
LINE
  5
114
330
1E
100
AcDbEntity
  8
0
100
AcDbLine
 10
100.5
 20
88.0
 30
0.0
 11
120.5
 21
88.0
 31
0.0
  0
LINE
  5
115
330
1E
100
AcDbEntity
  8
0
100
AcDbLine
 10
100.5
 20
88.0
 30
0.0
 11
101.2
 21
79.9786
 31
0.0
  0
LINE
  5
116
330
1E
100
AcDbEntity
  8
0
100
AcDbLine
 10
120.876
 20
82.26449999999999
 30
0.0
 11
123.3959999999999
 21
81.90980000000001
 31
0.0
  0
LINE
  5
117
330
1E
100
AcDbEntity
  8
0
100
AcDbLine
 10
120.876
 20
83.26730000000001
 30
0.0
 11
123.436
 21
82.9127
 31
0.0
  0
LINE
  5
118
330
1E
100
AcDbEntity
  8
0
100
AcDbLine
 10
125.716
 20
80.9641
 30
0.0
 11
127.756
 21
79.4272
 31
0.0
  0
LINE
  5
119
330
1E
100
AcDbEntity
  8
0
100
AcDbLine
 10
125.385
 20
80.3485
 30
0.0
 11
127.3129999999999
 21
78.91549999999999
 31
0.0
  0
LINE
  5
11A
330
1E
100
AcDbEntity
  8
0
100
AcDbLine
 10
123.3959999999999
 20
81.90980000000001
 30
0.0
 11
125.716
 21
80.9641
 31
0.0
  0
LINE
  5
11B
330
1E
100
AcDbEntity
  8
0
100
AcDbLine
 10
125.8359999999999
 20
81.9669
 30
0.0
 11
127.956
 21
80.3907
 31
0.0
  0
LINE
  5
11C
330
1E
100
AcDbEntity
  8
0
100
AcDbLine
 10
123.436
 20
82.9127
 30
0.0
 11
125.8359999999999
 21
81.9669
 31
0.0
  0
LINE
  5
11D
330
1E
100
AcDbEntity
  8
0
100
AcDbLine
 10
123.204
 20
81.20829999999999
 30
0.0
 11
125.385
 21
80.3485
 31
0.0
  0
LINE
  5
11E
330
1E
100
AcDbEntity
  8
0
100
AcDbLine
 10
120.876
 20
81.53069999999999
 30
0.0
 11
123.204
 21
81.20829999999999
 31
0.0
  0
LINE
  5
11F
330
1E
100
AcDbEntity
  8
0
100
AcDbLine
 10
120.5
 20
88.0
 30
0.0
 11
140.5
 21
88.0
 31
0.0
  0
LINE
  5
120
330
1E
100
AcDbEntity
  8
0
100
AcDbLine
 10
101.2
 20
79.9786
 30
0.0
 11
103.2
 21
72.9896
 31
0.0
  0
LINE
  5
121
330
1E
100
AcDbEntity
  8
0
100
AcDbLine
 10
128.549
 20
73.8192
 30
0.0
 11
129.4219999999999
 21
71.7415
 31
0.0
  0
LINE
  5
122
330
1E
100
AcDbEntity
  8
0
100
AcDbLine
 10
127.1309999999999
 20
75.64619999999999
 30
0.0
 11
128.549
 21
73.8192
 31
0.0
  0
LINE
  5
123
330
1E
100
AcDbEntity
  8
0
100
AcDbLine
 10
127.756
 20
79.4272
 30
0.0
 11
129.316
 21
77.4175
 31
0.0
  0
LINE
  5
124
330
1E
100
AcDbEntity
  8
0
100
AcDbLine
 10
127.956
 20
80.3907
 30
0.0
 11
129.556
 21
78.3022
 31
0.0
  0
LINE
  5
125
330
1E
100
AcDbEntity
  8
0
100
AcDbLine
 10
127.3129999999999
 20
78.91549999999999
 30
0.0
 11
128.767
 21
77.01690000000001
 31
0.0
  0
LINE
  5
126
330
1E
100
AcDbEntity
  8
0
100
AcDbLine
 10
128.767
 20
77.01690000000001
 30
0.0
 11
129.64
 21
74.86740000000001
 31
0.0
  0
LINE
  5
127
330
1E
100
AcDbEntity
  8
0
100
AcDbLine
 10
128.549
 20
65.1498
 30
0.0
 11
129.4219999999999
 21
67.2276
 31
0.0
  0
LINE
  5
128
330
1E
100
AcDbEntity
  8
0
100
AcDbLine
 10
127.1309999999999
 20
63.3228
 30
0.0
 11
128.549
 21
65.1498
 31
0.0
  0
LINE
  5
129
330
1E
100
AcDbEntity
  8
0
100
AcDbLine
 10
129.4219999999999
 20
67.2276
 30
0.0
 11
129.749
 21
69.4846
 31
0.0
  0
LINE
  5
12A
330
1E
100
AcDbEntity
  8
0
100
AcDbLine
 10
129.940400312362
 20
69.36779307701581
 30
0.0
 11
130.276
 21
70.1668
 31
0.0
  0
LINE
  5
12B
330
1E
100
AcDbEntity
  8
0
100
AcDbLine
 10
129.815952952526
 20
68.4952153808935
 30
0.0
 11
130.5159999999999
 21
70.21930000000001
 31
0.0
  0
LINE
  5
12C
330
1E
100
AcDbEntity
  8
0
100
AcDbLine
 10
129.4219999999999
 20
71.7415
 30
0.0
 11
129.749
 21
69.4846
 31
0.0
  0
LINE
  5
12D
330
1E
100
AcDbEntity
  8
0
100
AcDbLine
 10
129.316
 20
77.4175
 30
0.0
 11
130.276
 21
75.13200000000001
 31
0.0
  0
LINE
  5
12E
330
1E
100
AcDbEntity
  8
0
100
AcDbLine
 10
129.556
 20
78.3022
 30
0.0
 11
130.5159999999999
 21
75.93779999999999
 31
0.0
  0
LINE
  5
12F
330
1E
100
AcDbEntity
  8
0
100
AcDbLine
 10
129.64
 20
74.86740000000001
 30
0.0
 11
129.967
 21
72.5748
 31
0.0
  0
LINE
  5
130
330
1E
100
AcDbEntity
  8
0
100
AcDbLine
 10
129.967
 20
72.5748
 30
0.0
 11
129.967
 21
69.55429999999999
 31
0.0
  0
LINE
  5
131
330
1E
100
AcDbEntity
  8
0
100
AcDbLine
 10
130.276
 20
70.1668
 30
0.0
 11
130.6359999999999
 21
72.6494
 31
0.0
  0
LINE
  5
132
330
1E
100
AcDbEntity
  8
0
100
AcDbLine
 10
130.276
 20
75.13200000000001
 30
0.0
 11
130.6359999999999
 21
72.6494
 31
0.0
  0
LINE
  5
133
330
1E
100
AcDbEntity
  8
0
100
AcDbLine
 10
130.5159999999999
 20
75.93779999999999
 30
0.0
 11
130.876
 21
73.4158
 31
0.0
  0
LINE
  5
134
330
1E
100
AcDbEntity
  8
0
100
AcDbLine
 10
130.876
 20
73.4158
 30
0.0
 11
130.876
 21
72.74129999999999
 31
0.0
  0
LINE
  5
135
330
1E
100
AcDbEntity
  8
0
100
AcDbLine
 10
130.876
 20
72.74129999999999
 30
0.0
 11
130.876
 21
73.4158
 31
0.0
  0
LINE
  5
136
330
1E
100
AcDbEntity
  8
0
100
AcDbLine
 10
130.5159999999999
 20
70.21930000000001
 30
0.0
 11
130.876
 21
72.74129999999999
 31
0.0
  0
LINE
  5
137
330
1E
100
AcDbEntity
  8
0
100
AcDbLine
 10
129.967
 20
69.55429999999999
 30
0.0
 11
129.967
 21
72.5748
 31
0.0
  0
LINE
  5
138
330
1E
100
AcDbEntity
  8
0
100
AcDbLine
 10
129.64
 20
67.2615
 30
0.0
 11
129.967
 21
69.55429999999999
 31
0.0
  0
LINE
  5
139
330
1E
100
AcDbEntity
  8
0
100
AcDbLine
 10
128.767
 20
65.1121
 30
0.0
 11
129.64
 21
67.2615
 31
0.0
  0
LINE
  5
13A
330
1E
100
AcDbEntity
  8
0
100
AcDbLine
 10
127.3129999999999
 20
63.2135
 30
0.0
 11
128.767
 21
65.1121
 31
0.0
  0
LINE
  5
13B
330
1E
100
AcDbEntity
  8
0
100
AcDbLine
 10
134.8999999999999
 20
67.6292
 30
0.0
 11
137.8
 21
73.26109999999999
 31
0.0
  0
LINE
  5
13C
330
1E
100
AcDbEntity
  8
0
100
AcDbLine
 10
130.4
 20
62.8
 30
0.0
 11
134.8999999999999
 21
67.6292
 31
0.0
  0
LINE
  5
13D
330
1E
100
AcDbEntity
  8
0
100
AcDbLine
 10
140.5
 20
88.0
 30
0.0
 11
152.631
 21
88.0
 31
0.0
  0
LINE
  5
13E
330
1E
100
AcDbEntity
  8
0
100
AcDbLine
 10
139.8
 20
79.57139999999999
 30
0.0
 11
140.5
 21
88.0
 31
0.0
  0
LINE
  5
13F
330
1E
100
AcDbEntity
  8
0
100
AcDbLine
 10
137.8
 20
73.26109999999999
 30
0.0
 11
139.8
 21
79.57139999999999
 31
0.0
  0
LINE
  5
140
330
1E
100
AcDbEntity
  8
0
100
AcDbLine
 10
139.4
 20
53.79999999999999
 30
0.0
 11
142.397666818034
 21
58.6712085793059
 31
0.0
  0
LINE
  5
141
330
1E
100
AcDbEntity
  8
0
100
AcDbLine
 10
136.5999999999999
 20
49.0
 30
0.0
 11
139.4
 21
53.79999999999999
 31
0.0
  0
LINE
  5
142
330
1E
100
AcDbEntity
  8
0
100
AcDbLine
 10
135.579260305637
 20
47.00712726338739
 30
0.0
 11
136.5999999999999
 21
49.0
 31
0.0
  0
LINE
  5
143
330
1E
100
AcDbEntity
  8
0
100
AcDbLine
 10
168.0
 20
88.0
 30
0.0
 11
193.267
 21
88.0
 31
0.0
  0
LINE
  5
144
330
1E
100
AcDbEntity
  8
0
100
AcDbLine
 10
193.267
 20
88.0
 30
0.0
 11
194.1329999999999
 21
88.0
 31
0.0
  0
LINE
  5
145
330
1E
100
AcDbEntity
  8
0
100
AcDbLine
 10
193.267
 20
88.0
 30
0.0
 11
194.1329999999999
 21
88.0
 31
0.0
  0
LINE
  5
146
330
1E
100
AcDbEntity
  8
0
100
AcDbLine
 10
193.267
 20
88.3
 30
0.0
 11
194.307
 21
88.3
 31
0.0
  0
LINE
  5
147
330
1E
100
AcDbEntity
  8
0
100
AcDbLine
 10
195.0
 20
99.0
 30
0.0
 11
194.9945657360928
 21
88.68999628706914
 31
0.0
  0
LINE
  5
148
330
1E
100
AcDbEntity
  8
0
100
AcDbLine
 10
194.9945657360928
 20
88.68999628706914
 30
0.0
 11
195.0
 21
99.0
 31
0.0
  0
LINE
  5
149
330
1E
100
AcDbEntity
  8
0
100
AcDbLine
 10
194.307
 20
88.3
 30
0.0
 11
194.74
 21
88.3
 31
0.0
  0
LINE
  5
14A
330
1E
100
AcDbEntity
  8
0
100
AcDbLine
 10
194.307
 20
88.3
 30
0.0
 11
194.74
 21
88.3
 31
0.0
  0
LINE
  5
14B
330
1E
100
AcDbEntity
  8
0
100
AcDbLine
 10
193.267
 20
99.7
 30
0.0
 11
194.307
 21
99.7
 31
0.0
  0
LINE
  5
14C
330
1E
100
AcDbEntity
  8
0
100
AcDbLine
 10
194.1329999999999
 20
100.0
 30
0.0
 11
45.8667
 21
100.0
 31
0.0
  0
LINE
  5
14D
330
1E
100
AcDbEntity
  8
0
100
AcDbLine
 10
194.307
 20
99.7
 30
0.0
 11
194.74
 21
99.7
 31
0.0
  0
LINE
  5
14E
330
1E
100
AcDbEntity
  8
0
100
AcDbLine
 10
194.1329999999999
 20
100.0
 30
0.0
 11
194.74
 21
99.7
 31
0.0
  0
LINE
  5
14F
330
1E
100
AcDbEntity
  8
0
100
AcDbLine
 10
194.74
 20
99.7
 30
0.0
 11
195.0
 21
99.0
 31
0.0
  0
LINE
  5
150
330
1E
100
AcDbEntity
  8
0
100
AcDbLine
 10
194.1329999999999
 20
88.0
 30
0.0
 11
194.74
 21
88.3
 31
0.0
  0
LINE
  5
151
330
1E
100
AcDbEntity
  8
0
100
AcDbLine
 10
157.256
 20
88.0
 30
0.0
 11
168.0
 21
88.0
 31
0.0
  0
LINE
  5
152
330
1E
100
AcDbEntity
  8
0
100
AcDbLine
 10
158.6
 20
79.00449999999999
 30
0.0
 11
168.0
 21
88.0
 31
0.0
  0
LINE
  5
153
330
1E
100
AcDbEntity
  8
0
100
AcDbLine
 10
155.8
 20
76.2093
 30
0.0
 11
158.6
 21
79.00449999999999
 31
0.0
  0
LINE
  5
154
330
1E
100
AcDbEntity
  8
0
100
AcDbLine
 10
155.8
 20
76.2093
 30
0.0
 11
150.272
 21
69.3408
 31
0.0
  0
LINE
  5
155
330
1E
100
AcDbEntity
  8
0
100
AcDbLine
 10
152.631
 20
88.0
 30
0.0
 11
157.256
 21
88.0
 31
0.0
  0
LINE
  5
156
330
1E
100
AcDbEntity
  8
0
100
AcDbLine
 10
145.011
 20
62.4022
 30
0.0
 11
150.272
 21
69.3408
 31
0.0
  0
LINE
  5
157
330
1E
100
AcDbEntity
  8
0
100
AcDbLine
 10
142.3976668180311
 20
58.67120857930124
 30
0.0
 11
145.011
 21
62.4022
 31
0.0
  0
LINE
  5
158
330
1E
100
AcDbEntity
  8
0
100
AcDbLine
 10
133.0999999999999
 20
41.7
 30
0.0
 11
135.579260305642
 21
47.00712726339733
 31
0.0
  0
LINE
  5
159
330
1E
100
AcDbEntity
  8
0
100
AcDbLine
 10
126.4
 20
24.0
 30
0.0
 11
133.0999999999999
 21
41.7
 31
0.0
  0
LINE
  5
15A
330
1E
100
AcDbEntity
  8
0
100
AcDbLine
 10
122.5
 20
9.0
 30
0.0
 11
126.4
 21
24.0
 31
0.0
  0
LINE
  5
15B
330
1E
100
AcDbEntity
  8
0
100
AcDbLine
 10
96.5
 20
0.0000000000000008
 30
0.0
 11
102.6
 21
0.0000000000000007
 31
0.0
  0
LINE
  5
15C
330
1E
100
AcDbEntity
  8
0
100
AcDbLine
 10
90.5
 20
0.0000000000000007
 30
0.0
 11
96.5
 21
0.0000000000000008
 31
0.0
  0
LINE
  5
15D
330
1E
100
AcDbEntity
  8
0
100
AcDbLine
 10
84.8
 20
0.0000000000000006
 30
0.0
 11
90.5
 21
0.0000000000000007
 31
0.0
  0
LINE
  5
15E
330
1E
100
AcDbEntity
  8
0
100
AcDbLine
 10
79.90000000000001
 20
0.0000000000000004
 30
0.0
 11
84.8
 21
0.0000000000000006
 31
0.0
  0
LINE
  5
15F
330
1E
100
AcDbEntity
  8
0
100
AcDbLine
 10
76.2
 20
0.0000000000000001
 30
0.0
 11
79.90000000000001
 21
0.0000000000000004
 31
0.0
  0
LINE
  5
160
330
1E
100
AcDbEntity
  8
0
100
AcDbLine
 10
73.9
 20
-0.0000000000000003
 30
0.0
 11
76.2
 21
0.0000000000000001
 31
0.0
  0
LINE
  5
161
330
1E
100
AcDbEntity
  8
0
100
AcDbLine
 10
73.9
 20
-0.0000000000000003
 30
0.0
 11
76.2
 21
0.0000000000000001
 31
0.0
  0
LINE
  5
162
330
1E
100
AcDbEntity
  8
0
100
AcDbLine
 10
73.0
 20
-0.0000000000000007
 30
0.0
 11
73.9
 21
-0.0000000000000003
 31
0.0
  0
LINE
  5
163
330
1E
100
AcDbEntity
  8
0
100
AcDbLine
 10
73.0
 20
-0.0000000000000007
 30
0.0
 11
73.0
 21
9.0
 31
0.0
  0
LINE
  5
168
330
1E
100
AcDbEntity
  8
0
100
AcDbLine
 10
194.9945657360928
 20
88.68999628706914
 30
0.0
 11
194.74
 21
88.3
 31
0.0
  0
ENDSEC
  0
SECTION
  2
OBJECTS
  0
DICTIONARY
  5
C
330
0
100
AcDbDictionary
281
     1
  3
ACAD_GROUP
350
D
  3
ACAD_LAYOUT
350
19
  3
ACAD_MLINESTYLE
350
16
  3
ACAD_PLOTSETTINGS
350
18
  3
ACAD_PLOTSTYLENAME
350
E
  3
AcDbVariableDictionary
350
169
  0
DICTIONARY
  5
D
102
{ACAD_REACTORS
330
C
102
}
330
C
100
AcDbDictionary
281
     1
  0
DICTIONARY
  5
19
102
{ACAD_REACTORS
330
C
102
}
330
C
100
AcDbDictionary
281
     1
  3
Layout1
350
1D
  3
Model
350
21
  0
DICTIONARY
  5
16
102
{ACAD_REACTORS
330
C
102
}
330
C
100
AcDbDictionary
281
     1
  3
Standard
350
17
  0
DICTIONARY
  5
18
102
{ACAD_REACTORS
330
C
102
}
330
C
100
AcDbDictionary
281
     1
  0
ACDBDICTIONARYWDFLT
  5
E
102
{ACAD_REACTORS
330
C
102
}
330
C
100
AcDbDictionary
281
     1
  3
Normal
350
F
100
AcDbDictionaryWithDefault
340
F
  0
DICTIONARY
  5
169
102
{ACAD_REACTORS
330
C
102
}
330
C
100
AcDbDictionary
281
     1
  3
DIMASSOC
350
16A
  0
LAYOUT
  5
1D
102
{ACAD_REACTORS
330
19
102
}
330
19
100
AcDbPlotSettings
  1

  2
hp deskjet 980c series
  4

  6

 40
0.0
 41
0.0
 42
0.0
 43
0.0
 44
0.0
 45
0.0
 46
0.0
 47
0.0
 48
0.0
 49
0.0
140
0.0
141
0.0
142
1.0
143
1.0
 70
   688
 72
     0
 73
     0
 74
     5
  7

 75
    16
147
1.0
148
0.0
149
0.0
100
AcDbLayout
  1
Layout1
 70
     1
 71
     1
 10
0.0
 20
0.0
 11
12.0
 21
9.0
 12
0.0
 22
0.0
 32
0.0
 14
1.000000000000000E+20
 24
1.000000000000000E+20
 34
1.000000000000000E+20
 15
-1.000000000000000E+20
 25
-1.000000000000000E+20
 35
-1.000000000000000E+20
146
0.0
 13
0.0
 23
0.0
 33
0.0
 16
1.0
 26
0.0
 36
0.0
 17
0.0
 27
1.0
 37
0.0
 76
     0
330
1A
  0
LAYOUT
  5
21
102
{ACAD_REACTORS
330
19
102
}
330
19
100
AcDbPlotSettings
  1

  2
hp deskjet 980c series
  4

  6

 40
0.0
 41
0.0
 42
0.0
 43
0.0
 44
0.0
 45
0.0
 46
0.0
 47
0.0
 48
0.0
 49
0.0
140
0.0
141
0.0
142
1.0
143
1.0
 70
  1712
 72
     0
 73
     0
 74
     0
  7

 75
     0
147
1.0
148
0.0
149
0.0
100
AcDbLayout
  1
Model
 70
     1
 71
     0
 10
0.0
 20
0.0
 11
12.0
 21
9.0
 12
0.0
 22
0.0
 32
0.0
 14
0.0
 24
0.0
 34
0.0
 15
0.0
 25
0.0
 35
0.0
146
0.0
 13
0.0
 23
0.0
 33
0.0
 16
1.0
 26
0.0
 36
0.0
 17
0.0
 27
1.0
 37
0.0
 76
     0
330
1E
  0
MLINESTYLE
  5
17
102
{ACAD_REACTORS
330
16
102
}
330
16
100
AcDbMlineStyle
  2
STANDARD
 70
     0
  3

 62
   256
 51
90.0
 52
90.0
 71
     2
 49
0.5
 62
   256
  6
BYLAYER
 49
-0.5
 62
   256
  6
BYLAYER
  0
ACDBPLACEHOLDER
  5
F
102
{ACAD_REACTORS
330
E
102
}
330
E
  0
DICTIONARYVAR
  5
16A
102
{ACAD_REACTORS
330
169
102
}
330
169
100
DictionaryVariables
280
     0
  1
1
  0
ENDSEC
  0
EOF
