  0
SECTION
  2
HEADER
  9
$ACADVER
  1
AC1015
  9
$ACADMAINTVER
 70
    13
  9
$DWGCODEPAGE
  3
ANSI_1252
  9
$INSBASE
 10
0.0
 20
0.0
 30
0.0
  9
$EXTMIN
 10
-0.0000000000000058
 20
0.25
 30
0.0
  9
$EXTMAX
 10
191.0
 20
221.75
 30
0.0
  9
$LIMMIN
 10
0.0
 20
0.0
  9
$LIMMAX
 10
12.0
 20
9.0
  9
$ORTHOMODE
 70
     0
  9
$REGENMODE
 70
     1
  9
$FILLMODE
 70
     1
  9
$QTEXTMODE
 70
     0
  9
$MIRRTEXT
 70
     1
  9
$LTSCALE
 40
1.0
  9
$ATTMODE
 70
     1
  9
$TEXTSIZE
 40
0.2
  9
$TRACEWID
 40
0.05
  9
$TEXTSTYLE
  7
Standard
  9
$CLAYER
  8
0
  9
$CELTYPE
  6
Continuous
  9
$CECOLOR
 62
   256
  9
$CELTSCALE
 40
1.0
  9
$DISPSILH
 70
     0
  9
$DIMSCALE
 40
1.0
  9
$DIMASZ
 40
0.18
  9
$DIMEXO
 40
0.0625
  9
$DIMDLI
 40
0.38
  9
$DIMRND
 40
0.0
  9
$DIMDLE
 40
0.0
  9
$DIMEXE
 40
0.18
  9
$DIMTP
 40
0.0
  9
$DIMTM
 40
0.0
  9
$DIMTXT
 40
0.18
  9
$DIMCEN
 40
0.09
  9
$DIMTSZ
 40
0.0
  9
$DIMTOL
 70
     0
  9
$DIMLIM
 70
     0
  9
$DIMTIH
 70
     1
  9
$DIMTOH
 70
     1
  9
$DIMSE1
 70
     0
  9
$DIMSE2
 70
     0
  9
$DIMTAD
 70
     0
  9
$DIMZIN
 70
     0
  9
$DIMBLK
  1

  9
$DIMASO
 70
     1
  9
$DIMSHO
 70
     1
  9
$DIMPOST
  1

  9
$DIMAPOST
  1

  9
$DIMALT
 70
     0
  9
$DIMALTD
 70
     2
  9
$DIMALTF
 40
25.4
  9
$DIMLFAC
 40
1.0
  9
$DIMTOFL
 70
     0
  9
$DIMTVP
 40
0.0
  9
$DIMTIX
 70
     0
  9
$DIMSOXD
 70
     0
  9
$DIMSAH
 70
     0
  9
$DIMBLK1
  1

  9
$DIMBLK2
  1

  9
$DIMSTYLE
  2
Standard
  9
$DIMCLRD
 70
     0
  9
$DIMCLRE
 70
     0
  9
$DIMCLRT
 70
     0
  9
$DIMTFAC
 40
1.0
  9
$DIMGAP
 40
0.09
  9
$DIMJUST
 70
     0
  9
$DIMSD1
 70
     0
  9
$DIMSD2
 70
     0
  9
$DIMTOLJ
 70
     1
  9
$DIMTZIN
 70
     0
  9
$DIMALTZ
 70
     0
  9
$DIMALTTZ
 70
     0
  9
$DIMUPT
 70
     0
  9
$DIMDEC
 70
     4
  9
$DIMTDEC
 70
     4
  9
$DIMALTU
 70
     2
  9
$DIMALTTD
 70
     2
  9
$DIMTXSTY
  7
Standard
  9
$DIMAUNIT
 70
     0
  9
$DIMADEC
 70
     0
  9
$DIMALTRND
 40
0.0
  9
$DIMAZIN
 70
     0
  9
$DIMDSEP
 70
    46
  9
$DIMATFIT
 70
     3
  9
$DIMFRAC
 70
     0
  9
$DIMLDRBLK
  1

  9
$DIMLUNIT
 70
     2
  9
$DIMLWD
 70
    -2
  9
$DIMLWE
 70
    -2
  9
$DIMTMOVE
 70
     0
  9
$LUNITS
 70
     2
  9
$LUPREC
 70
     4
  9
$SKETCHINC
 40
0.1
  9
$FILLETRAD
 40
0.0
  9
$AUNITS
 70
     0
  9
$AUPREC
 70
     0
  9
$MENU
  1
.
  9
$ELEVATION
 40
0.0
  9
$PELEVATION
 40
0.0
  9
$THICKNESS
 40
0.0
  9
$LIMCHECK
 70
     0
  9
$CHAMFERA
 40
0.0
  9
$CHAMFERB
 40
0.0
  9
$CHAMFERC
 40
0.0
  9
$CHAMFERD
 40
0.0
  9
$SKPOLY
 70
     0
  9
$TDCREATE
 40
2454752.486479305
  9
$TDUCREATE
 40
2454752.403145972
  9
$TDUPDATE
 40
2454752.487794051
  9
$TDUUPDATE
 40
2454752.404460717
  9
$TDINDWG
 40
0.0013147454
  9
$TDUSRTIMER
 40
0.0013147454
  9
$USRTIMER
 70
     1
  9
$ANGBASE
 50
0.0
  9
$ANGDIR
 70
     0
  9
$PDMODE
 70
     0
  9
$PDSIZE
 40
0.0
  9
$PLINEWID
 40
0.0
  9
$SPLFRAME
 70
     0
  9
$SPLINETYPE
 70
     6
  9
$SPLINESEGS
 70
     8
  9
$HANDSEED
  5
13D
  9
$SURFTAB1
 70
     6
  9
$SURFTAB2
 70
     6
  9
$SURFTYPE
 70
     6
  9
$SURFU
 70
     6
  9
$SURFV
 70
     6
  9
$UCSBASE
  2

  9
$UCSNAME
  2

  9
$UCSORG
 10
0.0
 20
0.0
 30
0.0
  9
$UCSXDIR
 10
1.0
 20
0.0
 30
0.0
  9
$UCSYDIR
 10
0.0
 20
1.0
 30
0.0
  9
$UCSORTHOREF
  2

  9
$UCSORTHOVIEW
 70
     1
  9
$UCSORGTOP
 10
0.0
 20
0.0
 30
0.0
  9
$UCSORGBOTTOM
 10
0.0
 20
0.0
 30
0.0
  9
$UCSORGLEFT
 10
0.0
 20
0.0
 30
0.0
  9
$UCSORGRIGHT
 10
0.0
 20
0.0
 30
0.0
  9
$UCSORGFRONT
 10
0.0
 20
0.0
 30
0.0
  9
$UCSORGBACK
 10
0.0
 20
0.0
 30
0.0
  9
$PUCSBASE
  2

  9
$PUCSNAME
  2

  9
$PUCSORG
 10
0.0
 20
0.0
 30
0.0
  9
$PUCSXDIR
 10
1.0
 20
0.0
 30
0.0
  9
$PUCSYDIR
 10
0.0
 20
1.0
 30
0.0
  9
$PUCSORTHOREF
  2

  9
$PUCSORTHOVIEW
 70
     0
  9
$PUCSORGTOP
 10
0.0
 20
0.0
 30
0.0
  9
$PUCSORGBOTTOM
 10
0.0
 20
0.0
 30
0.0
  9
$PUCSORGLEFT
 10
0.0
 20
0.0
 30
0.0
  9
$PUCSORGRIGHT
 10
0.0
 20
0.0
 30
0.0
  9
$PUCSORGFRONT
 10
0.0
 20
0.0
 30
0.0
  9
$PUCSORGBACK
 10
0.0
 20
0.0
 30
0.0
  9
$USERI1
 70
     0
  9
$USERI2
 70
     0
  9
$USERI3
 70
     0
  9
$USERI4
 70
     0
  9
$USERI5
 70
     0
  9
$USERR1
 40
0.0
  9
$USERR2
 40
0.0
  9
$USERR3
 40
0.0
  9
$USERR4
 40
0.0
  9
$USERR5
 40
0.0
  9
$WORLDVIEW
 70
     1
  9
$SHADEDGE
 70
     3
  9
$SHADEDIF
 70
    70
  9
$TILEMODE
 70
     1
  9
$MAXACTVP
 70
    64
  9
$PINSBASE
 10
0.0
 20
0.0
 30
0.0
  9
$PLIMCHECK
 70
     0
  9
$PEXTMIN
 10
1.000000000000000E+20
 20
1.000000000000000E+20
 30
1.000000000000000E+20
  9
$PEXTMAX
 10
-1.000000000000000E+20
 20
-1.000000000000000E+20
 30
-1.000000000000000E+20
  9
$PLIMMIN
 10
0.0
 20
0.0
  9
$PLIMMAX
 10
12.0
 20
9.0
  9
$UNITMODE
 70
     0
  9
$VISRETAIN
 70
     1
  9
$PLINEGEN
 70
     0
  9
$PSLTSCALE
 70
     1
  9
$TREEDEPTH
 70
  3020
  9
$CMLSTYLE
  2
Standard
  9
$CMLJUST
 70
     0
  9
$CMLSCALE
 40
1.0
  9
$PROXYGRAPHICS
 70
     1
  9
$MEASUREMENT
 70
     0
  9
$CELWEIGHT
370
    -1
  9
$ENDCAPS
280
     0
  9
$JOINSTYLE
280
     0
  9
$LWDISPLAY
290
     0
  9
$INSUNITS
 70
     0
  9
$HYPERLINKBASE
  1

  9
$STYLESHEET
  1

  9
$XEDIT
290
     1
  9
$CEPSNTYPE
380
     0
  9
$PSTYLEMODE
290
     1
  9
$FINGERPRINTGUID
  2
{5D98B5F9-71AC-4749-BF1F-D0EFEF9AB8B1}
  9
$VERSIONGUID
  2
{8F3CC1B9-D211-43CF-B276-5AC564A848D1}
  9
$EXTNAMES
290
     1
  9
$PSVPSCALE
 40
0.0
  9
$OLESTARTUP
290
     0
  0
ENDSEC
  0
SECTION
  2
CLASSES
  0
CLASS
  1
ACDBDICTIONARYWDFLT
  2
AcDbDictionaryWithDefault
  3
AutoCAD 2000
 90
        0
280
     0
281
     0
  0
CLASS
  1
ACDBPLACEHOLDER
  2
AcDbPlaceHolder
  3
AutoCAD 2000
 90
        0
280
     0
281
     0
  0
CLASS
  1
LAYOUT
  2
AcDbLayout
  3
AutoCAD 2000
 90
        0
280
     0
281
     0
  0
CLASS
  1
DICTIONARYVAR
  2
AcDbDictionaryVar
  3
AutoCAD 2000
 90
        0
280
     0
281
     0
  0
ENDSEC
  0
SECTION
  2
TABLES
  0
TABLE
  2
VPORT
  5
8
330
0
100
AcDbSymbolTable
 70
     2
  0
VPORT
  5
13C
330
8
100
AcDbSymbolTableRecord
100
AcDbViewportTableRecord
  2
*Active
 70
     0
 10
0.0
 20
0.0
 11
1.0
 21
1.0
 12
95.5
 22
111.0
 13
0.0
 23
0.0
 14
1.0
 24
1.0
 15
0.0
 25
0.0
 16
0.0
 26
0.0
 36
1.0
 17
0.0
 27
0.0
 37
0.0
 40
223.1994884910486
 41
2.078104993597951
 42
50.0
 43
0.0
 44
0.0
 50
0.0
 51
0.0
 71
     0
 72
   100
 73
     1
 74
     3
 75
     0
 76
     0
 77
     0
 78
     0
281
     0
 65
     1
110
0.0
120
0.0
130
0.0
111
1.0
121
0.0
131
0.0
112
0.0
122
1.0
132
0.0
 79
     1
146
0.0
  0
ENDTAB
  0
TABLE
  2
LTYPE
  5
5
330
0
100
AcDbSymbolTable
 70
     1
  0
LTYPE
  5
13
330
5
100
AcDbSymbolTableRecord
100
AcDbLinetypeTableRecord
  2
ByBlock
 70
     0
  3

 72
    65
 73
     0
 40
0.0
  0
LTYPE
  5
14
330
5
100
AcDbSymbolTableRecord
100
AcDbLinetypeTableRecord
  2
ByLayer
 70
     0
  3

 72
    65
 73
     0
 40
0.0
  0
LTYPE
  5
15
330
5
100
AcDbSymbolTableRecord
100
AcDbLinetypeTableRecord
  2
Continuous
 70
     0
  3
Solid line
 72
    65
 73
     0
 40
0.0
  0
ENDTAB
  0
TABLE
  2
LAYER
  5
2
330
0
100
AcDbSymbolTable
 70
     1
  0
LAYER
  5
10
330
2
100
AcDbSymbolTableRecord
100
AcDbLayerTableRecord
  2
0
 70
     0
 62
     7
  6
Continuous
370
    -3
390
F
  0
ENDTAB
  0
TABLE
  2
STYLE
  5
3
330
0
100
AcDbSymbolTable
 70
     1
  0
STYLE
  5
11
330
3
100
AcDbSymbolTableRecord
100
AcDbTextStyleTableRecord
  2
Standard
 70
     0
 40
0.0
 41
1.0
 50
0.0
 71
     0
 42
0.2
  3
txt
  4

  0
ENDTAB
  0
TABLE
  2
VIEW
  5
6
330
0
100
AcDbSymbolTable
 70
     0
  0
ENDTAB
  0
TABLE
  2
UCS
  5
7
330
0
100
AcDbSymbolTable
 70
     0
  0
ENDTAB
  0
TABLE
  2
APPID
  5
9
330
0
100
AcDbSymbolTable
 70
     1
  0
APPID
  5
12
330
9
100
AcDbSymbolTableRecord
100
AcDbRegAppTableRecord
  2
ACAD
 70
     0
  0
ENDTAB
  0
TABLE
  2
DIMSTYLE
  5
A
330
0
100
AcDbSymbolTable
 70
     1
100
AcDbDimStyleTable
 71
     0
  0
DIMSTYLE
105
136
330
A
100
AcDbSymbolTableRecord
100
AcDbDimStyleTableRecord
  2
Standard
 70
     0
340
11
  0
ENDTAB
  0
TABLE
  2
BLOCK_RECORD
  5
1
330
0
100
AcDbSymbolTable
 70
     0
  0
BLOCK_RECORD
  5
1E
330
1
100
AcDbSymbolTableRecord
100
AcDbBlockTableRecord
  2
*Model_Space
340
21
  0
BLOCK_RECORD
  5
1A
330
1
100
AcDbSymbolTableRecord
100
AcDbBlockTableRecord
  2
*Paper_Space
340
1D
  0
ENDTAB
  0
ENDSEC
  0
SECTION
  2
BLOCKS
  0
BLOCK
  5
1F
330
1E
100
AcDbEntity
  8
0
100
AcDbBlockBegin
  2
*Model_Space
 70
     0
 10
0.0
 20
0.0
 30
0.0
  3
*Model_Space
  1

  0
ENDBLK
  5
20
330
1E
100
AcDbEntity
  8
0
100
AcDbBlockEnd
  0
BLOCK
  5
1B
330
1A
100
AcDbEntity
 67
     1
  8
0
100
AcDbBlockBegin
  2
*Paper_Space
 70
     0
 10
0.0
 20
0.0
 30
0.0
  3
*Paper_Space
  1

  0
ENDBLK
  5
1C
330
1A
100
AcDbEntity
 67
     1
  8
0
100
AcDbBlockEnd
  0
ENDSEC
  0
SECTION
  2
ENTITIES
  0
LINE
  5
22
330
1E
100
AcDbEntity
  8
0
100
AcDbLine
 10
7.29999999999999
 20
59.25
 30
0.0
 11
12.7512
 21
48.04619999999999
 31
0.0
  0
LINE
  5
23
330
1E
100
AcDbEntity
  8
0
100
AcDbLine
 10
12.7512
 20
48.04619999999999
 30
0.0
 11
19.5503
 21
37.61249999999999
 31
0.0
  0
LINE
  5
24
330
1E
100
AcDbEntity
  8
0
100
AcDbLine
 10
3.29999999999999
 20
71.05
 30
0.0
 11
7.29999999999999
 21
59.25
 31
0.0
  0
LINE
  5
25
330
1E
100
AcDbEntity
  8
0
100
AcDbLine
 10
0.7999999999999941
 20
83.25000000000001
 30
0.0
 11
3.29999999999999
 21
71.05
 31
0.0
  0
LINE
  5
26
330
1E
100
AcDbEntity
  8
0
100
AcDbLine
 10
47.7962
 20
13.0012
 30
0.0
 11
59.0
 21
7.549999999999999
 31
0.0
  0
LINE
  5
27
330
1E
100
AcDbEntity
  8
0
100
AcDbLine
 10
54.6567
 20
25.06159999999999
 30
0.0
 11
64.29999999999999
 21
20.44999999999999
 31
0.0
  0
LINE
  5
28
330
1E
100
AcDbEntity
  8
0
100
AcDbLine
 10
45.78349999999999
 20
31.0211
 30
0.0
 11
54.6567
 21
25.06159999999999
 31
0.0
  0
LINE
  5
29
330
1E
100
AcDbEntity
  8
0
100
AcDbLine
 10
37.3625
 20
19.8003
 30
0.0
 11
47.7962
 21
13.0012
 31
0.0
  0
LINE
  5
2A
330
1E
100
AcDbEntity
  8
0
100
AcDbLine
 10
27.7693
 20
28.1606
 30
0.0
 11
37.3625
 21
19.8003
 31
0.0
  0
LINE
  5
2B
330
1E
100
AcDbEntity
  8
0
100
AcDbLine
 10
20.2
 20
64.55
 30
0.0
 11
24.8116
 21
54.9067
 31
0.0
  0
LINE
  5
2C
330
1E
100
AcDbEntity
  8
0
100
AcDbLine
 10
24.8116
 20
54.9067
 30
0.0
 11
30.7711
 21
46.03349999999999
 31
0.0
  0
LINE
  5
2D
330
1E
100
AcDbEntity
  8
0
100
AcDbLine
 10
37.72549999999999
 20
38.0031
 30
0.0
 11
45.78349999999999
 21
31.0211
 31
0.0
  0
LINE
  5
2E
330
1E
100
AcDbEntity
  8
0
100
AcDbLine
 10
30.7711
 20
46.03349999999999
 30
0.0
 11
37.72549999999999
 21
38.0031
 31
0.0
  0
LINE
  5
2F
330
1E
100
AcDbEntity
  8
0
100
AcDbLine
 10
19.5503
 20
37.61249999999999
 30
0.0
 11
27.7693
 21
28.1606
 31
0.0
  0
LINE
  5
30
330
1E
100
AcDbEntity
  8
0
100
AcDbLine
 10
16.69999999999999
 20
74.65
 30
0.0
 11
20.2
 21
64.55
 31
0.0
  0
LINE
  5
31
330
1E
100
AcDbEntity
  8
0
100
AcDbLine
 10
14.69999999999999
 20
85.15
 30
0.0
 11
16.69999999999999
 21
74.65
 31
0.0
  0
LINE
  5
32
330
1E
100
AcDbEntity
  8
0
100
AcDbLine
 10
14.0
 20
95.75000000000001
 30
0.0
 11
14.69999999999999
 21
85.15
 31
0.0
  0
LINE
  5
33
330
1E
100
AcDbEntity
  8
0
100
AcDbLine
 10
14.0
 20
95.75000000000001
 30
0.0
 11
14.69999999999999
 21
106.3499999999999
 31
0.0
  0
LINE
  5
34
330
1E
100
AcDbEntity
  8
0
100
AcDbLine
 10
3.29999999999999
 20
120.45
 30
0.0
 11
7.29999999999999
 21
132.25
 31
0.0
  0
LINE
  5
35
330
1E
100
AcDbEntity
  8
0
100
AcDbLine
 10
0.7999999999999941
 20
108.25
 30
0.0
 11
3.29999999999999
 21
120.45
 31
0.0
  0
LINE
  5
36
330
1E
100
AcDbEntity
  8
0
100
AcDbLine
 10
16.69999999999999
 20
116.8499999999999
 30
0.0
 11
20.2
 21
126.95
 31
0.0
  0
LINE
  5
37
330
1E
100
AcDbEntity
  8
0
100
AcDbLine
 10
14.69999999999999
 20
106.3499999999999
 30
0.0
 11
16.69999999999999
 21
116.8499999999999
 31
0.0
  0
LINE
  5
38
330
1E
100
AcDbEntity
  8
0
100
AcDbLine
 10
7.29999999999999
 20
132.25
 30
0.0
 11
12.7512
 21
143.454
 31
0.0
  0
LINE
  5
39
330
1E
100
AcDbEntity
  8
0
100
AcDbLine
 10
12.7512
 20
143.454
 30
0.0
 11
19.5503
 21
153.887
 31
0.0
  0
LINE
  5
3A
330
1E
100
AcDbEntity
  8
0
100
AcDbLine
 10
20.2
 20
126.95
 30
0.0
 11
24.8116
 21
136.5929999999999
 31
0.0
  0
LINE
  5
3B
330
1E
100
AcDbEntity
  8
0
100
AcDbLine
 10
24.8116
 20
136.5929999999999
 30
0.0
 11
30.7711
 21
145.467
 31
0.0
  0
LINE
  5
3C
330
1E
100
AcDbEntity
  8
0
100
AcDbLine
 10
54.6567
 20
166.4379999999999
 30
0.0
 11
64.29999999999999
 21
171.05
 31
0.0
  0
LINE
  5
3D
330
1E
100
AcDbEntity
  8
0
100
AcDbLine
 10
47.7962
 20
178.499
 30
0.0
 11
59.0
 21
183.9499999999999
 31
0.0
  0
LINE
  5
3E
330
1E
100
AcDbEntity
  8
0
100
AcDbLine
 10
45.78349999999999
 20
160.4789999999999
 30
0.0
 11
54.6567
 21
166.4379999999999
 31
0.0
  0
LINE
  5
3F
330
1E
100
AcDbEntity
  8
0
100
AcDbLine
 10
37.3625
 20
171.6999999999999
 30
0.0
 11
47.7962
 21
178.499
 31
0.0
  0
LINE
  5
40
330
1E
100
AcDbEntity
  8
0
100
AcDbLine
 10
37.72549999999999
 20
153.497
 30
0.0
 11
45.78349999999999
 21
160.4789999999999
 31
0.0
  0
LINE
  5
41
330
1E
100
AcDbEntity
  8
0
100
AcDbLine
 10
27.7693
 20
163.339
 30
0.0
 11
37.3625
 21
171.6999999999999
 31
0.0
  0
LINE
  5
42
330
1E
100
AcDbEntity
  8
0
100
AcDbLine
 10
30.7711
 20
145.467
 30
0.0
 11
37.72549999999999
 21
153.497
 31
0.0
  0
LINE
  5
43
330
1E
100
AcDbEntity
  8
0
100
AcDbLine
 10
19.5503
 20
153.887
 30
0.0
 11
27.7693
 21
163.339
 31
0.0
  0
LINE
  5
44
330
1E
100
AcDbEntity
  8
0
100
AcDbLine
 10
-0.0000000000000058
 20
95.75000000000001
 30
0.0
 11
0.7999999999999941
 21
83.25000000000001
 31
0.0
  0
LINE
  5
45
330
1E
100
AcDbEntity
  8
0
100
AcDbLine
 10
-0.0000000000000058
 20
95.75000000000001
 30
0.0
 11
0.7999999999999941
 21
108.25
 31
0.0
  0
LINE
  5
46
330
1E
100
AcDbEntity
  8
0
100
AcDbLine
 10
59.0
 20
183.9499999999999
 30
0.0
 11
70.8
 21
187.9499999999999
 31
0.0
  0
LINE
  5
47
330
1E
100
AcDbEntity
  8
0
100
AcDbLine
 10
59.0
 20
7.549999999999999
 30
0.0
 11
70.8
 21
3.549999999999999
 31
0.0
  0
LINE
  5
48
330
1E
100
AcDbEntity
  8
0
100
AcDbLine
 10
61.3956191189143
 20
169.660952202714
 30
0.0
 11
63.0
 21
165.65
 31
0.0
  0
LINE
  5
49
330
1E
100
AcDbEntity
  8
0
100
AcDbLine
 10
64.29999999999999
 20
20.44999999999999
 30
0.0
 11
74.40000000000001
 21
16.95
 31
0.0
  0
LINE
  5
4A
330
1E
100
AcDbEntity
  8
0
100
AcDbLine
 10
74.40000000000001
 20
16.95
 30
0.0
 11
84.9
 21
14.95
 31
0.0
  0
LINE
  5
4B
330
1E
100
AcDbEntity
  8
0
100
AcDbLine
 10
70.8
 20
3.549999999999999
 30
0.0
 11
83.0
 21
1.05
 31
0.0
  0
LINE
  5
4C
330
1E
100
AcDbEntity
  8
0
100
AcDbLine
 10
95.5
 20
14.25
 30
0.0
 11
106.0999999999999
 21
14.95
 31
0.0
  0
LINE
  5
4D
330
1E
100
AcDbEntity
  8
0
100
AcDbLine
 10
95.5
 20
0.25
 30
0.0
 11
108.0
 21
1.05
 31
0.0
  0
LINE
  5
4E
330
1E
100
AcDbEntity
  8
0
100
AcDbLine
 10
84.9
 20
14.95
 30
0.0
 11
95.5
 21
14.25
 31
0.0
  0
LINE
  5
4F
330
1E
100
AcDbEntity
  8
0
100
AcDbLine
 10
83.0
 20
1.05
 30
0.0
 11
95.5
 21
0.25
 31
0.0
  0
LINE
  5
50
330
1E
100
AcDbEntity
  8
0
100
AcDbLine
 10
95.5
 20
146.75
 30
0.0
 11
105.0999999999999
 21
148.15
 31
0.0
  0
LINE
  5
51
330
1E
100
AcDbEntity
  8
0
100
AcDbLine
 10
132.0
 20
7.549999999999999
 30
0.0
 11
143.204
 21
13.0012
 31
0.0
  0
LINE
  5
52
330
1E
100
AcDbEntity
  8
0
100
AcDbLine
 10
126.7
 20
20.44999999999999
 30
0.0
 11
136.3429999999999
 21
25.06159999999999
 31
0.0
  0
LINE
  5
53
330
1E
100
AcDbEntity
  8
0
100
AcDbLine
 10
136.3429999999999
 20
25.06159999999999
 30
0.0
 11
145.217
 21
31.0211
 31
0.0
  0
LINE
  5
54
330
1E
100
AcDbEntity
  8
0
100
AcDbLine
 10
143.204
 20
13.0012
 30
0.0
 11
153.6369999999999
 21
19.8003
 31
0.0
  0
LINE
  5
55
330
1E
100
AcDbEntity
  8
0
100
AcDbLine
 10
153.6369999999999
 20
19.8003
 30
0.0
 11
163.2309999999999
 21
28.1606
 31
0.0
  0
LINE
  5
56
330
1E
100
AcDbEntity
  8
0
100
AcDbLine
 10
145.217
 20
31.0211
 30
0.0
 11
153.275
 21
38.0031
 31
0.0
  0
LINE
  5
57
330
1E
100
AcDbEntity
  8
0
100
AcDbLine
 10
160.2289999999999
 20
145.467
 30
0.0
 11
166.188
 21
136.5929999999999
 31
0.0
  0
LINE
  5
58
330
1E
100
AcDbEntity
  8
0
100
AcDbLine
 10
166.188
 20
136.5929999999999
 30
0.0
 11
170.8
 21
126.95
 31
0.0
  0
LINE
  5
59
330
1E
100
AcDbEntity
  8
0
100
AcDbLine
 10
170.8
 20
64.55
 30
0.0
 11
174.3
 21
74.65
 31
0.0
  0
LINE
  5
5A
330
1E
100
AcDbEntity
  8
0
100
AcDbLine
 10
183.6999999999999
 20
59.25
 30
0.0
 11
187.6999999999999
 21
71.05
 31
0.0
  0
LINE
  5
5B
330
1E
100
AcDbEntity
  8
0
100
AcDbLine
 10
174.3
 20
74.65
 30
0.0
 11
176.3
 21
85.15
 31
0.0
  0
LINE
  5
5C
330
1E
100
AcDbEntity
  8
0
100
AcDbLine
 10
187.6999999999999
 20
71.05
 30
0.0
 11
190.1999999999999
 21
83.25000000000001
 31
0.0
  0
LINE
  5
5D
330
1E
100
AcDbEntity
  8
0
100
AcDbLine
 10
170.8
 20
126.95
 30
0.0
 11
174.3
 21
116.8499999999999
 31
0.0
  0
LINE
  5
5E
330
1E
100
AcDbEntity
  8
0
100
AcDbLine
 10
174.3
 20
116.8499999999999
 30
0.0
 11
176.3
 21
106.3499999999999
 31
0.0
  0
LINE
  5
5F
330
1E
100
AcDbEntity
  8
0
100
AcDbLine
 10
176.3
 20
106.3499999999999
 30
0.0
 11
177.0
 21
95.75000000000001
 31
0.0
  0
LINE
  5
60
330
1E
100
AcDbEntity
  8
0
100
AcDbLine
 10
183.6999999999999
 20
132.25
 30
0.0
 11
187.6999999999999
 21
120.45
 31
0.0
  0
LINE
  5
61
330
1E
100
AcDbEntity
  8
0
100
AcDbLine
 10
187.6999999999999
 20
120.45
 30
0.0
 11
190.1999999999999
 21
108.25
 31
0.0
  0
LINE
  5
62
330
1E
100
AcDbEntity
  8
0
100
AcDbLine
 10
190.1999999999999
 20
108.25
 30
0.0
 11
191.0
 21
95.75000000000001
 31
0.0
  0
LINE
  5
63
330
1E
100
AcDbEntity
  8
0
100
AcDbLine
 10
178.249
 20
143.454
 30
0.0
 11
183.6999999999999
 21
132.25
 31
0.0
  0
LINE
  5
64
330
1E
100
AcDbEntity
  8
0
100
AcDbLine
 10
176.3
 20
85.15
 30
0.0
 11
177.0
 21
95.75000000000001
 31
0.0
  0
LINE
  5
65
330
1E
100
AcDbEntity
  8
0
100
AcDbLine
 10
190.1999999999999
 20
83.25000000000001
 30
0.0
 11
191.0
 21
95.75000000000001
 31
0.0
  0
LINE
  5
66
330
1E
100
AcDbEntity
  8
0
100
AcDbLine
 10
166.188
 20
54.9067
 30
0.0
 11
170.8
 21
64.55
 31
0.0
  0
LINE
  5
67
330
1E
100
AcDbEntity
  8
0
100
AcDbLine
 10
178.249
 20
48.04619999999999
 30
0.0
 11
183.6999999999999
 21
59.25
 31
0.0
  0
LINE
  5
68
330
1E
100
AcDbEntity
  8
0
100
AcDbLine
 10
160.2289999999999
 20
46.03349999999999
 30
0.0
 11
166.188
 21
54.9067
 31
0.0
  0
LINE
  5
69
330
1E
100
AcDbEntity
  8
0
100
AcDbLine
 10
171.4499999999999
 20
37.61249999999999
 30
0.0
 11
178.249
 21
48.04619999999999
 31
0.0
  0
LINE
  5
6A
330
1E
100
AcDbEntity
  8
0
100
AcDbLine
 10
153.275
 20
38.0031
 30
0.0
 11
160.2289999999999
 21
46.03349999999999
 31
0.0
  0
LINE
  5
6B
330
1E
100
AcDbEntity
  8
0
100
AcDbLine
 10
163.2309999999999
 20
28.1606
 30
0.0
 11
171.4499999999999
 21
37.61249999999999
 31
0.0
  0
LINE
  5
6C
330
1E
100
AcDbEntity
  8
0
100
AcDbLine
 10
116.5999999999999
 20
16.95
 30
0.0
 11
126.7
 21
20.44999999999999
 31
0.0
  0
LINE
  5
6D
330
1E
100
AcDbEntity
  8
0
100
AcDbLine
 10
120.1999999999999
 20
3.549999999999999
 30
0.0
 11
132.0
 21
7.549999999999999
 31
0.0
  0
LINE
  5
6E
330
1E
100
AcDbEntity
  8
0
100
AcDbLine
 10
106.0999999999999
 20
14.95
 30
0.0
 11
116.5999999999999
 21
16.95
 31
0.0
  0
LINE
  5
6F
330
1E
100
AcDbEntity
  8
0
100
AcDbLine
 10
108.0
 20
1.05
 30
0.0
 11
120.1999999999999
 21
3.549999999999999
 31
0.0
  0
LINE
  5
70
330
1E
100
AcDbEntity
  8
0
100
AcDbLine
 10
105.0999999999999
 20
148.15
 30
0.0
 11
114.1
 21
151.75
 31
0.0
  0
LINE
  5
71
330
1E
100
AcDbEntity
  8
0
100
AcDbLine
 10
95.5
 20
149.75
 30
0.0
 11
104.4
 21
150.9499999999999
 31
0.0
  0
LINE
  5
72
330
1E
100
AcDbEntity
  8
0
100
AcDbLine
 10
104.4
 20
150.9499999999999
 30
0.0
 11
112.5999999999999
 21
154.3499999999999
 31
0.0
  0
LINE
  5
73
330
1E
100
AcDbEntity
  8
0
100
AcDbLine
 10
95.5
 20
151.25
 30
0.0
 11
104.0
 21
152.4499999999999
 31
0.0
  0
LINE
  5
74
330
1E
100
AcDbEntity
  8
0
100
AcDbLine
 10
104.0
 20
152.4499999999999
 30
0.0
 11
111.8999999999999
 21
155.6499999999999
 31
0.0
  0
LINE
  5
75
330
1E
100
AcDbEntity
  8
0
100
AcDbLine
 10
114.1
 20
151.75
 30
0.0
 11
121.9
 21
157.85
 31
0.0
  0
LINE
  5
76
330
1E
100
AcDbEntity
  8
0
100
AcDbLine
 10
111.8999999999999
 20
155.6499999999999
 30
0.0
 11
118.7999999999999
 21
160.9499999999999
 31
0.0
  0
LINE
  5
77
330
1E
100
AcDbEntity
  8
0
100
AcDbLine
 10
112.5999999999999
 20
154.3499999999999
 30
0.0
 11
119.7999999999999
 21
159.9499999999999
 31
0.0
  0
LINE
  5
78
330
1E
100
AcDbEntity
  8
0
100
AcDbLine
 10
171.4499999999999
 20
153.887
 30
0.0
 11
178.249
 21
143.454
 31
0.0
  0
LINE
  5
79
330
1E
100
AcDbEntity
  8
0
100
AcDbLine
 10
153.275
 20
153.497
 30
0.0
 11
160.2289999999999
 21
145.467
 31
0.0
  0
LINE
  5
7A
330
1E
100
AcDbEntity
  8
0
100
AcDbLine
 10
121.9
 20
157.85
 30
0.0
 11
128.0
 21
165.65
 31
0.0
  0
LINE
  5
7B
330
1E
100
AcDbEntity
  8
0
100
AcDbLine
 10
87.0
 20
152.4499999999999
 30
0.0
 11
95.5
 21
151.25
 31
0.0
  0
LINE
  5
7C
330
1E
100
AcDbEntity
  8
0
100
AcDbLine
 10
79.1
 20
155.6499999999999
 30
0.0
 11
87.0
 21
152.4499999999999
 31
0.0
  0
LINE
  5
7D
330
1E
100
AcDbEntity
  8
0
100
AcDbLine
 10
86.6
 20
150.9499999999999
 30
0.0
 11
95.5
 21
149.75
 31
0.0
  0
LINE
  5
7E
330
1E
100
AcDbEntity
  8
0
100
AcDbLine
 10
78.4
 20
154.3499999999999
 30
0.0
 11
86.6
 21
150.9499999999999
 31
0.0
  0
LINE
  5
7F
330
1E
100
AcDbEntity
  8
0
100
AcDbLine
 10
85.90000000000001
 20
148.15
 30
0.0
 11
95.5
 21
146.75
 31
0.0
  0
LINE
  5
80
330
1E
100
AcDbEntity
  8
0
100
AcDbLine
 10
76.90000000000001
 20
151.75
 30
0.0
 11
85.90000000000001
 21
148.15
 31
0.0
  0
LINE
  5
81
330
1E
100
AcDbEntity
  8
0
100
AcDbLine
 10
118.7999999999999
 20
160.9499999999999
 30
0.0
 11
124.0999999999999
 21
167.8499999999999
 31
0.0
  0
LINE
  5
82
330
1E
100
AcDbEntity
  8
0
100
AcDbLine
 10
145.217
 20
160.4789999999999
 30
0.0
 11
153.275
 21
153.497
 31
0.0
  0
LINE
  5
83
330
1E
100
AcDbEntity
  8
0
100
AcDbLine
 10
119.7999999999999
 20
159.9499999999999
 30
0.0
 11
125.4
 21
167.1499999999999
 31
0.0
  0
LINE
  5
84
330
1E
100
AcDbEntity
  8
0
100
AcDbLine
 10
125.4
 20
167.1499999999999
 30
0.0
 11
126.964600531485
 21
170.9234483406399
 31
0.0
  0
LINE
  5
85
330
1E
100
AcDbEntity
  8
0
100
AcDbLine
 10
163.2309999999999
 20
163.339
 30
0.0
 11
171.4499999999999
 21
153.887
 31
0.0
  0
LINE
  5
86
330
1E
100
AcDbEntity
  8
0
100
AcDbLine
 10
136.3429999999999
 20
166.4379999999999
 30
0.0
 11
145.217
 21
160.4789999999999
 31
0.0
  0
LINE
  5
87
330
1E
100
AcDbEntity
  8
0
100
AcDbLine
 10
128.0
 20
165.65
 30
0.0
 11
129.604366371281
 21
169.660915928202
 31
0.0
  0
LINE
  5
88
330
1E
100
AcDbEntity
  8
0
100
AcDbLine
 10
72.2
 20
160.9499999999999
 30
0.0
 11
79.1
 21
155.6499999999999
 31
0.0
  0
LINE
  5
89
330
1E
100
AcDbEntity
  8
0
100
AcDbLine
 10
71.2
 20
159.9499999999999
 30
0.0
 11
78.4
 21
154.3499999999999
 31
0.0
  0
LINE
  5
8A
330
1E
100
AcDbEntity
  8
0
100
AcDbLine
 10
64.29999999999999
 20
171.05
 30
0.0
 11
74.40000000000001
 21
174.55
 31
0.0
  0
LINE
  5
8B
330
1E
100
AcDbEntity
  8
0
100
AcDbLine
 10
124.0999999999999
 20
167.8499999999999
 30
0.0
 11
125.556687548082
 21
171.4461973843279
 31
0.0
  0
LINE
  5
8C
330
1E
100
AcDbEntity
  8
0
100
AcDbLine
 10
74.40000000000001
 20
174.55
 30
0.0
 11
84.9
 21
176.55
 31
0.0
  0
LINE
  5
8D
330
1E
100
AcDbEntity
  8
0
100
AcDbLine
 10
84.9
 20
176.55
 30
0.0
 11
87.5
 21
176.721698113208
 31
0.0
  0
LINE
  5
8E
330
1E
100
AcDbEntity
  8
0
100
AcDbLine
 10
70.8
 20
187.9499999999999
 30
0.0
 11
83.0
 21
190.4499999999999
 31
0.0
  0
LINE
  5
8F
330
1E
100
AcDbEntity
  8
0
100
AcDbLine
 10
87.5
 20
176.9499999999999
 30
0.0
 11
87.5
 21
176.65
 31
0.0
  0
LINE
  5
90
330
1E
100
AcDbEntity
  8
0
100
AcDbLine
 10
87.5
 20
176.9499999999999
 30
0.0
 11
87.5
 21
177.65
 31
0.0
  0
LINE
  5
91
330
1E
100
AcDbEntity
  8
0
100
AcDbLine
 10
87.5
 20
177.65
 30
0.0
 11
87.5
 21
176.9499999999999
 31
0.0
  0
LINE
  5
92
330
1E
100
AcDbEntity
  8
0
100
AcDbLine
 10
87.5
 20
177.65
 30
0.0
 11
87.5
 21
178.8499999999999
 31
0.0
  0
LINE
  5
93
330
1E
100
AcDbEntity
  8
0
100
AcDbLine
 10
87.5
 20
178.8499999999999
 30
0.0
 11
87.5
 21
177.65
 31
0.0
  0
LINE
  5
94
330
1E
100
AcDbEntity
  8
0
100
AcDbLine
 10
87.5
 20
178.8499999999999
 30
0.0
 11
87.5
 21
180.4499999999999
 31
0.0
  0
LINE
  5
95
330
1E
100
AcDbEntity
  8
0
100
AcDbLine
 10
87.5
 20
180.4499999999999
 30
0.0
 11
87.5
 21
178.8499999999999
 31
0.0
  0
LINE
  5
96
330
1E
100
AcDbEntity
  8
0
100
AcDbLine
 10
87.5
 20
180.4499999999999
 30
0.0
 11
87.5
 21
182.2499999999999
 31
0.0
  0
LINE
  5
97
330
1E
100
AcDbEntity
  8
0
100
AcDbLine
 10
87.5
 20
182.2499999999999
 30
0.0
 11
87.5
 21
180.4499999999999
 31
0.0
  0
LINE
  5
98
330
1E
100
AcDbEntity
  8
0
100
AcDbLine
 10
87.5
 20
182.2499999999999
 30
0.0
 11
87.5
 21
184.25
 31
0.0
  0
LINE
  5
99
330
1E
100
AcDbEntity
  8
0
100
AcDbLine
 10
87.5
 20
184.25
 30
0.0
 11
87.5
 21
186.25
 31
0.0
  0
LINE
  5
9A
330
1E
100
AcDbEntity
  8
0
100
AcDbLine
 10
87.5
 20
184.25
 30
0.0
 11
87.5
 21
182.2499999999999
 31
0.0
  0
LINE
  5
9B
330
1E
100
AcDbEntity
  8
0
100
AcDbLine
 10
87.5
 20
189.6499999999999
 30
0.0
 11
87.5
 21
188.0499999999999
 31
0.0
  0
LINE
  5
9C
330
1E
100
AcDbEntity
  8
0
100
AcDbLine
 10
87.5
 20
189.6499999999999
 30
0.0
 11
87.5
 21
190.85
 31
0.0
  0
LINE
  5
9D
330
1E
100
AcDbEntity
  8
0
100
AcDbLine
 10
87.5
 20
188.0499999999999
 30
0.0
 11
87.5
 21
186.25
 31
0.0
  0
LINE
  5
9E
330
1E
100
AcDbEntity
  8
0
100
AcDbLine
 10
87.5
 20
188.0499999999999
 30
0.0
 11
87.5
 21
189.6499999999999
 31
0.0
  0
LINE
  5
9F
330
1E
100
AcDbEntity
  8
0
100
AcDbLine
 10
87.5
 20
186.25
 30
0.0
 11
87.5
 21
184.25
 31
0.0
  0
LINE
  5
A0
330
1E
100
AcDbEntity
  8
0
100
AcDbLine
 10
87.5
 20
186.25
 30
0.0
 11
87.5
 21
188.0499999999999
 31
0.0
  0
LINE
  5
A1
330
1E
100
AcDbEntity
  8
0
100
AcDbLine
 10
83.0
 20
190.4499999999999
 30
0.0
 11
87.5
 21
190.738
 31
0.0
  0
LINE
  5
A2
330
1E
100
AcDbEntity
  8
0
100
AcDbLine
 10
87.5
 20
191.55
 30
0.0
 11
87.5
 21
191.8499999999999
 31
0.0
  0
LINE
  5
A3
330
1E
100
AcDbEntity
  8
0
100
AcDbLine
 10
87.5
 20
191.55
 30
0.0
 11
87.5
 21
190.85
 31
0.0
  0
LINE
  5
A4
330
1E
100
AcDbEntity
  8
0
100
AcDbLine
 10
87.5
 20
191.8499999999999
 30
0.0
 11
90.0
 21
193.75
 31
0.0
  0
LINE
  5
A5
330
1E
100
AcDbEntity
  8
0
100
AcDbLine
 10
87.5
 20
191.8499999999999
 30
0.0
 11
87.5
 21
191.55
 31
0.0
  0
LINE
  5
A6
330
1E
100
AcDbEntity
  8
0
100
AcDbLine
 10
87.5
 20
190.85
 30
0.0
 11
87.5
 21
191.55
 31
0.0
  0
LINE
  5
A7
330
1E
100
AcDbEntity
  8
0
100
AcDbLine
 10
87.5
 20
190.85
 30
0.0
 11
87.5
 21
190.738
 31
0.0
  0
LINE
  5
A8
330
1E
100
AcDbEntity
  8
0
100
AcDbLine
 10
87.5
 20
190.85
 30
0.0
 11
87.5
 21
189.6499999999999
 31
0.0
  0
LINE
  5
A9
330
1E
100
AcDbEntity
  8
0
100
AcDbLine
 10
87.5
 20
190.738
 30
0.0
 11
87.5
 21
190.85
 31
0.0
  0
LINE
  5
AA
330
1E
100
AcDbEntity
  8
0
100
AcDbLine
 10
87.5
 20
176.721698113208
 30
0.0
 11
87.5
 21
176.65
 31
0.0
  0
LINE
  5
AB
330
1E
100
AcDbEntity
  8
0
100
AcDbLine
 10
88.8
 20
182.3499999999999
 30
0.0
 11
89.40000000000001
 21
180.75
 31
0.0
  0
LINE
  5
AC
330
1E
100
AcDbEntity
  8
0
100
AcDbLine
 10
88.49999999999999
 20
184.25
 30
0.0
 11
88.8
 21
182.3499999999999
 31
0.0
  0
LINE
  5
AD
330
1E
100
AcDbEntity
  8
0
100
AcDbLine
 10
88.49999999999999
 20
184.25
 30
0.0
 11
88.8
 21
186.15
 31
0.0
  0
LINE
  5
AE
330
1E
100
AcDbEntity
  8
0
100
AcDbLine
 10
90.6
 20
179.3499999999999
 30
0.0
 11
92.0
 21
178.15
 31
0.0
  0
LINE
  5
AF
330
1E
100
AcDbEntity
  8
0
100
AcDbLine
 10
89.40000000000001
 20
180.75
 30
0.0
 11
90.6
 21
179.3499999999999
 31
0.0
  0
LINE
  5
B0
330
1E
100
AcDbEntity
  8
0
100
AcDbLine
 10
92.0
 20
178.15
 30
0.0
 11
93.59999999999999
 21
177.55
 31
0.0
  0
LINE
  5
B1
330
1E
100
AcDbEntity
  8
0
100
AcDbLine
 10
92.3
 20
178.65
 30
0.0
 11
93.7
 21
177.9499999999999
 31
0.0
  0
LINE
  5
B2
330
1E
100
AcDbEntity
  8
0
100
AcDbLine
 10
90.90000000000001
 20
179.6499999999999
 30
0.0
 11
92.3
 21
178.65
 31
0.0
  0
LINE
  5
B3
330
1E
100
AcDbEntity
  8
0
100
AcDbLine
 10
89.9
 20
181.05
 30
0.0
 11
90.90000000000001
 21
179.6499999999999
 31
0.0
  0
LINE
  5
B4
330
1E
100
AcDbEntity
  8
0
100
AcDbLine
 10
89.19999999999999
 20
182.45
 30
0.0
 11
89.9
 21
181.05
 31
0.0
  0
LINE
  5
B5
330
1E
100
AcDbEntity
  8
0
100
AcDbLine
 10
88.8
 20
186.15
 30
0.0
 11
89.40000000000001
 21
187.7499999999999
 31
0.0
  0
LINE
  5
B6
330
1E
100
AcDbEntity
  8
0
100
AcDbLine
 10
90.6
 20
189.15
 30
0.0
 11
92.0
 21
190.35
 31
0.0
  0
LINE
  5
B7
330
1E
100
AcDbEntity
  8
0
100
AcDbLine
 10
89.40000000000001
 20
187.7499999999999
 30
0.0
 11
90.6
 21
189.15
 31
0.0
  0
LINE
  5
B8
330
1E
100
AcDbEntity
  8
0
100
AcDbLine
 10
92.0
 20
190.35
 30
0.0
 11
93.59999999999999
 21
190.9499999999999
 31
0.0
  0
LINE
  5
B9
330
1E
100
AcDbEntity
  8
0
100
AcDbLine
 10
92.3
 20
189.85
 30
0.0
 11
93.7
 21
190.55
 31
0.0
  0
LINE
  5
BA
330
1E
100
AcDbEntity
  8
0
100
AcDbLine
 10
90.90000000000001
 20
188.85
 30
0.0
 11
92.3
 21
189.85
 31
0.0
  0
LINE
  5
BB
330
1E
100
AcDbEntity
  8
0
100
AcDbLine
 10
89.9
 20
187.4499999999999
 30
0.0
 11
90.90000000000001
 21
188.85
 31
0.0
  0
LINE
  5
BC
330
1E
100
AcDbEntity
  8
0
100
AcDbLine
 10
89.19999999999999
 20
186.05
 30
0.0
 11
89.9
 21
187.4499999999999
 31
0.0
  0
LINE
  5
BD
330
1E
100
AcDbEntity
  8
0
100
AcDbLine
 10
89.0
 20
184.25
 30
0.0
 11
89.19999999999999
 21
182.45
 31
0.0
  0
LINE
  5
BE
330
1E
100
AcDbEntity
  8
0
100
AcDbLine
 10
89.0
 20
184.25
 30
0.0
 11
89.19999999999999
 21
186.05
 31
0.0
  0
LINE
  5
BF
330
1E
100
AcDbEntity
  8
0
100
AcDbLine
 10
87.5
 20
176.65
 30
0.0
 11
87.5
 21
176.721698113208
 31
0.0
  0
LINE
  5
C0
330
1E
100
AcDbEntity
  8
0
100
AcDbLine
 10
87.5
 20
176.65
 30
0.0
 11
90.0
 21
174.75
 31
0.0
  0
LINE
  5
C1
330
1E
100
AcDbEntity
  8
0
100
AcDbLine
 10
87.5
 20
176.65
 30
0.0
 11
87.5
 21
176.9499999999999
 31
0.0
  0
LINE
  5
C2
330
1E
100
AcDbEntity
  8
0
100
AcDbLine
 10
90.0
 20
174.75
 30
0.0
 11
92.70000000000001
 21
173.65
 31
0.0
  0
LINE
  5
C3
330
1E
100
AcDbEntity
  8
0
100
AcDbLine
 10
126.7
 20
171.05
 30
0.0
 11
136.3429999999999
 21
166.4379999999999
 31
0.0
  0
LINE
  5
C4
330
1E
100
AcDbEntity
  8
0
100
AcDbLine
 10
95.5
 20
177.2499999999999
 30
0.0
 11
97.40000000000001
 21
177.55
 31
0.0
  0
LINE
  5
C5
330
1E
100
AcDbEntity
  8
0
100
AcDbLine
 10
97.40000000000001
 20
177.55
 30
0.0
 11
99.0
 21
178.15
 31
0.0
  0
LINE
  5
C6
330
1E
100
AcDbEntity
  8
0
100
AcDbLine
 10
95.5
 20
177.75
 30
0.0
 11
97.3
 21
177.9499999999999
 31
0.0
  0
LINE
  5
C7
330
1E
100
AcDbEntity
  8
0
100
AcDbLine
 10
97.3
 20
177.9499999999999
 30
0.0
 11
98.7
 21
178.65
 31
0.0
  0
LINE
  5
C8
330
1E
100
AcDbEntity
  8
0
100
AcDbLine
 10
93.59999999999999
 20
177.55
 30
0.0
 11
95.5
 21
177.2499999999999
 31
0.0
  0
LINE
  5
C9
330
1E
100
AcDbEntity
  8
0
100
AcDbLine
 10
93.59999999999999
 20
190.9499999999999
 30
0.0
 11
95.5
 21
191.25
 31
0.0
  0
LINE
  5
CA
330
1E
100
AcDbEntity
  8
0
100
AcDbLine
 10
95.5
 20
191.25
 30
0.0
 11
97.40000000000001
 21
190.9499999999999
 31
0.0
  0
LINE
  5
CB
330
1E
100
AcDbEntity
  8
0
100
AcDbLine
 10
97.40000000000001
 20
190.9499999999999
 30
0.0
 11
99.0
 21
190.35
 31
0.0
  0
LINE
  5
CC
330
1E
100
AcDbEntity
  8
0
100
AcDbLine
 10
95.5
 20
190.7499999999999
 30
0.0
 11
97.3
 21
190.55
 31
0.0
  0
LINE
  5
CD
330
1E
100
AcDbEntity
  8
0
100
AcDbLine
 10
97.3
 20
190.55
 30
0.0
 11
98.7
 21
189.85
 31
0.0
  0
LINE
  5
CE
330
1E
100
AcDbEntity
  8
0
100
AcDbLine
 10
93.7
 20
190.55
 30
0.0
 11
95.5
 21
190.7499999999999
 31
0.0
  0
LINE
  5
CF
330
1E
100
AcDbEntity
  8
0
100
AcDbLine
 10
93.7
 20
177.9499999999999
 30
0.0
 11
95.5
 21
177.75
 31
0.0
  0
LINE
  5
D0
330
1E
100
AcDbEntity
  8
0
100
AcDbLine
 10
116.5999999999999
 20
174.55
 30
0.0
 11
126.7
 21
171.05
 31
0.0
  0
LINE
  5
D1
330
1E
100
AcDbEntity
  8
0
100
AcDbLine
 10
99.0
 20
178.15
 30
0.0
 11
100.4
 21
179.3499999999999
 31
0.0
  0
LINE
  5
D2
330
1E
100
AcDbEntity
  8
0
100
AcDbLine
 10
100.4
 20
179.3499999999999
 30
0.0
 11
101.6
 21
180.75
 31
0.0
  0
LINE
  5
D3
330
1E
100
AcDbEntity
  8
0
100
AcDbLine
 10
98.7
 20
178.65
 30
0.0
 11
100.0999999999999
 21
179.6499999999999
 31
0.0
  0
LINE
  5
D4
330
1E
100
AcDbEntity
  8
0
100
AcDbLine
 10
100.0999999999999
 20
179.6499999999999
 30
0.0
 11
101.0999999999999
 21
181.05
 31
0.0
  0
LINE
  5
D5
330
1E
100
AcDbEntity
  8
0
100
AcDbLine
 10
103.4999999999999
 20
176.65
 30
0.0
 11
103.4999999999999
 21
176.9499999999999
 31
0.0
  0
LINE
  5
D6
330
1E
100
AcDbEntity
  8
0
100
AcDbLine
 10
103.4999999999999
 20
176.9499999999999
 30
0.0
 11
103.4999999999999
 21
177.65
 31
0.0
  0
LINE
  5
D7
330
1E
100
AcDbEntity
  8
0
100
AcDbLine
 10
103.4999999999999
 20
176.9499999999999
 30
0.0
 11
103.4999999999999
 21
176.65
 31
0.0
  0
LINE
  5
D8
330
1E
100
AcDbEntity
  8
0
100
AcDbLine
 10
103.4999999999999
 20
177.65
 30
0.0
 11
103.4999999999999
 21
178.8499999999999
 31
0.0
  0
LINE
  5
D9
330
1E
100
AcDbEntity
  8
0
100
AcDbLine
 10
103.4999999999999
 20
177.65
 30
0.0
 11
103.4999999999999
 21
176.9499999999999
 31
0.0
  0
LINE
  5
DA
330
1E
100
AcDbEntity
  8
0
100
AcDbLine
 10
103.4999999999999
 20
178.8499999999999
 30
0.0
 11
103.4999999999999
 21
180.4499999999999
 31
0.0
  0
LINE
  5
DB
330
1E
100
AcDbEntity
  8
0
100
AcDbLine
 10
103.4999999999999
 20
178.8499999999999
 30
0.0
 11
103.4999999999999
 21
177.65
 31
0.0
  0
LINE
  5
DC
330
1E
100
AcDbEntity
  8
0
100
AcDbLine
 10
103.4999999999999
 20
180.4499999999999
 30
0.0
 11
103.4999999999999
 21
182.2499999999999
 31
0.0
  0
LINE
  5
DD
330
1E
100
AcDbEntity
  8
0
100
AcDbLine
 10
103.4999999999999
 20
180.4499999999999
 30
0.0
 11
103.4999999999999
 21
178.8499999999999
 31
0.0
  0
LINE
  5
DE
330
1E
100
AcDbEntity
  8
0
100
AcDbLine
 10
103.4999999999999
 20
182.2499999999999
 30
0.0
 11
103.4999999999999
 21
184.25
 31
0.0
  0
LINE
  5
DF
330
1E
100
AcDbEntity
  8
0
100
AcDbLine
 10
103.4999999999999
 20
182.2499999999999
 30
0.0
 11
103.4999999999999
 21
180.4499999999999
 31
0.0
  0
LINE
  5
E0
330
1E
100
AcDbEntity
  8
0
100
AcDbLine
 10
101.6
 20
180.75
 30
0.0
 11
102.2
 21
182.3499999999999
 31
0.0
  0
LINE
  5
E1
330
1E
100
AcDbEntity
  8
0
100
AcDbLine
 10
102.2
 20
182.3499999999999
 30
0.0
 11
102.4999999999999
 21
184.25
 31
0.0
  0
LINE
  5
E2
330
1E
100
AcDbEntity
  8
0
100
AcDbLine
 10
101.0999999999999
 20
181.05
 30
0.0
 11
101.8
 21
182.45
 31
0.0
  0
LINE
  5
E3
330
1E
100
AcDbEntity
  8
0
100
AcDbLine
 10
99.0
 20
190.35
 30
0.0
 11
100.4
 21
189.15
 31
0.0
  0
LINE
  5
E4
330
1E
100
AcDbEntity
  8
0
100
AcDbLine
 10
98.7
 20
189.85
 30
0.0
 11
100.0999999999999
 21
188.85
 31
0.0
  0
LINE
  5
E5
330
1E
100
AcDbEntity
  8
0
100
AcDbLine
 10
100.4
 20
189.15
 30
0.0
 11
101.6
 21
187.7499999999999
 31
0.0
  0
LINE
  5
E6
330
1E
100
AcDbEntity
  8
0
100
AcDbLine
 10
101.6
 20
187.7499999999999
 30
0.0
 11
102.2
 21
186.15
 31
0.0
  0
LINE
  5
E7
330
1E
100
AcDbEntity
  8
0
100
AcDbLine
 10
100.0999999999999
 20
188.85
 30
0.0
 11
101.0999999999999
 21
187.4499999999999
 31
0.0
  0
LINE
  5
E8
330
1E
100
AcDbEntity
  8
0
100
AcDbLine
 10
101.0999999999999
 20
187.4499999999999
 30
0.0
 11
101.8
 21
186.05
 31
0.0
  0
LINE
  5
E9
330
1E
100
AcDbEntity
  8
0
100
AcDbLine
 10
103.4999999999999
 20
184.25
 30
0.0
 11
103.4999999999999
 21
186.25
 31
0.0
  0
LINE
  5
EA
330
1E
100
AcDbEntity
  8
0
100
AcDbLine
 10
103.4999999999999
 20
184.25
 30
0.0
 11
103.4999999999999
 21
182.2499999999999
 31
0.0
  0
LINE
  5
EB
330
1E
100
AcDbEntity
  8
0
100
AcDbLine
 10
103.4999999999999
 20
189.6499999999999
 30
0.0
 11
103.4999999999999
 21
190.85
 31
0.0
  0
LINE
  5
EC
330
1E
100
AcDbEntity
  8
0
100
AcDbLine
 10
103.4999999999999
 20
189.6499999999999
 30
0.0
 11
103.4999999999999
 21
188.0499999999999
 31
0.0
  0
LINE
  5
ED
330
1E
100
AcDbEntity
  8
0
100
AcDbLine
 10
103.4999999999999
 20
188.0499999999999
 30
0.0
 11
103.4999999999999
 21
189.6499999999999
 31
0.0
  0
LINE
  5
EE
330
1E
100
AcDbEntity
  8
0
100
AcDbLine
 10
103.4999999999999
 20
188.0499999999999
 30
0.0
 11
103.4999999999999
 21
186.25
 31
0.0
  0
LINE
  5
EF
330
1E
100
AcDbEntity
  8
0
100
AcDbLine
 10
103.4999999999999
 20
186.25
 30
0.0
 11
103.4999999999999
 21
188.0499999999999
 31
0.0
  0
LINE
  5
F0
330
1E
100
AcDbEntity
  8
0
100
AcDbLine
 10
103.4999999999999
 20
186.25
 30
0.0
 11
103.4999999999999
 21
184.25
 31
0.0
  0
LINE
  5
F1
330
1E
100
AcDbEntity
  8
0
100
AcDbLine
 10
102.2
 20
186.15
 30
0.0
 11
102.4999999999999
 21
184.25
 31
0.0
  0
LINE
  5
F2
330
1E
100
AcDbEntity
  8
0
100
AcDbLine
 10
101.8
 20
186.05
 30
0.0
 11
102.0
 21
184.25
 31
0.0
  0
LINE
  5
F3
330
1E
100
AcDbEntity
  8
0
100
AcDbLine
 10
101.8
 20
182.45
 30
0.0
 11
102.0
 21
184.25
 31
0.0
  0
LINE
  5
F4
330
1E
100
AcDbEntity
  8
0
100
AcDbLine
 10
120.1999999999999
 20
187.9499999999999
 30
0.0
 11
132.0
 21
183.9499999999999
 31
0.0
  0
LINE
  5
F5
330
1E
100
AcDbEntity
  8
0
100
AcDbLine
 10
106.0999999999999
 20
176.55
 30
0.0
 11
116.5999999999999
 21
174.55
 31
0.0
  0
LINE
  5
F6
330
1E
100
AcDbEntity
  8
0
100
AcDbLine
 10
108.0
 20
190.4499999999999
 30
0.0
 11
120.1999999999999
 21
187.9499999999999
 31
0.0
  0
LINE
  5
F7
330
1E
100
AcDbEntity
  8
0
100
AcDbLine
 10
103.4999999999999
 20
176.721698113208
 30
0.0
 11
106.0999999999999
 21
176.55
 31
0.0
  0
LINE
  5
F8
330
1E
100
AcDbEntity
  8
0
100
AcDbLine
 10
103.4999999999999
 20
191.8499999999999
 30
0.0
 11
103.4999999999999
 21
191.55
 31
0.0
  0
LINE
  5
F9
330
1E
100
AcDbEntity
  8
0
100
AcDbLine
 10
103.4999999999999
 20
191.55
 30
0.0
 11
103.4999999999999
 21
191.8499999999999
 31
0.0
  0
LINE
  5
FA
330
1E
100
AcDbEntity
  8
0
100
AcDbLine
 10
103.4999999999999
 20
191.55
 30
0.0
 11
103.4999999999999
 21
190.85
 31
0.0
  0
LINE
  5
FB
330
1E
100
AcDbEntity
  8
0
100
AcDbLine
 10
103.4999999999999
 20
190.85
 30
0.0
 11
103.4999999999999
 21
191.55
 31
0.0
  0
LINE
  5
FC
330
1E
100
AcDbEntity
  8
0
100
AcDbLine
 10
103.4999999999999
 20
190.85
 30
0.0
 11
103.4999999999999
 21
189.6499999999999
 31
0.0
  0
LINE
  5
FD
330
1E
100
AcDbEntity
  8
0
100
AcDbLine
 10
103.4999999999999
 20
190.738
 30
0.0
 11
108.0
 21
190.4499999999999
 31
0.0
  0
LINE
  5
FE
330
1E
100
AcDbEntity
  8
0
100
AcDbLine
 10
132.0
 20
183.9499999999999
 30
0.0
 11
143.204
 21
178.499
 31
0.0
  0
LINE
  5
FF
330
1E
100
AcDbEntity
  8
0
100
AcDbLine
 10
101.0
 20
174.75
 30
0.0
 11
103.4999999999999
 21
176.65
 31
0.0
  0
LINE
  5
100
330
1E
100
AcDbEntity
  8
0
100
AcDbLine
 10
98.3
 20
173.65
 30
0.0
 11
101.0
 21
174.75
 31
0.0
  0
LINE
  5
101
330
1E
100
AcDbEntity
  8
0
100
AcDbLine
 10
95.5
 20
173.2499999999999
 30
0.0
 11
98.3
 21
173.65
 31
0.0
  0
LINE
  5
102
330
1E
100
AcDbEntity
  8
0
100
AcDbLine
 10
92.70000000000001
 20
173.65
 30
0.0
 11
95.5
 21
173.2499999999999
 31
0.0
  0
LINE
  5
103
330
1E
100
AcDbEntity
  8
0
100
AcDbLine
 10
127.2999999999999
 20
192.75
 30
0.0
 11
128.368565445026
 21
185.180994764398
 31
0.0
  0
LINE
  5
104
330
1E
100
AcDbEntity
  8
0
100
AcDbLine
 10
143.204
 20
178.499
 30
0.0
 11
153.6369999999999
 21
171.6999999999999
 31
0.0
  0
LINE
  5
105
330
1E
100
AcDbEntity
  8
0
100
AcDbLine
 10
153.6369999999999
 20
171.6999999999999
 30
0.0
 11
163.2309999999999
 21
163.339
 31
0.0
  0
LINE
  5
106
330
1E
100
AcDbEntity
  8
0
100
AcDbLine
 10
132.89289780866
 20
183.5155849736699
 30
0.0
 11
133.0
 21
184.25
 31
0.0
  0
LINE
  5
107
330
1E
100
AcDbEntity
  8
0
100
AcDbLine
 10
66.90000000000001
 20
167.8499999999999
 30
0.0
 11
72.2
 21
160.9499999999999
 31
0.0
  0
LINE
  5
108
330
1E
100
AcDbEntity
  8
0
100
AcDbLine
 10
65.44331245191781
 20
171.4461973843279
 30
0.0
 11
66.90000000000001
 21
167.8499999999999
 31
0.0
  0
LINE
  5
109
330
1E
100
AcDbEntity
  8
0
100
AcDbLine
 10
65.59999999999999
 20
167.1499999999999
 30
0.0
 11
71.2
 21
159.9499999999999
 31
0.0
  0
LINE
  5
10A
330
1E
100
AcDbEntity
  8
0
100
AcDbLine
 10
64.035398106249
 20
170.923451626105
 30
0.0
 11
65.59999999999999
 21
167.1499999999999
 31
0.0
  0
LINE
  5
10B
330
1E
100
AcDbEntity
  8
0
100
AcDbLine
 10
69.1
 20
157.85
 30
0.0
 11
76.90000000000001
 21
151.75
 31
0.0
  0
LINE
  5
10C
330
1E
100
AcDbEntity
  8
0
100
AcDbLine
 10
63.0
 20
165.65
 30
0.0
 11
69.1
 21
157.85
 31
0.0
  0
LINE
  5
10D
330
1E
100
AcDbEntity
  8
0
100
AcDbLine
 10
128.8
 20
193.1499999999999
 30
0.0
 11
129.946597485532
 21
184.646068648972
 31
0.0
  0
LINE
  5
10E
330
1E
100
AcDbEntity
  8
0
100
AcDbLine
 10
63.7
 20
192.75
 30
0.0
 11
66.90000000000001
 21
200.6499999999999
 31
0.0
  0
LINE
  5
10F
330
1E
100
AcDbEntity
  8
0
100
AcDbLine
 10
62.63143455497379
 20
185.180994764398
 30
0.0
 11
63.7
 21
192.75
 31
0.0
  0
LINE
  5
110
330
1E
100
AcDbEntity
  8
0
100
AcDbLine
 10
90.0
 20
193.75
 30
0.0
 11
92.70000000000001
 21
194.8499999999999
 31
0.0
  0
LINE
  5
111
330
1E
100
AcDbEntity
  8
0
100
AcDbLine
 10
101.0
 20
193.75
 30
0.0
 11
103.4999999999999
 21
191.8499999999999
 31
0.0
  0
LINE
  5
112
330
1E
100
AcDbEntity
  8
0
100
AcDbLine
 10
131.6
 20
193.8499999999999
 30
0.0
 11
133.0
 21
184.25
 31
0.0
  0
LINE
  5
113
330
1E
100
AcDbEntity
  8
0
100
AcDbLine
 10
62.2
 20
193.1499999999999
 30
0.0
 11
65.59999999999999
 21
201.35
 31
0.0
  0
LINE
  5
114
330
1E
100
AcDbEntity
  8
0
100
AcDbLine
 10
61.0534025144682
 20
184.646068648972
 30
0.0
 11
62.2
 21
193.1499999999999
 31
0.0
  0
LINE
  5
115
330
1E
100
AcDbEntity
  8
0
100
AcDbLine
 10
92.70000000000001
 20
194.8499999999999
 30
0.0
 11
95.5
 21
195.25
 31
0.0
  0
LINE
  5
116
330
1E
100
AcDbEntity
  8
0
100
AcDbLine
 10
98.3
 20
194.8499999999999
 30
0.0
 11
101.0
 21
193.75
 31
0.0
  0
LINE
  5
117
330
1E
100
AcDbEntity
  8
0
100
AcDbLine
 10
95.5
 20
195.25
 30
0.0
 11
98.3
 21
194.8499999999999
 31
0.0
  0
LINE
  5
118
330
1E
100
AcDbEntity
  8
0
100
AcDbLine
 10
124.0999999999999
 20
200.6499999999999
 30
0.0
 11
127.2999999999999
 21
192.75
 31
0.0
  0
LINE
  5
119
330
1E
100
AcDbEntity
  8
0
100
AcDbLine
 10
118.7999999999999
 20
207.55
 30
0.0
 11
124.0999999999999
 21
200.6499999999999
 31
0.0
  0
LINE
  5
11A
330
1E
100
AcDbEntity
  8
0
100
AcDbLine
 10
125.4
 20
201.35
 30
0.0
 11
128.8
 21
193.1499999999999
 31
0.0
  0
LINE
  5
11B
330
1E
100
AcDbEntity
  8
0
100
AcDbLine
 10
128.0
 20
202.85
 30
0.0
 11
131.6
 21
193.8499999999999
 31
0.0
  0
LINE
  5
11C
330
1E
100
AcDbEntity
  8
0
100
AcDbLine
 10
119.7999999999999
 20
208.55
 30
0.0
 11
125.4
 21
201.35
 31
0.0
  0
LINE
  5
11D
330
1E
100
AcDbEntity
  8
0
100
AcDbLine
 10
72.2
 20
207.55
 30
0.0
 11
79.1
 21
212.8499999999999
 31
0.0
  0
LINE
  5
11E
330
1E
100
AcDbEntity
  8
0
100
AcDbLine
 10
66.90000000000001
 20
200.6499999999999
 30
0.0
 11
72.2
 21
207.55
 31
0.0
  0
LINE
  5
11F
330
1E
100
AcDbEntity
  8
0
100
AcDbLine
 10
121.9
 20
210.65
 30
0.0
 11
128.0
 21
202.85
 31
0.0
  0
LINE
  5
120
330
1E
100
AcDbEntity
  8
0
100
AcDbLine
 10
71.2
 20
208.55
 30
0.0
 11
78.4
 21
214.15
 31
0.0
  0
LINE
  5
121
330
1E
100
AcDbEntity
  8
0
100
AcDbLine
 10
65.59999999999999
 20
201.35
 30
0.0
 11
71.2
 21
208.55
 31
0.0
  0
LINE
  5
122
330
1E
100
AcDbEntity
  8
0
100
AcDbLine
 10
104.0
 20
216.05
 30
0.0
 11
111.8999999999999
 21
212.8499999999999
 31
0.0
  0
LINE
  5
123
330
1E
100
AcDbEntity
  8
0
100
AcDbLine
 10
111.8999999999999
 20
212.8499999999999
 30
0.0
 11
118.7999999999999
 21
207.55
 31
0.0
  0
LINE
  5
124
330
1E
100
AcDbEntity
  8
0
100
AcDbLine
 10
112.5999999999999
 20
214.15
 30
0.0
 11
119.7999999999999
 21
208.55
 31
0.0
  0
LINE
  5
125
330
1E
100
AcDbEntity
  8
0
100
AcDbLine
 10
95.5
 20
217.2499999999999
 30
0.0
 11
104.0
 21
216.05
 31
0.0
  0
LINE
  5
126
330
1E
100
AcDbEntity
  8
0
100
AcDbLine
 10
104.4
 20
217.5499999999999
 30
0.0
 11
112.5999999999999
 21
214.15
 31
0.0
  0
LINE
  5
127
330
1E
100
AcDbEntity
  8
0
100
AcDbLine
 10
114.1
 20
216.7499999999999
 30
0.0
 11
121.9
 21
210.65
 31
0.0
  0
LINE
  5
128
330
1E
100
AcDbEntity
  8
0
100
AcDbLine
 10
87.0
 20
216.05
 30
0.0
 11
95.5
 21
217.2499999999999
 31
0.0
  0
LINE
  5
129
330
1E
100
AcDbEntity
  8
0
100
AcDbLine
 10
79.1
 20
212.8499999999999
 30
0.0
 11
87.0
 21
216.05
 31
0.0
  0
LINE
  5
12A
330
1E
100
AcDbEntity
  8
0
100
AcDbLine
 10
95.5
 20
218.75
 30
0.0
 11
104.4
 21
217.5499999999999
 31
0.0
  0
LINE
  5
12B
330
1E
100
AcDbEntity
  8
0
100
AcDbLine
 10
105.0999999999999
 20
220.35
 30
0.0
 11
114.1
 21
216.7499999999999
 31
0.0
  0
LINE
  5
12C
330
1E
100
AcDbEntity
  8
0
100
AcDbLine
 10
86.6
 20
217.5499999999999
 30
0.0
 11
95.5
 21
218.75
 31
0.0
  0
LINE
  5
12D
330
1E
100
AcDbEntity
  8
0
100
AcDbLine
 10
78.4
 20
214.15
 30
0.0
 11
86.6
 21
217.5499999999999
 31
0.0
  0
LINE
  5
12E
330
1E
100
AcDbEntity
  8
0
100
AcDbLine
 10
95.5
 20
221.75
 30
0.0
 11
105.0999999999999
 21
220.35
 31
0.0
  0
LINE
  5
12F
330
1E
100
AcDbEntity
  8
0
100
AcDbLine
 10
85.90000000000001
 20
220.35
 30
0.0
 11
95.5
 21
221.75
 31
0.0
  0
LINE
  5
130
330
1E
100
AcDbEntity
  8
0
100
AcDbLine
 10
76.90000000000001
 20
216.7499999999999
 30
0.0
 11
85.90000000000001
 21
220.35
 31
0.0
  0
LINE
  5
131
330
1E
100
AcDbEntity
  8
0
100
AcDbLine
 10
69.1
 20
210.65
 30
0.0
 11
76.90000000000001
 21
216.7499999999999
 31
0.0
  0
LINE
  5
132
330
1E
100
AcDbEntity
  8
0
100
AcDbLine
 10
63.0
 20
202.85
 30
0.0
 11
69.1
 21
210.65
 31
0.0
  0
LINE
  5
133
330
1E
100
AcDbEntity
  8
0
100
AcDbLine
 10
59.4
 20
193.8499999999999
 30
0.0
 11
63.0
 21
202.85
 31
0.0
  0
LINE
  5
134
330
1E
100
AcDbEntity
  8
0
100
AcDbLine
 10
58.0
 20
184.25
 30
0.0
 11
59.4
 21
193.8499999999999
 31
0.0
  0
LINE
  5
135
330
1E
100
AcDbEntity
  8
0
100
AcDbLine
 10
58.0
 20
184.25
 30
0.0
 11
58.10710324732079
 21
183.515577732657
 31
0.0
  0
ENDSEC
  0
SECTION
  2
OBJECTS
  0
DICTIONARY
  5
C
330
0
100
AcDbDictionary
281
     1
  3
ACAD_GROUP
350
D
  3
ACAD_LAYOUT
350
19
  3
ACAD_MLINESTYLE
350
16
  3
ACAD_PLOTSETTINGS
350
18
  3
ACAD_PLOTSTYLENAME
350
E
  3
AcDbVariableDictionary
350
13A
  0
DICTIONARY
  5
D
102
{ACAD_REACTORS
330
C
102
}
330
C
100
AcDbDictionary
281
     1
  0
DICTIONARY
  5
19
102
{ACAD_REACTORS
330
C
102
}
330
C
100
AcDbDictionary
281
     1
  3
Layout1
350
1D
  3
Model
350
21
  0
DICTIONARY
  5
16
102
{ACAD_REACTORS
330
C
102
}
330
C
100
AcDbDictionary
281
     1
  3
Standard
350
17
  0
DICTIONARY
  5
18
102
{ACAD_REACTORS
330
C
102
}
330
C
100
AcDbDictionary
281
     1
  0
ACDBDICTIONARYWDFLT
  5
E
102
{ACAD_REACTORS
330
C
102
}
330
C
100
AcDbDictionary
281
     1
  3
Normal
350
F
100
AcDbDictionaryWithDefault
340
F
  0
DICTIONARY
  5
13A
102
{ACAD_REACTORS
330
C
102
}
330
C
100
AcDbDictionary
281
     1
  3
DIMASSOC
350
13B
  0
LAYOUT
  5
1D
102
{ACAD_REACTORS
330
19
102
}
330
19
100
AcDbPlotSettings
  1

  2
hp deskjet 980c series
  4

  6

 40
0.0
 41
0.0
 42
0.0
 43
0.0
 44
0.0
 45
0.0
 46
0.0
 47
0.0
 48
0.0
 49
0.0
140
0.0
141
0.0
142
1.0
143
1.0
 70
   688
 72
     0
 73
     0
 74
     5
  7

 75
    16
147
1.0
148
0.0
149
0.0
100
AcDbLayout
  1
Layout1
 70
     1
 71
     1
 10
0.0
 20
0.0
 11
12.0
 21
9.0
 12
0.0
 22
0.0
 32
0.0
 14
1.000000000000000E+20
 24
1.000000000000000E+20
 34
1.000000000000000E+20
 15
-1.000000000000000E+20
 25
-1.000000000000000E+20
 35
-1.000000000000000E+20
146
0.0
 13
0.0
 23
0.0
 33
0.0
 16
1.0
 26
0.0
 36
0.0
 17
0.0
 27
1.0
 37
0.0
 76
     0
330
1A
  0
LAYOUT
  5
21
102
{ACAD_REACTORS
330
19
102
}
330
19
100
AcDbPlotSettings
  1

  2
hp deskjet 980c series
  4

  6

 40
0.0
 41
0.0
 42
0.0
 43
0.0
 44
0.0
 45
0.0
 46
0.0
 47
0.0
 48
0.0
 49
0.0
140
0.0
141
0.0
142
1.0
143
1.0
 70
  1712
 72
     0
 73
     0
 74
     0
  7

 75
     0
147
1.0
148
0.0
149
0.0
100
AcDbLayout
  1
Model
 70
     1
 71
     0
 10
0.0
 20
0.0
 11
12.0
 21
9.0
 12
0.0
 22
0.0
 32
0.0
 14
0.0
 24
0.0
 34
0.0
 15
0.0
 25
0.0
 35
0.0
146
0.0
 13
0.0
 23
0.0
 33
0.0
 16
1.0
 26
0.0
 36
0.0
 17
0.0
 27
1.0
 37
0.0
 76
     0
330
1E
  0
MLINESTYLE
  5
17
102
{ACAD_REACTORS
330
16
102
}
330
16
100
AcDbMlineStyle
  2
STANDARD
 70
     0
  3

 62
   256
 51
90.0
 52
90.0
 71
     2
 49
0.5
 62
   256
  6
BYLAYER
 49
-0.5
 62
   256
  6
BYLAYER
  0
ACDBPLACEHOLDER
  5
F
102
{ACAD_REACTORS
330
E
102
}
330
E
  0
DICTIONARYVAR
  5
13B
102
{ACAD_REACTORS
330
13A
102
}
330
13A
100
DictionaryVariables
280
     0
  1
1
  0
ENDSEC
  0
EOF
