  0
SECTION
  2
HEADER
  9
$ACADVER
  1
AC1015
  9
$ACADMAINTVER
 70
    13
  9
$DWGCODEPAGE
  3
ANSI_1252
  9
$INSBASE
 10
0.0
 20
0.0
 30
0.0
  9
$EXTMIN
 10
-0.0000000000000274
 20
-0.000000000000005
 30
0.0
  9
$EXTMAX
 10
865.0
 20
65.0
 30
0.0
  9
$LIMMIN
 10
0.0
 20
0.0
  9
$LIMMAX
 10
12.0
 20
9.0
  9
$ORTHOMODE
 70
     0
  9
$REGENMODE
 70
     1
  9
$FILLMODE
 70
     1
  9
$QTEXTMODE
 70
     0
  9
$MIRRTEXT
 70
     1
  9
$LTSCALE
 40
1.0
  9
$ATTMODE
 70
     1
  9
$TEXTSIZE
 40
0.2
  9
$TRACEWID
 40
0.05
  9
$TEXTSTYLE
  7
Standard
  9
$CLAYER
  8
0
  9
$CELTYPE
  6
Continuous
  9
$CECOLOR
 62
   256
  9
$CELTSCALE
 40
1.0
  9
$DISPSILH
 70
     0
  9
$DIMSCALE
 40
1.0
  9
$DIMASZ
 40
0.18
  9
$DIMEXO
 40
0.0625
  9
$DIMDLI
 40
0.38
  9
$DIMRND
 40
0.0
  9
$DIMDLE
 40
0.0
  9
$DIMEXE
 40
0.18
  9
$DIMTP
 40
0.0
  9
$DIMTM
 40
0.0
  9
$DIMTXT
 40
0.18
  9
$DIMCEN
 40
0.09
  9
$DIMTSZ
 40
0.0
  9
$DIMTOL
 70
     0
  9
$DIMLIM
 70
     0
  9
$DIMTIH
 70
     1
  9
$DIMTOH
 70
     1
  9
$DIMSE1
 70
     0
  9
$DIMSE2
 70
     0
  9
$DIMTAD
 70
     0
  9
$DIMZIN
 70
     0
  9
$DIMBLK
  1

  9
$DIMASO
 70
     1
  9
$DIMSHO
 70
     1
  9
$DIMPOST
  1

  9
$DIMAPOST
  1

  9
$DIMALT
 70
     0
  9
$DIMALTD
 70
     2
  9
$DIMALTF
 40
25.4
  9
$DIMLFAC
 40
1.0
  9
$DIMTOFL
 70
     0
  9
$DIMTVP
 40
0.0
  9
$DIMTIX
 70
     0
  9
$DIMSOXD
 70
     0
  9
$DIMSAH
 70
     0
  9
$DIMBLK1
  1

  9
$DIMBLK2
  1

  9
$DIMSTYLE
  2
Standard
  9
$DIMCLRD
 70
     0
  9
$DIMCLRE
 70
     0
  9
$DIMCLRT
 70
     0
  9
$DIMTFAC
 40
1.0
  9
$DIMGAP
 40
0.09
  9
$DIMJUST
 70
     0
  9
$DIMSD1
 70
     0
  9
$DIMSD2
 70
     0
  9
$DIMTOLJ
 70
     1
  9
$DIMTZIN
 70
     0
  9
$DIMALTZ
 70
     0
  9
$DIMALTTZ
 70
     0
  9
$DIMUPT
 70
     0
  9
$DIMDEC
 70
     4
  9
$DIMTDEC
 70
     4
  9
$DIMALTU
 70
     2
  9
$DIMALTTD
 70
     2
  9
$DIMTXSTY
  7
Standard
  9
$DIMAUNIT
 70
     0
  9
$DIMADEC
 70
     0
  9
$DIMALTRND
 40
0.0
  9
$DIMAZIN
 70
     0
  9
$DIMDSEP
 70
    46
  9
$DIMATFIT
 70
     3
  9
$DIMFRAC
 70
     0
  9
$DIMLDRBLK
  1

  9
$DIMLUNIT
 70
     2
  9
$DIMLWD
 70
    -2
  9
$DIMLWE
 70
    -2
  9
$DIMTMOVE
 70
     0
  9
$LUNITS
 70
     2
  9
$LUPREC
 70
     4
  9
$SKETCHINC
 40
0.1
  9
$FILLETRAD
 40
0.0
  9
$AUNITS
 70
     0
  9
$AUPREC
 70
     0
  9
$MENU
  1
.
  9
$ELEVATION
 40
0.0
  9
$PELEVATION
 40
0.0
  9
$THICKNESS
 40
0.0
  9
$LIMCHECK
 70
     0
  9
$CHAMFERA
 40
0.0
  9
$CHAMFERB
 40
0.0
  9
$CHAMFERC
 40
0.0
  9
$CHAMFERD
 40
0.0
  9
$SKPOLY
 70
     0
  9
$TDCREATE
 40
2454752.488630636
  9
$TDUCREATE
 40
2454752.405297303
  9
$TDUPDATE
 40
2454752.491305150
  9
$TDUUPDATE
 40
2454752.407971817
  9
$TDINDWG
 40
0.0026745139
  9
$TDUSRTIMER
 40
0.0026745139
  9
$USRTIMER
 70
     1
  9
$ANGBASE
 50
0.0
  9
$ANGDIR
 70
     0
  9
$PDMODE
 70
     0
  9
$PDSIZE
 40
0.0
  9
$PLINEWID
 40
0.0
  9
$SPLFRAME
 70
     0
  9
$SPLINETYPE
 70
     6
  9
$SPLINESEGS
 70
     8
  9
$HANDSEED
  5
1A3
  9
$SURFTAB1
 70
     6
  9
$SURFTAB2
 70
     6
  9
$SURFTYPE
 70
     6
  9
$SURFU
 70
     6
  9
$SURFV
 70
     6
  9
$UCSBASE
  2

  9
$UCSNAME
  2

  9
$UCSORG
 10
0.0
 20
0.0
 30
0.0
  9
$UCSXDIR
 10
1.0
 20
0.0
 30
0.0
  9
$UCSYDIR
 10
0.0
 20
1.0
 30
0.0
  9
$UCSORTHOREF
  2

  9
$UCSORTHOVIEW
 70
     1
  9
$UCSORGTOP
 10
0.0
 20
0.0
 30
0.0
  9
$UCSORGBOTTOM
 10
0.0
 20
0.0
 30
0.0
  9
$UCSORGLEFT
 10
0.0
 20
0.0
 30
0.0
  9
$UCSORGRIGHT
 10
0.0
 20
0.0
 30
0.0
  9
$UCSORGFRONT
 10
0.0
 20
0.0
 30
0.0
  9
$UCSORGBACK
 10
0.0
 20
0.0
 30
0.0
  9
$PUCSBASE
  2

  9
$PUCSNAME
  2

  9
$PUCSORG
 10
0.0
 20
0.0
 30
0.0
  9
$PUCSXDIR
 10
1.0
 20
0.0
 30
0.0
  9
$PUCSYDIR
 10
0.0
 20
1.0
 30
0.0
  9
$PUCSORTHOREF
  2

  9
$PUCSORTHOVIEW
 70
     0
  9
$PUCSORGTOP
 10
0.0
 20
0.0
 30
0.0
  9
$PUCSORGBOTTOM
 10
0.0
 20
0.0
 30
0.0
  9
$PUCSORGLEFT
 10
0.0
 20
0.0
 30
0.0
  9
$PUCSORGRIGHT
 10
0.0
 20
0.0
 30
0.0
  9
$PUCSORGFRONT
 10
0.0
 20
0.0
 30
0.0
  9
$PUCSORGBACK
 10
0.0
 20
0.0
 30
0.0
  9
$USERI1
 70
     0
  9
$USERI2
 70
     0
  9
$USERI3
 70
     0
  9
$USERI4
 70
     0
  9
$USERI5
 70
     0
  9
$USERR1
 40
0.0
  9
$USERR2
 40
0.0
  9
$USERR3
 40
0.0
  9
$USERR4
 40
0.0
  9
$USERR5
 40
0.0
  9
$WORLDVIEW
 70
     1
  9
$SHADEDGE
 70
     3
  9
$SHADEDIF
 70
    70
  9
$TILEMODE
 70
     1
  9
$MAXACTVP
 70
    64
  9
$PINSBASE
 10
0.0
 20
0.0
 30
0.0
  9
$PLIMCHECK
 70
     0
  9
$PEXTMIN
 10
1.000000000000000E+20
 20
1.000000000000000E+20
 30
1.000000000000000E+20
  9
$PEXTMAX
 10
-1.000000000000000E+20
 20
-1.000000000000000E+20
 30
-1.000000000000000E+20
  9
$PLIMMIN
 10
0.0
 20
0.0
  9
$PLIMMAX
 10
12.0
 20
9.0
  9
$UNITMODE
 70
     0
  9
$VISRETAIN
 70
     1
  9
$PLINEGEN
 70
     0
  9
$PSLTSCALE
 70
     1
  9
$TREEDEPTH
 70
  3020
  9
$CMLSTYLE
  2
Standard
  9
$CMLJUST
 70
     0
  9
$CMLSCALE
 40
1.0
  9
$PROXYGRAPHICS
 70
     1
  9
$MEASUREMENT
 70
     0
  9
$CELWEIGHT
370
    -1
  9
$ENDCAPS
280
     0
  9
$JOINSTYLE
280
     0
  9
$LWDISPLAY
290
     0
  9
$INSUNITS
 70
     0
  9
$HYPERLINKBASE
  1

  9
$STYLESHEET
  1

  9
$XEDIT
290
     1
  9
$CEPSNTYPE
380
     0
  9
$PSTYLEMODE
290
     1
  9
$FINGERPRINTGUID
  2
{A4A15F58-ED71-40CF-957C-531EE4474D0A}
  9
$VERSIONGUID
  2
{AF2F3EED-44BF-4A95-A3EA-C503B91B0686}
  9
$EXTNAMES
290
     1
  9
$PSVPSCALE
 40
0.0
  9
$OLESTARTUP
290
     0
  0
ENDSEC
  0
SECTION
  2
CLASSES
  0
CLASS
  1
ACDBDICTIONARYWDFLT
  2
AcDbDictionaryWithDefault
  3
AutoCAD 2000
 90
        0
280
     0
281
     0
  0
CLASS
  1
ACDBPLACEHOLDER
  2
AcDbPlaceHolder
  3
AutoCAD 2000
 90
        0
280
     0
281
     0
  0
CLASS
  1
LAYOUT
  2
AcDbLayout
  3
AutoCAD 2000
 90
        0
280
     0
281
     0
  0
CLASS
  1
DICTIONARYVAR
  2
AcDbDictionaryVar
  3
AutoCAD 2000
 90
        0
280
     0
281
     0
  0
ENDSEC
  0
SECTION
  2
TABLES
  0
TABLE
  2
VPORT
  5
8
330
0
100
AcDbSymbolTable
 70
     2
  0
VPORT
  5
1A2
330
8
100
AcDbSymbolTableRecord
100
AcDbViewportTableRecord
  2
*Active
 70
     0
 10
0.0
 20
0.0
 11
1.0
 21
1.0
 12
432.5
 22
32.49999999999999
 13
0.0
 23
0.0
 14
1.0
 24
1.0
 15
0.0
 25
0.0
 16
0.0
 26
0.0
 36
1.0
 17
0.0
 27
0.0
 37
0.0
 40
417.7824582889437
 41
2.078104993597951
 42
50.0
 43
0.0
 44
0.0
 50
0.0
 51
0.0
 71
     0
 72
   100
 73
     1
 74
     3
 75
     0
 76
     0
 77
     0
 78
     0
281
     0
 65
     1
110
0.0
120
0.0
130
0.0
111
1.0
121
0.0
131
0.0
112
0.0
122
1.0
132
0.0
 79
     1
146
0.0
  0
ENDTAB
  0
TABLE
  2
LTYPE
  5
5
330
0
100
AcDbSymbolTable
 70
     1
  0
LTYPE
  5
13
330
5
100
AcDbSymbolTableRecord
100
AcDbLinetypeTableRecord
  2
ByBlock
 70
     0
  3

 72
    65
 73
     0
 40
0.0
  0
LTYPE
  5
14
330
5
100
AcDbSymbolTableRecord
100
AcDbLinetypeTableRecord
  2
ByLayer
 70
     0
  3

 72
    65
 73
     0
 40
0.0
  0
LTYPE
  5
15
330
5
100
AcDbSymbolTableRecord
100
AcDbLinetypeTableRecord
  2
Continuous
 70
     0
  3
Solid line
 72
    65
 73
     0
 40
0.0
  0
ENDTAB
  0
TABLE
  2
LAYER
  5
2
330
0
100
AcDbSymbolTable
 70
     1
  0
LAYER
  5
10
330
2
100
AcDbSymbolTableRecord
100
AcDbLayerTableRecord
  2
0
 70
     0
 62
     7
  6
Continuous
370
    -3
390
F
  0
ENDTAB
  0
TABLE
  2
STYLE
  5
3
330
0
100
AcDbSymbolTable
 70
     1
  0
STYLE
  5
11
330
3
100
AcDbSymbolTableRecord
100
AcDbTextStyleTableRecord
  2
Standard
 70
     0
 40
0.0
 41
1.0
 50
0.0
 71
     0
 42
0.2
  3
txt
  4

  0
ENDTAB
  0
TABLE
  2
VIEW
  5
6
330
0
100
AcDbSymbolTable
 70
     0
  0
ENDTAB
  0
TABLE
  2
UCS
  5
7
330
0
100
AcDbSymbolTable
 70
     0
  0
ENDTAB
  0
TABLE
  2
APPID
  5
9
330
0
100
AcDbSymbolTable
 70
     1
  0
APPID
  5
12
330
9
100
AcDbSymbolTableRecord
100
AcDbRegAppTableRecord
  2
ACAD
 70
     0
  0
ENDTAB
  0
TABLE
  2
DIMSTYLE
  5
A
330
0
100
AcDbSymbolTable
 70
     1
100
AcDbDimStyleTable
 71
     0
  0
DIMSTYLE
105
19A
330
A
100
AcDbSymbolTableRecord
100
AcDbDimStyleTableRecord
  2
Standard
 70
     0
340
11
  0
ENDTAB
  0
TABLE
  2
BLOCK_RECORD
  5
1
330
0
100
AcDbSymbolTable
 70
     0
  0
BLOCK_RECORD
  5
1E
330
1
100
AcDbSymbolTableRecord
100
AcDbBlockTableRecord
  2
*Model_Space
340
21
  0
BLOCK_RECORD
  5
1A
330
1
100
AcDbSymbolTableRecord
100
AcDbBlockTableRecord
  2
*Paper_Space
340
1D
  0
ENDTAB
  0
ENDSEC
  0
SECTION
  2
BLOCKS
  0
BLOCK
  5
1F
330
1E
100
AcDbEntity
  8
0
100
AcDbBlockBegin
  2
*Model_Space
 70
     0
 10
0.0
 20
0.0
 30
0.0
  3
*Model_Space
  1

  0
ENDBLK
  5
20
330
1E
100
AcDbEntity
  8
0
100
AcDbBlockEnd
  0
BLOCK
  5
1B
330
1A
100
AcDbEntity
 67
     1
  8
0
100
AcDbBlockBegin
  2
*Paper_Space
 70
     0
 10
0.0
 20
0.0
 30
0.0
  3
*Paper_Space
  1

  0
ENDBLK
  5
1C
330
1A
100
AcDbEntity
 67
     1
  8
0
100
AcDbBlockEnd
  0
ENDSEC
  0
SECTION
  2
ENTITIES
  0
LINE
  5
22
330
1E
100
AcDbEntity
  8
0
100
AcDbLine
 10
-0.0000000000000273
 20
32.5
 30
0.0
 11
1.169999999999969
 21
40.81999999999999
 31
0.0
  0
LINE
  5
23
330
1E
100
AcDbEntity
  8
0
100
AcDbLine
 10
-0.0000000000000273
 20
32.5
 30
0.0
 11
1.169999999999969
 21
24.18
 31
0.0
  0
LINE
  5
24
330
1E
100
AcDbEntity
  8
0
100
AcDbLine
 10
-0.0000000000000274
 20
32.5
 30
0.0
 11
1.169999999999969
 21
40.81999999999999
 31
0.0
  0
LINE
  5
25
330
1E
100
AcDbEntity
  8
0
100
AcDbLine
 10
-0.0000000000000274
 20
32.5
 30
0.0
 11
1.169999999999969
 21
24.18
 31
0.0
  0
LINE
  5
26
330
1E
100
AcDbEntity
  8
0
100
AcDbLine
 10
4.289999999999969
 20
16.37999999999999
 30
0.0
 11
9.48999999999997
 21
9.49
 31
0.0
  0
LINE
  5
27
330
1E
100
AcDbEntity
  8
0
100
AcDbLine
 10
1.169999999999969
 20
24.18
 30
0.0
 11
4.289999999999969
 21
16.37999999999999
 31
0.0
  0
LINE
  5
28
330
1E
100
AcDbEntity
  8
0
100
AcDbLine
 10
24.18
 20
1.169999999999999
 30
0.0
 11
32.5
 21
-0.000000000000005
 31
0.0
  0
LINE
  5
29
330
1E
100
AcDbEntity
  8
0
100
AcDbLine
 10
24.18
 20
1.169999999999999
 30
0.0
 11
32.5
 21
-0.0000000000000049
 31
0.0
  0
LINE
  5
2A
330
1E
100
AcDbEntity
  8
0
100
AcDbLine
 10
16.37999999999999
 20
4.29
 30
0.0
 11
24.18
 21
1.169999999999999
 31
0.0
  0
LINE
  5
2B
330
1E
100
AcDbEntity
  8
0
100
AcDbLine
 10
16.37999999999999
 20
4.29
 30
0.0
 11
24.18
 21
1.169999999999999
 31
0.0
  0
LINE
  5
2C
330
1E
100
AcDbEntity
  8
0
100
AcDbLine
 10
16.37999999999999
 20
4.29
 30
0.0
 11
24.18
 21
1.169999999999999
 31
0.0
  0
LINE
  5
2D
330
1E
100
AcDbEntity
  8
0
100
AcDbLine
 10
9.48999999999997
 20
9.49
 30
0.0
 11
16.37999999999999
 21
4.29
 31
0.0
  0
LINE
  5
2E
330
1E
100
AcDbEntity
  8
0
100
AcDbLine
 10
15.4662
 20
15.4662
 30
0.0
 11
20.4877
 21
11.6262
 31
0.0
  0
LINE
  5
2F
330
1E
100
AcDbEntity
  8
0
100
AcDbLine
 10
20.4877
 20
11.6262
 30
0.0
 11
26.2969
 21
9.26308
 31
0.0
  0
LINE
  5
30
330
1E
100
AcDbEntity
  8
0
100
AcDbLine
 10
13.79229999999999
 20
13.79229999999999
 30
0.0
 11
19.3062
 21
9.46
 31
0.0
  0
LINE
  5
31
330
1E
100
AcDbEntity
  8
0
100
AcDbLine
 10
19.3062
 20
9.46
 30
0.0
 11
25.70619999999999
 21
6.9
 31
0.0
  0
LINE
  5
32
330
1E
100
AcDbEntity
  8
0
100
AcDbLine
 10
9.853849999999969
 20
9.853849999999999
 30
0.0
 11
16.54919999999999
 21
4.832309999999999
 31
0.0
  0
LINE
  5
33
330
1E
100
AcDbEntity
  8
0
100
AcDbLine
 10
16.54919999999999
 20
4.832309999999999
 30
0.0
 11
24.22919999999999
 21
1.681539999999989
 31
0.0
  0
LINE
  5
34
330
1E
100
AcDbEntity
  8
0
100
AcDbLine
 10
32.5
 20
-0.000000000000005
 30
0.0
 11
40.81999999999999
 21
1.169999999999999
 31
0.0
  0
LINE
  5
35
330
1E
100
AcDbEntity
  8
0
100
AcDbLine
 10
32.5
 20
-0.000000000000005
 30
0.0
 11
40.81999999999999
 21
1.169999999999999
 31
0.0
  0
LINE
  5
36
330
1E
100
AcDbEntity
  8
0
100
AcDbLine
 10
32.5
 20
-0.000000000000005
 30
0.0
 11
40.81999999999999
 21
1.169999999999999
 31
0.0
  0
LINE
  5
37
330
1E
100
AcDbEntity
  8
0
100
AcDbLine
 10
32.5
 20
-0.0000000000000049
 30
0.0
 11
40.81999999999999
 21
1.169999999999999
 31
0.0
  0
LINE
  5
38
330
1E
100
AcDbEntity
  8
0
100
AcDbLine
 10
32.5
 20
5.915379999999999
 30
0.0
 11
39.2938
 21
6.9
 31
0.0
  0
LINE
  5
39
330
1E
100
AcDbEntity
  8
0
100
AcDbLine
 10
824.1799999999999
 20
1.169999999999999
 30
0.0
 11
832.4999999999999
 21
-0.000000000000005
 31
0.0
  0
LINE
  5
3A
330
1E
100
AcDbEntity
  8
0
100
AcDbLine
 10
824.1799999999999
 20
1.169999999999999
 30
0.0
 11
832.4999999999999
 21
-0.0000000000000049
 31
0.0
  0
LINE
  5
3B
330
1E
100
AcDbEntity
  8
0
100
AcDbLine
 10
40.81999999999999
 20
1.169999999999999
 30
0.0
 11
48.62
 21
4.29
 31
0.0
  0
LINE
  5
3C
330
1E
100
AcDbEntity
  8
0
100
AcDbLine
 10
40.81999999999999
 20
1.169999999999999
 30
0.0
 11
48.62
 21
4.29
 31
0.0
  0
LINE
  5
3D
330
1E
100
AcDbEntity
  8
0
100
AcDbLine
 10
832.4999999999999
 20
-0.000000000000005
 30
0.0
 11
840.82
 21
1.169999999999999
 31
0.0
  0
LINE
  5
3E
330
1E
100
AcDbEntity
  8
0
100
AcDbLine
 10
832.4999999999999
 20
-0.000000000000005
 30
0.0
 11
840.82
 21
1.169999999999999
 31
0.0
  0
LINE
  5
3F
330
1E
100
AcDbEntity
  8
0
100
AcDbLine
 10
832.4999999999999
 20
-0.000000000000005
 30
0.0
 11
840.82
 21
1.169999999999999
 31
0.0
  0
LINE
  5
40
330
1E
100
AcDbEntity
  8
0
100
AcDbLine
 10
832.4999999999999
 20
-0.0000000000000049
 30
0.0
 11
840.82
 21
1.169999999999999
 31
0.0
  0
LINE
  5
41
330
1E
100
AcDbEntity
  8
0
100
AcDbLine
 10
840.82
 20
1.169999999999999
 30
0.0
 11
848.62
 21
4.29
 31
0.0
  0
LINE
  5
42
330
1E
100
AcDbEntity
  8
0
100
AcDbLine
 10
840.82
 20
1.169999999999999
 30
0.0
 11
848.62
 21
4.29
 31
0.0
  0
LINE
  5
43
330
1E
100
AcDbEntity
  8
0
100
AcDbLine
 10
840.82
 20
1.169999999999999
 30
0.0
 11
848.62
 21
4.29
 31
0.0
  0
LINE
  5
44
330
1E
100
AcDbEntity
  8
0
100
AcDbLine
 10
840.7710000000001
 20
1.68154
 30
0.0
 11
848.451
 21
4.832309999999999
 31
0.0
  0
LINE
  5
45
330
1E
100
AcDbEntity
  8
0
100
AcDbLine
 10
832.4999999999999
 20
0.4999999999999951
 30
0.0
 11
840.7710000000001
 21
1.68154
 31
0.0
  0
LINE
  5
46
330
1E
100
AcDbEntity
  8
0
100
AcDbLine
 10
824.2289999999998
 20
1.68154
 30
0.0
 11
832.4999999999999
 21
0.4999999999999951
 31
0.0
  0
LINE
  5
47
330
1E
100
AcDbEntity
  8
0
100
AcDbLine
 10
39.2938
 20
6.9
 30
0.0
 11
45.6938
 21
9.46
 31
0.0
  0
LINE
  5
48
330
1E
100
AcDbEntity
  8
0
100
AcDbLine
 10
816.38
 20
4.29
 30
0.0
 11
824.1799999999999
 21
1.169999999999999
 31
0.0
  0
LINE
  5
49
330
1E
100
AcDbEntity
  8
0
100
AcDbLine
 10
816.38
 20
4.29
 30
0.0
 11
824.1799999999999
 21
1.169999999999999
 31
0.0
  0
LINE
  5
4A
330
1E
100
AcDbEntity
  8
0
100
AcDbLine
 10
816.38
 20
4.29
 30
0.0
 11
824.1799999999999
 21
1.169999999999999
 31
0.0
  0
LINE
  5
4B
330
1E
100
AcDbEntity
  8
0
100
AcDbLine
 10
48.62
 20
4.29
 30
0.0
 11
55.51
 21
9.49
 31
0.0
  0
LINE
  5
4C
330
1E
100
AcDbEntity
  8
0
100
AcDbLine
 10
848.62
 20
4.29
 30
0.0
 11
855.5099999999999
 21
9.49
 31
0.0
  0
LINE
  5
4D
330
1E
100
AcDbEntity
  8
0
100
AcDbLine
 10
848.451
 20
4.832309999999999
 30
0.0
 11
855.146
 21
9.853849999999999
 31
0.0
  0
LINE
  5
4E
330
1E
100
AcDbEntity
  8
0
100
AcDbLine
 10
839.2939999999999
 20
6.9
 30
0.0
 11
845.6939999999999
 21
9.46
 31
0.0
  0
LINE
  5
4F
330
1E
100
AcDbEntity
  8
0
100
AcDbLine
 10
832.4999999999999
 20
5.915379999999999
 30
0.0
 11
839.2939999999999
 21
6.9
 31
0.0
  0
LINE
  5
50
330
1E
100
AcDbEntity
  8
0
100
AcDbLine
 10
825.706
 20
6.9
 30
0.0
 11
832.4999999999999
 21
5.915379999999999
 31
0.0
  0
LINE
  5
51
330
1E
100
AcDbEntity
  8
0
100
AcDbLine
 10
816.549
 20
4.832309999999999
 30
0.0
 11
824.2289999999998
 21
1.681539999999989
 31
0.0
  0
LINE
  5
52
330
1E
100
AcDbEntity
  8
0
100
AcDbLine
 10
48.4508
 20
4.832309999999999
 30
0.0
 11
55.1462
 21
9.853849999999999
 31
0.0
  0
LINE
  5
53
330
1E
100
AcDbEntity
  8
0
100
AcDbLine
 10
40.7708
 20
1.68154
 30
0.0
 11
48.4508
 21
4.832309999999999
 31
0.0
  0
LINE
  5
54
330
1E
100
AcDbEntity
  8
0
100
AcDbLine
 10
32.5
 20
0.4999999999999951
 30
0.0
 11
40.7708
 21
1.68154
 31
0.0
  0
LINE
  5
55
330
1E
100
AcDbEntity
  8
0
100
AcDbLine
 10
838.7029999999999
 20
9.26308
 30
0.0
 11
844.5119999999999
 21
11.6262
 31
0.0
  0
LINE
  5
56
330
1E
100
AcDbEntity
  8
0
100
AcDbLine
 10
832.4999999999999
 20
8.37692
 30
0.0
 11
838.7029999999999
 21
9.26308
 31
0.0
  0
LINE
  5
57
330
1E
100
AcDbEntity
  8
0
100
AcDbLine
 10
826.2970000000001
 20
9.26308
 30
0.0
 11
832.4999999999999
 21
8.37692
 31
0.0
  0
LINE
  5
58
330
1E
100
AcDbEntity
  8
0
100
AcDbLine
 10
845.6939999999999
 20
9.46
 30
0.0
 11
851.208
 21
13.79229999999999
 31
0.0
  0
LINE
  5
59
330
1E
100
AcDbEntity
  8
0
100
AcDbLine
 10
819.306
 20
9.46
 30
0.0
 11
825.706
 21
6.9
 31
0.0
  0
LINE
  5
5A
330
1E
100
AcDbEntity
  8
0
100
AcDbLine
 10
38.70309999999999
 20
9.26308
 30
0.0
 11
44.5123
 21
11.6262
 31
0.0
  0
LINE
  5
5B
330
1E
100
AcDbEntity
  8
0
100
AcDbLine
 10
32.5
 20
8.37692
 30
0.0
 11
38.70309999999999
 21
9.26308
 31
0.0
  0
LINE
  5
5C
330
1E
100
AcDbEntity
  8
0
100
AcDbLine
 10
35.7941
 20
18.8256
 30
0.0
 11
38.7588
 21
19.96509999999999
 31
0.0
  0
LINE
  5
5D
330
1E
100
AcDbEntity
  8
0
100
AcDbLine
 10
32.5
 20
18.5
 30
0.0
 11
35.7941
 21
18.8256
 31
0.0
  0
LINE
  5
5E
330
1E
100
AcDbEntity
  8
0
100
AcDbLine
 10
29.2059
 20
18.8256
 30
0.0
 11
32.5
 21
18.5
 31
0.0
  0
LINE
  5
5F
330
1E
100
AcDbEntity
  8
0
100
AcDbLine
 10
49.5338
 20
15.4662
 30
0.0
 11
53.3738
 21
20.4877
 31
0.0
  0
LINE
  5
60
330
1E
100
AcDbEntity
  8
0
100
AcDbLine
 10
51.2077
 20
13.79229999999999
 30
0.0
 11
55.54
 21
19.3062
 31
0.0
  0
LINE
  5
61
330
1E
100
AcDbEntity
  8
0
100
AcDbLine
 10
809.49
 20
9.49
 30
0.0
 11
816.38
 21
4.29
 31
0.0
  0
LINE
  5
62
330
1E
100
AcDbEntity
  8
0
100
AcDbLine
 10
804.2899999999999
 20
16.37999999999999
 30
0.0
 11
809.49
 21
9.49
 31
0.0
  0
LINE
  5
63
330
1E
100
AcDbEntity
  8
0
100
AcDbLine
 10
55.51
 20
9.49
 30
0.0
 11
60.71
 21
16.37999999999999
 31
0.0
  0
LINE
  5
64
330
1E
100
AcDbEntity
  8
0
100
AcDbLine
 10
60.71
 20
16.37999999999999
 30
0.0
 11
63.83
 21
24.18
 31
0.0
  0
LINE
  5
65
330
1E
100
AcDbEntity
  8
0
100
AcDbLine
 10
855.5099999999999
 20
9.49
 30
0.0
 11
860.71
 21
16.37999999999999
 31
0.0
  0
LINE
  5
66
330
1E
100
AcDbEntity
  8
0
100
AcDbLine
 10
855.146
 20
9.853849999999999
 30
0.0
 11
860.1679999999999
 21
16.54919999999999
 31
0.0
  0
LINE
  5
67
330
1E
100
AcDbEntity
  8
0
100
AcDbLine
 10
851.208
 20
13.79229999999999
 30
0.0
 11
855.54
 21
19.3062
 31
0.0
  0
LINE
  5
68
330
1E
100
AcDbEntity
  8
0
100
AcDbLine
 10
844.5119999999999
 20
11.6262
 30
0.0
 11
849.534
 21
15.4662
 31
0.0
  0
LINE
  5
69
330
1E
100
AcDbEntity
  8
0
100
AcDbLine
 10
820.4880000000001
 20
11.6262
 30
0.0
 11
826.2970000000001
 21
9.26308
 31
0.0
  0
LINE
  5
6A
330
1E
100
AcDbEntity
  8
0
100
AcDbLine
 10
860.71
 20
16.37999999999999
 30
0.0
 11
863.83
 21
24.18
 31
0.0
  0
LINE
  5
6B
330
1E
100
AcDbEntity
  8
0
100
AcDbLine
 10
849.534
 20
15.4662
 30
0.0
 11
853.3739999999999
 21
20.4877
 31
0.0
  0
LINE
  5
6C
330
1E
100
AcDbEntity
  8
0
100
AcDbLine
 10
860.1679999999999
 20
16.54919999999999
 30
0.0
 11
863.3179999999999
 21
24.22919999999999
 31
0.0
  0
LINE
  5
6D
330
1E
100
AcDbEntity
  8
0
100
AcDbLine
 10
815.4659999999999
 20
15.4662
 30
0.0
 11
820.4880000000001
 21
11.6262
 31
0.0
  0
LINE
  5
6E
330
1E
100
AcDbEntity
  8
0
100
AcDbLine
 10
813.7919999999999
 20
13.79229999999999
 30
0.0
 11
819.306
 21
9.46
 31
0.0
  0
LINE
  5
6F
330
1E
100
AcDbEntity
  8
0
100
AcDbLine
 10
809.8539999999999
 20
9.853849999999999
 30
0.0
 11
816.549
 21
4.832309999999999
 31
0.0
  0
LINE
  5
70
330
1E
100
AcDbEntity
  8
0
100
AcDbLine
 10
804.832
 20
16.54919999999999
 30
0.0
 11
809.8539999999999
 21
9.853849999999999
 31
0.0
  0
LINE
  5
71
330
1E
100
AcDbEntity
  8
0
100
AcDbLine
 10
55.1462
 20
9.853849999999999
 30
0.0
 11
60.16770000000001
 21
16.54919999999999
 31
0.0
  0
LINE
  5
72
330
1E
100
AcDbEntity
  8
0
100
AcDbLine
 10
835.7939999999999
 20
18.8256
 30
0.0
 11
838.7589999999999
 21
19.96509999999999
 31
0.0
  0
LINE
  5
73
330
1E
100
AcDbEntity
  8
0
100
AcDbLine
 10
832.4999999999999
 20
18.5
 30
0.0
 11
835.7939999999999
 21
18.8256
 31
0.0
  0
LINE
  5
74
330
1E
100
AcDbEntity
  8
0
100
AcDbLine
 10
829.2060000000001
 20
18.8256
 30
0.0
 11
832.4999999999999
 21
18.5
 31
0.0
  0
LINE
  5
75
330
1E
100
AcDbEntity
  8
0
100
AcDbLine
 10
855.54
 20
19.3062
 30
0.0
 11
858.1000000000001
 21
25.70619999999999
 31
0.0
  0
LINE
  5
76
330
1E
100
AcDbEntity
  8
0
100
AcDbLine
 10
809.4599999999999
 20
19.3062
 30
0.0
 11
813.7919999999999
 21
13.79229999999999
 31
0.0
  0
LINE
  5
77
330
1E
100
AcDbEntity
  8
0
100
AcDbLine
 10
55.54
 20
19.3062
 30
0.0
 11
58.01752
 21
25.5
 31
0.0
  0
LINE
  5
78
330
1E
100
AcDbEntity
  8
0
100
AcDbLine
 10
60.16770000000001
 20
16.54919999999999
 30
0.0
 11
63.3185
 21
24.22919999999999
 31
0.0
  0
LINE
  5
79
330
1E
100
AcDbEntity
  8
0
100
AcDbLine
 10
44.5123
 20
11.6262
 30
0.0
 11
49.5338
 21
15.4662
 31
0.0
  0
LINE
  5
7A
330
1E
100
AcDbEntity
  8
0
100
AcDbLine
 10
45.6938
 20
9.46
 30
0.0
 11
51.2077
 21
13.79229999999999
 31
0.0
  0
LINE
  5
7B
330
1E
100
AcDbEntity
  8
0
100
AcDbLine
 10
26.2969
 20
9.26308
 30
0.0
 11
32.5
 21
8.37692
 31
0.0
  0
LINE
  5
7C
330
1E
100
AcDbEntity
  8
0
100
AcDbLine
 10
25.70619999999999
 20
6.9
 30
0.0
 11
32.5
 21
5.915379999999999
 31
0.0
  0
LINE
  5
7D
330
1E
100
AcDbEntity
  8
0
100
AcDbLine
 10
24.22919999999999
 20
1.68154
 30
0.0
 11
32.5
 21
0.4999999999999951
 31
0.0
  0
LINE
  5
7E
330
1E
100
AcDbEntity
  8
0
100
AcDbLine
 10
23.60589999999999
 20
21.9186
 30
0.0
 11
26.2412
 21
19.96509999999999
 31
0.0
  0
LINE
  5
7F
330
1E
100
AcDbEntity
  8
0
100
AcDbLine
 10
26.2412
 20
19.96509999999999
 30
0.0
 11
29.2059
 21
18.8256
 31
0.0
  0
LINE
  5
82
330
1E
100
AcDbEntity
  8
0
100
AcDbLine
 10
41.3941
 20
21.9186
 30
0.0
 11
43.7
 21
24.52329999999999
 31
0.0
  0
LINE
  5
83
330
1E
100
AcDbEntity
  8
0
100
AcDbLine
 10
38.7588
 20
19.96509999999999
 30
0.0
 11
41.3941
 21
21.9186
 31
0.0
  0
LINE
  5
8B
330
1E
100
AcDbEntity
  8
0
100
AcDbLine
 10
801.1699999999999
 20
24.18
 30
0.0
 11
804.2899999999999
 21
16.37999999999999
 31
0.0
  0
LINE
  5
8C
330
1E
100
AcDbEntity
  8
0
100
AcDbLine
 10
63.83
 20
24.18
 30
0.0
 11
64.015625
 21
25.5
 31
0.0
  0
LINE
  5
8D
330
1E
100
AcDbEntity
  8
0
100
AcDbLine
 10
838.7589999999999
 20
19.96509999999999
 30
0.0
 11
841.3939999999998
 21
21.9186
 31
0.0
  0
LINE
  5
95
330
1E
100
AcDbEntity
  8
0
100
AcDbLine
 10
841.3939999999998
 20
21.9186
 30
0.0
 11
843.7000000000001
 21
24.52329999999999
 31
0.0
  0
LINE
  5
98
330
1E
100
AcDbEntity
  8
0
100
AcDbLine
 10
823.6060000000001
 20
21.9186
 30
0.0
 11
826.241
 21
19.96509999999999
 31
0.0
  0
LINE
  5
99
330
1E
100
AcDbEntity
  8
0
100
AcDbLine
 10
826.241
 20
19.96509999999999
 30
0.0
 11
829.2060000000001
 21
18.8256
 31
0.0
  0
LINE
  5
9A
330
1E
100
AcDbEntity
  8
0
100
AcDbLine
 10
863.83
 20
24.18
 30
0.0
 11
865.0
 21
32.5
 31
0.0
  0
LINE
  5
9B
330
1E
100
AcDbEntity
  8
0
100
AcDbLine
 10
853.3739999999999
 20
20.4877
 30
0.0
 11
855.737
 21
26.2969
 31
0.0
  0
LINE
  5
9C
330
1E
100
AcDbEntity
  8
0
100
AcDbLine
 10
863.3179999999999
 20
24.22919999999999
 30
0.0
 11
864.4999999999999
 21
32.5
 31
0.0
  0
LINE
  5
9D
330
1E
100
AcDbEntity
  8
0
100
AcDbLine
 10
811.626
 20
20.4877
 30
0.0
 11
815.4659999999999
 21
15.4662
 31
0.0
  0
LINE
  5
9E
330
1E
100
AcDbEntity
  8
0
100
AcDbLine
 10
801.682
 20
24.22919999999999
 30
0.0
 11
804.832
 21
16.54919999999999
 31
0.0
  0
LINE
  5
9F
330
1E
100
AcDbEntity
  8
0
100
AcDbLine
 10
53.3738
 20
20.4877
 30
0.0
 11
55.4127324054947
 21
25.5
 31
0.0
  0
LINE
  5
A0
330
1E
100
AcDbEntity
  8
0
100
AcDbLine
 10
63.3185
 20
24.22919999999999
 30
0.0
 11
63.5000362721865
 21
25.5
 31
0.0
  0
LINE
  5
A1
330
1E
100
AcDbEntity
  8
0
100
AcDbLine
 10
11.6262
 20
20.4877
 30
0.0
 11
15.4662
 21
15.4662
 31
0.0
  0
LINE
  5
A2
330
1E
100
AcDbEntity
  8
0
100
AcDbLine
 10
9.45999999999997
 20
19.3062
 30
0.0
 11
13.79229999999999
 21
13.79229999999999
 31
0.0
  0
LINE
  5
A3
330
1E
100
AcDbEntity
  8
0
100
AcDbLine
 10
4.832309999999969
 20
16.54919999999999
 30
0.0
 11
9.853849999999969
 21
9.853849999999999
 31
0.0
  0
LINE
  5
A4
330
1E
100
AcDbEntity
  8
0
100
AcDbLine
 10
4.289999999999969
 20
48.62
 30
0.0
 11
9.48999999999997
 21
55.51
 31
0.0
  0
LINE
  5
A5
330
1E
100
AcDbEntity
  8
0
100
AcDbLine
 10
1.169999999999969
 20
40.81999999999999
 30
0.0
 11
4.289999999999969
 21
48.62
 31
0.0
  0
LINE
  5
A6
330
1E
100
AcDbEntity
  8
0
100
AcDbLine
 10
4.832309999999969
 20
48.4508
 30
0.0
 11
9.853849999999969
 21
55.1462
 31
0.0
  0
LINE
  5
A7
330
1E
100
AcDbEntity
  8
0
100
AcDbLine
 10
1.681539999999969
 20
40.7708
 30
0.0
 11
4.832309999999969
 21
48.4508
 31
0.0
  0
LINE
  5
AA
330
1E
100
AcDbEntity
  8
0
100
AcDbLine
 10
21.3
 20
24.52329999999999
 30
0.0
 11
23.60589999999999
 21
21.9186
 31
0.0
  0
LINE
  5
AD
330
1E
100
AcDbEntity
  8
0
100
AcDbLine
 10
843.7000000000001
 20
24.52329999999999
 30
0.0
 11
845.3469999999999
 21
27.7791
 31
0.0
  0
LINE
  5
B1
330
1E
100
AcDbEntity
  8
0
100
AcDbLine
 10
821.2999999999999
 20
24.52329999999999
 30
0.0
 11
823.6060000000001
 21
21.9186
 31
0.0
  0
LINE
  5
B5
330
1E
100
AcDbEntity
  8
0
100
AcDbLine
 10
43.7
 20
24.52329999999999
 30
0.0
 11
44.19597360648999
 21
25.503684231686
 31
0.0
  0
LINE
  5
B7
330
1E
100
AcDbEntity
  8
0
100
AcDbLine
 10
800.9843749999999
 20
25.5
 30
0.0
 11
801.1699999999999
 21
24.18
 31
0.0
  0
LINE
  5
B8
330
1E
100
AcDbEntity
  8
0
100
AcDbLine
 10
44.1941097641132
 20
25.5
 30
0.0
 11
820.805920234658
 21
25.5
 31
0.0
  0
LINE
  5
B9
330
1E
100
AcDbEntity
  8
0
100
AcDbLine
 10
44.19410976411329
 20
25.5
 30
0.0
 11
820.805920234658
 21
25.5
 31
0.0
  0
LINE
  5
BA
330
1E
100
AcDbEntity
  8
0
100
AcDbLine
 10
820.805920234658
 20
25.5
 30
0.0
 11
821.2999999999999
 21
24.52329999999999
 31
0.0
  0
LINE
  5
BB
330
1E
100
AcDbEntity
  8
0
100
AcDbLine
 10
809.5871538766099
 20
25.5
 30
0.0
 11
811.626
 21
20.4877
 31
0.0
  0
LINE
  5
BC
330
1E
100
AcDbEntity
  8
0
100
AcDbLine
 10
858.1000000000001
 20
25.70619999999999
 30
0.0
 11
859.0850000000001
 21
32.5
 31
0.0
  0
LINE
  5
BD
330
1E
100
AcDbEntity
  8
0
100
AcDbLine
 10
806.9824800000001
 20
25.5
 30
0.0
 11
809.4599999999999
 21
19.3062
 31
0.0
  0
LINE
  5
BE
330
1E
100
AcDbEntity
  8
0
100
AcDbLine
 10
801.5003869033231
 20
25.5
 30
0.0
 11
801.682
 21
24.22919999999999
 31
0.0
  0
LINE
  5
C2
330
1E
100
AcDbEntity
  8
0
100
AcDbLine
 10
6.89999999999997
 20
39.2938
 30
0.0
 11
9.45999999999997
 21
45.6938
 31
0.0
  0
LINE
  5
C3
330
1E
100
AcDbEntity
  8
0
100
AcDbLine
 10
855.737
 20
26.2969
 30
0.0
 11
856.623
 21
32.5
 31
0.0
  0
LINE
  5
C4
330
1E
100
AcDbEntity
  8
0
100
AcDbLine
 10
9.26307999999997
 20
38.70309999999999
 30
0.0
 11
11.6262
 21
44.5123
 31
0.0
  0
LINE
  5
C5
330
1E
100
AcDbEntity
  8
0
100
AcDbLine
 10
9.48999999999997
 20
55.51
 30
0.0
 11
16.37999999999999
 21
60.71
 31
0.0
  0
LINE
  5
C6
330
1E
100
AcDbEntity
  8
0
100
AcDbLine
 10
9.45999999999997
 20
45.6938
 30
0.0
 11
13.79229999999999
 21
51.2077
 31
0.0
  0
LINE
  5
C7
330
1E
100
AcDbEntity
  8
0
100
AcDbLine
 10
11.6262
 20
44.5123
 30
0.0
 11
15.4662
 21
49.5338
 31
0.0
  0
LINE
  5
C8
330
1E
100
AcDbEntity
  8
0
100
AcDbLine
 10
18.66469999999999
 20
31.0349
 30
0.0
 11
19.65289999999999
 21
27.7791
 31
0.0
  0
LINE
  5
CB
330
1E
100
AcDbEntity
  8
0
100
AcDbLine
 10
19.65289999999999
 20
27.7791
 30
0.0
 11
21.3
 21
24.52329999999999
 31
0.0
  0
LINE
  5
CC
330
1E
100
AcDbEntity
  8
0
100
AcDbLine
 10
18.5
 20
32.5
 30
0.0
 11
18.66469999999999
 21
33.9651
 31
0.0
  0
LINE
  5
CD
330
1E
100
AcDbEntity
  8
0
100
AcDbLine
 10
18.5
 20
32.5
 30
0.0
 11
18.66469999999999
 21
31.0349
 31
0.0
  0
LINE
  5
D3
330
1E
100
AcDbEntity
  8
0
100
AcDbLine
 10
18.66469999999999
 20
33.9651
 30
0.0
 11
19.65289999999999
 21
37.2209
 31
0.0
  0
LINE
  5
D6
330
1E
100
AcDbEntity
  8
0
100
AcDbLine
 10
19.65289999999999
 20
37.2209
 30
0.0
 11
21.3
 21
40.4767
 31
0.0
  0
LINE
  5
D7
330
1E
100
AcDbEntity
  8
0
100
AcDbLine
 10
21.3
 20
40.4767
 30
0.0
 11
23.60589999999999
 21
43.0814
 31
0.0
  0
LINE
  5
DB
330
1E
100
AcDbEntity
  8
0
100
AcDbLine
 10
23.60589999999999
 20
43.0814
 30
0.0
 11
26.2412
 21
45.0349
 31
0.0
  0
LINE
  5
E0
330
1E
100
AcDbEntity
  8
0
100
AcDbLine
 10
15.4662
 20
49.5338
 30
0.0
 11
20.4877
 21
53.3738
 31
0.0
  0
LINE
  5
E1
330
1E
100
AcDbEntity
  8
0
100
AcDbLine
 10
20.4877
 20
53.3738
 30
0.0
 11
26.2969
 21
55.7369
 31
0.0
  0
LINE
  5
E2
330
1E
100
AcDbEntity
  8
0
100
AcDbLine
 10
13.79229999999999
 20
51.2077
 30
0.0
 11
19.3062
 21
55.54
 31
0.0
  0
LINE
  5
E3
330
1E
100
AcDbEntity
  8
0
100
AcDbLine
 10
19.3062
 20
55.54
 30
0.0
 11
25.70619999999999
 21
58.1
 31
0.0
  0
LINE
  5
E4
330
1E
100
AcDbEntity
  8
0
100
AcDbLine
 10
9.853849999999969
 20
55.1462
 30
0.0
 11
16.54919999999999
 21
60.16770000000001
 31
0.0
  0
LINE
  5
E5
330
1E
100
AcDbEntity
  8
0
100
AcDbLine
 10
24.18
 20
63.83
 30
0.0
 11
32.5
 21
65.0
 31
0.0
  0
LINE
  5
E6
330
1E
100
AcDbEntity
  8
0
100
AcDbLine
 10
16.37999999999999
 20
60.71
 30
0.0
 11
24.18
 21
63.83
 31
0.0
  0
LINE
  5
E7
330
1E
100
AcDbEntity
  8
0
100
AcDbLine
 10
16.54919999999999
 20
60.16770000000001
 30
0.0
 11
24.22919999999999
 21
63.3185
 31
0.0
  0
LINE
  5
EA
330
1E
100
AcDbEntity
  8
0
100
AcDbLine
 10
26.2412
 20
45.0349
 30
0.0
 11
29.2059
 21
46.1744
 31
0.0
  0
LINE
  5
100
330
1E
100
AcDbEntity
  8
0
100
AcDbLine
 10
845.3469999999999
 20
27.7791
 30
0.0
 11
846.335
 21
31.0349
 31
0.0
  0
LINE
  5
109
330
1E
100
AcDbEntity
  8
0
100
AcDbLine
 10
800.9843749999999
 20
39.5
 30
0.0
 11
801.1699999999999
 21
40.81999999999999
 31
0.0
  0
LINE
  5
10A
330
1E
100
AcDbEntity
  8
0
100
AcDbLine
 10
44.055755430309
 20
39.5
 30
0.0
 11
820.94421457092
 21
39.5
 31
0.0
  0
LINE
  5
10B
330
1E
100
AcDbEntity
  8
0
100
AcDbLine
 10
846.335
 20
31.0349
 30
0.0
 11
846.4999999999999
 21
32.5
 31
0.0
  0
LINE
  5
111
330
1E
100
AcDbEntity
  8
0
100
AcDbLine
 10
846.335
 20
33.9651
 30
0.0
 11
846.4999999999999
 21
32.5
 31
0.0
  0
LINE
  5
113
330
1E
100
AcDbEntity
  8
0
100
AcDbLine
 10
845.3469999999999
 20
37.2209
 30
0.0
 11
846.335
 21
33.9651
 31
0.0
  0
LINE
  5
120
330
1E
100
AcDbEntity
  8
0
100
AcDbLine
 10
855.737
 20
38.70309999999999
 30
0.0
 11
856.623
 21
32.5
 31
0.0
  0
LINE
  5
121
330
1E
100
AcDbEntity
  8
0
100
AcDbLine
 10
820.80405651024
 20
39.4963157778007
 30
0.0
 11
821.2999999999999
 21
40.4767
 31
0.0
  0
LINE
  5
122
330
1E
100
AcDbEntity
  8
0
100
AcDbLine
 10
858.1000000000001
 20
39.2938
 30
0.0
 11
859.0850000000001
 21
32.5
 31
0.0
  0
LINE
  5
123
330
1E
100
AcDbEntity
  8
0
100
AcDbLine
 10
809.5871538766099
 20
39.5
 30
0.0
 11
811.626
 21
44.5123
 31
0.0
  0
LINE
  5
127
330
1E
100
AcDbEntity
  8
0
100
AcDbLine
 10
843.7000000000001
 20
40.4767
 30
0.0
 11
845.3469999999999
 21
37.2209
 31
0.0
  0
LINE
  5
12B
330
1E
100
AcDbEntity
  8
0
100
AcDbLine
 10
821.2999999999999
 20
40.4767
 30
0.0
 11
823.6060000000001
 21
43.0814
 31
0.0
  0
LINE
  5
12C
330
1E
100
AcDbEntity
  8
0
100
AcDbLine
 10
806.9824800000001
 20
39.5
 30
0.0
 11
809.4599999999999
 21
45.6938
 31
0.0
  0
LINE
  5
12D
330
1E
100
AcDbEntity
  8
0
100
AcDbLine
 10
801.5003869033231
 20
39.5
 30
0.0
 11
801.682
 21
40.7708
 31
0.0
  0
LINE
  5
130
330
1E
100
AcDbEntity
  8
0
100
AcDbLine
 10
863.3179999999999
 20
40.7708
 30
0.0
 11
864.4999999999999
 21
32.5
 31
0.0
  0
LINE
  5
131
330
1E
100
AcDbEntity
  8
0
100
AcDbLine
 10
801.682
 20
40.7708
 30
0.0
 11
804.832
 21
48.4508
 31
0.0
  0
LINE
  5
132
330
1E
100
AcDbEntity
  8
0
100
AcDbLine
 10
43.7
 20
40.4767
 30
0.0
 11
44.19410976411329
 21
39.5
 31
0.0
  0
LINE
  5
137
330
1E
100
AcDbEntity
  8
0
100
AcDbLine
 10
32.5
 20
46.5
 30
0.0
 11
35.7941
 21
46.1744
 31
0.0
  0
LINE
  5
138
330
1E
100
AcDbEntity
  8
0
100
AcDbLine
 10
29.2059
 20
46.1744
 30
0.0
 11
32.5
 21
46.5
 31
0.0
  0
LINE
  5
13D
330
1E
100
AcDbEntity
  8
0
100
AcDbLine
 10
41.3941
 20
43.0814
 30
0.0
 11
43.7
 21
40.4767
 31
0.0
  0
LINE
  5
13E
330
1E
100
AcDbEntity
  8
0
100
AcDbLine
 10
38.7588
 20
45.0349
 30
0.0
 11
41.3941
 21
43.0814
 31
0.0
  0
LINE
  5
13F
330
1E
100
AcDbEntity
  8
0
100
AcDbLine
 10
35.7941
 20
46.1744
 30
0.0
 11
38.7588
 21
45.0349
 31
0.0
  0
LINE
  5
142
330
1E
100
AcDbEntity
  8
0
100
AcDbLine
 10
49.5338
 20
49.5338
 30
0.0
 11
53.3738
 21
44.5123
 31
0.0
  0
LINE
  5
143
330
1E
100
AcDbEntity
  8
0
100
AcDbLine
 10
53.3738
 20
44.5123
 30
0.0
 11
55.4127324054947
 21
39.5
 31
0.0
  0
LINE
  5
144
330
1E
100
AcDbEntity
  8
0
100
AcDbLine
 10
44.5123
 20
53.3738
 30
0.0
 11
49.5338
 21
49.5338
 31
0.0
  0
LINE
  5
145
330
1E
100
AcDbEntity
  8
0
100
AcDbLine
 10
51.2077
 20
51.2077
 30
0.0
 11
55.54
 21
45.6938
 31
0.0
  0
LINE
  5
146
330
1E
100
AcDbEntity
  8
0
100
AcDbLine
 10
55.54
 20
45.6938
 30
0.0
 11
58.01752
 21
39.5
 31
0.0
  0
LINE
  5
147
330
1E
100
AcDbEntity
  8
0
100
AcDbLine
 10
38.70309999999999
 20
55.7369
 30
0.0
 11
44.5123
 21
53.3738
 31
0.0
  0
LINE
  5
148
330
1E
100
AcDbEntity
  8
0
100
AcDbLine
 10
32.5
 20
56.6231
 30
0.0
 11
38.70309999999999
 21
55.7369
 31
0.0
  0
LINE
  5
149
330
1E
100
AcDbEntity
  8
0
100
AcDbLine
 10
55.51
 20
55.51
 30
0.0
 11
60.71
 21
48.62
 31
0.0
  0
LINE
  5
14A
330
1E
100
AcDbEntity
  8
0
100
AcDbLine
 10
45.6938
 20
55.54
 30
0.0
 11
51.2077
 21
51.2077
 31
0.0
  0
LINE
  5
14B
330
1E
100
AcDbEntity
  8
0
100
AcDbLine
 10
39.2938
 20
58.1
 30
0.0
 11
45.6938
 21
55.54
 31
0.0
  0
LINE
  5
14C
330
1E
100
AcDbEntity
  8
0
100
AcDbLine
 10
55.1462
 20
55.1462
 30
0.0
 11
60.16770000000001
 21
48.4508
 31
0.0
  0
LINE
  5
14D
330
1E
100
AcDbEntity
  8
0
100
AcDbLine
 10
801.1699999999999
 20
40.81999999999999
 30
0.0
 11
804.2899999999999
 21
48.62
 31
0.0
  0
LINE
  5
14E
330
1E
100
AcDbEntity
  8
0
100
AcDbLine
 10
63.83
 20
40.81999999999999
 30
0.0
 11
64.015625
 21
39.5
 31
0.0
  0
LINE
  5
14F
330
1E
100
AcDbEntity
  8
0
100
AcDbLine
 10
811.626
 20
44.5123
 30
0.0
 11
815.4659999999999
 21
49.5338
 31
0.0
  0
LINE
  5
150
330
1E
100
AcDbEntity
  8
0
100
AcDbLine
 10
809.4599999999999
 20
45.6938
 30
0.0
 11
813.7919999999999
 21
51.2077
 31
0.0
  0
LINE
  5
151
330
1E
100
AcDbEntity
  8
0
100
AcDbLine
 10
804.2899999999999
 20
48.62
 30
0.0
 11
809.49
 21
55.51
 31
0.0
  0
LINE
  5
152
330
1E
100
AcDbEntity
  8
0
100
AcDbLine
 10
60.71
 20
48.62
 30
0.0
 11
63.83
 21
40.81999999999999
 31
0.0
  0
LINE
  5
153
330
1E
100
AcDbEntity
  8
0
100
AcDbLine
 10
804.832
 20
48.4508
 30
0.0
 11
809.8539999999999
 21
55.1462
 31
0.0
  0
LINE
  5
15B
330
1E
100
AcDbEntity
  8
0
100
AcDbLine
 10
841.3939999999998
 20
43.0814
 30
0.0
 11
843.7000000000001
 21
40.4767
 31
0.0
  0
LINE
  5
15E
330
1E
100
AcDbEntity
  8
0
100
AcDbLine
 10
823.6060000000001
 20
43.0814
 30
0.0
 11
826.241
 21
45.0349
 31
0.0
  0
LINE
  5
15F
330
1E
100
AcDbEntity
  8
0
100
AcDbLine
 10
826.241
 20
45.0349
 30
0.0
 11
829.2060000000001
 21
46.1744
 31
0.0
  0
LINE
  5
160
330
1E
100
AcDbEntity
  8
0
100
AcDbLine
 10
838.7589999999999
 20
45.0349
 30
0.0
 11
841.3939999999998
 21
43.0814
 31
0.0
  0
LINE
  5
161
330
1E
100
AcDbEntity
  8
0
100
AcDbLine
 10
835.7939999999999
 20
46.1744
 30
0.0
 11
838.7589999999999
 21
45.0349
 31
0.0
  0
LINE
  5
162
330
1E
100
AcDbEntity
  8
0
100
AcDbLine
 10
832.4999999999999
 20
46.5
 30
0.0
 11
835.7939999999999
 21
46.1744
 31
0.0
  0
LINE
  5
163
330
1E
100
AcDbEntity
  8
0
100
AcDbLine
 10
829.2060000000001
 20
46.1744
 30
0.0
 11
832.4999999999999
 21
46.5
 31
0.0
  0
LINE
  5
164
330
1E
100
AcDbEntity
  8
0
100
AcDbLine
 10
853.3739999999999
 20
44.5123
 30
0.0
 11
855.737
 21
38.70309999999999
 31
0.0
  0
LINE
  5
165
330
1E
100
AcDbEntity
  8
0
100
AcDbLine
 10
863.83
 20
40.81999999999999
 30
0.0
 11
865.0
 21
32.5
 31
0.0
  0
LINE
  5
166
330
1E
100
AcDbEntity
  8
0
100
AcDbLine
 10
855.54
 20
45.6938
 30
0.0
 11
858.1000000000001
 21
39.2938
 31
0.0
  0
LINE
  5
167
330
1E
100
AcDbEntity
  8
0
100
AcDbLine
 10
844.5119999999999
 20
53.3738
 30
0.0
 11
849.534
 21
49.5338
 31
0.0
  0
LINE
  5
168
330
1E
100
AcDbEntity
  8
0
100
AcDbLine
 10
849.534
 20
49.5338
 30
0.0
 11
853.3739999999999
 21
44.5123
 31
0.0
  0
LINE
  5
169
330
1E
100
AcDbEntity
  8
0
100
AcDbLine
 10
860.71
 20
48.62
 30
0.0
 11
863.83
 21
40.81999999999999
 31
0.0
  0
LINE
  5
16A
330
1E
100
AcDbEntity
  8
0
100
AcDbLine
 10
851.208
 20
51.2077
 30
0.0
 11
855.54
 21
45.6938
 31
0.0
  0
LINE
  5
16B
330
1E
100
AcDbEntity
  8
0
100
AcDbLine
 10
860.1679999999999
 20
48.4508
 30
0.0
 11
863.3179999999999
 21
40.7708
 31
0.0
  0
LINE
  5
16C
330
1E
100
AcDbEntity
  8
0
100
AcDbLine
 10
815.4659999999999
 20
49.5338
 30
0.0
 11
820.4880000000001
 21
53.3738
 31
0.0
  0
LINE
  5
16D
330
1E
100
AcDbEntity
  8
0
100
AcDbLine
 10
855.146
 20
55.1462
 30
0.0
 11
860.1679999999999
 21
48.4508
 31
0.0
  0
LINE
  5
16E
330
1E
100
AcDbEntity
  8
0
100
AcDbLine
 10
820.4880000000001
 20
53.3738
 30
0.0
 11
826.2970000000001
 21
55.7369
 31
0.0
  0
LINE
  5
16F
330
1E
100
AcDbEntity
  8
0
100
AcDbLine
 10
813.7919999999999
 20
51.2077
 30
0.0
 11
819.306
 21
55.54
 31
0.0
  0
LINE
  5
170
330
1E
100
AcDbEntity
  8
0
100
AcDbLine
 10
809.49
 20
55.51
 30
0.0
 11
816.38
 21
60.71
 31
0.0
  0
LINE
  5
171
330
1E
100
AcDbEntity
  8
0
100
AcDbLine
 10
819.306
 20
55.54
 30
0.0
 11
825.706
 21
58.1
 31
0.0
  0
LINE
  5
172
330
1E
100
AcDbEntity
  8
0
100
AcDbLine
 10
838.7029999999999
 20
55.7369
 30
0.0
 11
844.5119999999999
 21
53.3738
 31
0.0
  0
LINE
  5
173
330
1E
100
AcDbEntity
  8
0
100
AcDbLine
 10
855.5099999999999
 20
55.51
 30
0.0
 11
860.71
 21
48.62
 31
0.0
  0
LINE
  5
174
330
1E
100
AcDbEntity
  8
0
100
AcDbLine
 10
845.6939999999999
 20
55.54
 30
0.0
 11
851.208
 21
51.2077
 31
0.0
  0
LINE
  5
175
330
1E
100
AcDbEntity
  8
0
100
AcDbLine
 10
832.4999999999999
 20
56.6231
 30
0.0
 11
838.7029999999999
 21
55.7369
 31
0.0
  0
LINE
  5
176
330
1E
100
AcDbEntity
  8
0
100
AcDbLine
 10
839.2939999999999
 20
58.1
 30
0.0
 11
845.6939999999999
 21
55.54
 31
0.0
  0
LINE
  5
177
330
1E
100
AcDbEntity
  8
0
100
AcDbLine
 10
826.2970000000001
 20
55.7369
 30
0.0
 11
832.4999999999999
 21
56.6231
 31
0.0
  0
LINE
  5
178
330
1E
100
AcDbEntity
  8
0
100
AcDbLine
 10
825.706
 20
58.1
 30
0.0
 11
832.4999999999999
 21
59.0846
 31
0.0
  0
LINE
  5
179
330
1E
100
AcDbEntity
  8
0
100
AcDbLine
 10
809.8539999999999
 20
55.1462
 30
0.0
 11
816.549
 21
60.16770000000001
 31
0.0
  0
LINE
  5
17A
330
1E
100
AcDbEntity
  8
0
100
AcDbLine
 10
60.16770000000001
 20
48.4508
 30
0.0
 11
63.3185
 21
40.7708
 31
0.0
  0
LINE
  5
17B
330
1E
100
AcDbEntity
  8
0
100
AcDbLine
 10
63.3185
 20
40.7708
 30
0.0
 11
63.5000362721865
 21
39.5
 31
0.0
  0
LINE
  5
17C
330
1E
100
AcDbEntity
  8
0
100
AcDbLine
 10
26.2969
 20
55.7369
 30
0.0
 11
32.5
 21
56.6231
 31
0.0
  0
LINE
  5
17D
330
1E
100
AcDbEntity
  8
0
100
AcDbLine
 10
32.5
 20
65.0
 30
0.0
 11
40.81999999999999
 21
63.83
 31
0.0
  0
LINE
  5
17E
330
1E
100
AcDbEntity
  8
0
100
AcDbLine
 10
32.5
 20
59.0846
 30
0.0
 11
39.2938
 21
58.1
 31
0.0
  0
LINE
  5
17F
330
1E
100
AcDbEntity
  8
0
100
AcDbLine
 10
816.38
 20
60.71
 30
0.0
 11
824.1799999999999
 21
63.83
 31
0.0
  0
LINE
  5
180
330
1E
100
AcDbEntity
  8
0
100
AcDbLine
 10
48.62
 20
60.71
 30
0.0
 11
55.51
 21
55.51
 31
0.0
  0
LINE
  5
181
330
1E
100
AcDbEntity
  8
0
100
AcDbLine
 10
832.4999999999999
 20
59.0846
 30
0.0
 11
839.2939999999999
 21
58.1
 31
0.0
  0
LINE
  5
182
330
1E
100
AcDbEntity
  8
0
100
AcDbLine
 10
848.62
 20
60.71
 30
0.0
 11
855.5099999999999
 21
55.51
 31
0.0
  0
LINE
  5
183
330
1E
100
AcDbEntity
  8
0
100
AcDbLine
 10
848.451
 20
60.16770000000001
 30
0.0
 11
855.146
 21
55.1462
 31
0.0
  0
LINE
  5
184
330
1E
100
AcDbEntity
  8
0
100
AcDbLine
 10
840.7710000000001
 20
63.3185
 30
0.0
 11
848.451
 21
60.16770000000001
 31
0.0
  0
LINE
  5
185
330
1E
100
AcDbEntity
  8
0
100
AcDbLine
 10
816.549
 20
60.16770000000001
 30
0.0
 11
824.2289999999998
 21
63.3185
 31
0.0
  0
LINE
  5
186
330
1E
100
AcDbEntity
  8
0
100
AcDbLine
 10
824.2289999999998
 20
63.3185
 30
0.0
 11
832.4999999999999
 21
64.5
 31
0.0
  0
LINE
  5
187
330
1E
100
AcDbEntity
  8
0
100
AcDbLine
 10
48.4508
 20
60.16770000000001
 30
0.0
 11
55.1462
 21
55.1462
 31
0.0
  0
LINE
  5
188
330
1E
100
AcDbEntity
  8
0
100
AcDbLine
 10
824.1799999999999
 20
63.83
 30
0.0
 11
832.4999999999999
 21
65.0
 31
0.0
  0
LINE
  5
189
330
1E
100
AcDbEntity
  8
0
100
AcDbLine
 10
832.4999999999999
 20
65.0
 30
0.0
 11
840.82
 21
63.83
 31
0.0
  0
LINE
  5
18A
330
1E
100
AcDbEntity
  8
0
100
AcDbLine
 10
40.81999999999999
 20
63.83
 30
0.0
 11
48.62
 21
60.71
 31
0.0
  0
LINE
  5
18B
330
1E
100
AcDbEntity
  8
0
100
AcDbLine
 10
840.82
 20
63.83
 30
0.0
 11
848.62
 21
60.71
 31
0.0
  0
LINE
  5
18C
330
1E
100
AcDbEntity
  8
0
100
AcDbLine
 10
832.4999999999999
 20
64.5
 30
0.0
 11
840.7710000000001
 21
63.3185
 31
0.0
  0
LINE
  5
18D
330
1E
100
AcDbEntity
  8
0
100
AcDbLine
 10
40.7708
 20
63.3185
 30
0.0
 11
48.4508
 21
60.16770000000001
 31
0.0
  0
LINE
  5
18E
330
1E
100
AcDbEntity
  8
0
100
AcDbLine
 10
32.5
 20
64.5
 30
0.0
 11
40.7708
 21
63.3185
 31
0.0
  0
LINE
  5
18F
330
1E
100
AcDbEntity
  8
0
100
AcDbLine
 10
25.70619999999999
 20
58.1
 30
0.0
 11
32.5
 21
59.0846
 31
0.0
  0
LINE
  5
190
330
1E
100
AcDbEntity
  8
0
100
AcDbLine
 10
24.22919999999999
 20
63.3185
 30
0.0
 11
32.5
 21
64.5
 31
0.0
  0
LINE
  5
191
330
1E
100
AcDbEntity
  8
0
100
AcDbLine
 10
9.26307999999997
 20
26.2969
 30
0.0
 11
11.6262
 21
20.4877
 31
0.0
  0
LINE
  5
192
330
1E
100
AcDbEntity
  8
0
100
AcDbLine
 10
8.376919999999969
 20
32.5
 30
0.0
 11
9.26307999999997
 21
26.2969
 31
0.0
  0
LINE
  5
193
330
1E
100
AcDbEntity
  8
0
100
AcDbLine
 10
8.376919999999969
 20
32.5
 30
0.0
 11
9.26307999999997
 21
38.70309999999999
 31
0.0
  0
LINE
  5
194
330
1E
100
AcDbEntity
  8
0
100
AcDbLine
 10
6.89999999999997
 20
25.70619999999999
 30
0.0
 11
9.45999999999997
 21
19.3062
 31
0.0
  0
LINE
  5
195
330
1E
100
AcDbEntity
  8
0
100
AcDbLine
 10
5.91537999999997
 20
32.5
 30
0.0
 11
6.89999999999997
 21
25.70619999999999
 31
0.0
  0
LINE
  5
196
330
1E
100
AcDbEntity
  8
0
100
AcDbLine
 10
5.91537999999997
 20
32.5
 30
0.0
 11
6.89999999999997
 21
39.2938
 31
0.0
  0
LINE
  5
197
330
1E
100
AcDbEntity
  8
0
100
AcDbLine
 10
1.681539999999969
 20
24.22919999999999
 30
0.0
 11
4.832309999999969
 21
16.54919999999999
 31
0.0
  0
LINE
  5
198
330
1E
100
AcDbEntity
  8
0
100
AcDbLine
 10
0.499999999999973
 20
32.5
 30
0.0
 11
1.681539999999969
 21
24.22919999999999
 31
0.0
  0
LINE
  5
199
330
1E
100
AcDbEntity
  8
0
100
AcDbLine
 10
0.499999999999973
 20
32.5
 30
0.0
 11
1.681539999999969
 21
40.7708
 31
0.0
  0
LINE
  5
19E
330
1E
100
AcDbEntity
  8
0
100
AcDbLine
 10
820.8059202346586
 20
39.5
 30
0.0
 11
820.805920234658
 21
25.5
 31
0.0
  0
LINE
  5
19F
330
1E
100
AcDbEntity
  8
0
100
AcDbLine
 10
44.055755430309
 20
39.5
 30
0.0
 11
44.19597360648999
 21
25.503684231686
 31
0.0
  0
ENDSEC
  0
SECTION
  2
OBJECTS
  0
DICTIONARY
  5
C
330
0
100
AcDbDictionary
281
     1
  3
ACAD_GROUP
350
D
  3
ACAD_LAYOUT
350
19
  3
ACAD_MLINESTYLE
350
16
  3
ACAD_PLOTSETTINGS
350
18
  3
ACAD_PLOTSTYLENAME
350
E
  3
AcDbVariableDictionary
350
1A0
  0
DICTIONARY
  5
D
102
{ACAD_REACTORS
330
C
102
}
330
C
100
AcDbDictionary
281
     1
  0
DICTIONARY
  5
19
102
{ACAD_REACTORS
330
C
102
}
330
C
100
AcDbDictionary
281
     1
  3
Layout1
350
1D
  3
Model
350
21
  0
DICTIONARY
  5
16
102
{ACAD_REACTORS
330
C
102
}
330
C
100
AcDbDictionary
281
     1
  3
Standard
350
17
  0
DICTIONARY
  5
18
102
{ACAD_REACTORS
330
C
102
}
330
C
100
AcDbDictionary
281
     1
  0
ACDBDICTIONARYWDFLT
  5
E
102
{ACAD_REACTORS
330
C
102
}
330
C
100
AcDbDictionary
281
     1
  3
Normal
350
F
100
AcDbDictionaryWithDefault
340
F
  0
DICTIONARY
  5
1A0
102
{ACAD_REACTORS
330
C
102
}
330
C
100
AcDbDictionary
281
     1
  3
DIMASSOC
350
1A1
  0
LAYOUT
  5
1D
102
{ACAD_REACTORS
330
19
102
}
330
19
100
AcDbPlotSettings
  1

  2
hp deskjet 980c series
  4

  6

 40
0.0
 41
0.0
 42
0.0
 43
0.0
 44
0.0
 45
0.0
 46
0.0
 47
0.0
 48
0.0
 49
0.0
140
0.0
141
0.0
142
1.0
143
1.0
 70
   688
 72
     0
 73
     0
 74
     5
  7

 75
    16
147
1.0
148
0.0
149
0.0
100
AcDbLayout
  1
Layout1
 70
     1
 71
     1
 10
0.0
 20
0.0
 11
12.0
 21
9.0
 12
0.0
 22
0.0
 32
0.0
 14
1.000000000000000E+20
 24
1.000000000000000E+20
 34
1.000000000000000E+20
 15
-1.000000000000000E+20
 25
-1.000000000000000E+20
 35
-1.000000000000000E+20
146
0.0
 13
0.0
 23
0.0
 33
0.0
 16
1.0
 26
0.0
 36
0.0
 17
0.0
 27
1.0
 37
0.0
 76
     0
330
1A
  0
LAYOUT
  5
21
102
{ACAD_REACTORS
330
19
102
}
330
19
100
AcDbPlotSettings
  1

  2
hp deskjet 980c series
  4

  6

 40
0.0
 41
0.0
 42
0.0
 43
0.0
 44
0.0
 45
0.0
 46
0.0
 47
0.0
 48
0.0
 49
0.0
140
0.0
141
0.0
142
1.0
143
1.0
 70
  1712
 72
     0
 73
     0
 74
     0
  7

 75
     0
147
1.0
148
0.0
149
0.0
100
AcDbLayout
  1
Model
 70
     1
 71
     0
 10
0.0
 20
0.0
 11
12.0
 21
9.0
 12
0.0
 22
0.0
 32
0.0
 14
0.0
 24
0.0
 34
0.0
 15
0.0
 25
0.0
 35
0.0
146
0.0
 13
0.0
 23
0.0
 33
0.0
 16
1.0
 26
0.0
 36
0.0
 17
0.0
 27
1.0
 37
0.0
 76
     0
330
1E
  0
MLINESTYLE
  5
17
102
{ACAD_REACTORS
330
16
102
}
330
16
100
AcDbMlineStyle
  2
STANDARD
 70
     0
  3

 62
   256
 51
90.0
 52
90.0
 71
     2
 49
0.5
 62
   256
  6
BYLAYER
 49
-0.5
 62
   256
  6
BYLAYER
  0
ACDBPLACEHOLDER
  5
F
102
{ACAD_REACTORS
330
E
102
}
330
E
  0
DICTIONARYVAR
  5
1A1
102
{ACAD_REACTORS
330
1A0
102
}
330
1A0
100
DictionaryVariables
280
     0
  1
1
  0
ENDSEC
  0
EOF
