  0
SECTION
  2
HEADER
  9
$ACADVER
  1
AC1015
  9
$ACADMAINTVER
 70
    13
  9
$DWGCODEPAGE
  3
ANSI_1252
  9
$INSBASE
 10
0.0
 20
0.0
 30
0.0
  9
$EXTMIN
 10
0.250000000000032
 20
-0.0000000000000884
 30
0.0
  9
$EXTMAX
 10
505.75
 20
133.0
 30
0.0
  9
$LIMMIN
 10
0.0
 20
0.0
  9
$LIMMAX
 10
12.0
 20
9.0
  9
$ORTHOMODE
 70
     0
  9
$REGENMODE
 70
     1
  9
$FILLMODE
 70
     1
  9
$QTEXTMODE
 70
     0
  9
$MIRRTEXT
 70
     1
  9
$LTSCALE
 40
1.0
  9
$ATTMODE
 70
     1
  9
$TEXTSIZE
 40
0.2
  9
$TRACEWID
 40
0.05
  9
$TEXTSTYLE
  7
Standard
  9
$CLAYER
  8
0
  9
$CELTYPE
  6
Continuous
  9
$CECOLOR
 62
   256
  9
$CELTSCALE
 40
1.0
  9
$DISPSILH
 70
     0
  9
$DIMSCALE
 40
1.0
  9
$DIMASZ
 40
0.18
  9
$DIMEXO
 40
0.0625
  9
$DIMDLI
 40
0.38
  9
$DIMRND
 40
0.0
  9
$DIMDLE
 40
0.0
  9
$DIMEXE
 40
0.18
  9
$DIMTP
 40
0.0
  9
$DIMTM
 40
0.0
  9
$DIMTXT
 40
0.18
  9
$DIMCEN
 40
0.09
  9
$DIMTSZ
 40
0.0
  9
$DIMTOL
 70
     0
  9
$DIMLIM
 70
     0
  9
$DIMTIH
 70
     1
  9
$DIMTOH
 70
     1
  9
$DIMSE1
 70
     0
  9
$DIMSE2
 70
     0
  9
$DIMTAD
 70
     0
  9
$DIMZIN
 70
     0
  9
$DIMBLK
  1

  9
$DIMASO
 70
     1
  9
$DIMSHO
 70
     1
  9
$DIMPOST
  1

  9
$DIMAPOST
  1

  9
$DIMALT
 70
     0
  9
$DIMALTD
 70
     2
  9
$DIMALTF
 40
25.4
  9
$DIMLFAC
 40
1.0
  9
$DIMTOFL
 70
     0
  9
$DIMTVP
 40
0.0
  9
$DIMTIX
 70
     0
  9
$DIMSOXD
 70
     0
  9
$DIMSAH
 70
     0
  9
$DIMBLK1
  1

  9
$DIMBLK2
  1

  9
$DIMSTYLE
  2
Standard
  9
$DIMCLRD
 70
     0
  9
$DIMCLRE
 70
     0
  9
$DIMCLRT
 70
     0
  9
$DIMTFAC
 40
1.0
  9
$DIMGAP
 40
0.09
  9
$DIMJUST
 70
     0
  9
$DIMSD1
 70
     0
  9
$DIMSD2
 70
     0
  9
$DIMTOLJ
 70
     1
  9
$DIMTZIN
 70
     0
  9
$DIMALTZ
 70
     0
  9
$DIMALTTZ
 70
     0
  9
$DIMUPT
 70
     0
  9
$DIMDEC
 70
     4
  9
$DIMTDEC
 70
     4
  9
$DIMALTU
 70
     2
  9
$DIMALTTD
 70
     2
  9
$DIMTXSTY
  7
Standard
  9
$DIMAUNIT
 70
     0
  9
$DIMADEC
 70
     0
  9
$DIMALTRND
 40
0.0
  9
$DIMAZIN
 70
     0
  9
$DIMDSEP
 70
    46
  9
$DIMATFIT
 70
     3
  9
$DIMFRAC
 70
     0
  9
$DIMLDRBLK
  1

  9
$DIMLUNIT
 70
     2
  9
$DIMLWD
 70
    -2
  9
$DIMLWE
 70
    -2
  9
$DIMTMOVE
 70
     0
  9
$LUNITS
 70
     2
  9
$LUPREC
 70
     4
  9
$SKETCHINC
 40
0.1
  9
$FILLETRAD
 40
0.0
  9
$AUNITS
 70
     0
  9
$AUPREC
 70
     0
  9
$MENU
  1
.
  9
$ELEVATION
 40
0.0
  9
$PELEVATION
 40
0.0
  9
$THICKNESS
 40
0.0
  9
$LIMCHECK
 70
     0
  9
$CHAMFERA
 40
0.0
  9
$CHAMFERB
 40
0.0
  9
$CHAMFERC
 40
0.0
  9
$CHAMFERD
 40
0.0
  9
$SKPOLY
 70
     0
  9
$TDCREATE
 40
2454752.507346458
  9
$TDUCREATE
 40
2454752.424013125
  9
$TDUPDATE
 40
2454752.508854699
  9
$TDUUPDATE
 40
2454752.425521366
  9
$TDINDWG
 40
0.0015082407
  9
$TDUSRTIMER
 40
0.0015082407
  9
$USRTIMER
 70
     1
  9
$ANGBASE
 50
0.0
  9
$ANGDIR
 70
     0
  9
$PDMODE
 70
     0
  9
$PDSIZE
 40
0.0
  9
$PLINEWID
 40
0.0
  9
$SPLFRAME
 70
     0
  9
$SPLINETYPE
 70
     6
  9
$SPLINESEGS
 70
     8
  9
$HANDSEED
  5
3D4
  9
$SURFTAB1
 70
     6
  9
$SURFTAB2
 70
     6
  9
$SURFTYPE
 70
     6
  9
$SURFU
 70
     6
  9
$SURFV
 70
     6
  9
$UCSBASE
  2

  9
$UCSNAME
  2

  9
$UCSORG
 10
0.0
 20
0.0
 30
0.0
  9
$UCSXDIR
 10
1.0
 20
0.0
 30
0.0
  9
$UCSYDIR
 10
0.0
 20
1.0
 30
0.0
  9
$UCSORTHOREF
  2

  9
$UCSORTHOVIEW
 70
     1
  9
$UCSORGTOP
 10
0.0
 20
0.0
 30
0.0
  9
$UCSORGBOTTOM
 10
0.0
 20
0.0
 30
0.0
  9
$UCSORGLEFT
 10
0.0
 20
0.0
 30
0.0
  9
$UCSORGRIGHT
 10
0.0
 20
0.0
 30
0.0
  9
$UCSORGFRONT
 10
0.0
 20
0.0
 30
0.0
  9
$UCSORGBACK
 10
0.0
 20
0.0
 30
0.0
  9
$PUCSBASE
  2

  9
$PUCSNAME
  2

  9
$PUCSORG
 10
0.0
 20
0.0
 30
0.0
  9
$PUCSXDIR
 10
1.0
 20
0.0
 30
0.0
  9
$PUCSYDIR
 10
0.0
 20
1.0
 30
0.0
  9
$PUCSORTHOREF
  2

  9
$PUCSORTHOVIEW
 70
     0
  9
$PUCSORGTOP
 10
0.0
 20
0.0
 30
0.0
  9
$PUCSORGBOTTOM
 10
0.0
 20
0.0
 30
0.0
  9
$PUCSORGLEFT
 10
0.0
 20
0.0
 30
0.0
  9
$PUCSORGRIGHT
 10
0.0
 20
0.0
 30
0.0
  9
$PUCSORGFRONT
 10
0.0
 20
0.0
 30
0.0
  9
$PUCSORGBACK
 10
0.0
 20
0.0
 30
0.0
  9
$USERI1
 70
     0
  9
$USERI2
 70
     0
  9
$USERI3
 70
     0
  9
$USERI4
 70
     0
  9
$USERI5
 70
     0
  9
$USERR1
 40
0.0
  9
$USERR2
 40
0.0
  9
$USERR3
 40
0.0
  9
$USERR4
 40
0.0
  9
$USERR5
 40
0.0
  9
$WORLDVIEW
 70
     1
  9
$SHADEDGE
 70
     3
  9
$SHADEDIF
 70
    70
  9
$TILEMODE
 70
     1
  9
$MAXACTVP
 70
    64
  9
$PINSBASE
 10
0.0
 20
0.0
 30
0.0
  9
$PLIMCHECK
 70
     0
  9
$PEXTMIN
 10
1.000000000000000E+20
 20
1.000000000000000E+20
 30
1.000000000000000E+20
  9
$PEXTMAX
 10
-1.000000000000000E+20
 20
-1.000000000000000E+20
 30
-1.000000000000000E+20
  9
$PLIMMIN
 10
0.0
 20
0.0
  9
$PLIMMAX
 10
12.0
 20
9.0
  9
$UNITMODE
 70
     0
  9
$VISRETAIN
 70
     1
  9
$PLINEGEN
 70
     0
  9
$PSLTSCALE
 70
     1
  9
$TREEDEPTH
 70
  3020
  9
$CMLSTYLE
  2
Standard
  9
$CMLJUST
 70
     0
  9
$CMLSCALE
 40
1.0
  9
$PROXYGRAPHICS
 70
     1
  9
$MEASUREMENT
 70
     0
  9
$CELWEIGHT
370
    -1
  9
$ENDCAPS
280
     0
  9
$JOINSTYLE
280
     0
  9
$LWDISPLAY
290
     0
  9
$INSUNITS
 70
     0
  9
$HYPERLINKBASE
  1

  9
$STYLESHEET
  1

  9
$XEDIT
290
     1
  9
$CEPSNTYPE
380
     0
  9
$PSTYLEMODE
290
     1
  9
$FINGERPRINTGUID
  2
{DF934DD3-6A59-4493-8944-4170F852A6AB}
  9
$VERSIONGUID
  2
{67B6A899-AEE5-4B9E-B639-36BDC5E00CA5}
  9
$EXTNAMES
290
     1
  9
$PSVPSCALE
 40
0.0
  9
$OLESTARTUP
290
     0
  0
ENDSEC
  0
SECTION
  2
CLASSES
  0
CLASS
  1
ACDBDICTIONARYWDFLT
  2
AcDbDictionaryWithDefault
  3
AutoCAD 2000
 90
        0
280
     0
281
     0
  0
CLASS
  1
ACDBPLACEHOLDER
  2
AcDbPlaceHolder
  3
AutoCAD 2000
 90
        0
280
     0
281
     0
  0
CLASS
  1
LAYOUT
  2
AcDbLayout
  3
AutoCAD 2000
 90
        0
280
     0
281
     0
  0
CLASS
  1
DICTIONARYVAR
  2
AcDbDictionaryVar
  3
AutoCAD 2000
 90
        0
280
     0
281
     0
  0
ENDSEC
  0
SECTION
  2
TABLES
  0
TABLE
  2
VPORT
  5
8
330
0
100
AcDbSymbolTable
 70
     2
  0
VPORT
  5
3D3
330
8
100
AcDbSymbolTableRecord
100
AcDbViewportTableRecord
  2
*Active
 70
     0
 10
0.0
 20
0.0
 11
1.0
 21
1.0
 12
253.0
 22
66.49999999999995
 13
0.0
 23
0.0
 14
1.0
 24
1.0
 15
0.0
 25
0.0
 16
0.0
 26
0.0
 36
1.0
 17
0.0
 27
0.0
 37
0.0
 40
244.1491707110532
 41
2.078104993597951
 42
50.0
 43
0.0
 44
0.0
 50
0.0
 51
0.0
 71
     0
 72
   100
 73
     1
 74
     3
 75
     0
 76
     0
 77
     0
 78
     0
281
     0
 65
     1
110
0.0
120
0.0
130
0.0
111
1.0
121
0.0
131
0.0
112
0.0
122
1.0
132
0.0
 79
     1
146
0.0
  0
ENDTAB
  0
TABLE
  2
LTYPE
  5
5
330
0
100
AcDbSymbolTable
 70
     1
  0
LTYPE
  5
13
330
5
100
AcDbSymbolTableRecord
100
AcDbLinetypeTableRecord
  2
ByBlock
 70
     0
  3

 72
    65
 73
     0
 40
0.0
  0
LTYPE
  5
14
330
5
100
AcDbSymbolTableRecord
100
AcDbLinetypeTableRecord
  2
ByLayer
 70
     0
  3

 72
    65
 73
     0
 40
0.0
  0
LTYPE
  5
15
330
5
100
AcDbSymbolTableRecord
100
AcDbLinetypeTableRecord
  2
Continuous
 70
     0
  3
Solid line
 72
    65
 73
     0
 40
0.0
  0
ENDTAB
  0
TABLE
  2
LAYER
  5
2
330
0
100
AcDbSymbolTable
 70
     1
  0
LAYER
  5
10
330
2
100
AcDbSymbolTableRecord
100
AcDbLayerTableRecord
  2
0
 70
     0
 62
     7
  6
Continuous
370
    -3
390
F
  0
ENDTAB
  0
TABLE
  2
STYLE
  5
3
330
0
100
AcDbSymbolTable
 70
     1
  0
STYLE
  5
11
330
3
100
AcDbSymbolTableRecord
100
AcDbTextStyleTableRecord
  2
Standard
 70
     0
 40
0.0
 41
1.0
 50
0.0
 71
     0
 42
0.2
  3
txt
  4

  0
ENDTAB
  0
TABLE
  2
VIEW
  5
6
330
0
100
AcDbSymbolTable
 70
     0
  0
ENDTAB
  0
TABLE
  2
UCS
  5
7
330
0
100
AcDbSymbolTable
 70
     0
  0
ENDTAB
  0
TABLE
  2
APPID
  5
9
330
0
100
AcDbSymbolTable
 70
     1
  0
APPID
  5
12
330
9
100
AcDbSymbolTableRecord
100
AcDbRegAppTableRecord
  2
ACAD
 70
     0
  0
ENDTAB
  0
TABLE
  2
DIMSTYLE
  5
A
330
0
100
AcDbSymbolTable
 70
     1
100
AcDbDimStyleTable
 71
     0
  0
DIMSTYLE
105
3CD
330
A
100
AcDbSymbolTableRecord
100
AcDbDimStyleTableRecord
  2
Standard
 70
     0
340
11
  0
ENDTAB
  0
TABLE
  2
BLOCK_RECORD
  5
1
330
0
100
AcDbSymbolTable
 70
     0
  0
BLOCK_RECORD
  5
1E
330
1
100
AcDbSymbolTableRecord
100
AcDbBlockTableRecord
  2
*Model_Space
340
21
  0
BLOCK_RECORD
  5
1A
330
1
100
AcDbSymbolTableRecord
100
AcDbBlockTableRecord
  2
*Paper_Space
340
1D
  0
ENDTAB
  0
ENDSEC
  0
SECTION
  2
BLOCKS
  0
BLOCK
  5
1F
330
1E
100
AcDbEntity
  8
0
100
AcDbBlockBegin
  2
*Model_Space
 70
     0
 10
0.0
 20
0.0
 30
0.0
  3
*Model_Space
  1

  0
ENDBLK
  5
20
330
1E
100
AcDbEntity
  8
0
100
AcDbBlockEnd
  0
BLOCK
  5
1B
330
1A
100
AcDbEntity
 67
     1
  8
0
100
AcDbBlockBegin
  2
*Paper_Space
 70
     0
 10
0.0
 20
0.0
 30
0.0
  3
*Paper_Space
  1

  0
ENDBLK
  5
1C
330
1A
100
AcDbEntity
 67
     1
  8
0
100
AcDbBlockEnd
  0
ENDSEC
  0
SECTION
  2
ENTITIES
  0
LINE
  5
22
330
1E
100
AcDbEntity
  8
0
100
AcDbLine
 10
81.68080000000001
 20
-0.000000000000079
 30
0.0
 11
81.68080000000001
 21
1.999999999999919
 31
0.0
  0
LINE
  5
23
330
1E
100
AcDbEntity
  8
0
100
AcDbLine
 10
80.6808
 20
-0.000000000000079
 30
0.0
 11
81.68080000000001
 21
-0.000000000000079
 31
0.0
  0
LINE
  5
24
330
1E
100
AcDbEntity
  8
0
100
AcDbLine
 10
79.9487
 20
-0.0000000000000789
 30
0.0
 11
81.68080000000001
 21
-0.000000000000079
 31
0.0
  0
LINE
  5
25
330
1E
100
AcDbEntity
  8
0
100
AcDbLine
 10
79.9487
 20
-0.0000000000000789
 30
0.0
 11
79.9487
 21
1.999999999999919
 31
0.0
  0
LINE
  5
26
330
1E
100
AcDbEntity
  8
0
100
AcDbLine
 10
78.9094
 20
-0.0000000000000789
 30
0.0
 11
78.9094
 21
1.999999999999919
 31
0.0
  0
LINE
  5
27
330
1E
100
AcDbEntity
  8
0
100
AcDbLine
 10
77.4952
 20
-0.0000000000000788
 30
0.0
 11
78.9094
 21
-0.0000000000000789
 31
0.0
  0
LINE
  5
28
330
1E
100
AcDbEntity
  8
0
100
AcDbLine
 10
77.4952
 20
-0.0000000000000788
 30
0.0
 11
77.4952
 21
1.999999999999919
 31
0.0
  0
LINE
  5
29
330
1E
100
AcDbEntity
  8
0
100
AcDbLine
 10
77.116
 20
-0.0000000000000788
 30
0.0
 11
77.116
 21
1.999999999999919
 31
0.0
  0
LINE
  5
2A
330
1E
100
AcDbEntity
  8
0
100
AcDbLine
 10
76.116
 20
-0.0000000000000787
 30
0.0
 11
77.116
 21
-0.0000000000000788
 31
0.0
  0
LINE
  5
2B
330
1E
100
AcDbEntity
  8
0
100
AcDbLine
 10
76.116
 20
-0.0000000000000787
 30
0.0
 11
76.116
 21
1.999999999999919
 31
0.0
  0
LINE
  5
2C
330
1E
100
AcDbEntity
  8
0
100
AcDbLine
 10
69.616
 20
-0.0000000000000783
 30
0.0
 11
69.616
 21
1.999999999999919
 31
0.0
  0
LINE
  5
2D
330
1E
100
AcDbEntity
  8
0
100
AcDbLine
 10
72.75
 20
-0.0000000000000785
 30
0.0
 11
72.75
 21
1.999999999999919
 31
0.0
  0
LINE
  5
2E
330
1E
100
AcDbEntity
  8
0
100
AcDbLine
 10
72.75
 20
-0.0000000000000785
 30
0.0
 11
74.1949
 21
-0.0000000000000786
 31
0.0
  0
LINE
  5
2F
330
1E
100
AcDbEntity
  8
0
100
AcDbLine
 10
74.384
 20
-0.0000000000000786
 30
0.0
 11
76.116
 21
-0.0000000000000787
 31
0.0
  0
LINE
  5
30
330
1E
100
AcDbEntity
  8
0
100
AcDbLine
 10
74.384
 20
-0.0000000000000786
 30
0.0
 11
74.384
 21
1.999999999999919
 31
0.0
  0
LINE
  5
31
330
1E
100
AcDbEntity
  8
0
100
AcDbLine
 10
74.384
 20
-0.0000000000000786
 30
0.0
 11
75.384
 21
-0.0000000000000787
 31
0.0
  0
LINE
  5
32
330
1E
100
AcDbEntity
  8
0
100
AcDbLine
 10
74.71250000000001
 20
-0.0000000000000786
 30
0.0
 11
76.081
 21
-0.0000000000000787
 31
0.0
  0
LINE
  5
33
330
1E
100
AcDbEntity
  8
0
100
AcDbLine
 10
74.1949
 20
-0.0000000000000786
 30
0.0
 11
74.71250000000001
 21
-0.0000000000000786
 31
0.0
  0
LINE
  5
34
330
1E
100
AcDbEntity
  8
0
100
AcDbLine
 10
74.1949
 20
-0.0000000000000786
 30
0.0
 11
74.1949
 21
1.999999999999919
 31
0.0
  0
LINE
  5
35
330
1E
100
AcDbEntity
  8
0
100
AcDbLine
 10
76.081
 20
-0.0000000000000787
 30
0.0
 11
77.4952
 21
-0.0000000000000788
 31
0.0
  0
LINE
  5
36
330
1E
100
AcDbEntity
  8
0
100
AcDbLine
 10
78.9487
 20
-0.0000000000000789
 30
0.0
 11
78.9487
 21
1.999999999999919
 31
0.0
  0
LINE
  5
37
330
1E
100
AcDbEntity
  8
0
100
AcDbLine
 10
78.9487
 20
-0.0000000000000789
 30
0.0
 11
79.9487
 21
-0.0000000000000789
 31
0.0
  0
LINE
  5
38
330
1E
100
AcDbEntity
  8
0
100
AcDbLine
 10
79.9487
 20
-0.0000000000000789
 30
0.0
 11
80.6808
 21
-0.000000000000079
 31
0.0
  0
LINE
  5
39
330
1E
100
AcDbEntity
  8
0
100
AcDbLine
 10
88.1018
 20
-0.0000000000000794
 30
0.0
 11
89.516
 21
-0.0000000000000795
 31
0.0
  0
LINE
  5
3A
330
1E
100
AcDbEntity
  8
0
100
AcDbLine
 10
88.1018
 20
-0.0000000000000794
 30
0.0
 11
88.1018
 21
1.999999999999919
 31
0.0
  0
LINE
  5
3B
330
1E
100
AcDbEntity
  8
0
100
AcDbLine
 10
87.75
 20
-0.0000000000000794
 30
0.0
 11
89.20140000000001
 21
-0.0000000000000795
 31
0.0
  0
LINE
  5
3C
330
1E
100
AcDbEntity
  8
0
100
AcDbLine
 10
90.38400000000001
 20
-0.0000000000000796
 30
0.0
 11
92.116
 21
-0.0000000000000797
 31
0.0
  0
LINE
  5
3D
330
1E
100
AcDbEntity
  8
0
100
AcDbLine
 10
89.38399999999999
 20
-0.0000000000000795
 30
0.0
 11
91.11600000000001
 21
-0.0000000000000796
 31
0.0
  0
LINE
  5
3E
330
1E
100
AcDbEntity
  8
0
100
AcDbLine
 10
89.38399999999999
 20
-0.0000000000000795
 30
0.0
 11
89.38399999999999
 21
1.999999999999919
 31
0.0
  0
LINE
  5
3F
330
1E
100
AcDbEntity
  8
0
100
AcDbLine
 10
89.38399999999999
 20
-0.0000000000000795
 30
0.0
 11
90.38400000000001
 21
-0.0000000000000796
 31
0.0
  0
LINE
  5
40
330
1E
100
AcDbEntity
  8
0
100
AcDbLine
 10
91.11600000000001
 20
-0.0000000000000796
 30
0.0
 11
92.116
 21
-0.0000000000000797
 31
0.0
  0
LINE
  5
41
330
1E
100
AcDbEntity
  8
0
100
AcDbLine
 10
91.11600000000001
 20
-0.0000000000000796
 30
0.0
 11
91.11600000000001
 21
1.999999999999919
 31
0.0
  0
LINE
  5
42
330
1E
100
AcDbEntity
  8
0
100
AcDbLine
 10
89.20140000000001
 20
-0.0000000000000795
 30
0.0
 11
89.38399999999999
 21
-0.0000000000000795
 31
0.0
  0
LINE
  5
43
330
1E
100
AcDbEntity
  8
0
100
AcDbLine
 10
84.616
 20
-0.0000000000000792
 30
0.0
 11
84.616
 21
1.999999999999919
 31
0.0
  0
LINE
  5
44
330
1E
100
AcDbEntity
  8
0
100
AcDbLine
 10
86.6876
 20
-0.0000000000000794
 30
0.0
 11
86.6876
 21
1.999999999999919
 31
0.0
  0
LINE
  5
45
330
1E
100
AcDbEntity
  8
0
100
AcDbLine
 10
86.6876
 20
-0.0000000000000794
 30
0.0
 11
88.1018
 21
-0.0000000000000794
 31
0.0
  0
LINE
  5
46
330
1E
100
AcDbEntity
  8
0
100
AcDbLine
 10
93.314
 20
-0.0000000000000798
 30
0.0
 11
93.314
 21
1.999999999999919
 31
0.0
  0
LINE
  5
47
330
1E
100
AcDbEntity
  8
0
100
AcDbLine
 10
93.314
 20
-0.0000000000000798
 30
0.0
 11
95.2458
 21
-0.0000000000000799
 31
0.0
  0
LINE
  5
48
330
1E
100
AcDbEntity
  8
0
100
AcDbLine
 10
92.116
 20
-0.0000000000000797
 30
0.0
 11
92.116
 21
1.999999999999919
 31
0.0
  0
LINE
  5
49
330
1E
100
AcDbEntity
  8
0
100
AcDbLine
 10
92.9391
 20
-0.0000000000000797
 30
0.0
 11
94.67119999999999
 21
-0.0000000000000798
 31
0.0
  0
LINE
  5
4A
330
1E
100
AcDbEntity
  8
0
100
AcDbLine
 10
92.9391
 20
-0.0000000000000797
 30
0.0
 11
92.9391
 21
1.999999999999919
 31
0.0
  0
LINE
  5
4B
330
1E
100
AcDbEntity
  8
0
100
AcDbLine
 10
91.9391
 20
-0.0000000000000797
 30
0.0
 11
93.314
 21
-0.0000000000000798
 31
0.0
  0
LINE
  5
4C
330
1E
100
AcDbEntity
  8
0
100
AcDbLine
 10
91.9391
 20
-0.0000000000000797
 30
0.0
 11
92.9391
 21
-0.0000000000000797
 31
0.0
  0
LINE
  5
4D
330
1E
100
AcDbEntity
  8
0
100
AcDbLine
 10
83.61600000000001
 20
-0.0000000000000792
 30
0.0
 11
84.616
 21
-0.0000000000000792
 31
0.0
  0
LINE
  5
4E
330
1E
100
AcDbEntity
  8
0
100
AcDbLine
 10
83.61600000000001
 20
-0.0000000000000792
 30
0.0
 11
83.61600000000001
 21
1.999999999999919
 31
0.0
  0
LINE
  5
4F
330
1E
100
AcDbEntity
  8
0
100
AcDbLine
 10
83.61600000000001
 20
-0.0000000000000792
 30
0.0
 11
84.616
 21
-0.0000000000000792
 31
0.0
  0
LINE
  5
50
330
1E
100
AcDbEntity
  8
0
100
AcDbLine
 10
81.88399999999999
 20
-0.0000000000000791
 30
0.0
 11
81.88399999999999
 21
1.999999999999919
 31
0.0
  0
LINE
  5
51
330
1E
100
AcDbEntity
  8
0
100
AcDbLine
 10
81.88399999999999
 20
-0.0000000000000791
 30
0.0
 11
83.61600000000001
 21
-0.0000000000000792
 31
0.0
  0
LINE
  5
52
330
1E
100
AcDbEntity
  8
0
100
AcDbLine
 10
27.9872
 20
-0.0000000000000758
 30
0.0
 11
29.7193
 21
-0.0000000000000759
 31
0.0
  0
LINE
  5
53
330
1E
100
AcDbEntity
  8
0
100
AcDbLine
 10
27.9872
 20
-0.0000000000000758
 30
0.0
 11
27.9872
 21
1.999999999999919
 31
0.0
  0
LINE
  5
54
330
1E
100
AcDbEntity
  8
0
100
AcDbLine
 10
14.75
 20
-0.0000000000000749
 30
0.0
 11
14.75
 21
1.99999999999993
 31
0.0
  0
LINE
  5
55
330
1E
100
AcDbEntity
  8
0
100
AcDbLine
 10
12.75
 20
-0.0000000000000748
 30
0.0
 11
12.75
 21
1.99999999999993
 31
0.0
  0
LINE
  5
56
330
1E
100
AcDbEntity
  8
0
100
AcDbLine
 10
12.75
 20
-0.0000000000000748
 30
0.0
 11
14.75
 21
-0.0000000000000749
 31
0.0
  0
LINE
  5
57
330
1E
100
AcDbEntity
  8
0
100
AcDbLine
 10
18.6888
 20
-0.0000000000000752
 30
0.0
 11
18.6888
 21
1.999999999999919
 31
0.0
  0
LINE
  5
58
330
1E
100
AcDbEntity
  8
0
100
AcDbLine
 10
18.1712
 20
-0.0000000000000752
 30
0.0
 11
18.6888
 21
-0.0000000000000752
 31
0.0
  0
LINE
  5
59
330
1E
100
AcDbEntity
  8
0
100
AcDbLine
 10
16.757
 20
-0.0000000000000751
 30
0.0
 11
18.1712
 21
-0.0000000000000752
 31
0.0
  0
LINE
  5
5A
330
1E
100
AcDbEntity
  8
0
100
AcDbLine
 10
16.757
 20
-0.0000000000000751
 30
0.0
 11
16.757
 21
1.99999999999993
 31
0.0
  0
LINE
  5
5B
330
1E
100
AcDbEntity
  8
0
100
AcDbLine
 10
16.757
 20
-0.0000000000000751
 30
0.0
 11
18.6888
 21
-0.0000000000000752
 31
0.0
  0
LINE
  5
5C
330
1E
100
AcDbEntity
  8
0
100
AcDbLine
 10
16.2393
 20
-0.000000000000075
 30
0.0
 11
16.2393
 21
1.99999999999993
 31
0.0
  0
LINE
  5
5D
330
1E
100
AcDbEntity
  8
0
100
AcDbLine
 10
16.2393
 20
-0.000000000000075
 30
0.0
 11
16.757
 21
-0.0000000000000751
 31
0.0
  0
LINE
  5
5E
330
1E
100
AcDbEntity
  8
0
100
AcDbLine
 10
26.9872
 20
-0.0000000000000757
 30
0.0
 11
26.9872
 21
1.999999999999919
 31
0.0
  0
LINE
  5
5F
330
1E
100
AcDbEntity
  8
0
100
AcDbLine
 10
26.9872
 20
-0.0000000000000757
 30
0.0
 11
27.9872
 21
-0.0000000000000758
 31
0.0
  0
LINE
  5
60
330
1E
100
AcDbEntity
  8
0
100
AcDbLine
 10
68.616
 20
-0.0000000000000782
 30
0.0
 11
69.616
 21
-0.0000000000000783
 31
0.0
  0
LINE
  5
61
330
1E
100
AcDbEntity
  8
0
100
AcDbLine
 10
68.616
 20
-0.0000000000000782
 30
0.0
 11
69.616
 21
-0.0000000000000783
 31
0.0
  0
LINE
  5
62
330
1E
100
AcDbEntity
  8
0
100
AcDbLine
 10
68.616
 20
-0.0000000000000782
 30
0.0
 11
68.616
 21
1.999999999999919
 31
0.0
  0
LINE
  5
63
330
1E
100
AcDbEntity
  8
0
100
AcDbLine
 10
66.884
 20
-0.0000000000000781
 30
0.0
 11
68.616
 21
-0.0000000000000782
 31
0.0
  0
LINE
  5
64
330
1E
100
AcDbEntity
  8
0
100
AcDbLine
 10
66.884
 20
-0.0000000000000781
 30
0.0
 11
66.884
 21
1.999999999999919
 31
0.0
  0
LINE
  5
65
330
1E
100
AcDbEntity
  8
0
100
AcDbLine
 10
66.9584
 20
-0.0000000000000781
 30
0.0
 11
68.6904
 21
-0.0000000000000783
 31
0.0
  0
LINE
  5
66
330
1E
100
AcDbEntity
  8
0
100
AcDbLine
 10
67.6904
 20
-0.0000000000000782
 30
0.0
 11
68.6904
 21
-0.0000000000000783
 31
0.0
  0
LINE
  5
67
330
1E
100
AcDbEntity
  8
0
100
AcDbLine
 10
65.95839999999999
 20
-0.0000000000000781
 30
0.0
 11
66.884
 21
-0.0000000000000781
 31
0.0
  0
LINE
  5
68
330
1E
100
AcDbEntity
  8
0
100
AcDbLine
 10
65.95839999999999
 20
-0.0000000000000781
 30
0.0
 11
66.884
 21
-0.0000000000000781
 31
0.0
  0
LINE
  5
69
330
1E
100
AcDbEntity
  8
0
100
AcDbLine
 10
59.70600000000001
 20
-0.0000000000000777
 30
0.0
 11
60.22359999999999
 21
-0.0000000000000777
 31
0.0
  0
LINE
  5
6A
330
1E
100
AcDbEntity
  8
0
100
AcDbLine
 10
59.70600000000001
 20
-0.0000000000000777
 30
0.0
 11
59.70600000000001
 21
1.999999999999919
 31
0.0
  0
LINE
  5
6B
330
1E
100
AcDbEntity
  8
0
100
AcDbLine
 10
57.69619999999999
 20
-0.0000000000000776
 30
0.0
 11
57.69619999999999
 21
1.999999999999919
 31
0.0
  0
LINE
  5
6C
330
1E
100
AcDbEntity
  8
0
100
AcDbLine
 10
57.75
 20
-0.0000000000000776
 30
0.0
 11
57.75
 21
1.999999999999919
 31
0.0
  0
LINE
  5
6D
330
1E
100
AcDbEntity
  8
0
100
AcDbLine
 10
57.75
 20
-0.0000000000000776
 30
0.0
 11
59.75
 21
-0.0000000000000777
 31
0.0
  0
LINE
  5
6E
330
1E
100
AcDbEntity
  8
0
100
AcDbLine
 10
62.1555
 20
-0.0000000000000779
 30
0.0
 11
62.1555
 21
1.999999999999919
 31
0.0
  0
LINE
  5
6F
330
1E
100
AcDbEntity
  8
0
100
AcDbLine
 10
60.22359999999999
 20
-0.0000000000000777
 30
0.0
 11
60.22359999999999
 21
1.999999999999919
 31
0.0
  0
LINE
  5
70
330
1E
100
AcDbEntity
  8
0
100
AcDbLine
 10
60.22359999999999
 20
-0.0000000000000777
 30
0.0
 11
62.1555
 21
-0.0000000000000779
 31
0.0
  0
LINE
  5
71
330
1E
100
AcDbEntity
  8
0
100
AcDbLine
 10
59.75
 20
-0.0000000000000777
 30
0.0
 11
60.22359999999999
 21
-0.0000000000000777
 31
0.0
  0
LINE
  5
72
330
1E
100
AcDbEntity
  8
0
100
AcDbLine
 10
65.4743
 20
-0.0000000000000781
 30
0.0
 11
65.4743
 21
1.999999999999919
 31
0.0
  0
LINE
  5
73
330
1E
100
AcDbEntity
  8
0
100
AcDbLine
 10
65.4743
 20
-0.0000000000000781
 30
0.0
 11
66.884
 21
-0.0000000000000781
 31
0.0
  0
LINE
  5
74
330
1E
100
AcDbEntity
  8
0
100
AcDbLine
 10
56.28199999999999
 20
-0.0000000000000775
 30
0.0
 11
57.69619999999999
 21
-0.0000000000000776
 31
0.0
  0
LINE
  5
75
330
1E
100
AcDbEntity
  8
0
100
AcDbLine
 10
56.28199999999999
 20
-0.0000000000000775
 30
0.0
 11
56.28199999999999
 21
1.999999999999919
 31
0.0
  0
LINE
  5
76
330
1E
100
AcDbEntity
  8
0
100
AcDbLine
 10
29.7193
 20
-0.0000000000000759
 30
0.0
 11
29.7193
 21
1.999999999999919
 31
0.0
  0
LINE
  5
77
330
1E
100
AcDbEntity
  8
0
100
AcDbLine
 10
28.7193
 20
-0.0000000000000758
 30
0.0
 11
29.7193
 21
-0.0000000000000759
 31
0.0
  0
LINE
  5
78
330
1E
100
AcDbEntity
  8
0
100
AcDbLine
 10
29.75
 20
-0.0000000000000759
 30
0.0
 11
29.75
 21
1.999999999999919
 31
0.0
  0
LINE
  5
79
330
1E
100
AcDbEntity
  8
0
100
AcDbLine
 10
28.7193
 20
-0.0000000000000758
 30
0.0
 11
29.75
 21
-0.0000000000000759
 31
0.0
  0
LINE
  5
7A
330
1E
100
AcDbEntity
  8
0
100
AcDbLine
 10
33.1777
 20
-0.0000000000000761
 30
0.0
 11
33.1777
 21
1.999999999999919
 31
0.0
  0
LINE
  5
7B
330
1E
100
AcDbEntity
  8
0
100
AcDbLine
 10
47.0896
 20
-0.0000000000000769
 30
0.0
 11
47.0896
 21
1.999999999999919
 31
0.0
  0
LINE
  5
7C
330
1E
100
AcDbEntity
  8
0
100
AcDbLine
 10
47.6666
 20
-0.000000000000077
 30
0.0
 11
47.6666
 21
1.999999999999919
 31
0.0
  0
LINE
  5
7D
330
1E
100
AcDbEntity
  8
0
100
AcDbLine
 10
42.7096
 20
-0.0000000000000767
 30
0.0
 11
42.7096
 21
1.999999999999919
 31
0.0
  0
LINE
  5
7E
330
1E
100
AcDbEntity
  8
0
100
AcDbLine
 10
45.6754
 20
-0.0000000000000768
 30
0.0
 11
47.0896
 21
-0.0000000000000769
 31
0.0
  0
LINE
  5
7F
330
1E
100
AcDbEntity
  8
0
100
AcDbLine
 10
45.6754
 20
-0.0000000000000768
 30
0.0
 11
45.6754
 21
1.999999999999919
 31
0.0
  0
LINE
  5
80
330
1E
100
AcDbEntity
  8
0
100
AcDbLine
 10
44.2611
 20
-0.0000000000000768
 30
0.0
 11
45.6754
 21
-0.0000000000000768
 31
0.0
  0
LINE
  5
81
330
1E
100
AcDbEntity
  8
0
100
AcDbLine
 10
44.2611
 20
-0.0000000000000768
 30
0.0
 11
44.2611
 21
1.999999999999919
 31
0.0
  0
LINE
  5
82
330
1E
100
AcDbEntity
  8
0
100
AcDbLine
 10
42.75
 20
-0.0000000000000767
 30
0.0
 11
42.75
 21
1.999999999999919
 31
0.0
  0
LINE
  5
83
330
1E
100
AcDbEntity
  8
0
100
AcDbLine
 10
42.75
 20
-0.0000000000000767
 30
0.0
 11
44.75
 21
-0.0000000000000768
 31
0.0
  0
LINE
  5
84
330
1E
100
AcDbEntity
  8
0
100
AcDbLine
 10
45.73479999999999
 20
-0.0000000000000768
 30
0.0
 11
47.6666
 21
-0.000000000000077
 31
0.0
  0
LINE
  5
85
330
1E
100
AcDbEntity
  8
0
100
AcDbLine
 10
54.86769999999999
 20
-0.0000000000000774
 30
0.0
 11
56.28199999999999
 21
-0.0000000000000775
 31
0.0
  0
LINE
  5
86
330
1E
100
AcDbEntity
  8
0
100
AcDbLine
 10
54.86769999999999
 20
-0.0000000000000774
 30
0.0
 11
54.86769999999999
 21
1.999999999999919
 31
0.0
  0
LINE
  5
87
330
1E
100
AcDbEntity
  8
0
100
AcDbLine
 10
53.968
 20
-0.0000000000000773
 30
0.0
 11
54.7
 21
-0.0000000000000774
 31
0.0
  0
LINE
  5
88
330
1E
100
AcDbEntity
  8
0
100
AcDbLine
 10
53.968
 20
-0.0000000000000773
 30
0.0
 11
54.86769999999999
 21
-0.0000000000000774
 31
0.0
  0
LINE
  5
89
330
1E
100
AcDbEntity
  8
0
100
AcDbLine
 10
53.968
 20
-0.0000000000000773
 30
0.0
 11
53.968
 21
1.999999999999919
 31
0.0
  0
LINE
  5
8A
330
1E
100
AcDbEntity
  8
0
100
AcDbLine
 10
54.7
 20
-0.0000000000000774
 30
0.0
 11
55.7
 21
-0.0000000000000775
 31
0.0
  0
LINE
  5
8B
330
1E
100
AcDbEntity
  8
0
100
AcDbLine
 10
52.96800000000001
 20
-0.0000000000000773
 30
0.0
 11
52.96800000000001
 21
1.999999999999919
 31
0.0
  0
LINE
  5
8C
330
1E
100
AcDbEntity
  8
0
100
AcDbLine
 10
52.96800000000001
 20
-0.0000000000000773
 30
0.0
 11
53.968
 21
-0.0000000000000773
 31
0.0
  0
LINE
  5
8D
330
1E
100
AcDbEntity
  8
0
100
AcDbLine
 10
40.9776
 20
-0.0000000000000766
 30
0.0
 11
42.7096
 21
-0.0000000000000767
 31
0.0
  0
LINE
  5
8E
330
1E
100
AcDbEntity
  8
0
100
AcDbLine
 10
40.9776
 20
-0.0000000000000766
 30
0.0
 11
40.9776
 21
1.999999999999919
 31
0.0
  0
LINE
  5
8F
330
1E
100
AcDbEntity
  8
0
100
AcDbLine
 10
41.7096
 20
-0.0000000000000766
 30
0.0
 11
42.7096
 21
-0.0000000000000767
 31
0.0
  0
LINE
  5
90
330
1E
100
AcDbEntity
  8
0
100
AcDbLine
 10
39.9776
 20
-0.0000000000000765
 30
0.0
 11
41.7096
 21
-0.0000000000000766
 31
0.0
  0
LINE
  5
91
330
1E
100
AcDbEntity
  8
0
100
AcDbLine
 10
39.9776
 20
-0.0000000000000765
 30
0.0
 11
39.9776
 21
1.999999999999919
 31
0.0
  0
LINE
  5
92
330
1E
100
AcDbEntity
  8
0
100
AcDbLine
 10
39.9776
 20
-0.0000000000000765
 30
0.0
 11
40.9776
 21
-0.0000000000000766
 31
0.0
  0
LINE
  5
93
330
1E
100
AcDbEntity
  8
0
100
AcDbLine
 10
31.24589999999999
 20
-0.000000000000076
 30
0.0
 11
33.1777
 21
-0.0000000000000761
 31
0.0
  0
LINE
  5
94
330
1E
100
AcDbEntity
  8
0
100
AcDbLine
 10
31.24589999999999
 20
-0.000000000000076
 30
0.0
 11
31.24589999999999
 21
1.999999999999919
 31
0.0
  0
LINE
  5
95
330
1E
100
AcDbEntity
  8
0
100
AcDbLine
 10
30.7282
 20
-0.0000000000000759
 30
0.0
 11
30.7282
 21
1.999999999999919
 31
0.0
  0
LINE
  5
96
330
1E
100
AcDbEntity
  8
0
100
AcDbLine
 10
30.7282
 20
-0.0000000000000759
 30
0.0
 11
31.24589999999999
 21
-0.000000000000076
 31
0.0
  0
LINE
  5
97
330
1E
100
AcDbEntity
  8
0
100
AcDbLine
 10
55.7
 20
-0.0000000000000775
 30
0.0
 11
56.28199999999999
 21
-0.0000000000000775
 31
0.0
  0
LINE
  5
98
330
1E
100
AcDbEntity
  8
0
100
AcDbLine
 10
27.9872
 20
-0.0000000000000758
 30
0.0
 11
28.7193
 21
-0.0000000000000758
 31
0.0
  0
LINE
  5
99
330
1E
100
AcDbEntity
  8
0
100
AcDbLine
 10
68.6904
 20
-0.0000000000000783
 30
0.0
 11
69.616
 21
-0.0000000000000783
 31
0.0
  0
LINE
  5
9A
330
1E
100
AcDbEntity
  8
0
100
AcDbLine
 10
105.478
 20
-0.0000000000000805
 30
0.0
 11
107.41
 21
-0.0000000000000806
 31
0.0
  0
LINE
  5
9B
330
1E
100
AcDbEntity
  8
0
100
AcDbLine
 10
104.9609999999999
 20
-0.0000000000000805
 30
0.0
 11
104.9609999999999
 21
1.999999999999919
 31
0.0
  0
LINE
  5
9C
330
1E
100
AcDbEntity
  8
0
100
AcDbLine
 10
104.9609999999999
 20
-0.0000000000000805
 30
0.0
 11
106.8929999999999
 21
-0.0000000000000806
 31
0.0
  0
LINE
  5
9D
330
1E
100
AcDbEntity
  8
0
100
AcDbLine
 10
104.9609999999999
 20
-0.0000000000000805
 30
0.0
 11
105.478
 21
-0.0000000000000805
 31
0.0
  0
LINE
  5
9E
330
1E
100
AcDbEntity
  8
0
100
AcDbLine
 10
104.384
 20
-0.0000000000000804
 30
0.0
 11
106.116
 21
-0.0000000000000805
 31
0.0
  0
LINE
  5
9F
330
1E
100
AcDbEntity
  8
0
100
AcDbLine
 10
104.384
 20
-0.0000000000000804
 30
0.0
 11
104.384
 21
1.999999999999919
 31
0.0
  0
LINE
  5
A0
330
1E
100
AcDbEntity
  8
0
100
AcDbLine
 10
104.929
 20
-0.0000000000000805
 30
0.0
 11
105.929
 21
-0.0000000000000805
 31
0.0
  0
LINE
  5
A1
330
1E
100
AcDbEntity
  8
0
100
AcDbLine
 10
108.8429999999999
 20
-0.0000000000000807
 30
0.0
 11
108.8429999999999
 21
1.999999999999919
 31
0.0
  0
LINE
  5
A2
330
1E
100
AcDbEntity
  8
0
100
AcDbLine
 10
108.8429999999999
 20
-0.0000000000000807
 30
0.0
 11
110.775
 21
-0.0000000000000808
 31
0.0
  0
LINE
  5
A3
330
1E
100
AcDbEntity
  8
0
100
AcDbLine
 10
108.8429999999999
 20
-0.0000000000000807
 30
0.0
 11
109.3609999999999
 21
-0.0000000000000807
 31
0.0
  0
LINE
  5
A4
330
1E
100
AcDbEntity
  8
0
100
AcDbLine
 10
106.116
 20
-0.0000000000000805
 30
0.0
 11
107.116
 21
-0.0000000000000806
 31
0.0
  0
LINE
  5
A5
330
1E
100
AcDbEntity
  8
0
100
AcDbLine
 10
107.41
 20
-0.0000000000000806
 30
0.0
 11
107.41
 21
1.999999999999919
 31
0.0
  0
LINE
  5
A6
330
1E
100
AcDbEntity
  8
0
100
AcDbLine
 10
106.8929999999999
 20
-0.0000000000000806
 30
0.0
 11
107.41
 21
-0.0000000000000806
 31
0.0
  0
LINE
  5
A7
330
1E
100
AcDbEntity
  8
0
100
AcDbLine
 10
106.8929999999999
 20
-0.0000000000000806
 30
0.0
 11
106.8929999999999
 21
1.999999999999919
 31
0.0
  0
LINE
  5
A8
330
1E
100
AcDbEntity
  8
0
100
AcDbLine
 10
106.116
 20
-0.0000000000000805
 30
0.0
 11
107.116
 21
-0.0000000000000806
 31
0.0
  0
LINE
  5
A9
330
1E
100
AcDbEntity
  8
0
100
AcDbLine
 10
107.662
 20
-0.0000000000000806
 30
0.0
 11
107.662
 21
1.999999999999919
 31
0.0
  0
LINE
  5
AA
330
1E
100
AcDbEntity
  8
0
100
AcDbLine
 10
105.929
 20
-0.0000000000000805
 30
0.0
 11
107.662
 21
-0.0000000000000806
 31
0.0
  0
LINE
  5
AB
330
1E
100
AcDbEntity
  8
0
100
AcDbLine
 10
107.901
 20
-0.0000000000000807
 30
0.0
 11
109.315
 21
-0.0000000000000807
 31
0.0
  0
LINE
  5
AC
330
1E
100
AcDbEntity
  8
0
100
AcDbLine
 10
107.901
 20
-0.0000000000000807
 30
0.0
 11
107.901
 21
1.999999999999919
 31
0.0
  0
LINE
  5
AD
330
1E
100
AcDbEntity
  8
0
100
AcDbLine
 10
105.622
 20
-0.0000000000000805
 30
0.0
 11
105.929
 21
-0.0000000000000805
 31
0.0
  0
LINE
  5
AE
330
1E
100
AcDbEntity
  8
0
100
AcDbLine
 10
103.01
 20
-0.0000000000000804
 30
0.0
 11
103.5279999999999
 21
-0.0000000000000804
 31
0.0
  0
LINE
  5
AF
330
1E
100
AcDbEntity
  8
0
100
AcDbLine
 10
103.01
 20
-0.0000000000000804
 30
0.0
 11
103.01
 21
1.999999999999919
 31
0.0
  0
LINE
  5
B0
330
1E
100
AcDbEntity
  8
0
100
AcDbLine
 10
101.5959999999999
 20
-0.0000000000000803
 30
0.0
 11
103.5279999999999
 21
-0.0000000000000804
 31
0.0
  0
LINE
  5
B1
330
1E
100
AcDbEntity
  8
0
100
AcDbLine
 10
102.75
 20
-0.0000000000000803
 30
0.0
 11
103.1729999999999
 21
-0.0000000000000804
 31
0.0
  0
LINE
  5
B2
330
1E
100
AcDbEntity
  8
0
100
AcDbLine
 10
103.5279999999999
 20
-0.0000000000000804
 30
0.0
 11
103.5279999999999
 21
1.999999999999919
 31
0.0
  0
LINE
  5
B3
330
1E
100
AcDbEntity
  8
0
100
AcDbLine
 10
103.1729999999999
 20
-0.0000000000000804
 30
0.0
 11
103.6899999999999
 21
-0.0000000000000804
 31
0.0
  0
LINE
  5
B4
330
1E
100
AcDbEntity
  8
0
100
AcDbLine
 10
103.6899999999999
 20
-0.0000000000000804
 30
0.0
 11
105.622
 21
-0.0000000000000805
 31
0.0
  0
LINE
  5
B5
330
1E
100
AcDbEntity
  8
0
100
AcDbLine
 10
103.6899999999999
 20
-0.0000000000000804
 30
0.0
 11
103.6899999999999
 21
1.999999999999919
 31
0.0
  0
LINE
  5
B6
330
1E
100
AcDbEntity
  8
0
100
AcDbLine
 10
115.175
 20
-0.0000000000000811
 30
0.0
 11
115.175
 21
1.999999999999919
 31
0.0
  0
LINE
  5
B7
330
1E
100
AcDbEntity
  8
0
100
AcDbLine
 10
114.657
 20
-0.0000000000000811
 30
0.0
 11
115.175
 21
-0.0000000000000811
 31
0.0
  0
LINE
  5
B8
330
1E
100
AcDbEntity
  8
0
100
AcDbLine
 10
114.657
 20
-0.0000000000000811
 30
0.0
 11
114.657
 21
1.999999999999919
 31
0.0
  0
LINE
  5
B9
330
1E
100
AcDbEntity
  8
0
100
AcDbLine
 10
119.057
 20
-0.0000000000000813
 30
0.0
 11
119.057
 21
1.999999999999919
 31
0.0
  0
LINE
  5
BA
330
1E
100
AcDbEntity
  8
0
100
AcDbLine
 10
118.54
 20
-0.0000000000000813
 30
0.0
 11
119.057
 21
-0.0000000000000813
 31
0.0
  0
LINE
  5
BB
330
1E
100
AcDbEntity
  8
0
100
AcDbLine
 10
118.54
 20
-0.0000000000000813
 30
0.0
 11
118.54
 21
1.999999999999919
 31
0.0
  0
LINE
  5
BC
330
1E
100
AcDbEntity
  8
0
100
AcDbLine
 10
117.125
 20
-0.0000000000000812
 30
0.0
 11
119.057
 21
-0.0000000000000813
 31
0.0
  0
LINE
  5
BD
330
1E
100
AcDbEntity
  8
0
100
AcDbLine
 10
116.608
 20
-0.0000000000000812
 30
0.0
 11
117.125
 21
-0.0000000000000812
 31
0.0
  0
LINE
  5
BE
330
1E
100
AcDbEntity
  8
0
100
AcDbLine
 10
116.608
 20
-0.0000000000000812
 30
0.0
 11
116.608
 21
1.999999999999919
 31
0.0
  0
LINE
  5
BF
330
1E
100
AcDbEntity
  8
0
100
AcDbLine
 10
116.608
 20
-0.0000000000000812
 30
0.0
 11
118.54
 21
-0.0000000000000813
 31
0.0
  0
LINE
  5
C0
330
1E
100
AcDbEntity
  8
0
100
AcDbLine
 10
111.2929999999999
 20
-0.0000000000000809
 30
0.0
 11
111.2929999999999
 21
1.999999999999919
 31
0.0
  0
LINE
  5
C1
330
1E
100
AcDbEntity
  8
0
100
AcDbLine
 10
110.775
 20
-0.0000000000000808
 30
0.0
 11
111.2929999999999
 21
-0.0000000000000809
 31
0.0
  0
LINE
  5
C2
330
1E
100
AcDbEntity
  8
0
100
AcDbLine
 10
110.775
 20
-0.0000000000000808
 30
0.0
 11
110.775
 21
1.999999999999919
 31
0.0
  0
LINE
  5
C3
330
1E
100
AcDbEntity
  8
0
100
AcDbLine
 10
113.243
 20
-0.000000000000081
 30
0.0
 11
115.175
 21
-0.0000000000000811
 31
0.0
  0
LINE
  5
C4
330
1E
100
AcDbEntity
  8
0
100
AcDbLine
 10
113.616
 20
-0.000000000000081
 30
0.0
 11
114.616
 21
-0.0000000000000811
 31
0.0
  0
LINE
  5
C5
330
1E
100
AcDbEntity
  8
0
100
AcDbLine
 10
112.7249999999999
 20
-0.0000000000000809
 30
0.0
 11
112.7249999999999
 21
1.999999999999919
 31
0.0
  0
LINE
  5
C6
330
1E
100
AcDbEntity
  8
0
100
AcDbLine
 10
112.7249999999999
 20
-0.0000000000000809
 30
0.0
 11
114.657
 21
-0.0000000000000811
 31
0.0
  0
LINE
  5
C7
330
1E
100
AcDbEntity
  8
0
100
AcDbLine
 10
112.7249999999999
 20
-0.0000000000000809
 30
0.0
 11
113.243
 21
-0.000000000000081
 31
0.0
  0
LINE
  5
C8
330
1E
100
AcDbEntity
  8
0
100
AcDbLine
 10
112.884
 20
-0.000000000000081
 30
0.0
 11
113.616
 21
-0.000000000000081
 31
0.0
  0
LINE
  5
C9
330
1E
100
AcDbEntity
  8
0
100
AcDbLine
 10
111.884
 20
-0.0000000000000809
 30
0.0
 11
112.884
 21
-0.000000000000081
 31
0.0
  0
LINE
  5
CA
330
1E
100
AcDbEntity
  8
0
100
AcDbLine
 10
111.884
 20
-0.0000000000000809
 30
0.0
 11
111.884
 21
1.999999999999919
 31
0.0
  0
LINE
  5
CB
330
1E
100
AcDbEntity
  8
0
100
AcDbLine
 10
111.884
 20
-0.0000000000000809
 30
0.0
 11
113.616
 21
-0.000000000000081
 31
0.0
  0
LINE
  5
CC
330
1E
100
AcDbEntity
  8
0
100
AcDbLine
 10
114.616
 20
-0.0000000000000811
 30
0.0
 11
115.175
 21
-0.0000000000000811
 31
0.0
  0
LINE
  5
CD
330
1E
100
AcDbEntity
  8
0
100
AcDbLine
 10
109.3609999999999
 20
-0.0000000000000807
 30
0.0
 11
111.2929999999999
 21
-0.0000000000000809
 31
0.0
  0
LINE
  5
CE
330
1E
100
AcDbEntity
  8
0
100
AcDbLine
 10
95.76349999999999
 20
-0.0000000000000799
 30
0.0
 11
95.76349999999999
 21
1.999999999999919
 31
0.0
  0
LINE
  5
CF
330
1E
100
AcDbEntity
  8
0
100
AcDbLine
 10
99.64579999999999
 20
-0.0000000000000801
 30
0.0
 11
99.64579999999999
 21
1.999999999999919
 31
0.0
  0
LINE
  5
D0
330
1E
100
AcDbEntity
  8
0
100
AcDbLine
 10
99.1281
 20
-0.0000000000000801
 30
0.0
 11
99.64579999999999
 21
-0.0000000000000801
 31
0.0
  0
LINE
  5
D1
330
1E
100
AcDbEntity
  8
0
100
AcDbLine
 10
99.1281
 20
-0.0000000000000801
 30
0.0
 11
99.1281
 21
1.999999999999919
 31
0.0
  0
LINE
  5
D2
330
1E
100
AcDbEntity
  8
0
100
AcDbLine
 10
100.1226
 20
-0.0000000000000802
 30
0.0
 11
100.1226
 21
1.999999999999919
 31
0.0
  0
LINE
  5
D3
330
1E
100
AcDbEntity
  8
0
100
AcDbLine
 10
98.70840000000001
 20
-0.0000000000000801
 30
0.0
 11
100.1226
 21
-0.0000000000000802
 31
0.0
  0
LINE
  5
D4
330
1E
100
AcDbEntity
  8
0
100
AcDbLine
 10
98.61600000000001
 20
-0.0000000000000801
 30
0.0
 11
98.70840000000001
 21
-0.0000000000000801
 31
0.0
  0
LINE
  5
D5
330
1E
100
AcDbEntity
  8
0
100
AcDbLine
 10
98.61600000000001
 20
-0.0000000000000801
 30
0.0
 11
99.616
 21
-0.0000000000000801
 31
0.0
  0
LINE
  5
D6
330
1E
100
AcDbEntity
  8
0
100
AcDbLine
 10
97.1963
 20
-0.00000000000008
 30
0.0
 11
97.1963
 21
1.999999999999919
 31
0.0
  0
LINE
  5
D7
330
1E
100
AcDbEntity
  8
0
100
AcDbLine
 10
97.1963
 20
-0.00000000000008
 30
0.0
 11
99.1281
 21
-0.0000000000000801
 31
0.0
  0
LINE
  5
D8
330
1E
100
AcDbEntity
  8
0
100
AcDbLine
 10
119.057
 20
1.999999999999919
 30
0.0
 11
119.057
 21
-0.0000000000000814
 31
0.0
  0
LINE
  5
D9
330
1E
100
AcDbEntity
  8
0
100
AcDbLine
 10
97.88400000000001
 20
-0.00000000000008
 30
0.0
 11
98.61600000000001
 21
-0.0000000000000801
 31
0.0
  0
LINE
  5
DA
330
1E
100
AcDbEntity
  8
0
100
AcDbLine
 10
96.88400000000001
 20
-0.00000000000008
 30
0.0
 11
97.88400000000001
 21
-0.00000000000008
 31
0.0
  0
LINE
  5
DB
330
1E
100
AcDbEntity
  8
0
100
AcDbLine
 10
96.88400000000001
 20
-0.00000000000008
 30
0.0
 11
96.88400000000001
 21
1.999999999999919
 31
0.0
  0
LINE
  5
DC
330
1E
100
AcDbEntity
  8
0
100
AcDbLine
 10
96.88400000000001
 20
-0.00000000000008
 30
0.0
 11
98.61600000000001
 21
-0.0000000000000801
 31
0.0
  0
LINE
  5
DD
330
1E
100
AcDbEntity
  8
0
100
AcDbLine
 10
101.0789999999999
 20
-0.0000000000000802
 30
0.0
 11
101.0789999999999
 21
1.999999999999919
 31
0.0
  0
LINE
  5
DE
330
1E
100
AcDbEntity
  8
0
100
AcDbLine
 10
101.0789999999999
 20
-0.0000000000000802
 30
0.0
 11
101.5959999999999
 21
-0.0000000000000803
 31
0.0
  0
LINE
  5
DF
330
1E
100
AcDbEntity
  8
0
100
AcDbLine
 10
101.0789999999999
 20
-0.0000000000000802
 30
0.0
 11
103.01
 21
-0.0000000000000804
 31
0.0
  0
LINE
  5
E0
330
1E
100
AcDbEntity
  8
0
100
AcDbLine
 10
95.2458
 20
-0.0000000000000799
 30
0.0
 11
95.76349999999999
 21
-0.0000000000000799
 31
0.0
  0
LINE
  5
E1
330
1E
100
AcDbEntity
  8
0
100
AcDbLine
 10
95.2458
 20
-0.0000000000000799
 30
0.0
 11
95.2458
 21
1.999999999999919
 31
0.0
  0
LINE
  5
E2
330
1E
100
AcDbEntity
  8
0
100
AcDbLine
 10
88.1018
 20
1.999999999999919
 30
0.0
 11
89.38399999999999
 21
1.999999999999919
 31
0.0
  0
LINE
  5
E3
330
1E
100
AcDbEntity
  8
0
100
AcDbLine
 10
88.1018
 20
1.999999999999919
 30
0.0
 11
88.1018
 21
-0.0000000000000794
 31
0.0
  0
LINE
  5
E4
330
1E
100
AcDbEntity
  8
0
100
AcDbLine
 10
88.1018
 20
1.999999999999919
 30
0.0
 11
89.20140000000001
 21
1.999999999999919
 31
0.0
  0
LINE
  5
E5
330
1E
100
AcDbEntity
  8
0
100
AcDbLine
 10
95.2458
 20
1.999999999999919
 30
0.0
 11
95.2458
 21
-0.0000000000000798
 31
0.0
  0
LINE
  5
E6
330
1E
100
AcDbEntity
  8
0
100
AcDbLine
 10
93.314
 20
1.999999999999919
 30
0.0
 11
95.2458
 21
1.999999999999919
 31
0.0
  0
LINE
  5
E7
330
1E
100
AcDbEntity
  8
0
100
AcDbLine
 10
93.314
 20
1.999999999999919
 30
0.0
 11
93.314
 21
-0.0000000000000798
 31
0.0
  0
LINE
  5
E8
330
1E
100
AcDbEntity
  8
0
100
AcDbLine
 10
95.76349999999999
 20
1.999999999999919
 30
0.0
 11
95.76349999999999
 21
-0.0000000000000798
 31
0.0
  0
LINE
  5
E9
330
1E
100
AcDbEntity
  8
0
100
AcDbLine
 10
91.54999999999999
 20
1.999999999999919
 30
0.0
 11
122.75
 21
1.999999999999919
 31
0.0
  0
LINE
  5
EA
330
1E
100
AcDbEntity
  8
0
100
AcDbLine
 10
89.38399999999999
 20
1.999999999999919
 30
0.0
 11
91.11600000000001
 21
1.999999999999919
 31
0.0
  0
LINE
  5
EB
330
1E
100
AcDbEntity
  8
0
100
AcDbLine
 10
89.38399999999999
 20
1.999999999999919
 30
0.0
 11
89.38399999999999
 21
-0.0000000000000796
 31
0.0
  0
LINE
  5
EC
330
1E
100
AcDbEntity
  8
0
100
AcDbLine
 10
91.11600000000001
 20
1.999999999999919
 30
0.0
 11
91.54999999999999
 21
1.999999999999919
 31
0.0
  0
LINE
  5
ED
330
1E
100
AcDbEntity
  8
0
100
AcDbLine
 10
91.11600000000001
 20
1.999999999999919
 30
0.0
 11
91.11600000000001
 21
-0.0000000000000796
 31
0.0
  0
LINE
  5
EE
330
1E
100
AcDbEntity
  8
0
100
AcDbLine
 10
92.116
 20
1.999999999999919
 30
0.0
 11
92.116
 21
-0.0000000000000796
 31
0.0
  0
LINE
  5
EF
330
1E
100
AcDbEntity
  8
0
100
AcDbLine
 10
92.9391
 20
1.999999999999919
 30
0.0
 11
93.314
 21
1.999999999999919
 31
0.0
  0
LINE
  5
F0
330
1E
100
AcDbEntity
  8
0
100
AcDbLine
 10
92.9391
 20
1.999999999999919
 30
0.0
 11
92.9391
 21
-0.0000000000000798
 31
0.0
  0
LINE
  5
F1
330
1E
100
AcDbEntity
  8
0
100
AcDbLine
 10
88.6838
 20
1.999999999999919
 30
0.0
 11
89.20140000000001
 21
1.999999999999919
 31
0.0
  0
LINE
  5
F2
330
1E
100
AcDbEntity
  8
0
100
AcDbLine
 10
83.61600000000001
 20
1.999999999999919
 30
0.0
 11
84.616
 21
1.999999999999919
 31
0.0
  0
LINE
  5
F3
330
1E
100
AcDbEntity
  8
0
100
AcDbLine
 10
83.61600000000001
 20
1.999999999999919
 30
0.0
 11
83.61600000000001
 21
-0.0000000000000791
 31
0.0
  0
LINE
  5
F4
330
1E
100
AcDbEntity
  8
0
100
AcDbLine
 10
84.616
 20
1.999999999999919
 30
0.0
 11
84.616
 21
-0.0000000000000791
 31
0.0
  0
LINE
  5
F5
330
1E
100
AcDbEntity
  8
0
100
AcDbLine
 10
84.616
 20
1.999999999999919
 30
0.0
 11
86.6876
 21
1.999999999999919
 31
0.0
  0
LINE
  5
F6
330
1E
100
AcDbEntity
  8
0
100
AcDbLine
 10
81.68080000000001
 20
1.999999999999919
 30
0.0
 11
81.68080000000001
 21
-0.0000000000000791
 31
0.0
  0
LINE
  5
F7
330
1E
100
AcDbEntity
  8
0
100
AcDbLine
 10
86.6876
 20
1.999999999999919
 30
0.0
 11
86.6876
 21
-0.0000000000000794
 31
0.0
  0
LINE
  5
F8
330
1E
100
AcDbEntity
  8
0
100
AcDbLine
 10
86.6876
 20
1.999999999999919
 30
0.0
 11
88.1018
 21
1.999999999999919
 31
0.0
  0
LINE
  5
F9
330
1E
100
AcDbEntity
  8
0
100
AcDbLine
 10
99.1281
 20
1.999999999999919
 30
0.0
 11
99.1281
 21
-0.0000000000000801
 31
0.0
  0
LINE
  5
FA
330
1E
100
AcDbEntity
  8
0
100
AcDbLine
 10
97.1963
 20
1.999999999999919
 30
0.0
 11
99.1281
 21
1.999999999999919
 31
0.0
  0
LINE
  5
FB
330
1E
100
AcDbEntity
  8
0
100
AcDbLine
 10
97.1963
 20
1.999999999999919
 30
0.0
 11
97.1963
 21
-0.0000000000000801
 31
0.0
  0
LINE
  5
FC
330
1E
100
AcDbEntity
  8
0
100
AcDbLine
 10
99.64579999999999
 20
1.999999999999919
 30
0.0
 11
99.64579999999999
 21
-0.0000000000000801
 31
0.0
  0
LINE
  5
FD
330
1E
100
AcDbEntity
  8
0
100
AcDbLine
 10
100.1226
 20
1.999999999999919
 30
0.0
 11
100.1226
 21
-0.0000000000000803
 31
0.0
  0
LINE
  5
FE
330
1E
100
AcDbEntity
  8
0
100
AcDbLine
 10
96.88400000000001
 20
1.999999999999919
 30
0.0
 11
96.88400000000001
 21
-0.0000000000000801
 31
0.0
  0
LINE
  5
FF
330
1E
100
AcDbEntity
  8
0
100
AcDbLine
 10
96.88400000000001
 20
1.999999999999919
 30
0.0
 11
97.1963
 21
1.999999999999919
 31
0.0
  0
LINE
  5
100
330
1E
100
AcDbEntity
  8
0
100
AcDbLine
 10
17.55
 20
1.999999999999919
 30
0.0
 11
36.95
 21
1.999999999999919
 31
0.0
  0
LINE
  5
101
330
1E
100
AcDbEntity
  8
0
100
AcDbLine
 10
16.757
 20
1.99999999999993
 30
0.0
 11
16.757
 21
-0.000000000000075
 31
0.0
  0
LINE
  5
102
330
1E
100
AcDbEntity
  8
0
100
AcDbLine
 10
18.6888
 20
1.999999999999919
 30
0.0
 11
18.6888
 21
-0.0000000000000752
 31
0.0
  0
LINE
  5
103
330
1E
100
AcDbEntity
  8
0
100
AcDbLine
 10
18.6888
 20
1.999999999999919
 30
0.0
 11
26.9872
 21
1.999999999999919
 31
0.0
  0
LINE
  5
104
330
1E
100
AcDbEntity
  8
0
100
AcDbLine
 10
14.75
 20
1.99999999999993
 30
0.0
 11
14.75
 21
-0.000000000000075
 31
0.0
  0
LINE
  5
105
330
1E
100
AcDbEntity
  8
0
100
AcDbLine
 10
14.75
 20
1.99999999999993
 30
0.0
 11
16.2393
 21
1.999999999999919
 31
0.0
  0
LINE
  5
106
330
1E
100
AcDbEntity
  8
0
100
AcDbLine
 10
0.250000000000032
 20
2.99999999999993
 30
0.0
 11
4.350000000000029
 21
2.99999999999993
 31
0.0
  0
LINE
  5
107
330
1E
100
AcDbEntity
  8
0
100
AcDbLine
 10
0.250000000000032
 20
2.99999999999993
 30
0.0
 11
1.25000000000003
 21
3.99999999999993
 31
0.0
  0
LINE
  5
108
330
1E
100
AcDbEntity
  8
0
100
AcDbLine
 10
0.250000000000032
 20
2.99999999999993
 30
0.0
 11
1.25000000000003
 21
1.99999999999993
 31
0.0
  0
LINE
  5
109
330
1E
100
AcDbEntity
  8
0
100
AcDbLine
 10
0.250000000000032
 20
2.99999999999993
 30
0.0
 11
4.350000000000029
 21
2.99999999999993
 31
0.0
  0
LINE
  5
10A
330
1E
100
AcDbEntity
  8
0
100
AcDbLine
 10
1.25000000000003
 20
3.99999999999993
 30
0.0
 11
5.650000000000029
 21
3.99999999999993
 31
0.0
  0
LINE
  5
10B
330
1E
100
AcDbEntity
  8
0
100
AcDbLine
 10
1.25000000000003
 20
3.99999999999993
 30
0.0
 11
5.650000000000029
 21
3.99999999999993
 31
0.0
  0
LINE
  5
10C
330
1E
100
AcDbEntity
  8
0
100
AcDbLine
 10
4.350000000000029
 20
2.99999999999993
 30
0.0
 11
16.65
 21
2.99999999999992
 31
0.0
  0
LINE
  5
10D
330
1E
100
AcDbEntity
  8
0
100
AcDbLine
 10
1.25000000000003
 20
1.99999999999993
 30
0.0
 11
5.650000000000029
 21
1.99999999999993
 31
0.0
  0
LINE
  5
10E
330
1E
100
AcDbEntity
  8
0
100
AcDbLine
 10
1.25000000000003
 20
1.99999999999993
 30
0.0
 11
5.650000000000029
 21
1.99999999999993
 31
0.0
  0
LINE
  5
10F
330
1E
100
AcDbEntity
  8
0
100
AcDbLine
 10
2.250000000000029
 20
3.99999999999993
 30
0.0
 11
2.250000000000029
 21
10.9999999999999
 31
0.0
  0
LINE
  5
110
330
1E
100
AcDbEntity
  8
0
100
AcDbLine
 10
6.650000000000029
 20
3.99999999999993
 30
0.0
 11
18.25
 21
3.99999999999992
 31
0.0
  0
LINE
  5
111
330
1E
100
AcDbEntity
  8
0
100
AcDbLine
 10
2.250000000000029
 20
10.9999999999999
 30
0.0
 11
6.650000000000029
 21
10.9999999999999
 31
0.0
  0
LINE
  5
112
330
1E
100
AcDbEntity
  8
0
100
AcDbLine
 10
4.25000000000003
 20
18.99999999999989
 30
0.0
 11
5.25000000000003
 21
19.99999999999989
 31
0.0
  0
LINE
  5
113
330
1E
100
AcDbEntity
  8
0
100
AcDbLine
 10
4.25000000000003
 20
18.99999999999989
 30
0.0
 11
4.25000000000003
 21
10.9999999999999
 31
0.0
  0
LINE
  5
114
330
1E
100
AcDbEntity
  8
0
100
AcDbLine
 10
4.25000000000003
 20
18.99999999999989
 30
0.0
 11
8.550000000000029
 21
18.99999999999989
 31
0.0
  0
LINE
  5
115
330
1E
100
AcDbEntity
  8
0
100
AcDbLine
 10
5.25000000000003
 20
19.99999999999989
 30
0.0
 11
9.450000000000029
 21
19.99999999999989
 31
0.0
  0
LINE
  5
117
330
1E
100
AcDbEntity
  8
0
100
AcDbLine
 10
9.450000000000029
 20
19.99999999999989
 30
0.0
 11
21.04999999999999
 21
19.99999999999989
 31
0.0
  0
LINE
  5
118
330
1E
100
AcDbEntity
  8
0
100
AcDbLine
 10
8.550000000000029
 20
18.99999999999989
 30
0.0
 11
20.15
 21
18.99999999999989
 31
0.0
  0
LINE
  5
119
330
1E
100
AcDbEntity
  8
0
100
AcDbLine
 10
6.650000000000029
 20
10.9999999999999
 30
0.0
 11
18.25
 21
10.9999999999999
 31
0.0
  0
LINE
  5
11A
330
1E
100
AcDbEntity
  8
0
100
AcDbLine
 10
6.650000000000029
 20
10.9999999999999
 30
0.0
 11
18.25
 21
10.9999999999999
 31
0.0
  0
LINE
  5
11B
330
1E
100
AcDbEntity
  8
0
100
AcDbLine
 10
6.25000000000003
 20
23.9999999999999
 30
0.0
 11
94.25
 21
38.9999999999999
 31
0.0
  0
LINE
  5
11C
330
1E
100
AcDbEntity
  8
0
100
AcDbLine
 10
10.44999999999999
 20
23.9999999999999
 30
0.0
 11
21.85
 21
23.9999999999999
 31
0.0
  0
LINE
  5
11D
330
1E
100
AcDbEntity
  8
0
100
AcDbLine
 10
6.25000000000003
 20
23.9999999999999
 30
0.0
 11
94.25
 21
38.9999999999999
 31
0.0
  0
LINE
  5
11E
330
1E
100
AcDbEntity
  8
0
100
AcDbLine
 10
6.25000000000003
 20
23.9999999999999
 30
0.0
 11
10.44999999999999
 21
23.9999999999999
 31
0.0
  0
LINE
  5
11F
330
1E
100
AcDbEntity
  8
0
100
AcDbLine
 10
4.25000000000003
 20
21.99999999999989
 30
0.0
 11
5.25000000000003
 21
19.99999999999989
 31
0.0
  0
LINE
  5
120
330
1E
100
AcDbEntity
  8
0
100
AcDbLine
 10
4.25000000000003
 20
21.99999999999989
 30
0.0
 11
6.25000000000003
 21
23.9999999999999
 31
0.0
  0
LINE
  5
122
330
1E
100
AcDbEntity
  8
0
100
AcDbLine
 10
4.25000000000003
 20
10.9999999999999
 30
0.0
 11
4.25000000000003
 21
18.99999999999989
 31
0.0
  0
LINE
  5
123
330
1E
100
AcDbEntity
  8
0
100
AcDbLine
 10
5.650000000000029
 20
3.99999999999993
 30
0.0
 11
6.650000000000029
 21
3.99999999999993
 31
0.0
  0
LINE
  5
124
330
1E
100
AcDbEntity
  8
0
100
AcDbLine
 10
5.650000000000029
 20
3.99999999999993
 30
0.0
 11
17.55
 21
3.99999999999992
 31
0.0
  0
LINE
  5
125
330
1E
100
AcDbEntity
  8
0
100
AcDbLine
 10
0.250000000000032
 20
2.99999999999993
 30
0.0
 11
1.25000000000003
 21
1.99999999999993
 31
0.0
  0
LINE
  5
126
330
1E
100
AcDbEntity
  8
0
100
AcDbLine
 10
0.250000000000032
 20
2.99999999999993
 30
0.0
 11
1.25000000000003
 21
3.99999999999993
 31
0.0
  0
LINE
  5
127
330
1E
100
AcDbEntity
  8
0
100
AcDbLine
 10
5.650000000000029
 20
1.99999999999993
 30
0.0
 11
12.75
 21
1.99999999999993
 31
0.0
  0
LINE
  5
128
330
1E
100
AcDbEntity
  8
0
100
AcDbLine
 10
5.650000000000029
 20
1.99999999999993
 30
0.0
 11
17.55
 21
1.999999999999919
 31
0.0
  0
LINE
  5
129
330
1E
100
AcDbEntity
  8
0
100
AcDbLine
 10
17.55
 20
3.99999999999992
 30
0.0
 11
36.95
 21
3.99999999999992
 31
0.0
  0
LINE
  5
12A
330
1E
100
AcDbEntity
  8
0
100
AcDbLine
 10
16.65
 20
2.99999999999992
 30
0.0
 11
36.25
 21
2.99999999999992
 31
0.0
  0
LINE
  5
12C
330
1E
100
AcDbEntity
  8
0
100
AcDbLine
 10
21.85
 20
23.9999999999999
 30
0.0
 11
40.45
 21
23.9999999999999
 31
0.0
  0
LINE
  5
12D
330
1E
100
AcDbEntity
  8
0
100
AcDbLine
 10
21.04999999999999
 20
19.99999999999989
 30
0.0
 11
39.75
 21
19.99999999999989
 31
0.0
  0
LINE
  5
12E
330
1E
100
AcDbEntity
  8
0
100
AcDbLine
 10
20.15
 20
18.99999999999989
 30
0.0
 11
39.15
 21
18.99999999999989
 31
0.0
  0
LINE
  5
12F
330
1E
100
AcDbEntity
  8
0
100
AcDbLine
 10
20.15
 20
10.9999999999999
 30
0.0
 11
39.15
 21
10.9999999999999
 31
0.0
  0
LINE
  5
130
330
1E
100
AcDbEntity
  8
0
100
AcDbLine
 10
18.25
 20
10.9999999999999
 30
0.0
 11
37.65
 21
10.9999999999999
 31
0.0
  0
LINE
  5
131
330
1E
100
AcDbEntity
  8
0
100
AcDbLine
 10
18.25
 20
10.9999999999999
 30
0.0
 11
20.15
 21
10.9999999999999
 31
0.0
  0
LINE
  5
132
330
1E
100
AcDbEntity
  8
0
100
AcDbLine
 10
18.25
 20
3.99999999999992
 30
0.0
 11
37.65
 21
3.99999999999992
 31
0.0
  0
LINE
  5
133
330
1E
100
AcDbEntity
  8
0
100
AcDbLine
 10
12.75
 20
1.99999999999993
 30
0.0
 11
14.75
 21
1.99999999999993
 31
0.0
  0
LINE
  5
134
330
1E
100
AcDbEntity
  8
0
100
AcDbLine
 10
12.75
 20
1.99999999999993
 30
0.0
 11
12.75
 21
-0.0000000000000748
 31
0.0
  0
LINE
  5
135
330
1E
100
AcDbEntity
  8
0
100
AcDbLine
 10
16.2393
 20
1.99999999999993
 30
0.0
 11
16.2393
 21
-0.000000000000075
 31
0.0
  0
LINE
  5
136
330
1E
100
AcDbEntity
  8
0
100
AcDbLine
 10
36.95
 20
1.999999999999919
 30
0.0
 11
39.9776
 21
1.999999999999919
 31
0.0
  0
LINE
  5
137
330
1E
100
AcDbEntity
  8
0
100
AcDbLine
 10
36.95
 20
1.999999999999919
 30
0.0
 11
62.35
 21
1.999999999999919
 31
0.0
  0
LINE
  5
138
330
1E
100
AcDbEntity
  8
0
100
AcDbLine
 10
31.24589999999999
 20
1.999999999999919
 30
0.0
 11
31.24589999999999
 21
-0.0000000000000759
 31
0.0
  0
LINE
  5
139
330
1E
100
AcDbEntity
  8
0
100
AcDbLine
 10
33.1777
 20
1.999999999999919
 30
0.0
 11
33.1777
 21
-0.0000000000000761
 31
0.0
  0
LINE
  5
13A
330
1E
100
AcDbEntity
  8
0
100
AcDbLine
 10
33.1777
 20
1.999999999999919
 30
0.0
 11
36.95
 21
1.999999999999919
 31
0.0
  0
LINE
  5
13B
330
1E
100
AcDbEntity
  8
0
100
AcDbLine
 10
29.75
 20
1.999999999999919
 30
0.0
 11
29.75
 21
-0.0000000000000759
 31
0.0
  0
LINE
  5
13C
330
1E
100
AcDbEntity
  8
0
100
AcDbLine
 10
29.75
 20
1.999999999999919
 30
0.0
 11
30.7282
 21
1.999999999999919
 31
0.0
  0
LINE
  5
13D
330
1E
100
AcDbEntity
  8
0
100
AcDbLine
 10
29.7193
 20
1.999999999999919
 30
0.0
 11
29.7193
 21
-0.0000000000000759
 31
0.0
  0
LINE
  5
13E
330
1E
100
AcDbEntity
  8
0
100
AcDbLine
 10
56.28199999999999
 20
1.999999999999919
 30
0.0
 11
57.69619999999999
 21
1.999999999999919
 31
0.0
  0
LINE
  5
13F
330
1E
100
AcDbEntity
  8
0
100
AcDbLine
 10
56.28199999999999
 20
1.999999999999919
 30
0.0
 11
56.28199999999999
 21
-0.0000000000000775
 31
0.0
  0
LINE
  5
140
330
1E
100
AcDbEntity
  8
0
100
AcDbLine
 10
57.69619999999999
 20
1.999999999999919
 30
0.0
 11
57.69619999999999
 21
-0.0000000000000775
 31
0.0
  0
LINE
  5
141
330
1E
100
AcDbEntity
  8
0
100
AcDbLine
 10
57.69619999999999
 20
1.999999999999919
 30
0.0
 11
59.70600000000001
 21
1.999999999999919
 31
0.0
  0
LINE
  5
142
330
1E
100
AcDbEntity
  8
0
100
AcDbLine
 10
59.70600000000001
 20
1.999999999999919
 30
0.0
 11
60.22359999999999
 21
1.999999999999919
 31
0.0
  0
LINE
  5
143
330
1E
100
AcDbEntity
  8
0
100
AcDbLine
 10
59.70600000000001
 20
1.999999999999919
 30
0.0
 11
59.70600000000001
 21
-0.0000000000000778
 31
0.0
  0
LINE
  5
144
330
1E
100
AcDbEntity
  8
0
100
AcDbLine
 10
62.35
 20
1.999999999999919
 30
0.0
 11
66.9584
 21
1.999999999999919
 31
0.0
  0
LINE
  5
145
330
1E
100
AcDbEntity
  8
0
100
AcDbLine
 10
62.35
 20
1.999999999999919
 30
0.0
 11
91.54999999999999
 21
1.999999999999919
 31
0.0
  0
LINE
  5
146
330
1E
100
AcDbEntity
  8
0
100
AcDbLine
 10
62.1555
 20
1.999999999999919
 30
0.0
 11
62.1555
 21
-0.0000000000000778
 31
0.0
  0
LINE
  5
147
330
1E
100
AcDbEntity
  8
0
100
AcDbLine
 10
62.1555
 20
1.999999999999919
 30
0.0
 11
62.35
 21
1.999999999999919
 31
0.0
  0
LINE
  5
148
330
1E
100
AcDbEntity
  8
0
100
AcDbLine
 10
60.22359999999999
 20
1.999999999999919
 30
0.0
 11
62.1555
 21
1.999999999999919
 31
0.0
  0
LINE
  5
149
330
1E
100
AcDbEntity
  8
0
100
AcDbLine
 10
60.22359999999999
 20
1.999999999999919
 30
0.0
 11
60.22359999999999
 21
-0.0000000000000778
 31
0.0
  0
LINE
  5
14A
330
1E
100
AcDbEntity
  8
0
100
AcDbLine
 10
54.7
 20
1.999999999999919
 30
0.0
 11
56.28199999999999
 21
1.999999999999919
 31
0.0
  0
LINE
  5
14B
330
1E
100
AcDbEntity
  8
0
100
AcDbLine
 10
54.86769999999999
 20
1.999999999999919
 30
0.0
 11
54.86769999999999
 21
-0.0000000000000773
 31
0.0
  0
LINE
  5
14C
330
1E
100
AcDbEntity
  8
0
100
AcDbLine
 10
53.968
 20
1.999999999999919
 30
0.0
 11
53.968
 21
-0.0000000000000773
 31
0.0
  0
LINE
  5
14D
330
1E
100
AcDbEntity
  8
0
100
AcDbLine
 10
53.968
 20
1.999999999999919
 30
0.0
 11
54.7
 21
1.999999999999919
 31
0.0
  0
LINE
  5
14E
330
1E
100
AcDbEntity
  8
0
100
AcDbLine
 10
57.75
 20
1.999999999999919
 30
0.0
 11
59.70600000000001
 21
1.999999999999919
 31
0.0
  0
LINE
  5
14F
330
1E
100
AcDbEntity
  8
0
100
AcDbLine
 10
57.75
 20
1.999999999999919
 30
0.0
 11
57.75
 21
-0.0000000000000775
 31
0.0
  0
LINE
  5
150
330
1E
100
AcDbEntity
  8
0
100
AcDbLine
 10
78.9094
 20
1.999999999999919
 30
0.0
 11
78.9094
 21
-0.0000000000000789
 31
0.0
  0
LINE
  5
151
330
1E
100
AcDbEntity
  8
0
100
AcDbLine
 10
80.6808
 20
1.999999999999919
 30
0.0
 11
81.88399999999999
 21
1.999999999999919
 31
0.0
  0
LINE
  5
152
330
1E
100
AcDbEntity
  8
0
100
AcDbLine
 10
79.9487
 20
1.999999999999919
 30
0.0
 11
81.68080000000001
 21
1.999999999999919
 31
0.0
  0
LINE
  5
153
330
1E
100
AcDbEntity
  8
0
100
AcDbLine
 10
79.9487
 20
1.999999999999919
 30
0.0
 11
79.9487
 21
-0.0000000000000789
 31
0.0
  0
LINE
  5
154
330
1E
100
AcDbEntity
  8
0
100
AcDbLine
 10
79.9487
 20
1.999999999999919
 30
0.0
 11
80.6808
 21
1.999999999999919
 31
0.0
  0
LINE
  5
155
330
1E
100
AcDbEntity
  8
0
100
AcDbLine
 10
66.884
 20
1.999999999999919
 30
0.0
 11
68.616
 21
1.999999999999919
 31
0.0
  0
LINE
  5
156
330
1E
100
AcDbEntity
  8
0
100
AcDbLine
 10
66.884
 20
1.999999999999919
 30
0.0
 11
66.884
 21
-0.0000000000000782
 31
0.0
  0
LINE
  5
157
330
1E
100
AcDbEntity
  8
0
100
AcDbLine
 10
68.616
 20
1.999999999999919
 30
0.0
 11
69.616
 21
1.999999999999919
 31
0.0
  0
LINE
  5
158
330
1E
100
AcDbEntity
  8
0
100
AcDbLine
 10
68.616
 20
1.999999999999919
 30
0.0
 11
68.616
 21
-0.0000000000000782
 31
0.0
  0
LINE
  5
159
330
1E
100
AcDbEntity
  8
0
100
AcDbLine
 10
69.616
 20
1.999999999999919
 30
0.0
 11
69.616
 21
-0.0000000000000782
 31
0.0
  0
LINE
  5
15A
330
1E
100
AcDbEntity
  8
0
100
AcDbLine
 10
69.616
 20
1.999999999999919
 30
0.0
 11
74.1949
 21
1.999999999999919
 31
0.0
  0
LINE
  5
15B
330
1E
100
AcDbEntity
  8
0
100
AcDbLine
 10
65.95839999999999
 20
1.999999999999919
 30
0.0
 11
66.884
 21
1.999999999999919
 31
0.0
  0
LINE
  5
15C
330
1E
100
AcDbEntity
  8
0
100
AcDbLine
 10
72.75
 20
1.999999999999919
 30
0.0
 11
74.1949
 21
1.999999999999919
 31
0.0
  0
LINE
  5
15D
330
1E
100
AcDbEntity
  8
0
100
AcDbLine
 10
72.75
 20
1.999999999999919
 30
0.0
 11
72.75
 21
-0.0000000000000784
 31
0.0
  0
LINE
  5
15E
330
1E
100
AcDbEntity
  8
0
100
AcDbLine
 10
74.384
 20
1.999999999999919
 30
0.0
 11
76.116
 21
1.999999999999919
 31
0.0
  0
LINE
  5
15F
330
1E
100
AcDbEntity
  8
0
100
AcDbLine
 10
74.384
 20
1.999999999999919
 30
0.0
 11
74.384
 21
-0.0000000000000787
 31
0.0
  0
LINE
  5
160
330
1E
100
AcDbEntity
  8
0
100
AcDbLine
 10
77.4952
 20
1.999999999999919
 30
0.0
 11
77.4952
 21
-0.0000000000000789
 31
0.0
  0
LINE
  5
161
330
1E
100
AcDbEntity
  8
0
100
AcDbLine
 10
77.4952
 20
1.999999999999919
 30
0.0
 11
78.9487
 21
1.999999999999919
 31
0.0
  0
LINE
  5
162
330
1E
100
AcDbEntity
  8
0
100
AcDbLine
 10
76.116
 20
1.999999999999919
 30
0.0
 11
77.116
 21
1.999999999999919
 31
0.0
  0
LINE
  5
163
330
1E
100
AcDbEntity
  8
0
100
AcDbLine
 10
76.116
 20
1.999999999999919
 30
0.0
 11
76.116
 21
-0.0000000000000787
 31
0.0
  0
LINE
  5
164
330
1E
100
AcDbEntity
  8
0
100
AcDbLine
 10
77.116
 20
1.999999999999919
 30
0.0
 11
77.116
 21
-0.0000000000000787
 31
0.0
  0
LINE
  5
165
330
1E
100
AcDbEntity
  8
0
100
AcDbLine
 10
77.116
 20
1.999999999999919
 30
0.0
 11
77.4952
 21
1.999999999999919
 31
0.0
  0
LINE
  5
166
330
1E
100
AcDbEntity
  8
0
100
AcDbLine
 10
74.1949
 20
1.999999999999919
 30
0.0
 11
74.384
 21
1.999999999999919
 31
0.0
  0
LINE
  5
167
330
1E
100
AcDbEntity
  8
0
100
AcDbLine
 10
74.1949
 20
1.999999999999919
 30
0.0
 11
74.1949
 21
-0.0000000000000787
 31
0.0
  0
LINE
  5
168
330
1E
100
AcDbEntity
  8
0
100
AcDbLine
 10
78.9487
 20
1.999999999999919
 30
0.0
 11
78.9487
 21
-0.0000000000000789
 31
0.0
  0
LINE
  5
169
330
1E
100
AcDbEntity
  8
0
100
AcDbLine
 10
78.9487
 20
1.999999999999919
 30
0.0
 11
79.9487
 21
1.999999999999919
 31
0.0
  0
LINE
  5
16A
330
1E
100
AcDbEntity
  8
0
100
AcDbLine
 10
65.4743
 20
1.999999999999919
 30
0.0
 11
65.4743
 21
-0.000000000000078
 31
0.0
  0
LINE
  5
16B
330
1E
100
AcDbEntity
  8
0
100
AcDbLine
 10
65.4743
 20
1.999999999999919
 30
0.0
 11
66.884
 21
1.999999999999919
 31
0.0
  0
LINE
  5
16C
330
1E
100
AcDbEntity
  8
0
100
AcDbLine
 10
40.9776
 20
1.999999999999919
 30
0.0
 11
40.9776
 21
-0.0000000000000766
 31
0.0
  0
LINE
  5
16D
330
1E
100
AcDbEntity
  8
0
100
AcDbLine
 10
42.7096
 20
1.999999999999919
 30
0.0
 11
42.7096
 21
-0.0000000000000766
 31
0.0
  0
LINE
  5
16E
330
1E
100
AcDbEntity
  8
0
100
AcDbLine
 10
44.2611
 20
1.999999999999919
 30
0.0
 11
45.6754
 21
1.999999999999919
 31
0.0
  0
LINE
  5
16F
330
1E
100
AcDbEntity
  8
0
100
AcDbLine
 10
44.2611
 20
1.999999999999919
 30
0.0
 11
44.2611
 21
-0.0000000000000768
 31
0.0
  0
LINE
  5
170
330
1E
100
AcDbEntity
  8
0
100
AcDbLine
 10
45.6754
 20
1.999999999999919
 30
0.0
 11
45.6754
 21
-0.0000000000000768
 31
0.0
  0
LINE
  5
171
330
1E
100
AcDbEntity
  8
0
100
AcDbLine
 10
47.14899999999999
 20
1.999999999999919
 30
0.0
 11
52.96800000000001
 21
1.999999999999919
 31
0.0
  0
LINE
  5
172
330
1E
100
AcDbEntity
  8
0
100
AcDbLine
 10
47.0896
 20
1.999999999999919
 30
0.0
 11
47.0896
 21
-0.0000000000000768
 31
0.0
  0
LINE
  5
173
330
1E
100
AcDbEntity
  8
0
100
AcDbLine
 10
47.6666
 20
1.999999999999919
 30
0.0
 11
47.6666
 21
-0.0000000000000771
 31
0.0
  0
LINE
  5
174
330
1E
100
AcDbEntity
  8
0
100
AcDbLine
 10
42.75
 20
1.999999999999919
 30
0.0
 11
44.2611
 21
1.999999999999919
 31
0.0
  0
LINE
  5
175
330
1E
100
AcDbEntity
  8
0
100
AcDbLine
 10
42.75
 20
1.999999999999919
 30
0.0
 11
42.75
 21
-0.0000000000000766
 31
0.0
  0
LINE
  5
176
330
1E
100
AcDbEntity
  8
0
100
AcDbLine
 10
52.96800000000001
 20
1.999999999999919
 30
0.0
 11
52.96800000000001
 21
-0.0000000000000773
 31
0.0
  0
LINE
  5
177
330
1E
100
AcDbEntity
  8
0
100
AcDbLine
 10
52.96800000000001
 20
1.999999999999919
 30
0.0
 11
53.968
 21
1.999999999999919
 31
0.0
  0
LINE
  5
178
330
1E
100
AcDbEntity
  8
0
100
AcDbLine
 10
39.9776
 20
1.999999999999919
 30
0.0
 11
39.9776
 21
-0.0000000000000766
 31
0.0
  0
LINE
  5
179
330
1E
100
AcDbEntity
  8
0
100
AcDbLine
 10
39.9776
 20
1.999999999999919
 30
0.0
 11
40.9776
 21
1.999999999999919
 31
0.0
  0
LINE
  5
17A
330
1E
100
AcDbEntity
  8
0
100
AcDbLine
 10
36.25
 20
2.99999999999992
 30
0.0
 11
61.85
 21
2.99999999999992
 31
0.0
  0
LINE
  5
17B
330
1E
100
AcDbEntity
  8
0
100
AcDbLine
 10
61.85
 20
2.99999999999992
 30
0.0
 11
91.25
 21
2.99999999999992
 31
0.0
  0
LINE
  5
17C
330
1E
100
AcDbEntity
  8
0
100
AcDbLine
 10
91.25
 20
2.99999999999992
 30
0.0
 11
122.75
 21
2.99999999999992
 31
0.0
  0
LINE
  5
17D
330
1E
100
AcDbEntity
  8
0
100
AcDbLine
 10
91.75
 20
3.99999999999992
 30
0.0
 11
122.75
 21
3.99999999999992
 31
0.0
  0
LINE
  5
17E
330
1E
100
AcDbEntity
  8
0
100
AcDbLine
 10
37.65
 20
3.99999999999992
 30
0.0
 11
62.95
 21
3.99999999999992
 31
0.0
  0
LINE
  5
17F
330
1E
100
AcDbEntity
  8
0
100
AcDbLine
 10
37.65
 20
10.9999999999999
 30
0.0
 11
62.95
 21
10.9999999999999
 31
0.0
  0
LINE
  5
180
330
1E
100
AcDbEntity
  8
0
100
AcDbLine
 10
36.95
 20
3.99999999999992
 30
0.0
 11
62.35
 21
3.99999999999992
 31
0.0
  0
LINE
  5
181
330
1E
100
AcDbEntity
  8
0
100
AcDbLine
 10
62.95
 20
10.9999999999999
 30
0.0
 11
91.75
 21
10.9999999999999
 31
0.0
  0
LINE
  5
182
330
1E
100
AcDbEntity
  8
0
100
AcDbLine
 10
62.35
 20
3.99999999999992
 30
0.0
 11
91.54999999999999
 21
3.99999999999992
 31
0.0
  0
LINE
  5
184
330
1E
100
AcDbEntity
  8
0
100
AcDbLine
 10
40.45
 20
23.9999999999999
 30
0.0
 11
64.75
 21
23.9999999999999
 31
0.0
  0
LINE
  5
185
330
1E
100
AcDbEntity
  8
0
100
AcDbLine
 10
39.75
 20
19.99999999999989
 30
0.0
 11
64.25
 21
19.99999999999989
 31
0.0
  0
LINE
  5
186
330
1E
100
AcDbEntity
  8
0
100
AcDbLine
 10
39.15
 20
18.99999999999989
 30
0.0
 11
63.75
 21
18.99999999999989
 31
0.0
  0
LINE
  5
187
330
1E
100
AcDbEntity
  8
0
100
AcDbLine
 10
39.15
 20
10.9999999999999
 30
0.0
 11
62.95
 21
10.9999999999999
 31
0.0
  0
LINE
  5
188
330
1E
100
AcDbEntity
  8
0
100
AcDbLine
 10
91.75
 20
10.9999999999999
 30
0.0
 11
92.24999999999999
 21
10.9999999999999
 31
0.0
  0
LINE
  5
189
330
1E
100
AcDbEntity
  8
0
100
AcDbLine
 10
91.75
 20
10.9999999999999
 30
0.0
 11
122.75
 21
10.9999999999999
 31
0.0
  0
LINE
  5
18A
330
1E
100
AcDbEntity
  8
0
100
AcDbLine
 10
63.75
 20
18.99999999999989
 30
0.0
 11
92.24999999999999
 21
18.99999999999989
 31
0.0
  0
LINE
  5
18B
330
1E
100
AcDbEntity
  8
0
100
AcDbLine
 10
64.75
 20
23.9999999999999
 30
0.0
 11
92.75
 21
23.9999999999999
 31
0.0
  0
LINE
  5
18E
330
1E
100
AcDbEntity
  8
0
100
AcDbLine
 10
64.25
 20
19.99999999999989
 30
0.0
 11
92.55
 21
19.99999999999989
 31
0.0
  0
LINE
  5
18F
330
1E
100
AcDbEntity
  8
0
100
AcDbLine
 10
92.75
 20
23.9999999999999
 30
0.0
 11
122.75
 21
23.9999999999999
 31
0.0
  0
LINE
  5
190
330
1E
100
AcDbEntity
  8
0
100
AcDbLine
 10
92.55
 20
19.99999999999989
 30
0.0
 11
122.75
 21
19.99999999999989
 31
0.0
  0
LINE
  5
191
330
1E
100
AcDbEntity
  8
0
100
AcDbLine
 10
92.24999999999999
 20
18.99999999999989
 30
0.0
 11
122.75
 21
18.99999999999989
 31
0.0
  0
LINE
  5
192
330
1E
100
AcDbEntity
  8
0
100
AcDbLine
 10
100.2499999999999
 20
43.99999999999989
 30
0.0
 11
100.2499999999999
 21
41.9999999999999
 31
0.0
  0
LINE
  5
193
330
1E
100
AcDbEntity
  8
0
100
AcDbLine
 10
100.2499999999999
 20
43.99999999999989
 30
0.0
 11
101.0499999999999
 21
43.99999999999989
 31
0.0
  0
LINE
  5
194
330
1E
100
AcDbEntity
  8
0
100
AcDbLine
 10
101.0499999999999
 20
43.99999999999989
 30
0.0
 11
103.2499999999999
 21
43.99999999999989
 31
0.0
  0
LINE
  5
195
330
1E
100
AcDbEntity
  8
0
100
AcDbLine
 10
101.0499999999999
 20
41.9999999999999
 30
0.0
 11
103.2499999999999
 21
41.9999999999999
 31
0.0
  0
LINE
  5
196
330
1E
100
AcDbEntity
  8
0
100
AcDbLine
 10
100.2499999999999
 20
41.9999999999999
 30
0.0
 11
100.2499999999999
 21
43.99999999999989
 31
0.0
  0
LINE
  5
197
330
1E
100
AcDbEntity
  8
0
100
AcDbLine
 10
100.2499999999999
 20
41.9999999999999
 30
0.0
 11
101.0499999999999
 21
41.9999999999999
 31
0.0
  0
LINE
  5
198
330
1E
100
AcDbEntity
  8
0
100
AcDbLine
 10
98.25000000000001
 20
39.9999999999999
 30
0.0
 11
100.2499999999999
 21
41.9999999999999
 31
0.0
  0
LINE
  5
199
330
1E
100
AcDbEntity
  8
0
100
AcDbLine
 10
94.25
 20
38.9999999999999
 30
0.0
 11
98.25000000000001
 21
39.9999999999999
 31
0.0
  0
LINE
  5
19A
330
1E
100
AcDbEntity
  8
0
100
AcDbLine
 10
92.24999999999999
 20
10.9999999999999
 30
0.0
 11
122.75
 21
10.9999999999999
 31
0.0
  0
LINE
  5
19B
330
1E
100
AcDbEntity
  8
0
100
AcDbLine
 10
62.95
 20
3.99999999999992
 30
0.0
 11
91.75
 21
3.99999999999992
 31
0.0
  0
LINE
  5
19C
330
1E
100
AcDbEntity
  8
0
100
AcDbLine
 10
91.54999999999999
 20
3.99999999999992
 30
0.0
 11
122.75
 21
3.99999999999992
 31
0.0
  0
LINE
  5
19D
330
1E
100
AcDbEntity
  8
0
100
AcDbLine
 10
27.9872
 20
1.999999999999919
 30
0.0
 11
29.7193
 21
1.999999999999919
 31
0.0
  0
LINE
  5
19E
330
1E
100
AcDbEntity
  8
0
100
AcDbLine
 10
27.9872
 20
1.999999999999919
 30
0.0
 11
27.9872
 21
-0.0000000000000757
 31
0.0
  0
LINE
  5
19F
330
1E
100
AcDbEntity
  8
0
100
AcDbLine
 10
30.7282
 20
1.999999999999919
 30
0.0
 11
30.7282
 21
-0.0000000000000759
 31
0.0
  0
LINE
  5
1A0
330
1E
100
AcDbEntity
  8
0
100
AcDbLine
 10
26.9872
 20
1.999999999999919
 30
0.0
 11
26.9872
 21
-0.0000000000000757
 31
0.0
  0
LINE
  5
1A1
330
1E
100
AcDbEntity
  8
0
100
AcDbLine
 10
81.88399999999999
 20
1.999999999999919
 30
0.0
 11
81.88399999999999
 21
-0.0000000000000791
 31
0.0
  0
LINE
  5
1A2
330
1E
100
AcDbEntity
  8
0
100
AcDbLine
 10
81.88399999999999
 20
1.999999999999919
 30
0.0
 11
83.61600000000001
 21
1.999999999999919
 31
0.0
  0
LINE
  5
1A3
330
1E
100
AcDbEntity
  8
0
100
AcDbLine
 10
118.54
 20
1.999999999999919
 30
0.0
 11
119.057
 21
1.999999999999919
 31
0.0
  0
LINE
  5
1A4
330
1E
100
AcDbEntity
  8
0
100
AcDbLine
 10
118.54
 20
1.999999999999919
 30
0.0
 11
118.54
 21
-0.0000000000000812
 31
0.0
  0
LINE
  5
1A5
330
1E
100
AcDbEntity
  8
0
100
AcDbLine
 10
108.8429999999999
 20
1.999999999999919
 30
0.0
 11
108.8429999999999
 21
-0.0000000000000808
 31
0.0
  0
LINE
  5
1A6
330
1E
100
AcDbEntity
  8
0
100
AcDbLine
 10
110.775
 20
1.999999999999919
 30
0.0
 11
110.775
 21
-0.0000000000000808
 31
0.0
  0
LINE
  5
1A7
330
1E
100
AcDbEntity
  8
0
100
AcDbLine
 10
111.2929999999999
 20
1.999999999999919
 30
0.0
 11
111.2929999999999
 21
-0.0000000000000808
 31
0.0
  0
LINE
  5
1A8
330
1E
100
AcDbEntity
  8
0
100
AcDbLine
 10
107.662
 20
1.999999999999919
 30
0.0
 11
107.662
 21
-0.0000000000000808
 31
0.0
  0
LINE
  5
1A9
330
1E
100
AcDbEntity
  8
0
100
AcDbLine
 10
103.01
 20
1.999999999999919
 30
0.0
 11
103.01
 21
-0.0000000000000803
 31
0.0
  0
LINE
  5
1AA
330
1E
100
AcDbEntity
  8
0
100
AcDbLine
 10
103.2499999999999
 20
43.99999999999989
 30
0.0
 11
106.85
 21
43.99999999999989
 31
0.0
  0
LINE
  5
1AB
330
1E
100
AcDbEntity
  8
0
100
AcDbLine
 10
103.2499999999999
 20
41.9999999999999
 30
0.0
 11
106.85
 21
41.9999999999999
 31
0.0
  0
LINE
  5
1AC
330
1E
100
AcDbEntity
  8
0
100
AcDbLine
 10
103.5279999999999
 20
1.999999999999919
 30
0.0
 11
103.5279999999999
 21
-0.0000000000000803
 31
0.0
  0
LINE
  5
1AD
330
1E
100
AcDbEntity
  8
0
100
AcDbLine
 10
104.9609999999999
 20
1.999999999999919
 30
0.0
 11
104.9609999999999
 21
-0.0000000000000805
 31
0.0
  0
LINE
  5
1AE
330
1E
100
AcDbEntity
  8
0
100
AcDbLine
 10
106.8929999999999
 20
1.999999999999919
 30
0.0
 11
106.8929999999999
 21
-0.0000000000000805
 31
0.0
  0
LINE
  5
1AF
330
1E
100
AcDbEntity
  8
0
100
AcDbLine
 10
107.41
 20
1.999999999999919
 30
0.0
 11
107.41
 21
-0.0000000000000805
 31
0.0
  0
LINE
  5
1B0
330
1E
100
AcDbEntity
  8
0
100
AcDbLine
 10
110.7499999999999
 20
73.9999999999999
 30
0.0
 11
112.15
 21
84.3999999999999
 31
0.0
  0
LINE
  5
1B1
330
1E
100
AcDbEntity
  8
0
100
AcDbLine
 10
110.7499999999999
 20
73.9999999999999
 30
0.0
 11
110.7499999999999
 21
69.9999999999999
 31
0.0
  0
LINE
  5
1B2
330
1E
100
AcDbEntity
  8
0
100
AcDbLine
 10
110.7499999999999
 20
69.9999999999999
 30
0.0
 11
110.7499999999999
 21
53.99999999999989
 31
0.0
  0
LINE
  5
1B3
330
1E
100
AcDbEntity
  8
0
100
AcDbLine
 10
110.7499999999999
 20
69.9999999999999
 30
0.0
 11
110.7499999999999
 21
73.9999999999999
 31
0.0
  0
LINE
  5
1B4
330
1E
100
AcDbEntity
  8
0
100
AcDbLine
 10
110.7499999999999
 20
53.99999999999989
 30
0.0
 11
110.7499999999999
 21
69.9999999999999
 31
0.0
  0
LINE
  5
1B5
330
1E
100
AcDbEntity
  8
0
100
AcDbLine
 10
110.7499999999999
 20
53.99999999999989
 30
0.0
 11
111.15
 21
53.99999999999989
 31
0.0
  0
LINE
  5
1B6
330
1E
100
AcDbEntity
  8
0
100
AcDbLine
 10
106.85
 20
43.99999999999989
 30
0.0
 11
111.5499999999999
 21
43.99999999999989
 31
0.0
  0
LINE
  5
1B7
330
1E
100
AcDbEntity
  8
0
100
AcDbLine
 10
106.85
 20
41.9999999999999
 30
0.0
 11
111.5499999999999
 21
41.9999999999999
 31
0.0
  0
LINE
  5
1B8
330
1E
100
AcDbEntity
  8
0
100
AcDbLine
 10
111.15
 20
53.99999999999989
 30
0.0
 11
112.3499999999999
 21
53.99999999999989
 31
0.0
  0
LINE
  5
1B9
330
1E
100
AcDbEntity
  8
0
100
AcDbLine
 10
111.5499999999999
 20
43.99999999999989
 30
0.0
 11
116.9499999999999
 21
43.99999999999989
 31
0.0
  0
LINE
  5
1BA
330
1E
100
AcDbEntity
  8
0
100
AcDbLine
 10
111.5499999999999
 20
41.9999999999999
 30
0.0
 11
116.9499999999999
 21
41.9999999999999
 31
0.0
  0
LINE
  5
1BB
330
1E
100
AcDbEntity
  8
0
100
AcDbLine
 10
111.15
 20
53.99999999999989
 30
0.0
 11
112.3499999999999
 21
53.99999999999989
 31
0.0
  0
LINE
  5
1BC
330
1E
100
AcDbEntity
  8
0
100
AcDbLine
 10
110.7499999999999
 20
53.99999999999989
 30
0.0
 11
111.15
 21
53.99999999999989
 31
0.0
  0
LINE
  5
1BD
330
1E
100
AcDbEntity
  8
0
100
AcDbLine
 10
110.7499999999999
 20
43.99999999999989
 30
0.0
 11
110.7499999999999
 21
53.99999999999989
 31
0.0
  0
LINE
  5
1BE
330
1E
100
AcDbEntity
  8
0
100
AcDbLine
 10
104.384
 20
1.999999999999919
 30
0.0
 11
104.9609999999999
 21
1.999999999999919
 31
0.0
  0
LINE
  5
1BF
330
1E
100
AcDbEntity
  8
0
100
AcDbLine
 10
104.384
 20
1.999999999999919
 30
0.0
 11
104.384
 21
-0.0000000000000805
 31
0.0
  0
LINE
  5
1C0
330
1E
100
AcDbEntity
  8
0
100
AcDbLine
 10
103.6899999999999
 20
1.999999999999919
 30
0.0
 11
104.384
 21
1.999999999999919
 31
0.0
  0
LINE
  5
1C1
330
1E
100
AcDbEntity
  8
0
100
AcDbLine
 10
103.6899999999999
 20
1.999999999999919
 30
0.0
 11
103.6899999999999
 21
-0.0000000000000803
 31
0.0
  0
LINE
  5
1C2
330
1E
100
AcDbEntity
  8
0
100
AcDbLine
 10
107.901
 20
1.999999999999919
 30
0.0
 11
107.901
 21
-0.0000000000000808
 31
0.0
  0
LINE
  5
1C3
330
1E
100
AcDbEntity
  8
0
100
AcDbLine
 10
107.901
 20
1.999999999999919
 30
0.0
 11
108.8429999999999
 21
1.999999999999919
 31
0.0
  0
LINE
  5
1C4
330
1E
100
AcDbEntity
  8
0
100
AcDbLine
 10
112.7249999999999
 20
1.999999999999919
 30
0.0
 11
112.7249999999999
 21
-0.000000000000081
 31
0.0
  0
LINE
  5
1C5
330
1E
100
AcDbEntity
  8
0
100
AcDbLine
 10
114.657
 20
1.999999999999919
 30
0.0
 11
114.657
 21
-0.000000000000081
 31
0.0
  0
LINE
  5
1C6
330
1E
100
AcDbEntity
  8
0
100
AcDbLine
 10
112.15
 20
84.3999999999999
 30
0.0
 11
116.1499999999999
 21
93.99999999999989
 31
0.0
  0
LINE
  5
1C7
330
1E
100
AcDbEntity
  8
0
100
AcDbLine
 10
114.25
 20
53.99999999999989
 30
0.0
 11
116.7499999999999
 21
53.99999999999989
 31
0.0
  0
LINE
  5
1C8
330
1E
100
AcDbEntity
  8
0
100
AcDbLine
 10
116.7499999999999
 20
53.99999999999989
 30
0.0
 11
119.65
 21
53.99999999999989
 31
0.0
  0
LINE
  5
1C9
330
1E
100
AcDbEntity
  8
0
100
AcDbLine
 10
114.25
 20
53.99999999999989
 30
0.0
 11
116.7499999999999
 21
53.99999999999989
 31
0.0
  0
LINE
  5
1CA
330
1E
100
AcDbEntity
  8
0
100
AcDbLine
 10
116.1499999999999
 20
93.99999999999989
 30
0.0
 11
122.45
 21
102.2999999999999
 31
0.0
  0
LINE
  5
1CB
330
1E
100
AcDbEntity
  8
0
100
AcDbLine
 10
116.7499999999999
 20
53.99999999999989
 30
0.0
 11
119.65
 21
53.99999999999989
 31
0.0
  0
LINE
  5
1CC
330
1E
100
AcDbEntity
  8
0
100
AcDbLine
 10
119.65
 20
53.99999999999989
 30
0.0
 11
122.75
 21
53.99999999999989
 31
0.0
  0
LINE
  5
1CD
330
1E
100
AcDbEntity
  8
0
100
AcDbLine
 10
119.65
 20
53.99999999999989
 30
0.0
 11
122.75
 21
53.99999999999989
 31
0.0
  0
LINE
  5
1CE
330
1E
100
AcDbEntity
  8
0
100
AcDbLine
 10
116.9499999999999
 20
43.99999999999989
 30
0.0
 11
122.75
 21
43.99999999999989
 31
0.0
  0
LINE
  5
1CF
330
1E
100
AcDbEntity
  8
0
100
AcDbLine
 10
116.9499999999999
 20
41.9999999999999
 30
0.0
 11
122.75
 21
41.9999999999999
 31
0.0
  0
LINE
  5
1D0
330
1E
100
AcDbEntity
  8
0
100
AcDbLine
 10
112.3499999999999
 20
53.99999999999989
 30
0.0
 11
114.25
 21
53.99999999999989
 31
0.0
  0
LINE
  5
1D1
330
1E
100
AcDbEntity
  8
0
100
AcDbLine
 10
112.3499999999999
 20
53.99999999999989
 30
0.0
 11
114.25
 21
53.99999999999989
 31
0.0
  0
LINE
  5
1D2
330
1E
100
AcDbEntity
  8
0
100
AcDbLine
 10
115.175
 20
1.999999999999919
 30
0.0
 11
115.175
 21
-0.0000000000000812
 31
0.0
  0
LINE
  5
1D3
330
1E
100
AcDbEntity
  8
0
100
AcDbLine
 10
111.884
 20
1.999999999999919
 30
0.0
 11
111.884
 21
-0.000000000000081
 31
0.0
  0
LINE
  5
1D4
330
1E
100
AcDbEntity
  8
0
100
AcDbLine
 10
116.608
 20
1.999999999999919
 30
0.0
 11
116.608
 21
-0.0000000000000812
 31
0.0
  0
LINE
  5
1D5
330
1E
100
AcDbEntity
  8
0
100
AcDbLine
 10
101.0789999999999
 20
1.999999999999919
 30
0.0
 11
101.0789999999999
 21
-0.0000000000000803
 31
0.0
  0
LINE
  5
1D6
330
1E
100
AcDbEntity
  8
0
100
AcDbLine
 10
121.75
 20
1.999999999999919
 30
0.0
 11
121.75
 21
-0.0000000000000814
 31
0.0
  0
LINE
  5
1D7
330
1E
100
AcDbEntity
  8
0
100
AcDbLine
 10
126.4429999999999
 20
-0.0000000000000818
 30
0.0
 11
126.96
 21
-0.0000000000000818
 31
0.0
  0
LINE
  5
1D8
330
1E
100
AcDbEntity
  8
0
100
AcDbLine
 10
126.4429999999999
 20
-0.0000000000000818
 30
0.0
 11
126.4429999999999
 21
1.999999999999919
 31
0.0
  0
LINE
  5
1D9
330
1E
100
AcDbEntity
  8
0
100
AcDbLine
 10
130.325
 20
-0.000000000000082
 30
0.0
 11
130.8429999999999
 21
-0.0000000000000821
 31
0.0
  0
LINE
  5
1DA
330
1E
100
AcDbEntity
  8
0
100
AcDbLine
 10
130.325
 20
-0.000000000000082
 30
0.0
 11
130.325
 21
1.999999999999919
 31
0.0
  0
LINE
  5
1DB
330
1E
100
AcDbEntity
  8
0
100
AcDbLine
 10
133.616
 20
-0.0000000000000822
 30
0.0
 11
133.616
 21
1.999999999999919
 31
0.0
  0
LINE
  5
1DC
330
1E
100
AcDbEntity
  8
0
100
AcDbLine
 10
134.2069999999999
 20
-0.0000000000000823
 30
0.0
 11
134.725
 21
-0.0000000000000823
 31
0.0
  0
LINE
  5
1DD
330
1E
100
AcDbEntity
  8
0
100
AcDbLine
 10
134.2069999999999
 20
-0.0000000000000823
 30
0.0
 11
134.2069999999999
 21
1.999999999999919
 31
0.0
  0
LINE
  5
1DE
330
1E
100
AcDbEntity
  8
0
100
AcDbLine
 10
138.6069999999999
 20
-0.0000000000000825
 30
0.0
 11
139.571
 21
-0.0000000000000826
 31
0.0
  0
LINE
  5
1DF
330
1E
100
AcDbEntity
  8
0
100
AcDbLine
 10
137.5989999999999
 20
-0.0000000000000825
 30
0.0
 11
137.5989999999999
 21
1.999999999999919
 31
0.0
  0
LINE
  5
1E0
330
1E
100
AcDbEntity
  8
0
100
AcDbLine
 10
137.8379999999999
 20
-0.0000000000000825
 30
0.0
 11
138.09
 21
-0.0000000000000825
 31
0.0
  0
LINE
  5
1E1
330
1E
100
AcDbEntity
  8
0
100
AcDbLine
 10
137.8379999999999
 20
-0.0000000000000825
 30
0.0
 11
137.8379999999999
 21
1.999999999999919
 31
0.0
  0
LINE
  5
1E2
330
1E
100
AcDbEntity
  8
0
100
AcDbLine
 10
138.09
 20
-0.0000000000000825
 30
0.0
 11
138.6069999999999
 21
-0.0000000000000825
 31
0.0
  0
LINE
  5
1E3
330
1E
100
AcDbEntity
  8
0
100
AcDbLine
 10
138.09
 20
-0.0000000000000825
 30
0.0
 11
138.09
 21
1.999999999999919
 31
0.0
  0
LINE
  5
1E4
330
1E
100
AcDbEntity
  8
0
100
AcDbLine
 10
141.116
 20
-0.0000000000000827
 30
0.0
 11
141.81
 21
-0.0000000000000827
 31
0.0
  0
LINE
  5
1E5
330
1E
100
AcDbEntity
  8
0
100
AcDbLine
 10
141.81
 20
-0.0000000000000827
 30
0.0
 11
141.81
 21
1.999999999999919
 31
0.0
  0
LINE
  5
1E6
330
1E
100
AcDbEntity
  8
0
100
AcDbLine
 10
141.81
 20
-0.0000000000000827
 30
0.0
 11
142.327
 21
-0.0000000000000828
 31
0.0
  0
LINE
  5
1E7
330
1E
100
AcDbEntity
  8
0
100
AcDbLine
 10
141.116
 20
-0.0000000000000827
 30
0.0
 11
141.116
 21
1.999999999999919
 31
0.0
  0
LINE
  5
1E8
330
1E
100
AcDbEntity
  8
0
100
AcDbLine
 10
141.972
 20
-0.0000000000000827
 30
0.0
 11
142.49
 21
-0.0000000000000828
 31
0.0
  0
LINE
  5
1E9
330
1E
100
AcDbEntity
  8
0
100
AcDbLine
 10
141.972
 20
-0.0000000000000827
 30
0.0
 11
143.904
 21
-0.0000000000000829
 31
0.0
  0
LINE
  5
1EA
330
1E
100
AcDbEntity
  8
0
100
AcDbLine
 10
141.972
 20
-0.0000000000000827
 30
0.0
 11
141.972
 21
1.999999999999919
 31
0.0
  0
LINE
  5
1EB
330
1E
100
AcDbEntity
  8
0
100
AcDbLine
 10
145.377
 20
-0.0000000000000829
 30
0.0
 11
145.8539999999999
 21
-0.000000000000083
 31
0.0
  0
LINE
  5
1EC
330
1E
100
AcDbEntity
  8
0
100
AcDbLine
 10
145.377
 20
-0.0000000000000829
 30
0.0
 11
145.377
 21
1.999999999999919
 31
0.0
  0
LINE
  5
1ED
330
1E
100
AcDbEntity
  8
0
100
AcDbLine
 10
145.8539999999999
 20
-0.000000000000083
 30
0.0
 11
146.372
 21
-0.000000000000083
 31
0.0
  0
LINE
  5
1EE
330
1E
100
AcDbEntity
  8
0
100
AcDbLine
 10
145.8539999999999
 20
-0.000000000000083
 30
0.0
 11
147.7859999999999
 21
-0.0000000000000831
 31
0.0
  0
LINE
  5
1EF
330
1E
100
AcDbEntity
  8
0
100
AcDbLine
 10
145.8539999999999
 20
-0.000000000000083
 30
0.0
 11
145.8539999999999
 21
1.999999999999919
 31
0.0
  0
LINE
  5
1F0
330
1E
100
AcDbEntity
  8
0
100
AcDbLine
 10
148.304
 20
-0.0000000000000831
 30
0.0
 11
148.616
 21
-0.0000000000000831
 31
0.0
  0
LINE
  5
1F1
330
1E
100
AcDbEntity
  8
0
100
AcDbLine
 10
148.616
 20
-0.0000000000000831
 30
0.0
 11
148.616
 21
1.999999999999919
 31
0.0
  0
LINE
  5
1F2
330
1E
100
AcDbEntity
  8
0
100
AcDbLine
 10
149.737
 20
-0.0000000000000832
 30
0.0
 11
150.2539999999999
 21
-0.0000000000000832
 31
0.0
  0
LINE
  5
1F3
330
1E
100
AcDbEntity
  8
0
100
AcDbLine
 10
149.737
 20
-0.0000000000000832
 30
0.0
 11
151.668
 21
-0.0000000000000833
 31
0.0
  0
LINE
  5
1F4
330
1E
100
AcDbEntity
  8
0
100
AcDbLine
 10
149.737
 20
-0.0000000000000832
 30
0.0
 11
149.737
 21
1.999999999999919
 31
0.0
  0
LINE
  5
1F5
330
1E
100
AcDbEntity
  8
0
100
AcDbLine
 10
154.3839999999999
 20
-0.0000000000000835
 30
0.0
 11
155.116
 21
-0.0000000000000835
 31
0.0
  0
LINE
  5
1F6
330
1E
100
AcDbEntity
  8
0
100
AcDbLine
 10
152.561
 20
-0.0000000000000834
 30
0.0
 11
152.561
 21
1.999999999999919
 31
0.0
  0
LINE
  5
1F7
330
1E
100
AcDbEntity
  8
0
100
AcDbLine
 10
152.561
 20
-0.0000000000000834
 30
0.0
 11
153.3839999999999
 21
-0.0000000000000834
 31
0.0
  0
LINE
  5
1F8
330
1E
100
AcDbEntity
  8
0
100
AcDbLine
 10
153.3839999999999
 20
-0.0000000000000834
 30
0.0
 11
154.3839999999999
 21
-0.0000000000000835
 31
0.0
  0
LINE
  5
1F9
330
1E
100
AcDbEntity
  8
0
100
AcDbLine
 10
153.3839999999999
 20
-0.0000000000000834
 30
0.0
 11
153.3839999999999
 21
1.999999999999919
 31
0.0
  0
LINE
  5
1FA
330
1E
100
AcDbEntity
  8
0
100
AcDbLine
 10
156.8159999999999
 20
-0.0000000000000836
 30
0.0
 11
157.3979999999999
 21
-0.0000000000000837
 31
0.0
  0
LINE
  5
1FB
330
1E
100
AcDbEntity
  8
0
100
AcDbLine
 10
158.812
 20
-0.0000000000000838
 30
0.0
 11
158.812
 21
1.999999999999919
 31
0.0
  0
LINE
  5
1FC
330
1E
100
AcDbEntity
  8
0
100
AcDbLine
 10
157.3979999999999
 20
-0.0000000000000837
 30
0.0
 11
157.3979999999999
 21
1.999999999999919
 31
0.0
  0
LINE
  5
1FD
330
1E
100
AcDbEntity
  8
0
100
AcDbLine
 10
157.3979999999999
 20
-0.0000000000000837
 30
0.0
 11
158.812
 21
-0.0000000000000838
 31
0.0
  0
LINE
  5
1FE
330
1E
100
AcDbEntity
  8
0
100
AcDbLine
 10
156.299
 20
-0.0000000000000836
 30
0.0
 11
156.8159999999999
 21
-0.0000000000000836
 31
0.0
  0
LINE
  5
1FF
330
1E
100
AcDbEntity
  8
0
100
AcDbLine
 10
156.116
 20
-0.0000000000000836
 30
0.0
 11
156.299
 21
-0.0000000000000836
 31
0.0
  0
LINE
  5
200
330
1E
100
AcDbEntity
  8
0
100
AcDbLine
 10
160.8839999999999
 20
-0.0000000000000839
 30
0.0
 11
161.8839999999999
 21
-0.000000000000084
 31
0.0
  0
LINE
  5
201
330
1E
100
AcDbEntity
  8
0
100
AcDbLine
 10
160.8839999999999
 20
-0.0000000000000839
 30
0.0
 11
162.616
 21
-0.000000000000084
 31
0.0
  0
LINE
  5
202
330
1E
100
AcDbEntity
  8
0
100
AcDbLine
 10
160.8839999999999
 20
-0.0000000000000839
 30
0.0
 11
160.8839999999999
 21
1.999999999999919
 31
0.0
  0
LINE
  5
203
330
1E
100
AcDbEntity
  8
0
100
AcDbLine
 10
169.384
 20
-0.0000000000000844
 30
0.0
 11
171.305
 21
-0.0000000000000845
 31
0.0
  0
LINE
  5
204
330
1E
100
AcDbEntity
  8
0
100
AcDbLine
 10
168.856
 20
-0.0000000000000844
 30
0.0
 11
169.384
 21
-0.0000000000000844
 31
0.0
  0
LINE
  5
205
330
1E
100
AcDbEntity
  8
0
100
AcDbLine
 10
168.856
 20
-0.0000000000000844
 30
0.0
 11
169.3729999999999
 21
-0.0000000000000844
 31
0.0
  0
LINE
  5
206
330
1E
100
AcDbEntity
  8
0
100
AcDbLine
 10
165.5509999999999
 20
-0.0000000000000842
 30
0.0
 11
166.5509999999999
 21
-0.0000000000000842
 31
0.0
  0
LINE
  5
207
330
1E
100
AcDbEntity
  8
0
100
AcDbLine
 10
163.8189999999999
 20
-0.0000000000000841
 30
0.0
 11
165.5509999999999
 21
-0.0000000000000842
 31
0.0
  0
LINE
  5
208
330
1E
100
AcDbEntity
  8
0
100
AcDbLine
 10
163.8189999999999
 20
-0.0000000000000841
 30
0.0
 11
163.8189999999999
 21
1.999999999999919
 31
0.0
  0
LINE
  5
209
330
1E
100
AcDbEntity
  8
0
100
AcDbLine
 10
166.5909999999999
 20
-0.0000000000000842
 30
0.0
 11
168.005
 21
-0.0000000000000843
 31
0.0
  0
LINE
  5
20A
330
1E
100
AcDbEntity
  8
0
100
AcDbLine
 10
166.5909999999999
 20
-0.0000000000000842
 30
0.0
 11
166.5909999999999
 21
1.999999999999919
 31
0.0
  0
LINE
  5
20B
330
1E
100
AcDbEntity
  8
0
100
AcDbLine
 10
168.005
 20
-0.0000000000000843
 30
0.0
 11
168.005
 21
1.999999999999919
 31
0.0
  0
LINE
  5
20C
330
1E
100
AcDbEntity
  8
0
100
AcDbLine
 10
168.005
 20
-0.0000000000000843
 30
0.0
 11
169.384
 21
-0.0000000000000844
 31
0.0
  0
LINE
  5
20D
330
1E
100
AcDbEntity
  8
0
100
AcDbLine
 10
168.005
 20
-0.0000000000000843
 30
0.0
 11
168.856
 21
-0.0000000000000844
 31
0.0
  0
LINE
  5
20E
330
1E
100
AcDbEntity
  8
0
100
AcDbLine
 10
166.5509999999999
 20
-0.0000000000000842
 30
0.0
 11
166.5509999999999
 21
1.999999999999919
 31
0.0
  0
LINE
  5
20F
330
1E
100
AcDbEntity
  8
0
100
AcDbLine
 10
165.5509999999999
 20
-0.0000000000000842
 30
0.0
 11
165.5509999999999
 21
1.999999999999919
 31
0.0
  0
LINE
  5
210
330
1E
100
AcDbEntity
  8
0
100
AcDbLine
 10
165.5509999999999
 20
-0.0000000000000842
 30
0.0
 11
166.5509999999999
 21
-0.0000000000000842
 31
0.0
  0
LINE
  5
211
330
1E
100
AcDbEntity
  8
0
100
AcDbLine
 10
168.384
 20
-0.0000000000000844
 30
0.0
 11
169.384
 21
-0.0000000000000844
 31
0.0
  0
LINE
  5
212
330
1E
100
AcDbEntity
  8
0
100
AcDbLine
 10
168.384
 20
-0.0000000000000844
 30
0.0
 11
168.384
 21
1.999999999999919
 31
0.0
  0
LINE
  5
213
330
1E
100
AcDbEntity
  8
0
100
AcDbLine
 10
176.81
 20
-0.0000000000000849
 30
0.0
 11
177.197
 21
-0.0000000000000849
 31
0.0
  0
LINE
  5
214
330
1E
100
AcDbEntity
  8
0
100
AcDbLine
 10
176.884
 20
-0.0000000000000849
 30
0.0
 11
177.6159999999999
 21
-0.0000000000000849
 31
0.0
  0
LINE
  5
215
330
1E
100
AcDbEntity
  8
0
100
AcDbLine
 10
171.305
 20
-0.0000000000000845
 30
0.0
 11
172.75
 21
-0.0000000000000846
 31
0.0
  0
LINE
  5
216
330
1E
100
AcDbEntity
  8
0
100
AcDbLine
 10
171.1159999999999
 20
-0.0000000000000845
 30
0.0
 11
171.305
 21
-0.0000000000000845
 31
0.0
  0
LINE
  5
217
330
1E
100
AcDbEntity
  8
0
100
AcDbLine
 10
172.75
 20
-0.0000000000000846
 30
0.0
 11
172.75
 21
1.999999999999919
 31
0.0
  0
LINE
  5
218
330
1E
100
AcDbEntity
  8
0
100
AcDbLine
 10
171.305
 20
-0.0000000000000845
 30
0.0
 11
171.305
 21
1.999999999999919
 31
0.0
  0
LINE
  5
219
330
1E
100
AcDbEntity
  8
0
100
AcDbLine
 10
175.884
 20
-0.0000000000000848
 30
0.0
 11
176.884
 21
-0.0000000000000849
 31
0.0
  0
LINE
  5
21A
330
1E
100
AcDbEntity
  8
0
100
AcDbLine
 10
175.884
 20
-0.0000000000000848
 30
0.0
 11
175.884
 21
1.999999999999919
 31
0.0
  0
LINE
  5
21B
330
1E
100
AcDbEntity
  8
0
100
AcDbLine
 10
175.884
 20
-0.0000000000000848
 30
0.0
 11
176.81
 21
-0.0000000000000849
 31
0.0
  0
LINE
  5
21C
330
1E
100
AcDbEntity
  8
0
100
AcDbLine
 10
180.0259999999999
 20
-0.0000000000000851
 30
0.0
 11
180.0259999999999
 21
1.999999999999919
 31
0.0
  0
LINE
  5
21D
330
1E
100
AcDbEntity
  8
0
100
AcDbLine
 10
185.794
 20
-0.0000000000000854
 30
0.0
 11
187.7499999999999
 21
-0.0000000000000855
 31
0.0
  0
LINE
  5
21E
330
1E
100
AcDbEntity
  8
0
100
AcDbLine
 10
212.84
 20
-0.0000000000000871
 30
0.0
 11
214.772
 21
-0.0000000000000872
 31
0.0
  0
LINE
  5
21F
330
1E
100
AcDbEntity
  8
0
100
AcDbLine
 10
218.513
 20
-0.0000000000000874
 30
0.0
 11
218.513
 21
1.99999999999991
 31
0.0
  0
LINE
  5
220
330
1E
100
AcDbEntity
  8
0
100
AcDbLine
 10
215.75
 20
-0.0000000000000873
 30
0.0
 11
215.75
 21
1.99999999999991
 31
0.0
  0
LINE
  5
221
330
1E
100
AcDbEntity
  8
0
100
AcDbLine
 10
216.7809999999999
 20
-0.0000000000000873
 30
0.0
 11
217.513
 21
-0.0000000000000874
 31
0.0
  0
LINE
  5
222
330
1E
100
AcDbEntity
  8
0
100
AcDbLine
 10
215.781
 20
-0.0000000000000873
 30
0.0
 11
217.513
 21
-0.0000000000000874
 31
0.0
  0
LINE
  5
223
330
1E
100
AcDbEntity
  8
0
100
AcDbLine
 10
215.781
 20
-0.0000000000000873
 30
0.0
 11
216.7809999999999
 21
-0.0000000000000873
 31
0.0
  0
LINE
  5
224
330
1E
100
AcDbEntity
  8
0
100
AcDbLine
 10
215.781
 20
-0.0000000000000873
 30
0.0
 11
215.781
 21
1.99999999999991
 31
0.0
  0
LINE
  5
225
330
1E
100
AcDbEntity
  8
0
100
AcDbLine
 10
217.513
 20
-0.0000000000000874
 30
0.0
 11
217.513
 21
1.99999999999991
 31
0.0
  0
LINE
  5
226
330
1E
100
AcDbEntity
  8
0
100
AcDbLine
 10
217.513
 20
-0.0000000000000874
 30
0.0
 11
218.513
 21
-0.0000000000000874
 31
0.0
  0
LINE
  5
227
330
1E
100
AcDbEntity
  8
0
100
AcDbLine
 10
232.75
 20
-0.0000000000000883
 30
0.0
 11
232.75
 21
1.99999999999991
 31
0.0
  0
LINE
  5
228
330
1E
100
AcDbEntity
  8
0
100
AcDbLine
 10
230.75
 20
-0.0000000000000882
 30
0.0
 11
232.75
 21
-0.0000000000000883
 31
0.0
  0
LINE
  5
229
330
1E
100
AcDbEntity
  8
0
100
AcDbLine
 10
230.75
 20
-0.0000000000000882
 30
0.0
 11
230.75
 21
1.99999999999991
 31
0.0
  0
LINE
  5
22A
330
1E
100
AcDbEntity
  8
0
100
AcDbLine
 10
229.2609999999999
 20
-0.0000000000000881
 30
0.0
 11
229.2609999999999
 21
1.99999999999991
 31
0.0
  0
LINE
  5
22B
330
1E
100
AcDbEntity
  8
0
100
AcDbLine
 10
227.329
 20
-0.000000000000088
 30
0.0
 11
229.2609999999999
 21
-0.0000000000000881
 31
0.0
  0
LINE
  5
22C
330
1E
100
AcDbEntity
  8
0
100
AcDbLine
 10
228.743
 20
-0.0000000000000881
 30
0.0
 11
228.743
 21
1.99999999999991
 31
0.0
  0
LINE
  5
22D
330
1E
100
AcDbEntity
  8
0
100
AcDbLine
 10
228.743
 20
-0.0000000000000881
 30
0.0
 11
229.2609999999999
 21
-0.0000000000000881
 31
0.0
  0
LINE
  5
22E
330
1E
100
AcDbEntity
  8
0
100
AcDbLine
 10
226.8109999999999
 20
-0.0000000000000879
 30
0.0
 11
228.743
 21
-0.0000000000000881
 31
0.0
  0
LINE
  5
22F
330
1E
100
AcDbEntity
  8
0
100
AcDbLine
 10
226.8109999999999
 20
-0.0000000000000879
 30
0.0
 11
227.329
 21
-0.000000000000088
 31
0.0
  0
LINE
  5
230
330
1E
100
AcDbEntity
  8
0
100
AcDbLine
 10
226.8109999999999
 20
-0.0000000000000879
 30
0.0
 11
226.8109999999999
 21
1.99999999999991
 31
0.0
  0
LINE
  5
231
330
1E
100
AcDbEntity
  8
0
100
AcDbLine
 10
214.772
 20
-0.0000000000000872
 30
0.0
 11
214.772
 21
1.99999999999991
 31
0.0
  0
LINE
  5
232
330
1E
100
AcDbEntity
  8
0
100
AcDbLine
 10
214.254
 20
-0.0000000000000872
 30
0.0
 11
214.254
 21
1.99999999999991
 31
0.0
  0
LINE
  5
233
330
1E
100
AcDbEntity
  8
0
100
AcDbLine
 10
214.254
 20
-0.0000000000000872
 30
0.0
 11
214.772
 21
-0.0000000000000872
 31
0.0
  0
LINE
  5
234
330
1E
100
AcDbEntity
  8
0
100
AcDbLine
 10
212.3219999999999
 20
-0.000000000000087
 30
0.0
 11
214.254
 21
-0.0000000000000872
 31
0.0
  0
LINE
  5
235
330
1E
100
AcDbEntity
  8
0
100
AcDbLine
 10
212.3219999999999
 20
-0.000000000000087
 30
0.0
 11
212.84
 21
-0.0000000000000871
 31
0.0
  0
LINE
  5
236
330
1E
100
AcDbEntity
  8
0
100
AcDbLine
 10
212.3219999999999
 20
-0.000000000000087
 30
0.0
 11
212.3219999999999
 21
1.99999999999991
 31
0.0
  0
LINE
  5
237
330
1E
100
AcDbEntity
  8
0
100
AcDbLine
 10
205.522
 20
-0.0000000000000866
 30
0.0
 11
205.522
 21
1.99999999999991
 31
0.0
  0
LINE
  5
238
330
1E
100
AcDbEntity
  8
0
100
AcDbLine
 10
200.2829999999999
 20
-0.0000000000000863
 30
0.0
 11
200.7499999999999
 21
-0.0000000000000863
 31
0.0
  0
LINE
  5
239
330
1E
100
AcDbEntity
  8
0
100
AcDbLine
 10
200.7499999999999
 20
-0.0000000000000863
 30
0.0
 11
202.7499999999999
 21
-0.0000000000000865
 31
0.0
  0
LINE
  5
23A
330
1E
100
AcDbEntity
  8
0
100
AcDbLine
 10
202.7499999999999
 20
-0.0000000000000865
 30
0.0
 11
202.7499999999999
 21
1.99999999999991
 31
0.0
  0
LINE
  5
23B
330
1E
100
AcDbEntity
  8
0
100
AcDbLine
 10
201.2389999999999
 20
-0.0000000000000864
 30
0.0
 11
201.2389999999999
 21
1.99999999999991
 31
0.0
  0
LINE
  5
23C
330
1E
100
AcDbEntity
  8
0
100
AcDbLine
 10
198.4099999999999
 20
-0.0000000000000862
 30
0.0
 11
199.8249999999999
 21
-0.0000000000000863
 31
0.0
  0
LINE
  5
23D
330
1E
100
AcDbEntity
  8
0
100
AcDbLine
 10
198.4099999999999
 20
-0.0000000000000862
 30
0.0
 11
198.4099999999999
 21
1.99999999999991
 31
0.0
  0
LINE
  5
23E
330
1E
100
AcDbEntity
  8
0
100
AcDbLine
 10
199.8249999999999
 20
-0.0000000000000863
 30
0.0
 11
199.8249999999999
 21
1.99999999999991
 31
0.0
  0
LINE
  5
23F
330
1E
100
AcDbEntity
  8
0
100
AcDbLine
 10
199.8249999999999
 20
-0.0000000000000863
 30
0.0
 11
201.2389999999999
 21
-0.0000000000000864
 31
0.0
  0
LINE
  5
240
330
1E
100
AcDbEntity
  8
0
100
AcDbLine
 10
198.351
 20
-0.0000000000000862
 30
0.0
 11
200.2829999999999
 21
-0.0000000000000863
 31
0.0
  0
LINE
  5
241
330
1E
100
AcDbEntity
  8
0
100
AcDbLine
 10
197.8329999999999
 20
-0.0000000000000862
 30
0.0
 11
198.4099999999999
 21
-0.0000000000000862
 31
0.0
  0
LINE
  5
242
330
1E
100
AcDbEntity
  8
0
100
AcDbLine
 10
197.8329999999999
 20
-0.0000000000000862
 30
0.0
 11
198.351
 21
-0.0000000000000862
 31
0.0
  0
LINE
  5
243
330
1E
100
AcDbEntity
  8
0
100
AcDbLine
 10
197.8329999999999
 20
-0.0000000000000862
 30
0.0
 11
197.8329999999999
 21
1.99999999999991
 31
0.0
  0
LINE
  5
244
330
1E
100
AcDbEntity
  8
0
100
AcDbLine
 10
203.79
 20
-0.0000000000000865
 30
0.0
 11
204.522
 21
-0.0000000000000866
 31
0.0
  0
LINE
  5
245
330
1E
100
AcDbEntity
  8
0
100
AcDbLine
 10
202.7899999999999
 20
-0.0000000000000865
 30
0.0
 11
204.522
 21
-0.0000000000000866
 31
0.0
  0
LINE
  5
246
330
1E
100
AcDbEntity
  8
0
100
AcDbLine
 10
202.7899999999999
 20
-0.0000000000000865
 30
0.0
 11
203.79
 21
-0.0000000000000865
 31
0.0
  0
LINE
  5
247
330
1E
100
AcDbEntity
  8
0
100
AcDbLine
 10
202.7899999999999
 20
-0.0000000000000865
 30
0.0
 11
202.7899999999999
 21
1.99999999999991
 31
0.0
  0
LINE
  5
248
330
1E
100
AcDbEntity
  8
0
100
AcDbLine
 10
204.522
 20
-0.0000000000000866
 30
0.0
 11
204.522
 21
1.99999999999991
 31
0.0
  0
LINE
  5
249
330
1E
100
AcDbEntity
  8
0
100
AcDbLine
 10
204.522
 20
-0.0000000000000866
 30
0.0
 11
205.522
 21
-0.0000000000000866
 31
0.0
  0
LINE
  5
24A
330
1E
100
AcDbEntity
  8
0
100
AcDbLine
 10
192.532
 20
-0.0000000000000858
 30
0.0
 11
192.532
 21
1.99999999999991
 31
0.0
  0
LINE
  5
24B
330
1E
100
AcDbEntity
  8
0
100
AcDbLine
 10
190.632
 20
-0.0000000000000857
 30
0.0
 11
190.632
 21
1.99999999999991
 31
0.0
  0
LINE
  5
24C
330
1E
100
AcDbEntity
  8
0
100
AcDbLine
 10
187.7499999999999
 20
-0.0000000000000855
 30
0.0
 11
187.7499999999999
 21
1.99999999999991
 31
0.0
  0
LINE
  5
24D
330
1E
100
AcDbEntity
  8
0
100
AcDbLine
 10
187.804
 20
-0.0000000000000855
 30
0.0
 11
189.2179999999999
 21
-0.0000000000000856
 31
0.0
  0
LINE
  5
24E
330
1E
100
AcDbEntity
  8
0
100
AcDbLine
 10
187.804
 20
-0.0000000000000855
 30
0.0
 11
187.804
 21
1.99999999999991
 31
0.0
  0
LINE
  5
24F
330
1E
100
AcDbEntity
  8
0
100
AcDbLine
 10
189.2179999999999
 20
-0.0000000000000856
 30
0.0
 11
189.2179999999999
 21
1.99999999999991
 31
0.0
  0
LINE
  5
250
330
1E
100
AcDbEntity
  8
0
100
AcDbLine
 10
189.2179999999999
 20
-0.0000000000000856
 30
0.0
 11
190.632
 21
-0.0000000000000857
 31
0.0
  0
LINE
  5
251
330
1E
100
AcDbEntity
  8
0
100
AcDbLine
 10
189.2179999999999
 20
-0.0000000000000856
 30
0.0
 11
189.8
 21
-0.0000000000000857
 31
0.0
  0
LINE
  5
252
330
1E
100
AcDbEntity
  8
0
100
AcDbLine
 10
189.8
 20
-0.0000000000000857
 30
0.0
 11
190.8
 21
-0.0000000000000857
 31
0.0
  0
LINE
  5
253
330
1E
100
AcDbEntity
  8
0
100
AcDbLine
 10
190.8
 20
-0.0000000000000857
 30
0.0
 11
192.532
 21
-0.0000000000000858
 31
0.0
  0
LINE
  5
254
330
1E
100
AcDbEntity
  8
0
100
AcDbLine
 10
190.632
 20
-0.0000000000000857
 30
0.0
 11
191.532
 21
-0.0000000000000858
 31
0.0
  0
LINE
  5
255
330
1E
100
AcDbEntity
  8
0
100
AcDbLine
 10
191.532
 20
-0.0000000000000858
 30
0.0
 11
191.532
 21
1.99999999999991
 31
0.0
  0
LINE
  5
256
330
1E
100
AcDbEntity
  8
0
100
AcDbLine
 10
191.532
 20
-0.0000000000000858
 30
0.0
 11
192.532
 21
-0.0000000000000858
 31
0.0
  0
LINE
  5
257
330
1E
100
AcDbEntity
  8
0
100
AcDbLine
 10
185.794
 20
-0.0000000000000854
 30
0.0
 11
185.794
 21
1.99999999999991
 31
0.0
  0
LINE
  5
258
330
1E
100
AcDbEntity
  8
0
100
AcDbLine
 10
183.8619999999999
 20
-0.0000000000000853
 30
0.0
 11
185.794
 21
-0.0000000000000854
 31
0.0
  0
LINE
  5
259
330
1E
100
AcDbEntity
  8
0
100
AcDbLine
 10
185.2759999999999
 20
-0.0000000000000854
 30
0.0
 11
185.2759999999999
 21
1.99999999999991
 31
0.0
  0
LINE
  5
25A
330
1E
100
AcDbEntity
  8
0
100
AcDbLine
 10
185.2759999999999
 20
-0.0000000000000854
 30
0.0
 11
185.794
 21
-0.0000000000000854
 31
0.0
  0
LINE
  5
25B
330
1E
100
AcDbEntity
  8
0
100
AcDbLine
 10
183.345
 20
-0.0000000000000853
 30
0.0
 11
185.2759999999999
 21
-0.0000000000000854
 31
0.0
  0
LINE
  5
25C
330
1E
100
AcDbEntity
  8
0
100
AcDbLine
 10
183.345
 20
-0.0000000000000853
 30
0.0
 11
183.8619999999999
 21
-0.0000000000000853
 31
0.0
  0
LINE
  5
25D
330
1E
100
AcDbEntity
  8
0
100
AcDbLine
 10
183.345
 20
-0.0000000000000853
 30
0.0
 11
183.345
 21
1.99999999999991
 31
0.0
  0
LINE
  5
25E
330
1E
100
AcDbEntity
  8
0
100
AcDbLine
 10
177.6159999999999
 20
-0.0000000000000849
 30
0.0
 11
178.6109999999999
 21
-0.000000000000085
 31
0.0
  0
LINE
  5
25F
330
1E
100
AcDbEntity
  8
0
100
AcDbLine
 10
178.6109999999999
 20
-0.000000000000085
 30
0.0
 11
180.0259999999999
 21
-0.0000000000000851
 31
0.0
  0
LINE
  5
260
330
1E
100
AcDbEntity
  8
0
100
AcDbLine
 10
177.6159999999999
 20
-0.0000000000000849
 30
0.0
 11
178.6159999999999
 21
-0.000000000000085
 31
0.0
  0
LINE
  5
261
330
1E
100
AcDbEntity
  8
0
100
AcDbLine
 10
178.6159999999999
 20
-0.000000000000085
 30
0.0
 11
178.6159999999999
 21
1.999999999999919
 31
0.0
  0
LINE
  5
262
330
1E
100
AcDbEntity
  8
0
100
AcDbLine
 10
176.884
 20
-0.0000000000000849
 30
0.0
 11
176.884
 21
1.999999999999919
 31
0.0
  0
LINE
  5
263
330
1E
100
AcDbEntity
  8
0
100
AcDbLine
 10
176.884
 20
-0.0000000000000849
 30
0.0
 11
178.6159999999999
 21
-0.000000000000085
 31
0.0
  0
LINE
  5
264
330
1E
100
AcDbEntity
  8
0
100
AcDbLine
 10
171.1159999999999
 20
-0.0000000000000845
 30
0.0
 11
171.1159999999999
 21
1.999999999999919
 31
0.0
  0
LINE
  5
265
330
1E
100
AcDbEntity
  8
0
100
AcDbLine
 10
169.384
 20
-0.0000000000000844
 30
0.0
 11
169.384
 21
1.999999999999919
 31
0.0
  0
LINE
  5
266
330
1E
100
AcDbEntity
  8
0
100
AcDbLine
 10
169.384
 20
-0.0000000000000844
 30
0.0
 11
171.1159999999999
 21
-0.0000000000000845
 31
0.0
  0
LINE
  5
267
330
1E
100
AcDbEntity
  8
0
100
AcDbLine
 10
162.616
 20
-0.000000000000084
 30
0.0
 11
163.616
 21
-0.0000000000000841
 31
0.0
  0
LINE
  5
268
330
1E
100
AcDbEntity
  8
0
100
AcDbLine
 10
163.616
 20
-0.0000000000000841
 30
0.0
 11
163.616
 21
1.999999999999919
 31
0.0
  0
LINE
  5
269
330
1E
100
AcDbEntity
  8
0
100
AcDbLine
 10
161.8839999999999
 20
-0.000000000000084
 30
0.0
 11
161.8839999999999
 21
1.999999999999919
 31
0.0
  0
LINE
  5
26A
330
1E
100
AcDbEntity
  8
0
100
AcDbLine
 10
161.8839999999999
 20
-0.000000000000084
 30
0.0
 11
163.616
 21
-0.0000000000000841
 31
0.0
  0
LINE
  5
26B
330
1E
100
AcDbEntity
  8
0
100
AcDbLine
 10
156.116
 20
-0.0000000000000836
 30
0.0
 11
157.3979999999999
 21
-0.0000000000000837
 31
0.0
  0
LINE
  5
26C
330
1E
100
AcDbEntity
  8
0
100
AcDbLine
 10
155.116
 20
-0.0000000000000835
 30
0.0
 11
156.116
 21
-0.0000000000000836
 31
0.0
  0
LINE
  5
26D
330
1E
100
AcDbEntity
  8
0
100
AcDbLine
 10
156.116
 20
-0.0000000000000836
 30
0.0
 11
156.116
 21
1.999999999999919
 31
0.0
  0
LINE
  5
26E
330
1E
100
AcDbEntity
  8
0
100
AcDbLine
 10
154.3839999999999
 20
-0.0000000000000835
 30
0.0
 11
154.3839999999999
 21
1.999999999999919
 31
0.0
  0
LINE
  5
26F
330
1E
100
AcDbEntity
  8
0
100
AcDbLine
 10
154.3839999999999
 20
-0.0000000000000835
 30
0.0
 11
156.116
 21
-0.0000000000000836
 31
0.0
  0
LINE
  5
270
330
1E
100
AcDbEntity
  8
0
100
AcDbLine
 10
150.829
 20
-0.0000000000000833
 30
0.0
 11
152.561
 21
-0.0000000000000834
 31
0.0
  0
LINE
  5
271
330
1E
100
AcDbEntity
  8
0
100
AcDbLine
 10
151.668
 20
-0.0000000000000833
 30
0.0
 11
152.186
 21
-0.0000000000000834
 31
0.0
  0
LINE
  5
272
330
1E
100
AcDbEntity
  8
0
100
AcDbLine
 10
152.186
 20
-0.0000000000000834
 30
0.0
 11
152.186
 21
1.999999999999919
 31
0.0
  0
LINE
  5
273
330
1E
100
AcDbEntity
  8
0
100
AcDbLine
 10
150.2539999999999
 20
-0.0000000000000832
 30
0.0
 11
150.2539999999999
 21
1.999999999999919
 31
0.0
  0
LINE
  5
274
330
1E
100
AcDbEntity
  8
0
100
AcDbLine
 10
150.2539999999999
 20
-0.0000000000000832
 30
0.0
 11
152.186
 21
-0.0000000000000834
 31
0.0
  0
LINE
  5
275
330
1E
100
AcDbEntity
  8
0
100
AcDbLine
 10
148.616
 20
-0.0000000000000831
 30
0.0
 11
148.616
 21
1.999999999999919
 31
0.0
  0
LINE
  5
276
330
1E
100
AcDbEntity
  8
0
100
AcDbLine
 10
147.7859999999999
 20
-0.0000000000000831
 30
0.0
 11
148.304
 21
-0.0000000000000831
 31
0.0
  0
LINE
  5
277
330
1E
100
AcDbEntity
  8
0
100
AcDbLine
 10
148.304
 20
-0.0000000000000831
 30
0.0
 11
148.304
 21
1.999999999999919
 31
0.0
  0
LINE
  5
278
330
1E
100
AcDbEntity
  8
0
100
AcDbLine
 10
146.372
 20
-0.000000000000083
 30
0.0
 11
146.372
 21
1.999999999999919
 31
0.0
  0
LINE
  5
279
330
1E
100
AcDbEntity
  8
0
100
AcDbLine
 10
146.372
 20
-0.000000000000083
 30
0.0
 11
148.304
 21
-0.0000000000000831
 31
0.0
  0
LINE
  5
27A
330
1E
100
AcDbEntity
  8
0
100
AcDbLine
 10
143.904
 20
-0.0000000000000829
 30
0.0
 11
144.4209999999999
 21
-0.0000000000000829
 31
0.0
  0
LINE
  5
27B
330
1E
100
AcDbEntity
  8
0
100
AcDbLine
 10
144.4209999999999
 20
-0.0000000000000829
 30
0.0
 11
144.4209999999999
 21
1.999999999999919
 31
0.0
  0
LINE
  5
27C
330
1E
100
AcDbEntity
  8
0
100
AcDbLine
 10
142.49
 20
-0.0000000000000828
 30
0.0
 11
142.49
 21
1.999999999999919
 31
0.0
  0
LINE
  5
27D
330
1E
100
AcDbEntity
  8
0
100
AcDbLine
 10
142.49
 20
-0.0000000000000828
 30
0.0
 11
144.4209999999999
 21
-0.0000000000000829
 31
0.0
  0
LINE
  5
27E
330
1E
100
AcDbEntity
  8
0
100
AcDbLine
 10
139.571
 20
-0.0000000000000826
 30
0.0
 11
140.5389999999999
 21
-0.0000000000000827
 31
0.0
  0
LINE
  5
27F
330
1E
100
AcDbEntity
  8
0
100
AcDbLine
 10
140.5389999999999
 20
-0.0000000000000827
 30
0.0
 11
141.116
 21
-0.0000000000000827
 31
0.0
  0
LINE
  5
280
330
1E
100
AcDbEntity
  8
0
100
AcDbLine
 10
140.5389999999999
 20
-0.0000000000000827
 30
0.0
 11
141.116
 21
-0.0000000000000827
 31
0.0
  0
LINE
  5
281
330
1E
100
AcDbEntity
  8
0
100
AcDbLine
 10
140.5389999999999
 20
-0.0000000000000827
 30
0.0
 11
140.5389999999999
 21
1.999999999999919
 31
0.0
  0
LINE
  5
282
330
1E
100
AcDbEntity
  8
0
100
AcDbLine
 10
138.6069999999999
 20
-0.0000000000000825
 30
0.0
 11
138.6069999999999
 21
1.999999999999919
 31
0.0
  0
LINE
  5
283
330
1E
100
AcDbEntity
  8
0
100
AcDbLine
 10
138.6069999999999
 20
-0.0000000000000825
 30
0.0
 11
140.5389999999999
 21
-0.0000000000000827
 31
0.0
  0
LINE
  5
284
330
1E
100
AcDbEntity
  8
0
100
AcDbLine
 10
136.657
 20
-0.0000000000000824
 30
0.0
 11
137.5989999999999
 21
-0.0000000000000825
 31
0.0
  0
LINE
  5
285
330
1E
100
AcDbEntity
  8
0
100
AcDbLine
 10
136.657
 20
-0.0000000000000824
 30
0.0
 11
136.657
 21
1.999999999999919
 31
0.0
  0
LINE
  5
286
330
1E
100
AcDbEntity
  8
0
100
AcDbLine
 10
134.725
 20
-0.0000000000000823
 30
0.0
 11
134.725
 21
1.999999999999919
 31
0.0
  0
LINE
  5
287
330
1E
100
AcDbEntity
  8
0
100
AcDbLine
 10
134.725
 20
-0.0000000000000823
 30
0.0
 11
136.657
 21
-0.0000000000000824
 31
0.0
  0
LINE
  5
288
330
1E
100
AcDbEntity
  8
0
100
AcDbLine
 10
131.8839999999999
 20
-0.0000000000000821
 30
0.0
 11
133.616
 21
-0.0000000000000822
 31
0.0
  0
LINE
  5
289
330
1E
100
AcDbEntity
  8
0
100
AcDbLine
 10
132.7749999999999
 20
-0.0000000000000822
 30
0.0
 11
132.7749999999999
 21
1.999999999999919
 31
0.0
  0
LINE
  5
28A
330
1E
100
AcDbEntity
  8
0
100
AcDbLine
 10
130.8429999999999
 20
-0.0000000000000821
 30
0.0
 11
130.8429999999999
 21
1.999999999999919
 31
0.0
  0
LINE
  5
28B
330
1E
100
AcDbEntity
  8
0
100
AcDbLine
 10
130.8429999999999
 20
-0.0000000000000821
 30
0.0
 11
132.7749999999999
 21
-0.0000000000000822
 31
0.0
  0
LINE
  5
28C
330
1E
100
AcDbEntity
  8
0
100
AcDbLine
 10
128.892
 20
-0.0000000000000819
 30
0.0
 11
128.892
 21
1.999999999999919
 31
0.0
  0
LINE
  5
28D
330
1E
100
AcDbEntity
  8
0
100
AcDbLine
 10
126.96
 20
-0.0000000000000818
 30
0.0
 11
126.96
 21
1.999999999999919
 31
0.0
  0
LINE
  5
28E
330
1E
100
AcDbEntity
  8
0
100
AcDbLine
 10
126.96
 20
-0.0000000000000818
 30
0.0
 11
128.892
 21
-0.0000000000000819
 31
0.0
  0
LINE
  5
28F
330
1E
100
AcDbEntity
  8
0
100
AcDbLine
 10
122.45
 20
102.2999999999999
 30
0.0
 11
130.75
 21
108.6
 31
0.0
  0
LINE
  5
290
330
1E
100
AcDbEntity
  8
0
100
AcDbLine
 10
122.75
 20
53.99999999999989
 30
0.0
 11
125.8499999999999
 21
53.99999999999989
 31
0.0
  0
LINE
  5
291
330
1E
100
AcDbEntity
  8
0
100
AcDbLine
 10
122.75
 20
43.99999999999989
 30
0.0
 11
128.55
 21
43.99999999999989
 31
0.0
  0
LINE
  5
292
330
1E
100
AcDbEntity
  8
0
100
AcDbLine
 10
122.75
 20
41.9999999999999
 30
0.0
 11
128.55
 21
41.9999999999999
 31
0.0
  0
LINE
  5
293
330
1E
100
AcDbEntity
  8
0
100
AcDbLine
 10
122.75
 20
23.9999999999999
 30
0.0
 11
152.75
 21
23.9999999999999
 31
0.0
  0
LINE
  5
295
330
1E
100
AcDbEntity
  8
0
100
AcDbLine
 10
122.75
 20
19.99999999999989
 30
0.0
 11
152.9499999999999
 21
19.99999999999989
 31
0.0
  0
LINE
  5
296
330
1E
100
AcDbEntity
  8
0
100
AcDbLine
 10
122.75
 20
18.99999999999989
 30
0.0
 11
153.2499999999999
 21
18.99999999999989
 31
0.0
  0
LINE
  5
297
330
1E
100
AcDbEntity
  8
0
100
AcDbLine
 10
122.75
 20
10.9999999999999
 30
0.0
 11
153.75
 21
10.9999999999999
 31
0.0
  0
LINE
  5
298
330
1E
100
AcDbEntity
  8
0
100
AcDbLine
 10
122.75
 20
10.9999999999999
 30
0.0
 11
153.2499999999999
 21
10.9999999999999
 31
0.0
  0
LINE
  5
299
330
1E
100
AcDbEntity
  8
0
100
AcDbLine
 10
122.75
 20
3.99999999999992
 30
0.0
 11
153.9499999999999
 21
3.99999999999992
 31
0.0
  0
LINE
  5
29A
330
1E
100
AcDbEntity
  8
0
100
AcDbLine
 10
122.75
 20
2.99999999999992
 30
0.0
 11
154.2499999999999
 21
2.99999999999992
 31
0.0
  0
LINE
  5
29B
330
1E
100
AcDbEntity
  8
0
100
AcDbLine
 10
122.75
 20
1.999999999999919
 30
0.0
 11
153.9499999999999
 21
1.999999999999919
 31
0.0
  0
LINE
  5
29C
330
1E
100
AcDbEntity
  8
0
100
AcDbLine
 10
128.892
 20
1.999999999999919
 30
0.0
 11
130.325
 21
1.999999999999919
 31
0.0
  0
LINE
  5
29D
330
1E
100
AcDbEntity
  8
0
100
AcDbLine
 10
133.616
 20
1.999999999999919
 30
0.0
 11
134.2069999999999
 21
1.999999999999919
 31
0.0
  0
LINE
  5
29E
330
1E
100
AcDbEntity
  8
0
100
AcDbLine
 10
137.5989999999999
 20
1.999999999999919
 30
0.0
 11
137.8379999999999
 21
1.999999999999919
 31
0.0
  0
LINE
  5
29F
330
1E
100
AcDbEntity
  8
0
100
AcDbLine
 10
137.5989999999999
 20
1.999999999999919
 30
0.0
 11
137.5989999999999
 21
-0.0000000000000824
 31
0.0
  0
LINE
  5
2A0
330
1E
100
AcDbEntity
  8
0
100
AcDbLine
 10
137.8379999999999
 20
1.999999999999919
 30
0.0
 11
137.8379999999999
 21
-0.0000000000000826
 31
0.0
  0
LINE
  5
2A1
330
1E
100
AcDbEntity
  8
0
100
AcDbLine
 10
141.81
 20
1.999999999999919
 30
0.0
 11
141.81
 21
-0.0000000000000828
 31
0.0
  0
LINE
  5
2A2
330
1E
100
AcDbEntity
  8
0
100
AcDbLine
 10
141.81
 20
1.999999999999919
 30
0.0
 11
141.972
 21
1.999999999999919
 31
0.0
  0
LINE
  5
2A3
330
1E
100
AcDbEntity
  8
0
100
AcDbLine
 10
141.116
 20
1.999999999999919
 30
0.0
 11
141.81
 21
1.999999999999919
 31
0.0
  0
LINE
  5
2A4
330
1E
100
AcDbEntity
  8
0
100
AcDbLine
 10
144.4209999999999
 20
1.999999999999919
 30
0.0
 11
145.377
 21
1.999999999999919
 31
0.0
  0
LINE
  5
2A5
330
1E
100
AcDbEntity
  8
0
100
AcDbLine
 10
145.377
 20
1.999999999999919
 30
0.0
 11
145.377
 21
-0.0000000000000831
 31
0.0
  0
LINE
  5
2A6
330
1E
100
AcDbEntity
  8
0
100
AcDbLine
 10
145.377
 20
1.999999999999919
 30
0.0
 11
145.8539999999999
 21
1.999999999999919
 31
0.0
  0
LINE
  5
2A7
330
1E
100
AcDbEntity
  8
0
100
AcDbLine
 10
148.616
 20
1.999999999999919
 30
0.0
 11
149.737
 21
1.999999999999919
 31
0.0
  0
LINE
  5
2A8
330
1E
100
AcDbEntity
  8
0
100
AcDbLine
 10
152.561
 20
1.999999999999919
 30
0.0
 11
152.561
 21
-0.0000000000000833
 31
0.0
  0
LINE
  5
2A9
330
1E
100
AcDbEntity
  8
0
100
AcDbLine
 10
153.9499999999999
 20
1.999999999999919
 30
0.0
 11
183.15
 21
1.99999999999991
 31
0.0
  0
LINE
  5
2AA
330
1E
100
AcDbEntity
  8
0
100
AcDbLine
 10
163.616
 20
1.999999999999919
 30
0.0
 11
163.8189999999999
 21
1.999999999999919
 31
0.0
  0
LINE
  5
2AB
330
1E
100
AcDbEntity
  8
0
100
AcDbLine
 10
168.005
 20
1.999999999999919
 30
0.0
 11
168.005
 21
-0.0000000000000844
 31
0.0
  0
LINE
  5
2AC
330
1E
100
AcDbEntity
  8
0
100
AcDbLine
 10
166.5909999999999
 20
1.999999999999919
 30
0.0
 11
166.5909999999999
 21
-0.0000000000000842
 31
0.0
  0
LINE
  5
2AD
330
1E
100
AcDbEntity
  8
0
100
AcDbLine
 10
166.5509999999999
 20
1.999999999999919
 30
0.0
 11
166.5509999999999
 21
-0.0000000000000842
 31
0.0
  0
LINE
  5
2AE
330
1E
100
AcDbEntity
  8
0
100
AcDbLine
 10
165.5509999999999
 20
1.999999999999919
 30
0.0
 11
165.5509999999999
 21
-0.0000000000000842
 31
0.0
  0
LINE
  5
2AF
330
1E
100
AcDbEntity
  8
0
100
AcDbLine
 10
163.8189999999999
 20
1.999999999999919
 30
0.0
 11
163.8189999999999
 21
-0.000000000000084
 31
0.0
  0
LINE
  5
2B0
330
1E
100
AcDbEntity
  8
0
100
AcDbLine
 10
163.8189999999999
 20
1.999999999999919
 30
0.0
 11
165.5509999999999
 21
1.999999999999919
 31
0.0
  0
LINE
  5
2B1
330
1E
100
AcDbEntity
  8
0
100
AcDbLine
 10
183.15
 20
1.99999999999991
 30
0.0
 11
208.55
 21
1.99999999999991
 31
0.0
  0
LINE
  5
2B2
330
1E
100
AcDbEntity
  8
0
100
AcDbLine
 10
183.15
 20
1.99999999999991
 30
0.0
 11
183.345
 21
1.99999999999991
 31
0.0
  0
LINE
  5
2B3
330
1E
100
AcDbEntity
  8
0
100
AcDbLine
 10
180.0259999999999
 20
1.999999999999919
 30
0.0
 11
180.0259999999999
 21
-0.0000000000000851
 31
0.0
  0
LINE
  5
2B4
330
1E
100
AcDbEntity
  8
0
100
AcDbLine
 10
180.0259999999999
 20
1.999999999999919
 30
0.0
 11
183.15
 21
1.99999999999991
 31
0.0
  0
LINE
  5
2B5
330
1E
100
AcDbEntity
  8
0
100
AcDbLine
 10
190.632
 20
1.99999999999991
 30
0.0
 11
190.632
 21
-0.0000000000000858
 31
0.0
  0
LINE
  5
2B6
330
1E
100
AcDbEntity
  8
0
100
AcDbLine
 10
202.7499999999999
 20
1.99999999999991
 30
0.0
 11
202.7499999999999
 21
-0.0000000000000865
 31
0.0
  0
LINE
  5
2B7
330
1E
100
AcDbEntity
  8
0
100
AcDbLine
 10
208.55
 20
1.99999999999991
 30
0.0
 11
227.95
 21
1.99999999999991
 31
0.0
  0
LINE
  5
2B8
330
1E
100
AcDbEntity
  8
0
100
AcDbLine
 10
208.55
 20
1.99999999999991
 30
0.0
 11
212.3219999999999
 21
1.99999999999991
 31
0.0
  0
LINE
  5
2B9
330
1E
100
AcDbEntity
  8
0
100
AcDbLine
 10
227.95
 20
1.99999999999991
 30
0.0
 11
239.8499999999999
 21
1.99999999999991
 31
0.0
  0
LINE
  5
2BA
330
1E
100
AcDbEntity
  8
0
100
AcDbLine
 10
227.329
 20
1.99999999999991
 30
0.0
 11
228.743
 21
1.99999999999991
 31
0.0
  0
LINE
  5
2BB
330
1E
100
AcDbEntity
  8
0
100
AcDbLine
 10
227.329
 20
1.99999999999991
 30
0.0
 11
227.95
 21
1.99999999999991
 31
0.0
  0
LINE
  5
2BC
330
1E
100
AcDbEntity
  8
0
100
AcDbLine
 10
244.2499999999999
 20
1.99999999999991
 30
0.0
 11
245.25
 21
2.999999999999909
 31
0.0
  0
LINE
  5
2BD
330
1E
100
AcDbEntity
  8
0
100
AcDbLine
 10
239.8499999999999
 20
1.99999999999991
 30
0.0
 11
244.2499999999999
 21
1.99999999999991
 31
0.0
  0
LINE
  5
2BE
330
1E
100
AcDbEntity
  8
0
100
AcDbLine
 10
232.75
 20
1.99999999999991
 30
0.0
 11
232.75
 21
-0.0000000000000884
 31
0.0
  0
LINE
  5
2BF
330
1E
100
AcDbEntity
  8
0
100
AcDbLine
 10
230.75
 20
1.99999999999991
 30
0.0
 11
230.75
 21
-0.0000000000000881
 31
0.0
  0
LINE
  5
2C0
330
1E
100
AcDbEntity
  8
0
100
AcDbLine
 10
230.75
 20
1.99999999999991
 30
0.0
 11
232.75
 21
1.99999999999991
 31
0.0
  0
LINE
  5
2C1
330
1E
100
AcDbEntity
  8
0
100
AcDbLine
 10
229.2609999999999
 20
1.99999999999991
 30
0.0
 11
229.2609999999999
 21
-0.0000000000000881
 31
0.0
  0
LINE
  5
2C2
330
1E
100
AcDbEntity
  8
0
100
AcDbLine
 10
228.743
 20
1.99999999999991
 30
0.0
 11
228.743
 21
-0.0000000000000881
 31
0.0
  0
LINE
  5
2C3
330
1E
100
AcDbEntity
  8
0
100
AcDbLine
 10
228.743
 20
1.99999999999991
 30
0.0
 11
229.2609999999999
 21
1.99999999999991
 31
0.0
  0
LINE
  5
2C4
330
1E
100
AcDbEntity
  8
0
100
AcDbLine
 10
215.75
 20
1.99999999999991
 30
0.0
 11
215.75
 21
-0.0000000000000872
 31
0.0
  0
LINE
  5
2C5
330
1E
100
AcDbEntity
  8
0
100
AcDbLine
 10
218.513
 20
1.99999999999991
 30
0.0
 11
218.513
 21
-0.0000000000000874
 31
0.0
  0
LINE
  5
2C6
330
1E
100
AcDbEntity
  8
0
100
AcDbLine
 10
216.7809999999999
 20
1.99999999999991
 30
0.0
 11
217.513
 21
1.99999999999991
 31
0.0
  0
LINE
  5
2C7
330
1E
100
AcDbEntity
  8
0
100
AcDbLine
 10
216.7809999999999
 20
1.99999999999991
 30
0.0
 11
226.8109999999999
 21
1.99999999999991
 31
0.0
  0
LINE
  5
2C8
330
1E
100
AcDbEntity
  8
0
100
AcDbLine
 10
217.513
 20
1.99999999999991
 30
0.0
 11
217.513
 21
-0.0000000000000874
 31
0.0
  0
LINE
  5
2C9
330
1E
100
AcDbEntity
  8
0
100
AcDbLine
 10
217.513
 20
1.99999999999991
 30
0.0
 11
218.513
 21
1.99999999999991
 31
0.0
  0
LINE
  5
2CA
330
1E
100
AcDbEntity
  8
0
100
AcDbLine
 10
215.781
 20
1.99999999999991
 30
0.0
 11
215.781
 21
-0.0000000000000872
 31
0.0
  0
LINE
  5
2CB
330
1E
100
AcDbEntity
  8
0
100
AcDbLine
 10
215.781
 20
1.99999999999991
 30
0.0
 11
217.513
 21
1.99999999999991
 31
0.0
  0
LINE
  5
2CC
330
1E
100
AcDbEntity
  8
0
100
AcDbLine
 10
215.781
 20
1.99999999999991
 30
0.0
 11
216.7809999999999
 21
1.99999999999991
 31
0.0
  0
LINE
  5
2CD
330
1E
100
AcDbEntity
  8
0
100
AcDbLine
 10
226.8109999999999
 20
1.99999999999991
 30
0.0
 11
226.8109999999999
 21
-0.0000000000000879
 31
0.0
  0
LINE
  5
2CE
330
1E
100
AcDbEntity
  8
0
100
AcDbLine
 10
226.8109999999999
 20
1.99999999999991
 30
0.0
 11
228.743
 21
1.99999999999991
 31
0.0
  0
LINE
  5
2CF
330
1E
100
AcDbEntity
  8
0
100
AcDbLine
 10
226.8109999999999
 20
1.99999999999991
 30
0.0
 11
227.329
 21
1.99999999999991
 31
0.0
  0
LINE
  5
2D0
330
1E
100
AcDbEntity
  8
0
100
AcDbLine
 10
214.772
 20
1.99999999999991
 30
0.0
 11
214.772
 21
-0.0000000000000872
 31
0.0
  0
LINE
  5
2D1
330
1E
100
AcDbEntity
  8
0
100
AcDbLine
 10
214.772
 20
1.99999999999991
 30
0.0
 11
215.781
 21
1.99999999999991
 31
0.0
  0
LINE
  5
2D2
330
1E
100
AcDbEntity
  8
0
100
AcDbLine
 10
212.84
 20
1.99999999999991
 30
0.0
 11
214.254
 21
1.99999999999991
 31
0.0
  0
LINE
  5
2D3
330
1E
100
AcDbEntity
  8
0
100
AcDbLine
 10
214.254
 20
1.99999999999991
 30
0.0
 11
214.254
 21
-0.0000000000000872
 31
0.0
  0
LINE
  5
2D4
330
1E
100
AcDbEntity
  8
0
100
AcDbLine
 10
214.254
 20
1.99999999999991
 30
0.0
 11
214.772
 21
1.99999999999991
 31
0.0
  0
LINE
  5
2D5
330
1E
100
AcDbEntity
  8
0
100
AcDbLine
 10
212.3219999999999
 20
1.99999999999991
 30
0.0
 11
212.3219999999999
 21
-0.000000000000087
 31
0.0
  0
LINE
  5
2D6
330
1E
100
AcDbEntity
  8
0
100
AcDbLine
 10
205.522
 20
1.99999999999991
 30
0.0
 11
205.522
 21
-0.0000000000000865
 31
0.0
  0
LINE
  5
2D7
330
1E
100
AcDbEntity
  8
0
100
AcDbLine
 10
205.522
 20
1.99999999999991
 30
0.0
 11
208.55
 21
1.99999999999991
 31
0.0
  0
LINE
  5
2D8
330
1E
100
AcDbEntity
  8
0
100
AcDbLine
 10
204.522
 20
1.99999999999991
 30
0.0
 11
204.522
 21
-0.0000000000000865
 31
0.0
  0
LINE
  5
2D9
330
1E
100
AcDbEntity
  8
0
100
AcDbLine
 10
201.2389999999999
 20
1.99999999999991
 30
0.0
 11
201.2389999999999
 21
-0.0000000000000863
 31
0.0
  0
LINE
  5
2DA
330
1E
100
AcDbEntity
  8
0
100
AcDbLine
 10
201.2389999999999
 20
1.99999999999991
 30
0.0
 11
202.7499999999999
 21
1.99999999999991
 31
0.0
  0
LINE
  5
2DB
330
1E
100
AcDbEntity
  8
0
100
AcDbLine
 10
201.2389999999999
 20
1.99999999999991
 30
0.0
 11
202.7899999999999
 21
1.99999999999991
 31
0.0
  0
LINE
  5
2DC
330
1E
100
AcDbEntity
  8
0
100
AcDbLine
 10
199.8249999999999
 20
1.99999999999991
 30
0.0
 11
199.8249999999999
 21
-0.0000000000000863
 31
0.0
  0
LINE
  5
2DD
330
1E
100
AcDbEntity
  8
0
100
AcDbLine
 10
198.4099999999999
 20
1.99999999999991
 30
0.0
 11
198.4099999999999
 21
-0.0000000000000863
 31
0.0
  0
LINE
  5
2DE
330
1E
100
AcDbEntity
  8
0
100
AcDbLine
 10
198.4099999999999
 20
1.99999999999991
 30
0.0
 11
199.8249999999999
 21
1.99999999999991
 31
0.0
  0
LINE
  5
2DF
330
1E
100
AcDbEntity
  8
0
100
AcDbLine
 10
197.8329999999999
 20
1.99999999999991
 30
0.0
 11
197.8329999999999
 21
-0.0000000000000861
 31
0.0
  0
LINE
  5
2E0
330
1E
100
AcDbEntity
  8
0
100
AcDbLine
 10
202.7899999999999
 20
1.99999999999991
 30
0.0
 11
202.7899999999999
 21
-0.0000000000000865
 31
0.0
  0
LINE
  5
2E1
330
1E
100
AcDbEntity
  8
0
100
AcDbLine
 10
202.7899999999999
 20
1.99999999999991
 30
0.0
 11
204.522
 21
1.99999999999991
 31
0.0
  0
LINE
  5
2E2
330
1E
100
AcDbEntity
  8
0
100
AcDbLine
 10
192.532
 20
1.99999999999991
 30
0.0
 11
192.532
 21
-0.0000000000000858
 31
0.0
  0
LINE
  5
2E3
330
1E
100
AcDbEntity
  8
0
100
AcDbLine
 10
192.532
 20
1.99999999999991
 30
0.0
 11
197.8329999999999
 21
1.99999999999991
 31
0.0
  0
LINE
  5
2E4
330
1E
100
AcDbEntity
  8
0
100
AcDbLine
 10
187.7499999999999
 20
1.99999999999991
 30
0.0
 11
187.7499999999999
 21
-0.0000000000000856
 31
0.0
  0
LINE
  5
2E5
330
1E
100
AcDbEntity
  8
0
100
AcDbLine
 10
187.7499999999999
 20
1.99999999999991
 30
0.0
 11
187.804
 21
1.99999999999991
 31
0.0
  0
LINE
  5
2E6
330
1E
100
AcDbEntity
  8
0
100
AcDbLine
 10
189.2179999999999
 20
1.99999999999991
 30
0.0
 11
189.2179999999999
 21
-0.0000000000000856
 31
0.0
  0
LINE
  5
2E7
330
1E
100
AcDbEntity
  8
0
100
AcDbLine
 10
187.804
 20
1.99999999999991
 30
0.0
 11
187.804
 21
-0.0000000000000856
 31
0.0
  0
LINE
  5
2E8
330
1E
100
AcDbEntity
  8
0
100
AcDbLine
 10
191.532
 20
1.99999999999991
 30
0.0
 11
191.532
 21
-0.0000000000000858
 31
0.0
  0
LINE
  5
2E9
330
1E
100
AcDbEntity
  8
0
100
AcDbLine
 10
185.794
 20
1.99999999999991
 30
0.0
 11
185.794
 21
-0.0000000000000854
 31
0.0
  0
LINE
  5
2EA
330
1E
100
AcDbEntity
  8
0
100
AcDbLine
 10
185.794
 20
1.99999999999991
 30
0.0
 11
187.7499999999999
 21
1.99999999999991
 31
0.0
  0
LINE
  5
2EB
330
1E
100
AcDbEntity
  8
0
100
AcDbLine
 10
185.2759999999999
 20
1.99999999999991
 30
0.0
 11
185.2759999999999
 21
-0.0000000000000854
 31
0.0
  0
LINE
  5
2EC
330
1E
100
AcDbEntity
  8
0
100
AcDbLine
 10
183.345
 20
1.99999999999991
 30
0.0
 11
183.345
 21
-0.0000000000000854
 31
0.0
  0
LINE
  5
2ED
330
1E
100
AcDbEntity
  8
0
100
AcDbLine
 10
178.6159999999999
 20
1.999999999999919
 30
0.0
 11
178.6159999999999
 21
-0.0000000000000849
 31
0.0
  0
LINE
  5
2EE
330
1E
100
AcDbEntity
  8
0
100
AcDbLine
 10
178.6159999999999
 20
1.999999999999919
 30
0.0
 11
180.0259999999999
 21
1.999999999999919
 31
0.0
  0
LINE
  5
2EF
330
1E
100
AcDbEntity
  8
0
100
AcDbLine
 10
176.884
 20
1.999999999999919
 30
0.0
 11
176.884
 21
-0.0000000000000849
 31
0.0
  0
LINE
  5
2F0
330
1E
100
AcDbEntity
  8
0
100
AcDbLine
 10
172.75
 20
1.999999999999919
 30
0.0
 11
172.75
 21
-0.0000000000000847
 31
0.0
  0
LINE
  5
2F1
330
1E
100
AcDbEntity
  8
0
100
AcDbLine
 10
172.75
 20
1.999999999999919
 30
0.0
 11
175.884
 21
1.999999999999919
 31
0.0
  0
LINE
  5
2F2
330
1E
100
AcDbEntity
  8
0
100
AcDbLine
 10
171.305
 20
1.999999999999919
 30
0.0
 11
171.305
 21
-0.0000000000000844
 31
0.0
  0
LINE
  5
2F3
330
1E
100
AcDbEntity
  8
0
100
AcDbLine
 10
171.305
 20
1.999999999999919
 30
0.0
 11
172.75
 21
1.999999999999919
 31
0.0
  0
LINE
  5
2F4
330
1E
100
AcDbEntity
  8
0
100
AcDbLine
 10
175.884
 20
1.999999999999919
 30
0.0
 11
175.884
 21
-0.0000000000000849
 31
0.0
  0
LINE
  5
2F5
330
1E
100
AcDbEntity
  8
0
100
AcDbLine
 10
171.1159999999999
 20
1.999999999999919
 30
0.0
 11
171.1159999999999
 21
-0.0000000000000844
 31
0.0
  0
LINE
  5
2F6
330
1E
100
AcDbEntity
  8
0
100
AcDbLine
 10
169.384
 20
1.999999999999919
 30
0.0
 11
169.384
 21
-0.0000000000000844
 31
0.0
  0
LINE
  5
2F7
330
1E
100
AcDbEntity
  8
0
100
AcDbLine
 10
168.384
 20
1.999999999999919
 30
0.0
 11
168.384
 21
-0.0000000000000844
 31
0.0
  0
LINE
  5
2F8
330
1E
100
AcDbEntity
  8
0
100
AcDbLine
 10
163.616
 20
1.999999999999919
 30
0.0
 11
163.616
 21
-0.000000000000084
 31
0.0
  0
LINE
  5
2F9
330
1E
100
AcDbEntity
  8
0
100
AcDbLine
 10
161.8839999999999
 20
1.999999999999919
 30
0.0
 11
161.8839999999999
 21
-0.000000000000084
 31
0.0
  0
LINE
  5
2FA
330
1E
100
AcDbEntity
  8
0
100
AcDbLine
 10
156.299
 20
1.999999999999919
 30
0.0
 11
157.3979999999999
 21
1.999999999999919
 31
0.0
  0
LINE
  5
2FB
330
1E
100
AcDbEntity
  8
0
100
AcDbLine
 10
158.812
 20
1.999999999999919
 30
0.0
 11
158.812
 21
-0.0000000000000838
 31
0.0
  0
LINE
  5
2FC
330
1E
100
AcDbEntity
  8
0
100
AcDbLine
 10
158.812
 20
1.999999999999919
 30
0.0
 11
160.8839999999999
 21
1.999999999999919
 31
0.0
  0
LINE
  5
2FD
330
1E
100
AcDbEntity
  8
0
100
AcDbLine
 10
157.3979999999999
 20
1.999999999999919
 30
0.0
 11
157.3979999999999
 21
-0.0000000000000838
 31
0.0
  0
LINE
  5
2FE
330
1E
100
AcDbEntity
  8
0
100
AcDbLine
 10
160.8839999999999
 20
1.999999999999919
 30
0.0
 11
160.8839999999999
 21
-0.000000000000084
 31
0.0
  0
LINE
  5
2FF
330
1E
100
AcDbEntity
  8
0
100
AcDbLine
 10
156.116
 20
1.999999999999919
 30
0.0
 11
156.116
 21
-0.0000000000000835
 31
0.0
  0
LINE
  5
300
330
1E
100
AcDbEntity
  8
0
100
AcDbLine
 10
156.116
 20
1.999999999999919
 30
0.0
 11
157.3979999999999
 21
1.999999999999919
 31
0.0
  0
LINE
  5
301
330
1E
100
AcDbEntity
  8
0
100
AcDbLine
 10
154.3839999999999
 20
1.999999999999919
 30
0.0
 11
154.3839999999999
 21
-0.0000000000000835
 31
0.0
  0
LINE
  5
302
330
1E
100
AcDbEntity
  8
0
100
AcDbLine
 10
153.3839999999999
 20
1.999999999999919
 30
0.0
 11
153.3839999999999
 21
-0.0000000000000835
 31
0.0
  0
LINE
  5
303
330
1E
100
AcDbEntity
  8
0
100
AcDbLine
 10
153.3839999999999
 20
1.999999999999919
 30
0.0
 11
153.9499999999999
 21
1.999999999999919
 31
0.0
  0
LINE
  5
304
330
1E
100
AcDbEntity
  8
0
100
AcDbLine
 10
152.186
 20
1.999999999999919
 30
0.0
 11
152.186
 21
-0.0000000000000833
 31
0.0
  0
LINE
  5
305
330
1E
100
AcDbEntity
  8
0
100
AcDbLine
 10
150.2539999999999
 20
1.999999999999919
 30
0.0
 11
150.2539999999999
 21
-0.0000000000000833
 31
0.0
  0
LINE
  5
306
330
1E
100
AcDbEntity
  8
0
100
AcDbLine
 10
149.737
 20
1.999999999999919
 30
0.0
 11
149.737
 21
-0.0000000000000833
 31
0.0
  0
LINE
  5
307
330
1E
100
AcDbEntity
  8
0
100
AcDbLine
 10
149.737
 20
1.999999999999919
 30
0.0
 11
150.2539999999999
 21
1.999999999999919
 31
0.0
  0
LINE
  5
308
330
1E
100
AcDbEntity
  8
0
100
AcDbLine
 10
148.304
 20
1.999999999999919
 30
0.0
 11
148.304
 21
-0.0000000000000831
 31
0.0
  0
LINE
  5
309
330
1E
100
AcDbEntity
  8
0
100
AcDbLine
 10
146.372
 20
1.999999999999919
 30
0.0
 11
146.372
 21
-0.0000000000000831
 31
0.0
  0
LINE
  5
30A
330
1E
100
AcDbEntity
  8
0
100
AcDbLine
 10
145.8539999999999
 20
1.999999999999919
 30
0.0
 11
145.8539999999999
 21
-0.0000000000000831
 31
0.0
  0
LINE
  5
30B
330
1E
100
AcDbEntity
  8
0
100
AcDbLine
 10
145.8539999999999
 20
1.999999999999919
 30
0.0
 11
146.372
 21
1.999999999999919
 31
0.0
  0
LINE
  5
30C
330
1E
100
AcDbEntity
  8
0
100
AcDbLine
 10
144.4209999999999
 20
1.999999999999919
 30
0.0
 11
144.4209999999999
 21
-0.0000000000000828
 31
0.0
  0
LINE
  5
30D
330
1E
100
AcDbEntity
  8
0
100
AcDbLine
 10
142.49
 20
1.999999999999919
 30
0.0
 11
142.49
 21
-0.0000000000000828
 31
0.0
  0
LINE
  5
30E
330
1E
100
AcDbEntity
  8
0
100
AcDbLine
 10
141.116
 20
1.999999999999919
 30
0.0
 11
141.116
 21
-0.0000000000000826
 31
0.0
  0
LINE
  5
30F
330
1E
100
AcDbEntity
  8
0
100
AcDbLine
 10
141.116
 20
1.999999999999919
 30
0.0
 11
141.81
 21
1.999999999999919
 31
0.0
  0
LINE
  5
310
330
1E
100
AcDbEntity
  8
0
100
AcDbLine
 10
141.972
 20
1.999999999999919
 30
0.0
 11
141.972
 21
-0.0000000000000828
 31
0.0
  0
LINE
  5
311
330
1E
100
AcDbEntity
  8
0
100
AcDbLine
 10
141.972
 20
1.999999999999919
 30
0.0
 11
142.49
 21
1.999999999999919
 31
0.0
  0
LINE
  5
312
330
1E
100
AcDbEntity
  8
0
100
AcDbLine
 10
140.5389999999999
 20
1.999999999999919
 30
0.0
 11
140.5389999999999
 21
-0.0000000000000826
 31
0.0
  0
LINE
  5
313
330
1E
100
AcDbEntity
  8
0
100
AcDbLine
 10
138.6069999999999
 20
1.999999999999919
 30
0.0
 11
138.6069999999999
 21
-0.0000000000000826
 31
0.0
  0
LINE
  5
314
330
1E
100
AcDbEntity
  8
0
100
AcDbLine
 10
138.09
 20
1.999999999999919
 30
0.0
 11
138.09
 21
-0.0000000000000826
 31
0.0
  0
LINE
  5
315
330
1E
100
AcDbEntity
  8
0
100
AcDbLine
 10
138.09
 20
1.999999999999919
 30
0.0
 11
138.6069999999999
 21
1.999999999999919
 31
0.0
  0
LINE
  5
316
330
1E
100
AcDbEntity
  8
0
100
AcDbLine
 10
136.657
 20
1.999999999999919
 30
0.0
 11
136.657
 21
-0.0000000000000824
 31
0.0
  0
LINE
  5
317
330
1E
100
AcDbEntity
  8
0
100
AcDbLine
 10
134.725
 20
1.999999999999919
 30
0.0
 11
134.725
 21
-0.0000000000000824
 31
0.0
  0
LINE
  5
318
330
1E
100
AcDbEntity
  8
0
100
AcDbLine
 10
133.616
 20
1.999999999999919
 30
0.0
 11
133.616
 21
-0.0000000000000821
 31
0.0
  0
LINE
  5
319
330
1E
100
AcDbEntity
  8
0
100
AcDbLine
 10
134.2069999999999
 20
1.999999999999919
 30
0.0
 11
134.2069999999999
 21
-0.0000000000000824
 31
0.0
  0
LINE
  5
31A
330
1E
100
AcDbEntity
  8
0
100
AcDbLine
 10
132.7749999999999
 20
1.999999999999919
 30
0.0
 11
132.7749999999999
 21
-0.0000000000000821
 31
0.0
  0
LINE
  5
31B
330
1E
100
AcDbEntity
  8
0
100
AcDbLine
 10
130.8429999999999
 20
1.999999999999919
 30
0.0
 11
130.8429999999999
 21
-0.0000000000000821
 31
0.0
  0
LINE
  5
31C
330
1E
100
AcDbEntity
  8
0
100
AcDbLine
 10
130.325
 20
1.999999999999919
 30
0.0
 11
130.325
 21
-0.0000000000000821
 31
0.0
  0
LINE
  5
31D
330
1E
100
AcDbEntity
  8
0
100
AcDbLine
 10
128.892
 20
1.999999999999919
 30
0.0
 11
128.892
 21
-0.0000000000000819
 31
0.0
  0
LINE
  5
31E
330
1E
100
AcDbEntity
  8
0
100
AcDbLine
 10
126.96
 20
1.999999999999919
 30
0.0
 11
126.96
 21
-0.0000000000000819
 31
0.0
  0
LINE
  5
31F
330
1E
100
AcDbEntity
  8
0
100
AcDbLine
 10
153.2499999999999
 20
10.9999999999999
 30
0.0
 11
153.75
 21
10.9999999999999
 31
0.0
  0
LINE
  5
320
330
1E
100
AcDbEntity
  8
0
100
AcDbLine
 10
125.8499999999999
 20
53.99999999999989
 30
0.0
 11
128.75
 21
53.99999999999989
 31
0.0
  0
LINE
  5
321
330
1E
100
AcDbEntity
  8
0
100
AcDbLine
 10
128.55
 20
43.99999999999989
 30
0.0
 11
133.9499999999999
 21
43.99999999999989
 31
0.0
  0
LINE
  5
322
330
1E
100
AcDbEntity
  8
0
100
AcDbLine
 10
138.65
 20
41.9999999999999
 30
0.0
 11
142.25
 21
41.9999999999999
 31
0.0
  0
LINE
  5
323
330
1E
100
AcDbEntity
  8
0
100
AcDbLine
 10
142.25
 20
41.9999999999999
 30
0.0
 11
144.4499999999999
 21
41.9999999999999
 31
0.0
  0
LINE
  5
324
330
1E
100
AcDbEntity
  8
0
100
AcDbLine
 10
144.4499999999999
 20
41.9999999999999
 30
0.0
 11
145.25
 21
41.9999999999999
 31
0.0
  0
LINE
  5
325
330
1E
100
AcDbEntity
  8
0
100
AcDbLine
 10
145.25
 20
41.9999999999999
 30
0.0
 11
147.2499999999999
 21
39.9999999999999
 31
0.0
  0
LINE
  5
326
330
1E
100
AcDbEntity
  8
0
100
AcDbLine
 10
145.25
 20
41.9999999999999
 30
0.0
 11
145.25
 21
43.99999999999989
 31
0.0
  0
LINE
  5
327
330
1E
100
AcDbEntity
  8
0
100
AcDbLine
 10
147.2499999999999
 20
39.9999999999999
 30
0.0
 11
151.25
 21
38.9999999999999
 31
0.0
  0
LINE
  5
328
330
1E
100
AcDbEntity
  8
0
100
AcDbLine
 10
151.25
 20
38.9999999999999
 30
0.0
 11
239.25
 21
23.9999999999999
 31
0.0
  0
LINE
  5
329
330
1E
100
AcDbEntity
  8
0
100
AcDbLine
 10
133.15
 20
53.99999999999989
 30
0.0
 11
134.3499999999999
 21
53.99999999999989
 31
0.0
  0
LINE
  5
32A
330
1E
100
AcDbEntity
  8
0
100
AcDbLine
 10
131.25
 20
53.99999999999989
 30
0.0
 11
133.15
 21
53.99999999999989
 31
0.0
  0
LINE
  5
32B
330
1E
100
AcDbEntity
  8
0
100
AcDbLine
 10
131.25
 20
53.99999999999989
 30
0.0
 11
133.15
 21
53.99999999999989
 31
0.0
  0
LINE
  5
32C
330
1E
100
AcDbEntity
  8
0
100
AcDbLine
 10
133.15
 20
53.99999999999989
 30
0.0
 11
134.3499999999999
 21
53.99999999999989
 31
0.0
  0
LINE
  5
32D
330
1E
100
AcDbEntity
  8
0
100
AcDbLine
 10
130.75
 20
108.6
 30
0.0
 11
140.35
 21
112.5999999999999
 31
0.0
  0
LINE
  5
32E
330
1E
100
AcDbEntity
  8
0
100
AcDbLine
 10
128.75
 20
53.99999999999989
 30
0.0
 11
131.25
 21
53.99999999999989
 31
0.0
  0
LINE
  5
32F
330
1E
100
AcDbEntity
  8
0
100
AcDbLine
 10
145.25
 20
43.99999999999989
 30
0.0
 11
145.25
 21
41.9999999999999
 31
0.0
  0
LINE
  5
330
330
1E
100
AcDbEntity
  8
0
100
AcDbLine
 10
142.25
 20
43.99999999999989
 30
0.0
 11
144.4499999999999
 21
43.99999999999989
 31
0.0
  0
LINE
  5
331
330
1E
100
AcDbEntity
  8
0
100
AcDbLine
 10
134.7499999999999
 20
53.99999999999989
 30
0.0
 11
134.7499999999999
 21
69.9999999999999
 31
0.0
  0
LINE
  5
332
330
1E
100
AcDbEntity
  8
0
100
AcDbLine
 10
134.7499999999999
 20
73.9999999999999
 30
0.0
 11
134.7499999999999
 21
69.9999999999999
 31
0.0
  0
LINE
  5
333
330
1E
100
AcDbEntity
  8
0
100
AcDbLine
 10
134.7499999999999
 20
73.9999999999999
 30
0.0
 11
135.25
 21
78.09999999999991
 31
0.0
  0
LINE
  5
334
330
1E
100
AcDbEntity
  8
0
100
AcDbLine
 10
136.85
 20
81.9999999999999
 30
0.0
 11
139.4499999999999
 21
85.2999999999999
 31
0.0
  0
LINE
  5
335
330
1E
100
AcDbEntity
  8
0
100
AcDbLine
 10
135.25
 20
78.09999999999991
 30
0.0
 11
136.85
 21
81.9999999999999
 31
0.0
  0
LINE
  5
336
330
1E
100
AcDbEntity
  8
0
100
AcDbLine
 10
134.7499999999999
 20
69.9999999999999
 30
0.0
 11
134.7499999999999
 21
53.99999999999989
 31
0.0
  0
LINE
  5
337
330
1E
100
AcDbEntity
  8
0
100
AcDbLine
 10
134.7499999999999
 20
69.9999999999999
 30
0.0
 11
134.7499999999999
 21
73.9999999999999
 31
0.0
  0
LINE
  5
338
330
1E
100
AcDbEntity
  8
0
100
AcDbLine
 10
134.7499999999999
 20
53.99999999999989
 30
0.0
 11
134.7499999999999
 21
43.99999999999989
 31
0.0
  0
LINE
  5
339
330
1E
100
AcDbEntity
  8
0
100
AcDbLine
 10
134.3499999999999
 20
53.99999999999989
 30
0.0
 11
134.7499999999999
 21
53.99999999999989
 31
0.0
  0
LINE
  5
33A
330
1E
100
AcDbEntity
  8
0
100
AcDbLine
 10
134.3499999999999
 20
53.99999999999989
 30
0.0
 11
134.7499999999999
 21
53.99999999999989
 31
0.0
  0
LINE
  5
33B
330
1E
100
AcDbEntity
  8
0
100
AcDbLine
 10
134.7499999999999
 20
43.99999999999989
 30
0.0
 11
134.7499999999999
 21
53.99999999999989
 31
0.0
  0
LINE
  5
33C
330
1E
100
AcDbEntity
  8
0
100
AcDbLine
 10
139.4499999999999
 20
85.2999999999999
 30
0.0
 11
142.75
 21
87.8999999999999
 31
0.0
  0
LINE
  5
33D
330
1E
100
AcDbEntity
  8
0
100
AcDbLine
 10
142.75
 20
87.8999999999999
 30
0.0
 11
146.65
 21
89.4999999999999
 31
0.0
  0
LINE
  5
33E
330
1E
100
AcDbEntity
  8
0
100
AcDbLine
 10
146.65
 20
89.4999999999999
 30
0.0
 11
150.75
 21
89.99999999999991
 31
0.0
  0
LINE
  5
33F
330
1E
100
AcDbEntity
  8
0
100
AcDbLine
 10
150.75
 20
114.0
 30
0.0
 11
500.75
 21
114.0
 31
0.0
  0
LINE
  5
340
330
1E
100
AcDbEntity
  8
0
100
AcDbLine
 10
140.35
 20
112.5999999999999
 30
0.0
 11
150.75
 21
114.0
 31
0.0
  0
LINE
  5
341
330
1E
100
AcDbEntity
  8
0
100
AcDbLine
 10
150.75
 20
89.99999999999991
 30
0.0
 11
500.75
 21
89.99999999999991
 31
0.0
  0
LINE
  5
342
330
1E
100
AcDbEntity
  8
0
100
AcDbLine
 10
150.75
 20
89.99999999999991
 30
0.0
 11
500.75
 21
89.99999999999991
 31
0.0
  0
LINE
  5
343
330
1E
100
AcDbEntity
  8
0
100
AcDbLine
 10
150.75
 20
114.0
 30
0.0
 11
500.75
 21
114.0
 31
0.0
  0
LINE
  5
344
330
1E
100
AcDbEntity
  8
0
100
AcDbLine
 10
138.65
 20
43.99999999999989
 30
0.0
 11
142.25
 21
43.99999999999989
 31
0.0
  0
LINE
  5
345
330
1E
100
AcDbEntity
  8
0
100
AcDbLine
 10
144.4499999999999
 20
43.99999999999989
 30
0.0
 11
145.25
 21
43.99999999999989
 31
0.0
  0
LINE
  5
346
330
1E
100
AcDbEntity
  8
0
100
AcDbLine
 10
133.9499999999999
 20
43.99999999999989
 30
0.0
 11
138.65
 21
43.99999999999989
 31
0.0
  0
LINE
  5
347
330
1E
100
AcDbEntity
  8
0
100
AcDbLine
 10
133.9499999999999
 20
41.9999999999999
 30
0.0
 11
138.65
 21
41.9999999999999
 31
0.0
  0
LINE
  5
348
330
1E
100
AcDbEntity
  8
0
100
AcDbLine
 10
128.55
 20
41.9999999999999
 30
0.0
 11
133.9499999999999
 21
41.9999999999999
 31
0.0
  0
LINE
  5
349
330
1E
100
AcDbEntity
  8
0
100
AcDbLine
 10
152.75
 20
23.9999999999999
 30
0.0
 11
180.75
 21
23.9999999999999
 31
0.0
  0
LINE
  5
34B
330
1E
100
AcDbEntity
  8
0
100
AcDbLine
 10
152.9499999999999
 20
19.99999999999989
 30
0.0
 11
181.25
 21
19.99999999999989
 31
0.0
  0
LINE
  5
34C
330
1E
100
AcDbEntity
  8
0
100
AcDbLine
 10
153.2499999999999
 20
18.99999999999989
 30
0.0
 11
181.75
 21
18.99999999999989
 31
0.0
  0
LINE
  5
34D
330
1E
100
AcDbEntity
  8
0
100
AcDbLine
 10
153.75
 20
10.9999999999999
 30
0.0
 11
182.55
 21
10.9999999999999
 31
0.0
  0
LINE
  5
34E
330
1E
100
AcDbEntity
  8
0
100
AcDbLine
 10
153.9499999999999
 20
3.99999999999992
 30
0.0
 11
183.15
 21
3.999999999999909
 31
0.0
  0
LINE
  5
34F
330
1E
100
AcDbEntity
  8
0
100
AcDbLine
 10
209.25
 20
2.999999999999909
 30
0.0
 11
228.8499999999999
 21
2.999999999999909
 31
0.0
  0
LINE
  5
350
330
1E
100
AcDbEntity
  8
0
100
AcDbLine
 10
228.8499999999999
 20
2.999999999999909
 30
0.0
 11
241.15
 21
2.999999999999909
 31
0.0
  0
LINE
  5
351
330
1E
100
AcDbEntity
  8
0
100
AcDbLine
 10
241.15
 20
2.999999999999909
 30
0.0
 11
245.25
 21
2.999999999999909
 31
0.0
  0
LINE
  5
352
330
1E
100
AcDbEntity
  8
0
100
AcDbLine
 10
180.75
 20
23.9999999999999
 30
0.0
 11
205.0499999999999
 21
23.9999999999999
 31
0.0
  0
LINE
  5
354
330
1E
100
AcDbEntity
  8
0
100
AcDbLine
 10
181.25
 20
19.99999999999989
 30
0.0
 11
205.75
 21
19.99999999999989
 31
0.0
  0
LINE
  5
355
330
1E
100
AcDbEntity
  8
0
100
AcDbLine
 10
181.75
 20
18.99999999999989
 30
0.0
 11
206.3499999999999
 21
18.99999999999989
 31
0.0
  0
LINE
  5
356
330
1E
100
AcDbEntity
  8
0
100
AcDbLine
 10
182.55
 20
10.9999999999999
 30
0.0
 11
207.85
 21
10.9999999999999
 31
0.0
  0
LINE
  5
357
330
1E
100
AcDbEntity
  8
0
100
AcDbLine
 10
243.25
 20
3.999999999999909
 30
0.0
 11
243.25
 21
10.9999999999999
 31
0.0
  0
LINE
  5
358
330
1E
100
AcDbEntity
  8
0
100
AcDbLine
 10
205.0499999999999
 20
23.9999999999999
 30
0.0
 11
223.6499999999999
 21
23.9999999999999
 31
0.0
  0
LINE
  5
35A
330
1E
100
AcDbEntity
  8
0
100
AcDbLine
 10
205.75
 20
19.99999999999989
 30
0.0
 11
224.4499999999999
 21
19.99999999999989
 31
0.0
  0
LINE
  5
35B
330
1E
100
AcDbEntity
  8
0
100
AcDbLine
 10
206.3499999999999
 20
18.99999999999989
 30
0.0
 11
225.3499999999999
 21
18.99999999999989
 31
0.0
  0
LINE
  5
35C
330
1E
100
AcDbEntity
  8
0
100
AcDbLine
 10
207.85
 20
10.9999999999999
 30
0.0
 11
227.2499999999999
 21
10.9999999999999
 31
0.0
  0
LINE
  5
35D
330
1E
100
AcDbEntity
  8
0
100
AcDbLine
 10
225.3499999999999
 20
10.9999999999999
 30
0.0
 11
227.2499999999999
 21
10.9999999999999
 31
0.0
  0
LINE
  5
35E
330
1E
100
AcDbEntity
  8
0
100
AcDbLine
 10
227.2499999999999
 20
10.9999999999999
 30
0.0
 11
238.85
 21
10.9999999999999
 31
0.0
  0
LINE
  5
35F
330
1E
100
AcDbEntity
  8
0
100
AcDbLine
 10
223.6499999999999
 20
23.9999999999999
 30
0.0
 11
235.05
 21
23.9999999999999
 31
0.0
  0
LINE
  5
360
330
1E
100
AcDbEntity
  8
0
100
AcDbLine
 10
235.05
 20
23.9999999999999
 30
0.0
 11
239.25
 21
23.9999999999999
 31
0.0
  0
LINE
  5
362
330
1E
100
AcDbEntity
  8
0
100
AcDbLine
 10
224.4499999999999
 20
19.99999999999989
 30
0.0
 11
236.05
 21
19.99999999999989
 31
0.0
  0
LINE
  5
364
330
1E
100
AcDbEntity
  8
0
100
AcDbLine
 10
236.05
 20
19.99999999999989
 30
0.0
 11
240.2499999999999
 21
19.99999999999989
 31
0.0
  0
LINE
  5
365
330
1E
100
AcDbEntity
  8
0
100
AcDbLine
 10
225.3499999999999
 20
18.99999999999989
 30
0.0
 11
236.9499999999999
 21
18.99999999999989
 31
0.0
  0
LINE
  5
366
330
1E
100
AcDbEntity
  8
0
100
AcDbLine
 10
239.25
 20
23.9999999999999
 30
0.0
 11
241.25
 21
21.99999999999989
 31
0.0
  0
LINE
  5
367
330
1E
100
AcDbEntity
  8
0
100
AcDbLine
 10
236.9499999999999
 20
18.99999999999989
 30
0.0
 11
241.25
 21
18.99999999999989
 31
0.0
  0
LINE
  5
368
330
1E
100
AcDbEntity
  8
0
100
AcDbLine
 10
238.85
 20
10.9999999999999
 30
0.0
 11
243.25
 21
10.9999999999999
 31
0.0
  0
LINE
  5
369
330
1E
100
AcDbEntity
  8
0
100
AcDbLine
 10
208.55
 20
3.999999999999909
 30
0.0
 11
227.95
 21
3.999999999999909
 31
0.0
  0
LINE
  5
36A
330
1E
100
AcDbEntity
  8
0
100
AcDbLine
 10
227.95
 20
3.999999999999909
 30
0.0
 11
239.8499999999999
 21
3.999999999999909
 31
0.0
  0
LINE
  5
36B
330
1E
100
AcDbEntity
  8
0
100
AcDbLine
 10
243.25
 20
10.9999999999999
 30
0.0
 11
243.25
 21
3.999999999999909
 31
0.0
  0
LINE
  5
36C
330
1E
100
AcDbEntity
  8
0
100
AcDbLine
 10
500.75
 20
90.3999999999999
 30
0.0
 11
500.75
 21
91.59999999999991
 31
0.0
  0
LINE
  5
36D
330
1E
100
AcDbEntity
  8
0
100
AcDbLine
 10
500.75
 20
89.99999999999991
 30
0.0
 11
500.75
 21
89.2062999999999
 31
0.0
  0
LINE
  5
36E
330
1E
100
AcDbEntity
  8
0
100
AcDbLine
 10
500.75
 20
89.99999999999991
 30
0.0
 11
500.75
 21
90.3999999999999
 31
0.0
  0
LINE
  5
36F
330
1E
100
AcDbEntity
  8
0
100
AcDbLine
 10
500.75
 20
88.71429999999991
 30
0.0
 11
502.7499999999999
 21
70.9999999999999
 31
0.0
  0
LINE
  5
370
330
1E
100
AcDbEntity
  8
0
100
AcDbLine
 10
500.75
 20
88.71429999999991
 30
0.0
 11
500.75
 21
89.2062999999999
 31
0.0
  0
LINE
  5
371
330
1E
100
AcDbEntity
  8
0
100
AcDbLine
 10
500.75
 20
91.59999999999991
 30
0.0
 11
500.75
 21
93.4999999999999
 31
0.0
  0
LINE
  5
372
330
1E
100
AcDbEntity
  8
0
100
AcDbLine
 10
500.75
 20
90.4856999999999
 30
0.0
 11
500.75
 21
92.6507999999999
 31
0.0
  0
LINE
  5
373
330
1E
100
AcDbEntity
  8
0
100
AcDbLine
 10
500.75
 20
89.2062999999999
 30
0.0
 11
500.75
 21
88.71429999999991
 31
0.0
  0
LINE
  5
374
330
1E
100
AcDbEntity
  8
0
100
AcDbLine
 10
500.75
 20
89.2062999999999
 30
0.0
 11
500.75
 21
89.99999999999991
 31
0.0
  0
LINE
  5
375
330
1E
100
AcDbEntity
  8
0
100
AcDbLine
 10
500.75
 20
93.4999999999999
 30
0.0
 11
500.75
 21
95.9999999999999
 31
0.0
  0
LINE
  5
376
330
1E
100
AcDbEntity
  8
0
100
AcDbLine
 10
500.75
 20
95.9999999999999
 30
0.0
 11
500.75
 21
98.89999999999991
 31
0.0
  0
LINE
  5
377
330
1E
100
AcDbEntity
  8
0
100
AcDbLine
 10
500.75
 20
98.89999999999991
 30
0.0
 11
500.75
 21
102.0
 31
0.0
  0
LINE
  5
378
330
1E
100
AcDbEntity
  8
0
100
AcDbLine
 10
500.75
 20
105.0999999999999
 30
0.0
 11
500.75
 21
108.0
 31
0.0
  0
LINE
  5
379
330
1E
100
AcDbEntity
  8
0
100
AcDbLine
 10
500.75
 20
108.0
 30
0.0
 11
500.75
 21
110.4999999999999
 31
0.0
  0
LINE
  5
37A
330
1E
100
AcDbEntity
  8
0
100
AcDbLine
 10
500.75
 20
95.40629999999991
 30
0.0
 11
500.75
 21
98.55559999999989
 31
0.0
  0
LINE
  5
37B
330
1E
100
AcDbEntity
  8
0
100
AcDbLine
 10
500.75
 20
92.6507999999999
 30
0.0
 11
500.75
 21
90.4856999999999
 31
0.0
  0
LINE
  5
37C
330
1E
100
AcDbEntity
  8
0
100
AcDbLine
 10
500.75
 20
98.55559999999989
 30
0.0
 11
500.75
 21
95.40629999999991
 31
0.0
  0
LINE
  5
37D
330
1E
100
AcDbEntity
  8
0
100
AcDbLine
 10
500.75
 20
110.4999999999999
 30
0.0
 11
500.75
 21
112.4
 31
0.0
  0
LINE
  5
37E
330
1E
100
AcDbEntity
  8
0
100
AcDbLine
 10
500.75
 20
108.5936999999999
 30
0.0
 11
500.75
 21
111.3491999999999
 31
0.0
  0
LINE
  5
37F
330
1E
100
AcDbEntity
  8
0
100
AcDbLine
 10
500.75
 20
102.0
 30
0.0
 11
500.75
 21
105.4443999999999
 31
0.0
  0
LINE
  5
380
330
1E
100
AcDbEntity
  8
0
100
AcDbLine
 10
500.75
 20
102.0
 30
0.0
 11
500.75
 21
105.0999999999999
 31
0.0
  0
LINE
  5
381
330
1E
100
AcDbEntity
  8
0
100
AcDbLine
 10
500.75
 20
112.4
 30
0.0
 11
500.75
 21
113.5999999999999
 31
0.0
  0
LINE
  5
382
330
1E
100
AcDbEntity
  8
0
100
AcDbLine
 10
500.75
 20
113.5999999999999
 30
0.0
 11
500.75
 21
114.0
 31
0.0
  0
LINE
  5
383
330
1E
100
AcDbEntity
  8
0
100
AcDbLine
 10
500.75
 20
113.5143
 30
0.0
 11
500.75
 21
111.3491999999999
 31
0.0
  0
LINE
  5
384
330
1E
100
AcDbEntity
  8
0
100
AcDbLine
 10
500.75
 20
113.5143
 30
0.0
 11
500.75
 21
114.7936999999999
 31
0.0
  0
LINE
  5
385
330
1E
100
AcDbEntity
  8
0
100
AcDbLine
 10
500.75
 20
111.3491999999999
 30
0.0
 11
500.75
 21
108.5936999999999
 31
0.0
  0
LINE
  5
386
330
1E
100
AcDbEntity
  8
0
100
AcDbLine
 10
500.75
 20
111.3491999999999
 30
0.0
 11
500.75
 21
113.5143
 31
0.0
  0
LINE
  5
387
330
1E
100
AcDbEntity
  8
0
100
AcDbLine
 10
500.75
 20
105.4443999999999
 30
0.0
 11
500.75
 21
102.0
 31
0.0
  0
LINE
  5
388
330
1E
100
AcDbEntity
  8
0
100
AcDbLine
 10
500.75
 20
115.2857
 30
0.0
 11
500.75
 21
114.7936999999999
 31
0.0
  0
LINE
  5
389
330
1E
100
AcDbEntity
  8
0
100
AcDbLine
 10
500.75
 20
115.2857
 30
0.0
 11
502.7499999999999
 21
133.0
 31
0.0
  0
LINE
  5
38A
330
1E
100
AcDbEntity
  8
0
100
AcDbLine
 10
502.7499999999999
 20
70.9999999999999
 30
0.0
 11
502.7499999999999
 21
72.08249999999991
 31
0.0
  0
LINE
  5
38B
330
1E
100
AcDbEntity
  8
0
100
AcDbLine
 10
502.7499999999999
 20
70.9999999999999
 30
0.0
 11
505.75
 21
70.9999999999999
 31
0.0
  0
LINE
  5
38C
330
1E
100
AcDbEntity
  8
0
100
AcDbLine
 10
502.7499999999999
 20
72.08249999999991
 30
0.0
 11
502.7499999999999
 21
70.9999999999999
 31
0.0
  0
LINE
  5
38D
330
1E
100
AcDbEntity
  8
0
100
AcDbLine
 10
502.7499999999999
 20
72.08249999999991
 30
0.0
 11
502.7499999999999
 21
75.1332999999999
 31
0.0
  0
LINE
  5
38E
330
1E
100
AcDbEntity
  8
0
100
AcDbLine
 10
502.7499999999999
 20
75.1332999999999
 30
0.0
 11
502.7499999999999
 21
72.08249999999991
 31
0.0
  0
LINE
  5
38F
330
1E
100
AcDbEntity
  8
0
100
AcDbLine
 10
502.7499999999999
 20
75.1332999999999
 30
0.0
 11
502.7499999999999
 21
80.15239999999989
 31
0.0
  0
LINE
  5
390
330
1E
100
AcDbEntity
  8
0
100
AcDbLine
 10
502.7499999999999
 20
80.15239999999989
 30
0.0
 11
502.7499999999999
 21
75.1332999999999
 31
0.0
  0
LINE
  5
391
330
1E
100
AcDbEntity
  8
0
100
AcDbLine
 10
502.7499999999999
 20
80.15239999999989
 30
0.0
 11
502.7499999999999
 21
86.54919999999989
 31
0.0
  0
LINE
  5
392
330
1E
100
AcDbEntity
  8
0
100
AcDbLine
 10
502.7499999999999
 20
86.54919999999989
 30
0.0
 11
502.7499999999999
 21
80.15239999999989
 31
0.0
  0
LINE
  5
393
330
1E
100
AcDbEntity
  8
0
100
AcDbLine
 10
502.7499999999999
 20
86.54919999999989
 30
0.0
 11
502.7499999999999
 21
94.02859999999989
 31
0.0
  0
LINE
  5
394
330
1E
100
AcDbEntity
  8
0
100
AcDbLine
 10
502.7499999999999
 20
94.02859999999989
 30
0.0
 11
502.7499999999999
 21
86.54919999999989
 31
0.0
  0
LINE
  5
395
330
1E
100
AcDbEntity
  8
0
100
AcDbLine
 10
502.7499999999999
 20
94.02859999999989
 30
0.0
 11
502.7499999999999
 21
102.0
 31
0.0
  0
LINE
  5
396
330
1E
100
AcDbEntity
  8
0
100
AcDbLine
 10
502.7499999999999
 20
102.0
 30
0.0
 11
502.7499999999999
 21
109.9714
 31
0.0
  0
LINE
  5
397
330
1E
100
AcDbEntity
  8
0
100
AcDbLine
 10
502.7499999999999
 20
102.0
 30
0.0
 11
502.7499999999999
 21
94.02859999999989
 31
0.0
  0
LINE
  5
398
330
1E
100
AcDbEntity
  8
0
100
AcDbLine
 10
502.7499999999999
 20
131.9174999999999
 30
0.0
 11
502.7499999999999
 21
128.8667
 31
0.0
  0
LINE
  5
399
330
1E
100
AcDbEntity
  8
0
100
AcDbLine
 10
502.7499999999999
 20
131.9174999999999
 30
0.0
 11
502.7499999999999
 21
133.0
 31
0.0
  0
LINE
  5
39A
330
1E
100
AcDbEntity
  8
0
100
AcDbLine
 10
502.7499999999999
 20
128.8667
 30
0.0
 11
502.7499999999999
 21
123.8476
 31
0.0
  0
LINE
  5
39B
330
1E
100
AcDbEntity
  8
0
100
AcDbLine
 10
502.7499999999999
 20
128.8667
 30
0.0
 11
502.7499999999999
 21
131.9174999999999
 31
0.0
  0
LINE
  5
39C
330
1E
100
AcDbEntity
  8
0
100
AcDbLine
 10
502.7499999999999
 20
123.8476
 30
0.0
 11
502.7499999999999
 21
117.4508
 31
0.0
  0
LINE
  5
39D
330
1E
100
AcDbEntity
  8
0
100
AcDbLine
 10
502.7499999999999
 20
123.8476
 30
0.0
 11
502.7499999999999
 21
128.8667
 31
0.0
  0
LINE
  5
39E
330
1E
100
AcDbEntity
  8
0
100
AcDbLine
 10
502.7499999999999
 20
117.4508
 30
0.0
 11
502.7499999999999
 21
109.9714
 31
0.0
  0
LINE
  5
39F
330
1E
100
AcDbEntity
  8
0
100
AcDbLine
 10
502.7499999999999
 20
117.4508
 30
0.0
 11
502.7499999999999
 21
123.8476
 31
0.0
  0
LINE
  5
3A0
330
1E
100
AcDbEntity
  8
0
100
AcDbLine
 10
505.75
 20
70.9999999999999
 30
0.0
 11
505.75
 21
72.08249999999991
 31
0.0
  0
LINE
  5
3A1
330
1E
100
AcDbEntity
  8
0
100
AcDbLine
 10
505.75
 20
72.08249999999991
 30
0.0
 11
505.75
 21
70.9999999999999
 31
0.0
  0
LINE
  5
3A2
330
1E
100
AcDbEntity
  8
0
100
AcDbLine
 10
505.75
 20
72.08249999999991
 30
0.0
 11
505.75
 21
75.1332999999999
 31
0.0
  0
LINE
  5
3A3
330
1E
100
AcDbEntity
  8
0
100
AcDbLine
 10
505.75
 20
75.1332999999999
 30
0.0
 11
505.75
 21
72.08249999999991
 31
0.0
  0
LINE
  5
3A4
330
1E
100
AcDbEntity
  8
0
100
AcDbLine
 10
505.75
 20
75.1332999999999
 30
0.0
 11
505.75
 21
80.15239999999989
 31
0.0
  0
LINE
  5
3A5
330
1E
100
AcDbEntity
  8
0
100
AcDbLine
 10
505.75
 20
80.15239999999989
 30
0.0
 11
505.75
 21
75.1332999999999
 31
0.0
  0
LINE
  5
3A6
330
1E
100
AcDbEntity
  8
0
100
AcDbLine
 10
505.75
 20
80.15239999999989
 30
0.0
 11
505.75
 21
86.54919999999989
 31
0.0
  0
LINE
  5
3A7
330
1E
100
AcDbEntity
  8
0
100
AcDbLine
 10
505.75
 20
86.54919999999989
 30
0.0
 11
505.75
 21
80.15239999999989
 31
0.0
  0
LINE
  5
3A8
330
1E
100
AcDbEntity
  8
0
100
AcDbLine
 10
505.75
 20
86.54919999999989
 30
0.0
 11
505.75
 21
94.02859999999989
 31
0.0
  0
LINE
  5
3A9
330
1E
100
AcDbEntity
  8
0
100
AcDbLine
 10
505.75
 20
94.02859999999989
 30
0.0
 11
505.75
 21
86.54919999999989
 31
0.0
  0
LINE
  5
3AA
330
1E
100
AcDbEntity
  8
0
100
AcDbLine
 10
505.75
 20
94.02859999999989
 30
0.0
 11
505.75
 21
102.0
 31
0.0
  0
LINE
  5
3AB
330
1E
100
AcDbEntity
  8
0
100
AcDbLine
 10
505.75
 20
102.0
 30
0.0
 11
505.75
 21
109.9714
 31
0.0
  0
LINE
  5
3AC
330
1E
100
AcDbEntity
  8
0
100
AcDbLine
 10
505.75
 20
102.0
 30
0.0
 11
505.75
 21
94.02859999999989
 31
0.0
  0
LINE
  5
3AD
330
1E
100
AcDbEntity
  8
0
100
AcDbLine
 10
505.75
 20
133.0
 30
0.0
 11
505.75
 21
131.9174999999999
 31
0.0
  0
LINE
  5
3AE
330
1E
100
AcDbEntity
  8
0
100
AcDbLine
 10
505.75
 20
131.9174999999999
 30
0.0
 11
505.75
 21
128.8667
 31
0.0
  0
LINE
  5
3AF
330
1E
100
AcDbEntity
  8
0
100
AcDbLine
 10
505.75
 20
131.9174999999999
 30
0.0
 11
505.75
 21
133.0
 31
0.0
  0
LINE
  5
3B0
330
1E
100
AcDbEntity
  8
0
100
AcDbLine
 10
505.75
 20
128.8667
 30
0.0
 11
505.75
 21
123.8476
 31
0.0
  0
LINE
  5
3B1
330
1E
100
AcDbEntity
  8
0
100
AcDbLine
 10
505.75
 20
128.8667
 30
0.0
 11
505.75
 21
131.9174999999999
 31
0.0
  0
LINE
  5
3B2
330
1E
100
AcDbEntity
  8
0
100
AcDbLine
 10
505.75
 20
123.8476
 30
0.0
 11
505.75
 21
117.4508
 31
0.0
  0
LINE
  5
3B3
330
1E
100
AcDbEntity
  8
0
100
AcDbLine
 10
505.75
 20
123.8476
 30
0.0
 11
505.75
 21
128.8667
 31
0.0
  0
LINE
  5
3B4
330
1E
100
AcDbEntity
  8
0
100
AcDbLine
 10
505.75
 20
117.4508
 30
0.0
 11
505.75
 21
109.9714
 31
0.0
  0
LINE
  5
3B5
330
1E
100
AcDbEntity
  8
0
100
AcDbLine
 10
505.75
 20
117.4508
 30
0.0
 11
505.75
 21
123.8476
 31
0.0
  0
LINE
  5
3B6
330
1E
100
AcDbEntity
  8
0
100
AcDbLine
 10
505.75
 20
109.9714
 30
0.0
 11
505.75
 21
102.0
 31
0.0
  0
LINE
  5
3B7
330
1E
100
AcDbEntity
  8
0
100
AcDbLine
 10
505.75
 20
109.9714
 30
0.0
 11
505.75
 21
117.4508
 31
0.0
  0
LINE
  5
3B8
330
1E
100
AcDbEntity
  8
0
100
AcDbLine
 10
502.7499999999999
 20
109.9714
 30
0.0
 11
502.7499999999999
 21
102.0
 31
0.0
  0
LINE
  5
3B9
330
1E
100
AcDbEntity
  8
0
100
AcDbLine
 10
502.7499999999999
 20
109.9714
 30
0.0
 11
502.7499999999999
 21
117.4508
 31
0.0
  0
LINE
  5
3BA
330
1E
100
AcDbEntity
  8
0
100
AcDbLine
 10
502.7499999999999
 20
133.0
 30
0.0
 11
505.75
 21
133.0
 31
0.0
  0
LINE
  5
3BB
330
1E
100
AcDbEntity
  8
0
100
AcDbLine
 10
502.7499999999999
 20
133.0
 30
0.0
 11
502.7499999999999
 21
131.9174999999999
 31
0.0
  0
LINE
  5
3BC
330
1E
100
AcDbEntity
  8
0
100
AcDbLine
 10
500.75
 20
114.7936999999999
 30
0.0
 11
500.75
 21
115.2857
 31
0.0
  0
LINE
  5
3BD
330
1E
100
AcDbEntity
  8
0
100
AcDbLine
 10
500.75
 20
114.7936999999999
 30
0.0
 11
500.75
 21
113.5143
 31
0.0
  0
LINE
  5
3BE
330
1E
100
AcDbEntity
  8
0
100
AcDbLine
 10
241.25
 20
18.99999999999989
 30
0.0
 11
241.25
 21
10.9999999999999
 31
0.0
  0
LINE
  5
3BF
330
1E
100
AcDbEntity
  8
0
100
AcDbLine
 10
240.2499999999999
 20
19.99999999999989
 30
0.0
 11
241.25
 21
18.99999999999989
 31
0.0
  0
LINE
  5
3C0
330
1E
100
AcDbEntity
  8
0
100
AcDbLine
 10
240.2499999999999
 20
19.99999999999989
 30
0.0
 11
241.25
 21
21.99999999999989
 31
0.0
  0
LINE
  5
3C1
330
1E
100
AcDbEntity
  8
0
100
AcDbLine
 10
241.25
 20
10.9999999999999
 30
0.0
 11
241.25
 21
18.99999999999989
 31
0.0
  0
LINE
  5
3C2
330
1E
100
AcDbEntity
  8
0
100
AcDbLine
 10
239.8499999999999
 20
3.999999999999909
 30
0.0
 11
244.2499999999999
 21
3.999999999999909
 31
0.0
  0
LINE
  5
3C3
330
1E
100
AcDbEntity
  8
0
100
AcDbLine
 10
244.2499999999999
 20
3.999999999999909
 30
0.0
 11
245.25
 21
2.999999999999909
 31
0.0
  0
LINE
  5
3C4
330
1E
100
AcDbEntity
  8
0
100
AcDbLine
 10
183.15
 20
3.999999999999909
 30
0.0
 11
208.55
 21
3.999999999999909
 31
0.0
  0
LINE
  5
3C5
330
1E
100
AcDbEntity
  8
0
100
AcDbLine
 10
183.65
 20
2.999999999999909
 30
0.0
 11
209.25
 21
2.999999999999909
 31
0.0
  0
LINE
  5
3C6
330
1E
100
AcDbEntity
  8
0
100
AcDbLine
 10
154.2499999999999
 20
2.99999999999992
 30
0.0
 11
183.65
 21
2.999999999999909
 31
0.0
  0
LINE
  5
3C7
330
1E
100
AcDbEntity
  8
0
100
AcDbLine
 10
126.4429999999999
 20
1.999999999999919
 30
0.0
 11
126.4429999999999
 21
-0.0000000000000817
 31
0.0
  0
LINE
  5
3C8
330
1E
100
AcDbEntity
  8
0
100
AcDbLine
 10
123.75
 20
1.999999999999919
 30
0.0
 11
123.75
 21
-0.0000000000000817
 31
0.0
  0
LINE
  5
3C9
330
1E
100
AcDbEntity
  8
0
100
AcDbLine
 10
123.75
 20
1.999999999999919
 30
0.0
 11
126.4429999999999
 21
1.999999999999919
 31
0.0
  0
LINE
  5
3CA
330
1E
100
AcDbEntity
  8
0
100
AcDbLine
 10
123.75
 20
-0.0000000000000816
 30
0.0
 11
123.75
 21
1.999999999999919
 31
0.0
  0
LINE
  5
3CB
330
1E
100
AcDbEntity
  8
0
100
AcDbLine
 10
121.75
 20
-0.0000000000000815
 30
0.0
 11
121.75
 21
1.999999999999919
 31
0.0
  0
LINE
  5
3CC
330
1E
100
AcDbEntity
  8
0
100
AcDbLine
 10
121.75
 20
-0.0000000000000815
 30
0.0
 11
123.75
 21
-0.0000000000000816
 31
0.0
  0
ENDSEC
  0
SECTION
  2
OBJECTS
  0
DICTIONARY
  5
C
330
0
100
AcDbDictionary
281
     1
  3
ACAD_GROUP
350
D
  3
ACAD_LAYOUT
350
19
  3
ACAD_MLINESTYLE
350
16
  3
ACAD_PLOTSETTINGS
350
18
  3
ACAD_PLOTSTYLENAME
350
E
  3
AcDbVariableDictionary
350
3D1
  0
DICTIONARY
  5
D
102
{ACAD_REACTORS
330
C
102
}
330
C
100
AcDbDictionary
281
     1
  0
DICTIONARY
  5
19
102
{ACAD_REACTORS
330
C
102
}
330
C
100
AcDbDictionary
281
     1
  3
Layout1
350
1D
  3
Model
350
21
  0
DICTIONARY
  5
16
102
{ACAD_REACTORS
330
C
102
}
330
C
100
AcDbDictionary
281
     1
  3
Standard
350
17
  0
DICTIONARY
  5
18
102
{ACAD_REACTORS
330
C
102
}
330
C
100
AcDbDictionary
281
     1
  0
ACDBDICTIONARYWDFLT
  5
E
102
{ACAD_REACTORS
330
C
102
}
330
C
100
AcDbDictionary
281
     1
  3
Normal
350
F
100
AcDbDictionaryWithDefault
340
F
  0
DICTIONARY
  5
3D1
102
{ACAD_REACTORS
330
C
102
}
330
C
100
AcDbDictionary
281
     1
  3
DIMASSOC
350
3D2
  0
LAYOUT
  5
1D
102
{ACAD_REACTORS
330
19
102
}
330
19
100
AcDbPlotSettings
  1

  2
hp deskjet 980c series
  4

  6

 40
0.0
 41
0.0
 42
0.0
 43
0.0
 44
0.0
 45
0.0
 46
0.0
 47
0.0
 48
0.0
 49
0.0
140
0.0
141
0.0
142
1.0
143
1.0
 70
   688
 72
     0
 73
     0
 74
     5
  7

 75
    16
147
1.0
148
0.0
149
0.0
100
AcDbLayout
  1
Layout1
 70
     1
 71
     1
 10
0.0
 20
0.0
 11
12.0
 21
9.0
 12
0.0
 22
0.0
 32
0.0
 14
1.000000000000000E+20
 24
1.000000000000000E+20
 34
1.000000000000000E+20
 15
-1.000000000000000E+20
 25
-1.000000000000000E+20
 35
-1.000000000000000E+20
146
0.0
 13
0.0
 23
0.0
 33
0.0
 16
1.0
 26
0.0
 36
0.0
 17
0.0
 27
1.0
 37
0.0
 76
     0
330
1A
  0
LAYOUT
  5
21
102
{ACAD_REACTORS
330
19
102
}
330
19
100
AcDbPlotSettings
  1

  2
hp deskjet 980c series
  4

  6

 40
0.0
 41
0.0
 42
0.0
 43
0.0
 44
0.0
 45
0.0
 46
0.0
 47
0.0
 48
0.0
 49
0.0
140
0.0
141
0.0
142
1.0
143
1.0
 70
  1712
 72
     0
 73
     0
 74
     0
  7

 75
     0
147
1.0
148
0.0
149
0.0
100
AcDbLayout
  1
Model
 70
     1
 71
     0
 10
0.0
 20
0.0
 11
12.0
 21
9.0
 12
0.0
 22
0.0
 32
0.0
 14
0.0
 24
0.0
 34
0.0
 15
0.0
 25
0.0
 35
0.0
146
0.0
 13
0.0
 23
0.0
 33
0.0
 16
1.0
 26
0.0
 36
0.0
 17
0.0
 27
1.0
 37
0.0
 76
     0
330
1E
  0
MLINESTYLE
  5
17
102
{ACAD_REACTORS
330
16
102
}
330
16
100
AcDbMlineStyle
  2
STANDARD
 70
     0
  3

 62
   256
 51
90.0
 52
90.0
 71
     2
 49
0.5
 62
   256
  6
BYLAYER
 49
-0.5
 62
   256
  6
BYLAYER
  0
ACDBPLACEHOLDER
  5
F
102
{ACAD_REACTORS
330
E
102
}
330
E
  0
DICTIONARYVAR
  5
3D2
102
{ACAD_REACTORS
330
3D1
102
}
330
3D1
100
DictionaryVariables
280
     0
  1
1
  0
ENDSEC
  0
EOF
