  0
SECTION
  2
HEADER
  9
$ACADVER
  1
AC1015
  9
$ACADMAINTVER
 70
    13
  9
$DWGCODEPAGE
  3
ANSI_1252
  9
$INSBASE
 10
0.0
 20
0.0
 30
0.0
  9
$EXTMIN
 10
-0.0000000000000111
 20
-0.0000000000000884
 30
0.0
  9
$EXTMAX
 10
245.0
 20
133.0
 30
0.0
  9
$LIMMIN
 10
0.0
 20
0.0
  9
$LIMMAX
 10
12.0
 20
9.0
  9
$ORTHOMODE
 70
     0
  9
$REGENMODE
 70
     1
  9
$FILLMODE
 70
     1
  9
$QTEXTMODE
 70
     0
  9
$MIRRTEXT
 70
     1
  9
$LTSCALE
 40
1.0
  9
$ATTMODE
 70
     1
  9
$TEXTSIZE
 40
0.2
  9
$TRACEWID
 40
0.05
  9
$TEXTSTYLE
  7
Standard
  9
$CLAYER
  8
0
  9
$CELTYPE
  6
Continuous
  9
$CECOLOR
 62
   256
  9
$CELTSCALE
 40
1.0
  9
$DISPSILH
 70
     0
  9
$DIMSCALE
 40
1.0
  9
$DIMASZ
 40
0.18
  9
$DIMEXO
 40
0.0625
  9
$DIMDLI
 40
0.38
  9
$DIMRND
 40
0.0
  9
$DIMDLE
 40
0.0
  9
$DIMEXE
 40
0.18
  9
$DIMTP
 40
0.0
  9
$DIMTM
 40
0.0
  9
$DIMTXT
 40
0.18
  9
$DIMCEN
 40
0.09
  9
$DIMTSZ
 40
0.0
  9
$DIMTOL
 70
     0
  9
$DIMLIM
 70
     0
  9
$DIMTIH
 70
     1
  9
$DIMTOH
 70
     1
  9
$DIMSE1
 70
     0
  9
$DIMSE2
 70
     0
  9
$DIMTAD
 70
     0
  9
$DIMZIN
 70
     0
  9
$DIMBLK
  1

  9
$DIMASO
 70
     1
  9
$DIMSHO
 70
     1
  9
$DIMPOST
  1

  9
$DIMAPOST
  1

  9
$DIMALT
 70
     0
  9
$DIMALTD
 70
     2
  9
$DIMALTF
 40
25.4
  9
$DIMLFAC
 40
1.0
  9
$DIMTOFL
 70
     0
  9
$DIMTVP
 40
0.0
  9
$DIMTIX
 70
     0
  9
$DIMSOXD
 70
     0
  9
$DIMSAH
 70
     0
  9
$DIMBLK1
  1

  9
$DIMBLK2
  1

  9
$DIMSTYLE
  2
Standard
  9
$DIMCLRD
 70
     0
  9
$DIMCLRE
 70
     0
  9
$DIMCLRT
 70
     0
  9
$DIMTFAC
 40
1.0
  9
$DIMGAP
 40
0.09
  9
$DIMJUST
 70
     0
  9
$DIMSD1
 70
     0
  9
$DIMSD2
 70
     0
  9
$DIMTOLJ
 70
     1
  9
$DIMTZIN
 70
     0
  9
$DIMALTZ
 70
     0
  9
$DIMALTTZ
 70
     0
  9
$DIMUPT
 70
     0
  9
$DIMDEC
 70
     4
  9
$DIMTDEC
 70
     4
  9
$DIMALTU
 70
     2
  9
$DIMALTTD
 70
     2
  9
$DIMTXSTY
  7
Standard
  9
$DIMAUNIT
 70
     0
  9
$DIMADEC
 70
     0
  9
$DIMALTRND
 40
0.0
  9
$DIMAZIN
 70
     0
  9
$DIMDSEP
 70
    46
  9
$DIMATFIT
 70
     3
  9
$DIMFRAC
 70
     0
  9
$DIMLDRBLK
  1

  9
$DIMLUNIT
 70
     2
  9
$DIMLWD
 70
    -2
  9
$DIMLWE
 70
    -2
  9
$DIMTMOVE
 70
     0
  9
$LUNITS
 70
     2
  9
$LUPREC
 70
     4
  9
$SKETCHINC
 40
0.1
  9
$FILLETRAD
 40
0.0
  9
$AUNITS
 70
     0
  9
$AUPREC
 70
     0
  9
$MENU
  1
.
  9
$ELEVATION
 40
0.0
  9
$PELEVATION
 40
0.0
  9
$THICKNESS
 40
0.0
  9
$LIMCHECK
 70
     0
  9
$CHAMFERA
 40
0.0
  9
$CHAMFERB
 40
0.0
  9
$CHAMFERC
 40
0.0
  9
$CHAMFERD
 40
0.0
  9
$SKPOLY
 70
     0
  9
$TDCREATE
 40
2454752.507343750
  9
$TDUCREATE
 40
2454752.424010416
  9
$TDUPDATE
 40
2454752.509142974
  9
$TDUUPDATE
 40
2454752.425809641
  9
$TDINDWG
 40
0.0017993981
  9
$TDUSRTIMER
 40
0.0017993981
  9
$USRTIMER
 70
     1
  9
$ANGBASE
 50
0.0
  9
$ANGDIR
 70
     0
  9
$PDMODE
 70
     0
  9
$PDSIZE
 40
0.0
  9
$PLINEWID
 40
0.0
  9
$SPLFRAME
 70
     0
  9
$SPLINETYPE
 70
     6
  9
$SPLINESEGS
 70
     8
  9
$HANDSEED
  5
5E8
  9
$SURFTAB1
 70
     6
  9
$SURFTAB2
 70
     6
  9
$SURFTYPE
 70
     6
  9
$SURFU
 70
     6
  9
$SURFV
 70
     6
  9
$UCSBASE
  2

  9
$UCSNAME
  2

  9
$UCSORG
 10
0.0
 20
0.0
 30
0.0
  9
$UCSXDIR
 10
1.0
 20
0.0
 30
0.0
  9
$UCSYDIR
 10
0.0
 20
1.0
 30
0.0
  9
$UCSORTHOREF
  2

  9
$UCSORTHOVIEW
 70
     1
  9
$UCSORGTOP
 10
0.0
 20
0.0
 30
0.0
  9
$UCSORGBOTTOM
 10
0.0
 20
0.0
 30
0.0
  9
$UCSORGLEFT
 10
0.0
 20
0.0
 30
0.0
  9
$UCSORGRIGHT
 10
0.0
 20
0.0
 30
0.0
  9
$UCSORGFRONT
 10
0.0
 20
0.0
 30
0.0
  9
$UCSORGBACK
 10
0.0
 20
0.0
 30
0.0
  9
$PUCSBASE
  2

  9
$PUCSNAME
  2

  9
$PUCSORG
 10
0.0
 20
0.0
 30
0.0
  9
$PUCSXDIR
 10
1.0
 20
0.0
 30
0.0
  9
$PUCSYDIR
 10
0.0
 20
1.0
 30
0.0
  9
$PUCSORTHOREF
  2

  9
$PUCSORTHOVIEW
 70
     0
  9
$PUCSORGTOP
 10
0.0
 20
0.0
 30
0.0
  9
$PUCSORGBOTTOM
 10
0.0
 20
0.0
 30
0.0
  9
$PUCSORGLEFT
 10
0.0
 20
0.0
 30
0.0
  9
$PUCSORGRIGHT
 10
0.0
 20
0.0
 30
0.0
  9
$PUCSORGFRONT
 10
0.0
 20
0.0
 30
0.0
  9
$PUCSORGBACK
 10
0.0
 20
0.0
 30
0.0
  9
$USERI1
 70
     0
  9
$USERI2
 70
     0
  9
$USERI3
 70
     0
  9
$USERI4
 70
     0
  9
$USERI5
 70
     0
  9
$USERR1
 40
0.0
  9
$USERR2
 40
0.0
  9
$USERR3
 40
0.0
  9
$USERR4
 40
0.0
  9
$USERR5
 40
0.0
  9
$WORLDVIEW
 70
     1
  9
$SHADEDGE
 70
     3
  9
$SHADEDIF
 70
    70
  9
$TILEMODE
 70
     1
  9
$MAXACTVP
 70
    64
  9
$PINSBASE
 10
0.0
 20
0.0
 30
0.0
  9
$PLIMCHECK
 70
     0
  9
$PEXTMIN
 10
1.000000000000000E+20
 20
1.000000000000000E+20
 30
1.000000000000000E+20
  9
$PEXTMAX
 10
-1.000000000000000E+20
 20
-1.000000000000000E+20
 30
-1.000000000000000E+20
  9
$PLIMMIN
 10
0.0
 20
0.0
  9
$PLIMMAX
 10
12.0
 20
9.0
  9
$UNITMODE
 70
     0
  9
$VISRETAIN
 70
     1
  9
$PLINEGEN
 70
     0
  9
$PSLTSCALE
 70
     1
  9
$TREEDEPTH
 70
  3020
  9
$CMLSTYLE
  2
Standard
  9
$CMLJUST
 70
     0
  9
$CMLSCALE
 40
1.0
  9
$PROXYGRAPHICS
 70
     1
  9
$MEASUREMENT
 70
     0
  9
$CELWEIGHT
370
    -1
  9
$ENDCAPS
280
     0
  9
$JOINSTYLE
280
     0
  9
$LWDISPLAY
290
     0
  9
$INSUNITS
 70
     0
  9
$HYPERLINKBASE
  1

  9
$STYLESHEET
  1

  9
$XEDIT
290
     1
  9
$CEPSNTYPE
380
     0
  9
$PSTYLEMODE
290
     1
  9
$FINGERPRINTGUID
  2
{B7C234CC-8099-462A-9A7E-45FFF719078E}
  9
$VERSIONGUID
  2
{B496C2A8-40AA-478C-8E06-EB8631AD2CD4}
  9
$EXTNAMES
290
     1
  9
$PSVPSCALE
 40
0.0
  9
$OLESTARTUP
290
     0
  0
ENDSEC
  0
SECTION
  2
CLASSES
  0
CLASS
  1
ACDBDICTIONARYWDFLT
  2
AcDbDictionaryWithDefault
  3
AutoCAD 2000
 90
        0
280
     0
281
     0
  0
CLASS
  1
ACDBPLACEHOLDER
  2
AcDbPlaceHolder
  3
AutoCAD 2000
 90
        0
280
     0
281
     0
  0
CLASS
  1
LAYOUT
  2
AcDbLayout
  3
AutoCAD 2000
 90
        0
280
     0
281
     0
  0
CLASS
  1
DICTIONARYVAR
  2
AcDbDictionaryVar
  3
AutoCAD 2000
 90
        0
280
     0
281
     0
  0
ENDSEC
  0
SECTION
  2
TABLES
  0
TABLE
  2
VPORT
  5
8
330
0
100
AcDbSymbolTable
 70
     2
  0
VPORT
  5
5E7
330
8
100
AcDbSymbolTableRecord
100
AcDbViewportTableRecord
  2
*Active
 70
     0
 10
0.0
 20
0.0
 11
1.0
 21
1.0
 12
122.4999999999999
 22
66.49999999999995
 13
0.0
 23
0.0
 14
1.0
 24
1.0
 15
0.0
 25
0.0
 16
0.0
 26
0.0
 36
1.0
 17
0.0
 27
0.0
 37
0.0
 40
134.0204603580563
 41
2.078104993597951
 42
50.0
 43
0.0
 44
0.0
 50
0.0
 51
0.0
 71
     0
 72
   100
 73
     1
 74
     3
 75
     0
 76
     0
 77
     0
 78
     0
281
     0
 65
     1
110
0.0
120
0.0
130
0.0
111
1.0
121
0.0
131
0.0
112
0.0
122
1.0
132
0.0
 79
     1
146
0.0
  0
ENDTAB
  0
TABLE
  2
LTYPE
  5
5
330
0
100
AcDbSymbolTable
 70
     1
  0
LTYPE
  5
13
330
5
100
AcDbSymbolTableRecord
100
AcDbLinetypeTableRecord
  2
ByBlock
 70
     0
  3

 72
    65
 73
     0
 40
0.0
  0
LTYPE
  5
14
330
5
100
AcDbSymbolTableRecord
100
AcDbLinetypeTableRecord
  2
ByLayer
 70
     0
  3

 72
    65
 73
     0
 40
0.0
  0
LTYPE
  5
15
330
5
100
AcDbSymbolTableRecord
100
AcDbLinetypeTableRecord
  2
Continuous
 70
     0
  3
Solid line
 72
    65
 73
     0
 40
0.0
  0
ENDTAB
  0
TABLE
  2
LAYER
  5
2
330
0
100
AcDbSymbolTable
 70
     1
  0
LAYER
  5
10
330
2
100
AcDbSymbolTableRecord
100
AcDbLayerTableRecord
  2
0
 70
     0
 62
     7
  6
Continuous
370
    -3
390
F
  0
ENDTAB
  0
TABLE
  2
STYLE
  5
3
330
0
100
AcDbSymbolTable
 70
     1
  0
STYLE
  5
11
330
3
100
AcDbSymbolTableRecord
100
AcDbTextStyleTableRecord
  2
Standard
 70
     0
 40
0.0
 41
1.0
 50
0.0
 71
     0
 42
0.2
  3
txt
  4

  0
ENDTAB
  0
TABLE
  2
VIEW
  5
6
330
0
100
AcDbSymbolTable
 70
     0
  0
ENDTAB
  0
TABLE
  2
UCS
  5
7
330
0
100
AcDbSymbolTable
 70
     0
  0
ENDTAB
  0
TABLE
  2
APPID
  5
9
330
0
100
AcDbSymbolTable
 70
     1
  0
APPID
  5
12
330
9
100
AcDbSymbolTableRecord
100
AcDbRegAppTableRecord
  2
ACAD
 70
     0
  0
ENDTAB
  0
TABLE
  2
DIMSTYLE
  5
A
330
0
100
AcDbSymbolTable
 70
     1
100
AcDbDimStyleTable
 71
     0
  0
DIMSTYLE
105
5E1
330
A
100
AcDbSymbolTableRecord
100
AcDbDimStyleTableRecord
  2
Standard
 70
     0
340
11
  0
ENDTAB
  0
TABLE
  2
BLOCK_RECORD
  5
1
330
0
100
AcDbSymbolTable
 70
     0
  0
BLOCK_RECORD
  5
1E
330
1
100
AcDbSymbolTableRecord
100
AcDbBlockTableRecord
  2
*Model_Space
340
21
  0
BLOCK_RECORD
  5
1A
330
1
100
AcDbSymbolTableRecord
100
AcDbBlockTableRecord
  2
*Paper_Space
340
1D
  0
ENDTAB
  0
ENDSEC
  0
SECTION
  2
BLOCKS
  0
BLOCK
  5
1F
330
1E
100
AcDbEntity
  8
0
100
AcDbBlockBegin
  2
*Model_Space
 70
     0
 10
0.0
 20
0.0
 30
0.0
  3
*Model_Space
  1

  0
ENDBLK
  5
20
330
1E
100
AcDbEntity
  8
0
100
AcDbBlockEnd
  0
BLOCK
  5
1B
330
1A
100
AcDbEntity
 67
     1
  8
0
100
AcDbBlockBegin
  2
*Paper_Space
 70
     0
 10
0.0
 20
0.0
 30
0.0
  3
*Paper_Space
  1

  0
ENDBLK
  5
1C
330
1A
100
AcDbEntity
 67
     1
  8
0
100
AcDbBlockEnd
  0
ENDSEC
  0
SECTION
  2
ENTITIES
  0
LINE
  5
22
330
1E
100
AcDbEntity
  8
0
100
AcDbLine
 10
26.7372
 20
-0.0000000000000849
 30
0.0
 11
26.7372
 21
1.999999999999919
 31
0.0
  0
LINE
  5
23
330
1E
100
AcDbEntity
  8
0
100
AcDbLine
 10
26.7372
 20
-0.0000000000000849
 30
0.0
 11
27.7372
 21
-0.000000000000085
 31
0.0
  0
LINE
  5
24
330
1E
100
AcDbEntity
  8
0
100
AcDbLine
 10
26.7372
 20
-0.0000000000000849
 30
0.0
 11
28.4693
 21
-0.0000000000000848
 31
0.0
  0
LINE
  5
25
330
1E
100
AcDbEntity
  8
0
100
AcDbLine
 10
17.92119999999999
 20
-0.0000000000000832
 30
0.0
 11
18.4388
 21
-0.0000000000000833
 31
0.0
  0
LINE
  5
26
330
1E
100
AcDbEntity
  8
0
100
AcDbLine
 10
15.9893
 20
-0.0000000000000832
 30
0.0
 11
16.507
 21
-0.0000000000000834
 31
0.0
  0
LINE
  5
27
330
1E
100
AcDbEntity
  8
0
100
AcDbLine
 10
15.9893
 20
-0.0000000000000832
 30
0.0
 11
15.9893
 21
1.999999999999919
 31
0.0
  0
LINE
  5
28
330
1E
100
AcDbEntity
  8
0
100
AcDbLine
 10
15.9893
 20
-0.0000000000000832
 30
0.0
 11
17.92119999999999
 21
-0.0000000000000832
 31
0.0
  0
LINE
  5
29
330
1E
100
AcDbEntity
  8
0
100
AcDbLine
 10
16.507
 20
-0.0000000000000834
 30
0.0
 11
18.4388
 21
-0.0000000000000833
 31
0.0
  0
LINE
  5
2A
330
1E
100
AcDbEntity
  8
0
100
AcDbLine
 10
14.5
 20
-0.0000000000000815
 30
0.0
 11
14.5
 21
1.999999999999919
 31
0.0
  0
LINE
  5
2B
330
1E
100
AcDbEntity
  8
0
100
AcDbLine
 10
12.5
 20
-0.0000000000000816
 30
0.0
 11
12.5
 21
1.999999999999919
 31
0.0
  0
LINE
  5
2C
330
1E
100
AcDbEntity
  8
0
100
AcDbLine
 10
12.5
 20
-0.0000000000000816
 30
0.0
 11
14.5
 21
-0.0000000000000816
 31
0.0
  0
LINE
  5
2D
330
1E
100
AcDbEntity
  8
0
100
AcDbLine
 10
12.5
 20
-0.0000000000000815
 30
0.0
 11
12.5
 21
1.999999999999919
 31
0.0
  0
LINE
  5
2E
330
1E
100
AcDbEntity
  8
0
100
AcDbLine
 10
12.5
 20
-0.0000000000000815
 30
0.0
 11
14.5
 21
-0.0000000000000815
 31
0.0
  0
LINE
  5
2F
330
1E
100
AcDbEntity
  8
0
100
AcDbLine
 10
28.4693
 20
-0.0000000000000848
 30
0.0
 11
29.4693
 21
-0.0000000000000849
 31
0.0
  0
LINE
  5
30
330
1E
100
AcDbEntity
  8
0
100
AcDbLine
 10
27.7372
 20
-0.000000000000085
 30
0.0
 11
29.4693
 21
-0.0000000000000849
 31
0.0
  0
LINE
  5
31
330
1E
100
AcDbEntity
  8
0
100
AcDbLine
 10
39.7276
 20
-0.0000000000000844
 30
0.0
 11
39.7276
 21
1.999999999999919
 31
0.0
  0
LINE
  5
32
330
1E
100
AcDbEntity
  8
0
100
AcDbLine
 10
39.7276
 20
-0.0000000000000844
 30
0.0
 11
40.7276
 21
-0.0000000000000845
 31
0.0
  0
LINE
  5
33
330
1E
100
AcDbEntity
  8
0
100
AcDbLine
 10
39.7276
 20
-0.0000000000000844
 30
0.0
 11
41.4596
 21
-0.0000000000000844
 31
0.0
  0
LINE
  5
34
330
1E
100
AcDbEntity
  8
0
100
AcDbLine
 10
41.4596
 20
-0.0000000000000844
 30
0.0
 11
42.4596
 21
-0.0000000000000845
 31
0.0
  0
LINE
  5
35
330
1E
100
AcDbEntity
  8
0
100
AcDbLine
 10
40.7276
 20
-0.0000000000000845
 30
0.0
 11
42.4596
 21
-0.0000000000000845
 31
0.0
  0
LINE
  5
36
330
1E
100
AcDbEntity
  8
0
100
AcDbLine
 10
32.4101
 20
-0.000000000000083
 30
0.0
 11
32.9277
 21
-0.0000000000000831
 31
0.0
  0
LINE
  5
37
330
1E
100
AcDbEntity
  8
0
100
AcDbLine
 10
30.4782
 20
-0.000000000000083
 30
0.0
 11
30.9959
 21
-0.0000000000000831
 31
0.0
  0
LINE
  5
38
330
1E
100
AcDbEntity
  8
0
100
AcDbLine
 10
30.4782
 20
-0.000000000000083
 30
0.0
 11
30.4782
 21
1.999999999999919
 31
0.0
  0
LINE
  5
39
330
1E
100
AcDbEntity
  8
0
100
AcDbLine
 10
30.4782
 20
-0.000000000000083
 30
0.0
 11
32.4101
 21
-0.000000000000083
 31
0.0
  0
LINE
  5
3A
330
1E
100
AcDbEntity
  8
0
100
AcDbLine
 10
30.9959
 20
-0.0000000000000831
 30
0.0
 11
32.9277
 21
-0.0000000000000831
 31
0.0
  0
LINE
  5
3B
330
1E
100
AcDbEntity
  8
0
100
AcDbLine
 10
29.5
 20
-0.0000000000000815
 30
0.0
 11
29.5
 21
1.999999999999919
 31
0.0
  0
LINE
  5
3C
330
1E
100
AcDbEntity
  8
0
100
AcDbLine
 10
27.5
 20
-0.0000000000000816
 30
0.0
 11
29.5
 21
-0.0000000000000816
 31
0.0
  0
LINE
  5
3D
330
1E
100
AcDbEntity
  8
0
100
AcDbLine
 10
27.5
 20
-0.0000000000000815
 30
0.0
 11
29.5
 21
-0.0000000000000815
 31
0.0
  0
LINE
  5
3E
330
1E
100
AcDbEntity
  8
0
100
AcDbLine
 10
42.5
 20
-0.0000000000000816
 30
0.0
 11
42.5
 21
1.999999999999919
 31
0.0
  0
LINE
  5
3F
330
1E
100
AcDbEntity
  8
0
100
AcDbLine
 10
42.5
 20
-0.0000000000000816
 30
0.0
 11
44.5
 21
-0.0000000000000816
 31
0.0
  0
LINE
  5
40
330
1E
100
AcDbEntity
  8
0
100
AcDbLine
 10
18.4388
 20
-0.0000000000000798
 30
0.0
 11
18.4388
 21
1.999999999999919
 31
0.0
  0
LINE
  5
41
330
1E
100
AcDbEntity
  8
0
100
AcDbLine
 10
17.92119999999999
 20
-0.0000000000000799
 30
0.0
 11
18.4388
 21
-0.0000000000000798
 31
0.0
  0
LINE
  5
42
330
1E
100
AcDbEntity
  8
0
100
AcDbLine
 10
15.9893
 20
-0.0000000000000799
 30
0.0
 11
15.9893
 21
1.999999999999919
 31
0.0
  0
LINE
  5
43
330
1E
100
AcDbEntity
  8
0
100
AcDbLine
 10
15.9893
 20
-0.0000000000000799
 30
0.0
 11
16.507
 21
-0.0000000000000798
 31
0.0
  0
LINE
  5
44
330
1E
100
AcDbEntity
  8
0
100
AcDbLine
 10
15.9893
 20
-0.0000000000000799
 30
0.0
 11
17.92119999999999
 21
-0.0000000000000799
 31
0.0
  0
LINE
  5
45
330
1E
100
AcDbEntity
  8
0
100
AcDbLine
 10
16.507
 20
-0.0000000000000798
 30
0.0
 11
16.507
 21
1.999999999999919
 31
0.0
  0
LINE
  5
46
330
1E
100
AcDbEntity
  8
0
100
AcDbLine
 10
16.507
 20
-0.0000000000000798
 30
0.0
 11
18.4388
 21
-0.0000000000000798
 31
0.0
  0
LINE
  5
47
330
1E
100
AcDbEntity
  8
0
100
AcDbLine
 10
5.39999999999999
 20
1.999999999999919
 30
0.0
 11
12.5
 21
1.999999999999919
 31
0.0
  0
LINE
  5
48
330
1E
100
AcDbEntity
  8
0
100
AcDbLine
 10
0.9999999999999889
 20
1.999999999999919
 30
0.0
 11
5.39999999999999
 21
1.999999999999919
 31
0.0
  0
LINE
  5
49
330
1E
100
AcDbEntity
  8
0
100
AcDbLine
 10
0.9999999999999889
 20
1.999999999999919
 30
0.0
 11
5.39999999999999
 21
1.999999999999919
 31
0.0
  0
LINE
  5
4A
330
1E
100
AcDbEntity
  8
0
100
AcDbLine
 10
12.5
 20
1.999999999999919
 30
0.0
 11
12.5
 21
-0.0000000000000817
 31
0.0
  0
LINE
  5
4B
330
1E
100
AcDbEntity
  8
0
100
AcDbLine
 10
14.5
 20
1.999999999999919
 30
0.0
 11
15.9893
 21
1.999999999999919
 31
0.0
  0
LINE
  5
4C
330
1E
100
AcDbEntity
  8
0
100
AcDbLine
 10
18.4388
 20
1.99999999999991
 30
0.0
 11
26.7372
 21
1.99999999999991
 31
0.0
  0
LINE
  5
4D
330
1E
100
AcDbEntity
  8
0
100
AcDbLine
 10
26.7372
 20
1.999999999999919
 30
0.0
 11
26.7372
 21
-0.0000000000000849
 31
0.0
  0
LINE
  5
4E
330
1E
100
AcDbEntity
  8
0
100
AcDbLine
 10
15.9893
 20
1.999999999999919
 30
0.0
 11
15.9893
 21
-0.0000000000000833
 31
0.0
  0
LINE
  5
4F
330
1E
100
AcDbEntity
  8
0
100
AcDbLine
 10
26.7372
 20
-0.0000000000000782
 30
0.0
 11
26.7372
 21
1.999999999999919
 31
0.0
  0
LINE
  5
50
330
1E
100
AcDbEntity
  8
0
100
AcDbLine
 10
26.7372
 20
-0.0000000000000782
 30
0.0
 11
27.7372
 21
-0.0000000000000781
 31
0.0
  0
LINE
  5
51
330
1E
100
AcDbEntity
  8
0
100
AcDbLine
 10
26.7372
 20
-0.0000000000000782
 30
0.0
 11
28.4693
 21
-0.0000000000000783
 31
0.0
  0
LINE
  5
52
330
1E
100
AcDbEntity
  8
0
100
AcDbLine
 10
29.5
 20
1.99999999999991
 30
0.0
 11
30.4782
 21
1.99999999999991
 31
0.0
  0
LINE
  5
53
330
1E
100
AcDbEntity
  8
0
100
AcDbLine
 10
29.4693
 20
-0.0000000000000782
 30
0.0
 11
29.4693
 21
1.999999999999919
 31
0.0
  0
LINE
  5
54
330
1E
100
AcDbEntity
  8
0
100
AcDbLine
 10
28.4693
 20
-0.0000000000000783
 30
0.0
 11
29.4693
 21
-0.0000000000000782
 31
0.0
  0
LINE
  5
55
330
1E
100
AcDbEntity
  8
0
100
AcDbLine
 10
27.7372
 20
-0.0000000000000781
 30
0.0
 11
27.7372
 21
1.999999999999919
 31
0.0
  0
LINE
  5
56
330
1E
100
AcDbEntity
  8
0
100
AcDbLine
 10
27.7372
 20
-0.0000000000000781
 30
0.0
 11
29.4693
 21
-0.0000000000000782
 31
0.0
  0
LINE
  5
57
330
1E
100
AcDbEntity
  8
0
100
AcDbLine
 10
14.5
 20
1.999999999999919
 30
0.0
 11
14.5
 21
-0.0000000000000814
 31
0.0
  0
LINE
  5
58
330
1E
100
AcDbEntity
  8
0
100
AcDbLine
 10
12.5
 20
1.999999999999919
 30
0.0
 11
14.5
 21
1.999999999999919
 31
0.0
  0
LINE
  5
59
330
1E
100
AcDbEntity
  8
0
100
AcDbLine
 10
12.5
 20
1.999999999999919
 30
0.0
 11
12.5
 21
-0.0000000000000814
 31
0.0
  0
LINE
  5
5A
330
1E
100
AcDbEntity
  8
0
100
AcDbLine
 10
32.9277
 20
-0.00000000000008
 30
0.0
 11
32.9277
 21
1.999999999999919
 31
0.0
  0
LINE
  5
5B
330
1E
100
AcDbEntity
  8
0
100
AcDbLine
 10
32.4101
 20
-0.0000000000000801
 30
0.0
 11
32.9277
 21
-0.00000000000008
 31
0.0
  0
LINE
  5
5C
330
1E
100
AcDbEntity
  8
0
100
AcDbLine
 10
30.4782
 20
-0.0000000000000801
 30
0.0
 11
30.4782
 21
1.999999999999919
 31
0.0
  0
LINE
  5
5D
330
1E
100
AcDbEntity
  8
0
100
AcDbLine
 10
30.4782
 20
-0.0000000000000801
 30
0.0
 11
30.9959
 21
-0.00000000000008
 31
0.0
  0
LINE
  5
5E
330
1E
100
AcDbEntity
  8
0
100
AcDbLine
 10
30.4782
 20
-0.0000000000000801
 30
0.0
 11
32.4101
 21
-0.0000000000000801
 31
0.0
  0
LINE
  5
5F
330
1E
100
AcDbEntity
  8
0
100
AcDbLine
 10
32.9277
 20
1.99999999999991
 30
0.0
 11
36.7
 21
1.99999999999991
 31
0.0
  0
LINE
  5
60
330
1E
100
AcDbEntity
  8
0
100
AcDbLine
 10
36.7
 20
1.99999999999991
 30
0.0
 11
39.7276
 21
1.99999999999991
 31
0.0
  0
LINE
  5
61
330
1E
100
AcDbEntity
  8
0
100
AcDbLine
 10
39.7276
 20
1.999999999999919
 30
0.0
 11
39.7276
 21
-0.0000000000000844
 31
0.0
  0
LINE
  5
62
330
1E
100
AcDbEntity
  8
0
100
AcDbLine
 10
30.4782
 20
1.999999999999919
 30
0.0
 11
30.4782
 21
-0.0000000000000831
 31
0.0
  0
LINE
  5
63
330
1E
100
AcDbEntity
  8
0
100
AcDbLine
 10
39.7276
 20
-0.0000000000000787
 30
0.0
 11
39.7276
 21
1.999999999999919
 31
0.0
  0
LINE
  5
64
330
1E
100
AcDbEntity
  8
0
100
AcDbLine
 10
39.7276
 20
-0.0000000000000787
 30
0.0
 11
40.7276
 21
-0.0000000000000786
 31
0.0
  0
LINE
  5
65
330
1E
100
AcDbEntity
  8
0
100
AcDbLine
 10
39.7276
 20
-0.0000000000000787
 30
0.0
 11
41.4596
 21
-0.0000000000000788
 31
0.0
  0
LINE
  5
66
330
1E
100
AcDbEntity
  8
0
100
AcDbLine
 10
42.4596
 20
-0.0000000000000787
 30
0.0
 11
42.4596
 21
1.999999999999919
 31
0.0
  0
LINE
  5
67
330
1E
100
AcDbEntity
  8
0
100
AcDbLine
 10
41.4596
 20
-0.0000000000000788
 30
0.0
 11
42.4596
 21
-0.0000000000000787
 31
0.0
  0
LINE
  5
68
330
1E
100
AcDbEntity
  8
0
100
AcDbLine
 10
40.7276
 20
-0.0000000000000786
 30
0.0
 11
40.7276
 21
1.999999999999919
 31
0.0
  0
LINE
  5
69
330
1E
100
AcDbEntity
  8
0
100
AcDbLine
 10
40.7276
 20
-0.0000000000000786
 30
0.0
 11
42.4596
 21
-0.0000000000000787
 31
0.0
  0
LINE
  5
6A
330
1E
100
AcDbEntity
  8
0
100
AcDbLine
 10
30.9959
 20
-0.00000000000008
 30
0.0
 11
30.9959
 21
1.999999999999919
 31
0.0
  0
LINE
  5
6B
330
1E
100
AcDbEntity
  8
0
100
AcDbLine
 10
30.9959
 20
-0.00000000000008
 30
0.0
 11
32.9277
 21
-0.00000000000008
 31
0.0
  0
LINE
  5
6C
330
1E
100
AcDbEntity
  8
0
100
AcDbLine
 10
29.5
 20
1.999999999999919
 30
0.0
 11
29.5
 21
-0.0000000000000814
 31
0.0
  0
LINE
  5
6D
330
1E
100
AcDbEntity
  8
0
100
AcDbLine
 10
1.999999999999989
 20
3.99999999999992
 30
0.0
 11
1.999999999999989
 21
10.9999999999999
 31
0.0
  0
LINE
  5
6E
330
1E
100
AcDbEntity
  8
0
100
AcDbLine
 10
3.99999999999999
 20
10.9999999999999
 30
0.0
 11
3.99999999999999
 21
18.99999999999989
 31
0.0
  0
LINE
  5
6F
330
1E
100
AcDbEntity
  8
0
100
AcDbLine
 10
3.99999999999999
 20
21.99999999999989
 30
0.0
 11
4.99999999999999
 21
19.99999999999989
 31
0.0
  0
LINE
  5
71
330
1E
100
AcDbEntity
  8
0
100
AcDbLine
 10
3.99999999999999
 20
21.99999999999989
 30
0.0
 11
5.99999999999999
 21
23.9999999999999
 31
0.0
  0
LINE
  5
72
330
1E
100
AcDbEntity
  8
0
100
AcDbLine
 10
3.99999999999999
 20
18.99999999999989
 30
0.0
 11
3.99999999999999
 21
10.9999999999999
 31
0.0
  0
LINE
  5
73
330
1E
100
AcDbEntity
  8
0
100
AcDbLine
 10
3.99999999999999
 20
18.99999999999989
 30
0.0
 11
8.29999999999999
 21
18.99999999999989
 31
0.0
  0
LINE
  5
74
330
1E
100
AcDbEntity
  8
0
100
AcDbLine
 10
3.99999999999999
 20
18.99999999999989
 30
0.0
 11
4.99999999999999
 21
19.99999999999989
 31
0.0
  0
LINE
  5
75
330
1E
100
AcDbEntity
  8
0
100
AcDbLine
 10
1.999999999999989
 20
10.9999999999999
 30
0.0
 11
1.999999999999989
 21
3.99999999999992
 31
0.0
  0
LINE
  5
76
330
1E
100
AcDbEntity
  8
0
100
AcDbLine
 10
1.999999999999989
 20
10.9999999999999
 30
0.0
 11
6.39999999999999
 21
10.9999999999999
 31
0.0
  0
LINE
  5
77
330
1E
100
AcDbEntity
  8
0
100
AcDbLine
 10
0.9999999999999889
 20
3.99999999999992
 30
0.0
 11
5.39999999999999
 21
3.99999999999992
 31
0.0
  0
LINE
  5
78
330
1E
100
AcDbEntity
  8
0
100
AcDbLine
 10
4.99999999999999
 20
19.99999999999989
 30
0.0
 11
9.19999999999999
 21
19.99999999999989
 31
0.0
  0
LINE
  5
79
330
1E
100
AcDbEntity
  8
0
100
AcDbLine
 10
5.39999999999999
 20
3.99999999999992
 30
0.0
 11
17.3
 21
3.99999999999992
 31
0.0
  0
LINE
  5
7A
330
1E
100
AcDbEntity
  8
0
100
AcDbLine
 10
4.09999999999999
 20
2.99999999999992
 30
0.0
 11
16.39999999999999
 21
2.99999999999992
 31
0.0
  0
LINE
  5
7B
330
1E
100
AcDbEntity
  8
0
100
AcDbLine
 10
4.09999999999999
 20
2.99999999999992
 30
0.0
 11
16.39999999999999
 21
2.99999999999992
 31
0.0
  0
LINE
  5
7C
330
1E
100
AcDbEntity
  8
0
100
AcDbLine
 10
-0.0000000000000111
 20
2.99999999999992
 30
0.0
 11
0.9999999999999889
 21
1.999999999999919
 31
0.0
  0
LINE
  5
7D
330
1E
100
AcDbEntity
  8
0
100
AcDbLine
 10
-0.0000000000000111
 20
2.99999999999992
 30
0.0
 11
4.09999999999999
 21
2.99999999999992
 31
0.0
  0
LINE
  5
7E
330
1E
100
AcDbEntity
  8
0
100
AcDbLine
 10
-0.0000000000000111
 20
2.99999999999992
 30
0.0
 11
0.9999999999999889
 21
3.99999999999992
 31
0.0
  0
LINE
  5
7F
330
1E
100
AcDbEntity
  8
0
100
AcDbLine
 10
5.99999999999999
 20
23.9999999999999
 30
0.0
 11
94.0
 21
38.9999999999999
 31
0.0
  0
LINE
  5
80
330
1E
100
AcDbEntity
  8
0
100
AcDbLine
 10
5.99999999999999
 20
23.9999999999999
 30
0.0
 11
10.2
 21
23.9999999999999
 31
0.0
  0
LINE
  5
81
330
1E
100
AcDbEntity
  8
0
100
AcDbLine
 10
5.99999999999999
 20
23.9999999999999
 30
0.0
 11
94.0
 21
38.9999999999999
 31
0.0
  0
LINE
  5
83
330
1E
100
AcDbEntity
  8
0
100
AcDbLine
 10
10.2
 20
23.9999999999999
 30
0.0
 11
21.6
 21
23.9999999999999
 31
0.0
  0
LINE
  5
84
330
1E
100
AcDbEntity
  8
0
100
AcDbLine
 10
9.19999999999999
 20
19.99999999999989
 30
0.0
 11
20.8
 21
19.99999999999989
 31
0.0
  0
LINE
  5
85
330
1E
100
AcDbEntity
  8
0
100
AcDbLine
 10
8.29999999999999
 20
18.99999999999989
 30
0.0
 11
19.9
 21
18.99999999999989
 31
0.0
  0
LINE
  5
86
330
1E
100
AcDbEntity
  8
0
100
AcDbLine
 10
6.39999999999999
 20
10.9999999999999
 30
0.0
 11
18.0
 21
10.9999999999999
 31
0.0
  0
LINE
  5
87
330
1E
100
AcDbEntity
  8
0
100
AcDbLine
 10
16.39999999999999
 20
2.99999999999992
 30
0.0
 11
36.0
 21
2.99999999999992
 31
0.0
  0
LINE
  5
88
330
1E
100
AcDbEntity
  8
0
100
AcDbLine
 10
5.39999999999999
 20
1.999999999999919
 30
0.0
 11
17.3
 21
1.999999999999919
 31
0.0
  0
LINE
  5
89
330
1E
100
AcDbEntity
  8
0
100
AcDbLine
 10
15.9893
 20
1.999999999999919
 30
0.0
 11
16.507
 21
1.999999999999919
 31
0.0
  0
LINE
  5
8A
330
1E
100
AcDbEntity
  8
0
100
AcDbLine
 10
15.9893
 20
1.999999999999919
 30
0.0
 11
15.9893
 21
-0.0000000000000798
 31
0.0
  0
LINE
  5
8B
330
1E
100
AcDbEntity
  8
0
100
AcDbLine
 10
30.4782
 20
1.999999999999919
 30
0.0
 11
30.9959
 21
1.999999999999919
 31
0.0
  0
LINE
  5
8C
330
1E
100
AcDbEntity
  8
0
100
AcDbLine
 10
30.4782
 20
1.999999999999919
 30
0.0
 11
30.4782
 21
-0.0000000000000801
 31
0.0
  0
LINE
  5
8D
330
1E
100
AcDbEntity
  8
0
100
AcDbLine
 10
32.9277
 20
1.999999999999919
 30
0.0
 11
32.9277
 21
-0.0000000000000801
 31
0.0
  0
LINE
  5
8E
330
1E
100
AcDbEntity
  8
0
100
AcDbLine
 10
30.9959
 20
1.999999999999919
 30
0.0
 11
32.9277
 21
1.999999999999919
 31
0.0
  0
LINE
  5
8F
330
1E
100
AcDbEntity
  8
0
100
AcDbLine
 10
30.9959
 20
1.999999999999919
 30
0.0
 11
30.9959
 21
-0.0000000000000801
 31
0.0
  0
LINE
  5
90
330
1E
100
AcDbEntity
  8
0
100
AcDbLine
 10
17.3
 20
3.99999999999992
 30
0.0
 11
36.7
 21
3.99999999999992
 31
0.0
  0
LINE
  5
92
330
1E
100
AcDbEntity
  8
0
100
AcDbLine
 10
21.6
 20
23.9999999999999
 30
0.0
 11
40.2
 21
23.9999999999999
 31
0.0
  0
LINE
  5
93
330
1E
100
AcDbEntity
  8
0
100
AcDbLine
 10
20.8
 20
19.99999999999989
 30
0.0
 11
39.5
 21
19.99999999999989
 31
0.0
  0
LINE
  5
94
330
1E
100
AcDbEntity
  8
0
100
AcDbLine
 10
19.9
 20
18.99999999999989
 30
0.0
 11
38.9
 21
18.99999999999989
 31
0.0
  0
LINE
  5
95
330
1E
100
AcDbEntity
  8
0
100
AcDbLine
 10
18.0
 20
10.9999999999999
 30
0.0
 11
37.4
 21
10.9999999999999
 31
0.0
  0
LINE
  5
96
330
1E
100
AcDbEntity
  8
0
100
AcDbLine
 10
17.3
 20
1.999999999999919
 30
0.0
 11
36.7
 21
1.999999999999919
 31
0.0
  0
LINE
  5
97
330
1E
100
AcDbEntity
  8
0
100
AcDbLine
 10
26.7372
 20
1.999999999999919
 30
0.0
 11
27.7372
 21
1.999999999999919
 31
0.0
  0
LINE
  5
98
330
1E
100
AcDbEntity
  8
0
100
AcDbLine
 10
26.7372
 20
1.999999999999919
 30
0.0
 11
26.7372
 21
-0.0000000000000782
 31
0.0
  0
LINE
  5
99
330
1E
100
AcDbEntity
  8
0
100
AcDbLine
 10
39.7276
 20
1.999999999999919
 30
0.0
 11
40.7276
 21
1.999999999999919
 31
0.0
  0
LINE
  5
9A
330
1E
100
AcDbEntity
  8
0
100
AcDbLine
 10
39.7276
 20
1.999999999999919
 30
0.0
 11
39.7276
 21
-0.0000000000000787
 31
0.0
  0
LINE
  5
9B
330
1E
100
AcDbEntity
  8
0
100
AcDbLine
 10
42.4596
 20
1.999999999999919
 30
0.0
 11
42.4596
 21
-0.0000000000000787
 31
0.0
  0
LINE
  5
9C
330
1E
100
AcDbEntity
  8
0
100
AcDbLine
 10
40.7276
 20
1.999999999999919
 30
0.0
 11
42.4596
 21
1.999999999999919
 31
0.0
  0
LINE
  5
9D
330
1E
100
AcDbEntity
  8
0
100
AcDbLine
 10
40.7276
 20
1.999999999999919
 30
0.0
 11
40.7276
 21
-0.0000000000000787
 31
0.0
  0
LINE
  5
9E
330
1E
100
AcDbEntity
  8
0
100
AcDbLine
 10
36.7
 20
3.99999999999992
 30
0.0
 11
62.1
 21
3.99999999999992
 31
0.0
  0
LINE
  5
9F
330
1E
100
AcDbEntity
  8
0
100
AcDbLine
 10
36.0
 20
2.99999999999992
 30
0.0
 11
61.6
 21
2.99999999999992
 31
0.0
  0
LINE
  5
A1
330
1E
100
AcDbEntity
  8
0
100
AcDbLine
 10
40.2
 20
23.9999999999999
 30
0.0
 11
64.5
 21
23.9999999999999
 31
0.0
  0
LINE
  5
A2
330
1E
100
AcDbEntity
  8
0
100
AcDbLine
 10
39.5
 20
19.99999999999989
 30
0.0
 11
64.0
 21
19.99999999999989
 31
0.0
  0
LINE
  5
A3
330
1E
100
AcDbEntity
  8
0
100
AcDbLine
 10
38.9
 20
18.99999999999989
 30
0.0
 11
63.5
 21
18.99999999999989
 31
0.0
  0
LINE
  5
A4
330
1E
100
AcDbEntity
  8
0
100
AcDbLine
 10
37.4
 20
10.9999999999999
 30
0.0
 11
62.7
 21
10.9999999999999
 31
0.0
  0
LINE
  5
A5
330
1E
100
AcDbEntity
  8
0
100
AcDbLine
 10
36.7
 20
1.999999999999919
 30
0.0
 11
62.1
 21
1.999999999999919
 31
0.0
  0
LINE
  5
A6
330
1E
100
AcDbEntity
  8
0
100
AcDbLine
 10
29.4693
 20
1.999999999999919
 30
0.0
 11
29.4693
 21
-0.0000000000000782
 31
0.0
  0
LINE
  5
A7
330
1E
100
AcDbEntity
  8
0
100
AcDbLine
 10
27.7372
 20
1.999999999999919
 30
0.0
 11
29.4693
 21
1.999999999999919
 31
0.0
  0
LINE
  5
A8
330
1E
100
AcDbEntity
  8
0
100
AcDbLine
 10
27.7372
 20
1.999999999999919
 30
0.0
 11
27.7372
 21
-0.0000000000000782
 31
0.0
  0
LINE
  5
A9
330
1E
100
AcDbEntity
  8
0
100
AcDbLine
 10
18.4388
 20
1.999999999999919
 30
0.0
 11
18.4388
 21
-0.0000000000000798
 31
0.0
  0
LINE
  5
AA
330
1E
100
AcDbEntity
  8
0
100
AcDbLine
 10
16.507
 20
1.999999999999919
 30
0.0
 11
18.4388
 21
1.999999999999919
 31
0.0
  0
LINE
  5
AB
330
1E
100
AcDbEntity
  8
0
100
AcDbLine
 10
16.507
 20
1.999999999999919
 30
0.0
 11
16.507
 21
-0.0000000000000798
 31
0.0
  0
LINE
  5
AC
330
1E
100
AcDbEntity
  8
0
100
AcDbLine
 10
42.5
 20
1.999999999999919
 30
0.0
 11
42.5
 21
-0.0000000000000817
 31
0.0
  0
LINE
  5
AD
330
1E
100
AcDbEntity
  8
0
100
AcDbLine
 10
42.5
 20
-0.0000000000000815
 30
0.0
 11
42.5
 21
1.999999999999919
 31
0.0
  0
LINE
  5
AE
330
1E
100
AcDbEntity
  8
0
100
AcDbLine
 10
42.5
 20
-0.0000000000000815
 30
0.0
 11
44.5
 21
-0.0000000000000815
 31
0.0
  0
LINE
  5
AF
330
1E
100
AcDbEntity
  8
0
100
AcDbLine
 10
44.0111
 20
-0.0000000000000863
 30
0.0
 11
45.4254
 21
-0.0000000000000864
 31
0.0
  0
LINE
  5
B0
330
1E
100
AcDbEntity
  8
0
100
AcDbLine
 10
44.0111
 20
-0.0000000000000863
 30
0.0
 11
45.4254
 21
-0.0000000000000862
 31
0.0
  0
LINE
  5
B1
330
1E
100
AcDbEntity
  8
0
100
AcDbLine
 10
44.0111
 20
-0.0000000000000768
 30
0.0
 11
44.0111
 21
1.999999999999919
 31
0.0
  0
LINE
  5
B2
330
1E
100
AcDbEntity
  8
0
100
AcDbLine
 10
44.0111
 20
-0.0000000000000768
 30
0.0
 11
45.4254
 21
-0.0000000000000768
 31
0.0
  0
LINE
  5
B3
330
1E
100
AcDbEntity
  8
0
100
AcDbLine
 10
44.0111
 20
-0.0000000000000768
 30
0.0
 11
45.4254
 21
-0.0000000000000769
 31
0.0
  0
LINE
  5
B4
330
1E
100
AcDbEntity
  8
0
100
AcDbLine
 10
45.4254
 20
-0.0000000000000862
 30
0.0
 11
46.83959999999999
 21
-0.0000000000000863
 31
0.0
  0
LINE
  5
B5
330
1E
100
AcDbEntity
  8
0
100
AcDbLine
 10
45.4254
 20
-0.0000000000000864
 30
0.0
 11
46.83959999999999
 21
-0.0000000000000863
 31
0.0
  0
LINE
  5
B6
330
1E
100
AcDbEntity
  8
0
100
AcDbLine
 10
52.718
 20
-0.000000000000084
 30
0.0
 11
52.718
 21
1.999999999999919
 31
0.0
  0
LINE
  5
B7
330
1E
100
AcDbEntity
  8
0
100
AcDbLine
 10
52.718
 20
-0.000000000000084
 30
0.0
 11
53.718
 21
-0.0000000000000841
 31
0.0
  0
LINE
  5
B8
330
1E
100
AcDbEntity
  8
0
100
AcDbLine
 10
52.718
 20
-0.000000000000084
 30
0.0
 11
54.45
 21
-0.0000000000000839
 31
0.0
  0
LINE
  5
B9
330
1E
100
AcDbEntity
  8
0
100
AcDbLine
 10
54.6177
 20
-0.0000000000000856
 30
0.0
 11
56.032
 21
-0.0000000000000857
 31
0.0
  0
LINE
  5
BA
330
1E
100
AcDbEntity
  8
0
100
AcDbLine
 10
54.6177
 20
-0.0000000000000856
 30
0.0
 11
56.032
 21
-0.0000000000000855
 31
0.0
  0
LINE
  5
BB
330
1E
100
AcDbEntity
  8
0
100
AcDbLine
 10
56.032
 20
-0.0000000000000855
 30
0.0
 11
57.4462
 21
-0.0000000000000856
 31
0.0
  0
LINE
  5
BC
330
1E
100
AcDbEntity
  8
0
100
AcDbLine
 10
56.032
 20
-0.0000000000000857
 30
0.0
 11
57.4462
 21
-0.0000000000000856
 31
0.0
  0
LINE
  5
BD
330
1E
100
AcDbEntity
  8
0
100
AcDbLine
 10
54.45
 20
-0.0000000000000839
 30
0.0
 11
55.45
 21
-0.000000000000084
 31
0.0
  0
LINE
  5
BE
330
1E
100
AcDbEntity
  8
0
100
AcDbLine
 10
53.718
 20
-0.0000000000000841
 30
0.0
 11
55.45
 21
-0.000000000000084
 31
0.0
  0
LINE
  5
BF
330
1E
100
AcDbEntity
  8
0
100
AcDbLine
 10
46.89899999999999
 20
-0.0000000000000827
 30
0.0
 11
47.4166
 21
-0.0000000000000829
 31
0.0
  0
LINE
  5
C0
330
1E
100
AcDbEntity
  8
0
100
AcDbLine
 10
44.9671
 20
-0.0000000000000828
 30
0.0
 11
45.4848
 21
-0.0000000000000829
 31
0.0
  0
LINE
  5
C1
330
1E
100
AcDbEntity
  8
0
100
AcDbLine
 10
44.9671
 20
-0.0000000000000828
 30
0.0
 11
46.89899999999999
 21
-0.0000000000000827
 31
0.0
  0
LINE
  5
C2
330
1E
100
AcDbEntity
  8
0
100
AcDbLine
 10
45.4848
 20
-0.0000000000000829
 30
0.0
 11
47.4166
 21
-0.0000000000000829
 31
0.0
  0
LINE
  5
C3
330
1E
100
AcDbEntity
  8
0
100
AcDbLine
 10
59.456
 20
-0.0000000000000825
 30
0.0
 11
59.9736
 21
-0.0000000000000827
 31
0.0
  0
LINE
  5
C4
330
1E
100
AcDbEntity
  8
0
100
AcDbLine
 10
59.456
 20
-0.0000000000000825
 30
0.0
 11
61.3879
 21
-0.0000000000000825
 31
0.0
  0
LINE
  5
C5
330
1E
100
AcDbEntity
  8
0
100
AcDbLine
 10
65.22429999999999
 20
-0.000000000000085
 30
0.0
 11
65.22429999999999
 21
1.999999999999919
 31
0.0
  0
LINE
  5
C6
330
1E
100
AcDbEntity
  8
0
100
AcDbLine
 10
65.22429999999999
 20
-0.000000000000085
 30
0.0
 11
66.63859999999999
 21
-0.0000000000000851
 31
0.0
  0
LINE
  5
C7
330
1E
100
AcDbEntity
  8
0
100
AcDbLine
 10
65.22429999999999
 20
-0.000000000000085
 30
0.0
 11
66.63859999999999
 21
-0.0000000000000849
 31
0.0
  0
LINE
  5
C8
330
1E
100
AcDbEntity
  8
0
100
AcDbLine
 10
65.7084
 20
-0.0000000000000835
 30
0.0
 11
66.7084
 21
-0.0000000000000836
 31
0.0
  0
LINE
  5
C9
330
1E
100
AcDbEntity
  8
0
100
AcDbLine
 10
65.7084
 20
-0.0000000000000835
 30
0.0
 11
67.4404
 21
-0.0000000000000834
 31
0.0
  0
LINE
  5
CA
330
1E
100
AcDbEntity
  8
0
100
AcDbLine
 10
61.3879
 20
-0.0000000000000825
 30
0.0
 11
61.9055
 21
-0.0000000000000826
 31
0.0
  0
LINE
  5
CB
330
1E
100
AcDbEntity
  8
0
100
AcDbLine
 10
59.9736
 20
-0.0000000000000827
 30
0.0
 11
61.9055
 21
-0.0000000000000826
 31
0.0
  0
LINE
  5
CC
330
1E
100
AcDbEntity
  8
0
100
AcDbLine
 10
66.63859999999999
 20
-0.0000000000000849
 30
0.0
 11
68.0528
 21
-0.000000000000085
 31
0.0
  0
LINE
  5
CD
330
1E
100
AcDbEntity
  8
0
100
AcDbLine
 10
66.63859999999999
 20
-0.0000000000000851
 30
0.0
 11
68.0528
 21
-0.000000000000085
 31
0.0
  0
LINE
  5
CE
330
1E
100
AcDbEntity
  8
0
100
AcDbLine
 10
67.4404
 20
-0.0000000000000834
 30
0.0
 11
68.44039999999999
 21
-0.0000000000000835
 31
0.0
  0
LINE
  5
CF
330
1E
100
AcDbEntity
  8
0
100
AcDbLine
 10
66.7084
 20
-0.0000000000000836
 30
0.0
 11
68.44039999999999
 21
-0.0000000000000835
 31
0.0
  0
LINE
  5
D0
330
1E
100
AcDbEntity
  8
0
100
AcDbLine
 10
67.634
 20
-0.0000000000000873
 30
0.0
 11
69.366
 21
-0.0000000000000873
 31
0.0
  0
LINE
  5
D1
330
1E
100
AcDbEntity
  8
0
100
AcDbLine
 10
66.634
 20
-0.0000000000000874
 30
0.0
 11
68.366
 21
-0.0000000000000874
 31
0.0
  0
LINE
  5
D2
330
1E
100
AcDbEntity
  8
0
100
AcDbLine
 10
66.634
 20
-0.0000000000000874
 30
0.0
 11
67.634
 21
-0.0000000000000873
 31
0.0
  0
LINE
  5
D3
330
1E
100
AcDbEntity
  8
0
100
AcDbLine
 10
68.366
 20
-0.0000000000000874
 30
0.0
 11
69.366
 21
-0.0000000000000873
 31
0.0
  0
LINE
  5
D4
330
1E
100
AcDbEntity
  8
0
100
AcDbLine
 10
73.94490000000001
 20
-0.0000000000000823
 30
0.0
 11
74.4625
 21
-0.0000000000000824
 31
0.0
  0
LINE
  5
D5
330
1E
100
AcDbEntity
  8
0
100
AcDbLine
 10
73.94490000000001
 20
-0.0000000000000823
 30
0.0
 11
75.8767
 21
-0.0000000000000823
 31
0.0
  0
LINE
  5
D6
330
1E
100
AcDbEntity
  8
0
100
AcDbLine
 10
74.4625
 20
-0.0000000000000824
 30
0.0
 11
76.3944
 21
-0.0000000000000824
 31
0.0
  0
LINE
  5
D7
330
1E
100
AcDbEntity
  8
0
100
AcDbLine
 10
74.134
 20
-0.0000000000000866
 30
0.0
 11
75.866
 21
-0.0000000000000866
 31
0.0
  0
LINE
  5
D8
330
1E
100
AcDbEntity
  8
0
100
AcDbLine
 10
74.134
 20
-0.0000000000000866
 30
0.0
 11
75.134
 21
-0.0000000000000865
 31
0.0
  0
LINE
  5
D9
330
1E
100
AcDbEntity
  8
0
100
AcDbLine
 10
75.134
 20
-0.0000000000000865
 30
0.0
 11
76.866
 21
-0.0000000000000865
 31
0.0
  0
LINE
  5
DA
330
1E
100
AcDbEntity
  8
0
100
AcDbLine
 10
75.866
 20
-0.0000000000000866
 30
0.0
 11
76.866
 21
-0.0000000000000865
 31
0.0
  0
LINE
  5
DB
330
1E
100
AcDbEntity
  8
0
100
AcDbLine
 10
75.831
 20
-0.0000000000000843
 30
0.0
 11
77.2452
 21
-0.0000000000000844
 31
0.0
  0
LINE
  5
DC
330
1E
100
AcDbEntity
  8
0
100
AcDbLine
 10
75.831
 20
-0.0000000000000843
 30
0.0
 11
77.2452
 21
-0.0000000000000842
 31
0.0
  0
LINE
  5
DD
330
1E
100
AcDbEntity
  8
0
100
AcDbLine
 10
77.2452
 20
-0.0000000000000844
 30
0.0
 11
78.65940000000001
 21
-0.0000000000000843
 31
0.0
  0
LINE
  5
DE
330
1E
100
AcDbEntity
  8
0
100
AcDbLine
 10
77.2452
 20
-0.0000000000000842
 30
0.0
 11
78.65940000000001
 21
-0.0000000000000843
 31
0.0
  0
LINE
  5
DF
330
1E
100
AcDbEntity
  8
0
100
AcDbLine
 10
80.43080000000001
 20
-0.000000000000083
 30
0.0
 11
81.43080000000001
 21
-0.0000000000000831
 31
0.0
  0
LINE
  5
E0
330
1E
100
AcDbEntity
  8
0
100
AcDbLine
 10
78.6987
 20
-0.000000000000083
 30
0.0
 11
78.6987
 21
1.999999999999919
 31
0.0
  0
LINE
  5
E1
330
1E
100
AcDbEntity
  8
0
100
AcDbLine
 10
78.6987
 20
-0.000000000000083
 30
0.0
 11
79.6987
 21
-0.0000000000000831
 31
0.0
  0
LINE
  5
E2
330
1E
100
AcDbEntity
  8
0
100
AcDbLine
 10
78.6987
 20
-0.000000000000083
 30
0.0
 11
80.43080000000001
 21
-0.000000000000083
 31
0.0
  0
LINE
  5
E3
330
1E
100
AcDbEntity
  8
0
100
AcDbLine
 10
79.6987
 20
-0.0000000000000831
 30
0.0
 11
81.43080000000001
 21
-0.0000000000000831
 31
0.0
  0
LINE
  5
E4
330
1E
100
AcDbEntity
  8
0
100
AcDbLine
 10
75.8767
 20
-0.0000000000000823
 30
0.0
 11
76.3944
 21
-0.0000000000000824
 31
0.0
  0
LINE
  5
E5
330
1E
100
AcDbEntity
  8
0
100
AcDbLine
 10
86.4376
 20
-0.0000000000000837
 30
0.0
 11
86.4376
 21
1.999999999999919
 31
0.0
  0
LINE
  5
E6
330
1E
100
AcDbEntity
  8
0
100
AcDbLine
 10
86.4376
 20
-0.0000000000000837
 30
0.0
 11
87.8518
 21
-0.0000000000000838
 31
0.0
  0
LINE
  5
E7
330
1E
100
AcDbEntity
  8
0
100
AcDbLine
 10
86.4376
 20
-0.0000000000000837
 30
0.0
 11
87.8518
 21
-0.0000000000000836
 31
0.0
  0
LINE
  5
E8
330
1E
100
AcDbEntity
  8
0
100
AcDbLine
 10
82.634
 20
-0.0000000000000857
 30
0.0
 11
84.366
 21
-0.0000000000000857
 31
0.0
  0
LINE
  5
E9
330
1E
100
AcDbEntity
  8
0
100
AcDbLine
 10
81.63400000000001
 20
-0.0000000000000858
 30
0.0
 11
81.63400000000001
 21
1.99999999999991
 31
0.0
  0
LINE
  5
EA
330
1E
100
AcDbEntity
  8
0
100
AcDbLine
 10
81.63400000000001
 20
-0.0000000000000858
 30
0.0
 11
83.366
 21
-0.0000000000000858
 31
0.0
  0
LINE
  5
EB
330
1E
100
AcDbEntity
  8
0
100
AcDbLine
 10
81.63400000000001
 20
-0.0000000000000858
 30
0.0
 11
82.634
 21
-0.0000000000000857
 31
0.0
  0
LINE
  5
EC
330
1E
100
AcDbEntity
  8
0
100
AcDbLine
 10
83.366
 20
-0.0000000000000858
 30
0.0
 11
84.366
 21
-0.0000000000000857
 31
0.0
  0
LINE
  5
ED
330
1E
100
AcDbEntity
  8
0
100
AcDbLine
 10
87.8518
 20
-0.0000000000000836
 30
0.0
 11
89.266
 21
-0.0000000000000837
 31
0.0
  0
LINE
  5
EE
330
1E
100
AcDbEntity
  8
0
100
AcDbLine
 10
87.8518
 20
-0.0000000000000838
 30
0.0
 11
89.266
 21
-0.0000000000000837
 31
0.0
  0
LINE
  5
EF
330
1E
100
AcDbEntity
  8
0
100
AcDbLine
 10
88.43380000000001
 20
-0.0000000000000821
 30
0.0
 11
88.95140000000001
 21
-0.0000000000000822
 31
0.0
  0
LINE
  5
F0
330
1E
100
AcDbEntity
  8
0
100
AcDbLine
 10
88.43380000000001
 20
-0.0000000000000821
 30
0.0
 11
90.36559999999999
 21
-0.000000000000082
 31
0.0
  0
LINE
  5
F1
330
1E
100
AcDbEntity
  8
0
100
AcDbLine
 10
88.95140000000001
 20
-0.0000000000000822
 30
0.0
 11
90.8833
 21
-0.0000000000000821
 31
0.0
  0
LINE
  5
F2
330
1E
100
AcDbEntity
  8
0
100
AcDbLine
 10
89.13400000000001
 20
-0.000000000000085
 30
0.0
 11
90.866
 21
-0.000000000000085
 31
0.0
  0
LINE
  5
F3
330
1E
100
AcDbEntity
  8
0
100
AcDbLine
 10
89.13400000000001
 20
-0.000000000000085
 30
0.0
 11
90.134
 21
-0.0000000000000849
 31
0.0
  0
LINE
  5
F4
330
1E
100
AcDbEntity
  8
0
100
AcDbLine
 10
90.134
 20
-0.0000000000000849
 30
0.0
 11
91.866
 21
-0.0000000000000849
 31
0.0
  0
LINE
  5
F5
330
1E
100
AcDbEntity
  8
0
100
AcDbLine
 10
93.58159999999999
 20
-0.0000000000000879
 30
0.0
 11
95.51349999999999
 21
-0.000000000000088
 31
0.0
  0
LINE
  5
F6
330
1E
100
AcDbEntity
  8
0
100
AcDbLine
 10
93.064
 20
-0.0000000000000881
 30
0.0
 11
94.99579999999999
 21
-0.0000000000000881
 31
0.0
  0
LINE
  5
F7
330
1E
100
AcDbEntity
  8
0
100
AcDbLine
 10
93.064
 20
-0.0000000000000881
 30
0.0
 11
93.58159999999999
 21
-0.0000000000000879
 31
0.0
  0
LINE
  5
F8
330
1E
100
AcDbEntity
  8
0
100
AcDbLine
 10
94.99579999999999
 20
-0.0000000000000881
 30
0.0
 11
95.51349999999999
 21
-0.000000000000088
 31
0.0
  0
LINE
  5
F9
330
1E
100
AcDbEntity
  8
0
100
AcDbLine
 10
97.46389999999999
 20
-0.000000000000087
 30
0.0
 11
99.39579999999999
 21
-0.0000000000000871
 31
0.0
  0
LINE
  5
FA
330
1E
100
AcDbEntity
  8
0
100
AcDbLine
 10
96.9463
 20
-0.0000000000000872
 30
0.0
 11
98.87810000000001
 21
-0.0000000000000872
 31
0.0
  0
LINE
  5
FB
330
1E
100
AcDbEntity
  8
0
100
AcDbLine
 10
96.9463
 20
-0.0000000000000872
 30
0.0
 11
97.46389999999999
 21
-0.000000000000087
 31
0.0
  0
LINE
  5
FC
330
1E
100
AcDbEntity
  8
0
100
AcDbLine
 10
98.87810000000001
 20
-0.0000000000000872
 30
0.0
 11
99.39579999999999
 21
-0.0000000000000871
 31
0.0
  0
LINE
  5
FD
330
1E
100
AcDbEntity
  8
0
100
AcDbLine
 10
101.346
 20
-0.0000000000000862
 30
0.0
 11
103.278
 21
-0.0000000000000862
 31
0.0
  0
LINE
  5
FE
330
1E
100
AcDbEntity
  8
0
100
AcDbLine
 10
100.8289999999999
 20
-0.0000000000000863
 30
0.0
 11
100.8289999999999
 21
1.99999999999991
 31
0.0
  0
LINE
  5
FF
330
1E
100
AcDbEntity
  8
0
100
AcDbLine
 10
100.8289999999999
 20
-0.0000000000000863
 30
0.0
 11
102.76
 21
-0.0000000000000863
 31
0.0
  0
LINE
  5
100
330
1E
100
AcDbEntity
  8
0
100
AcDbLine
 10
100.8289999999999
 20
-0.0000000000000863
 30
0.0
 11
101.346
 21
-0.0000000000000862
 31
0.0
  0
LINE
  5
101
330
1E
100
AcDbEntity
  8
0
100
AcDbLine
 10
90.866
 20
-0.000000000000085
 30
0.0
 11
91.866
 21
-0.0000000000000849
 31
0.0
  0
LINE
  5
102
330
1E
100
AcDbEntity
  8
0
100
AcDbLine
 10
91.6891
 20
-0.0000000000000826
 30
0.0
 11
92.68909999999999
 21
-0.0000000000000827
 31
0.0
  0
LINE
  5
103
330
1E
100
AcDbEntity
  8
0
100
AcDbLine
 10
91.6891
 20
-0.0000000000000826
 30
0.0
 11
93.42119999999999
 21
-0.0000000000000825
 31
0.0
  0
LINE
  5
104
330
1E
100
AcDbEntity
  8
0
100
AcDbLine
 10
90.36559999999999
 20
-0.000000000000082
 30
0.0
 11
90.8833
 21
-0.0000000000000821
 31
0.0
  0
LINE
  5
105
330
1E
100
AcDbEntity
  8
0
100
AcDbLine
 10
97.0442
 20
-0.000000000000083
 30
0.0
 11
98.4584
 21
-0.0000000000000831
 31
0.0
  0
LINE
  5
106
330
1E
100
AcDbEntity
  8
0
100
AcDbLine
 10
97.0442
 20
-0.000000000000083
 30
0.0
 11
98.4584
 21
-0.0000000000000829
 31
0.0
  0
LINE
  5
107
330
1E
100
AcDbEntity
  8
0
100
AcDbLine
 10
92.68909999999999
 20
-0.0000000000000827
 30
0.0
 11
94.4212
 21
-0.0000000000000826
 31
0.0
  0
LINE
  5
108
330
1E
100
AcDbEntity
  8
0
100
AcDbLine
 10
93.42119999999999
 20
-0.0000000000000825
 30
0.0
 11
94.4212
 21
-0.0000000000000826
 31
0.0
  0
LINE
  5
109
330
1E
100
AcDbEntity
  8
0
100
AcDbLine
 10
98.4584
 20
-0.0000000000000829
 30
0.0
 11
99.8726
 21
-0.000000000000083
 31
0.0
  0
LINE
  5
10A
330
1E
100
AcDbEntity
  8
0
100
AcDbLine
 10
98.4584
 20
-0.0000000000000831
 30
0.0
 11
99.8726
 21
-0.000000000000083
 31
0.0
  0
LINE
  5
10B
330
1E
100
AcDbEntity
  8
0
100
AcDbLine
 10
97.634
 20
-0.0000000000000841
 30
0.0
 11
99.366
 21
-0.0000000000000841
 31
0.0
  0
LINE
  5
10C
330
1E
100
AcDbEntity
  8
0
100
AcDbLine
 10
96.63400000000001
 20
-0.0000000000000842
 30
0.0
 11
96.63400000000001
 21
1.999999999999919
 31
0.0
  0
LINE
  5
10D
330
1E
100
AcDbEntity
  8
0
100
AcDbLine
 10
96.63400000000001
 20
-0.0000000000000842
 30
0.0
 11
98.366
 21
-0.0000000000000842
 31
0.0
  0
LINE
  5
10E
330
1E
100
AcDbEntity
  8
0
100
AcDbLine
 10
96.63400000000001
 20
-0.0000000000000842
 30
0.0
 11
97.634
 21
-0.0000000000000841
 31
0.0
  0
LINE
  5
10F
330
1E
100
AcDbEntity
  8
0
100
AcDbLine
 10
98.366
 20
-0.0000000000000842
 30
0.0
 11
99.366
 21
-0.0000000000000841
 31
0.0
  0
LINE
  5
110
330
1E
100
AcDbEntity
  8
0
100
AcDbLine
 10
102.76
 20
-0.0000000000000863
 30
0.0
 11
103.278
 21
-0.0000000000000862
 31
0.0
  0
LINE
  5
111
330
1E
100
AcDbEntity
  8
0
100
AcDbLine
 10
103.4399999999999
 20
-0.0000000000000819
 30
0.0
 11
105.372
 21
-0.0000000000000819
 31
0.0
  0
LINE
  5
112
330
1E
100
AcDbEntity
  8
0
100
AcDbLine
 10
102.9229999999999
 20
-0.0000000000000818
 30
0.0
 11
103.4399999999999
 21
-0.0000000000000819
 31
0.0
  0
LINE
  5
113
330
1E
100
AcDbEntity
  8
0
100
AcDbLine
 10
102.9229999999999
 20
-0.0000000000000818
 30
0.0
 11
104.855
 21
-0.0000000000000818
 31
0.0
  0
LINE
  5
114
330
1E
100
AcDbEntity
  8
0
100
AcDbLine
 10
104.1339999999999
 20
-0.0000000000000834
 30
0.0
 11
105.8659999999999
 21
-0.0000000000000834
 31
0.0
  0
LINE
  5
115
330
1E
100
AcDbEntity
  8
0
100
AcDbLine
 10
104.1339999999999
 20
-0.0000000000000834
 30
0.0
 11
105.1339999999999
 21
-0.0000000000000833
 31
0.0
  0
LINE
  5
116
330
1E
100
AcDbEntity
  8
0
100
AcDbLine
 10
105.2279999999999
 20
-0.0000000000000853
 30
0.0
 11
107.1599999999999
 21
-0.0000000000000853
 31
0.0
  0
LINE
  5
117
330
1E
100
AcDbEntity
  8
0
100
AcDbLine
 10
104.7109999999999
 20
-0.0000000000000854
 30
0.0
 11
106.6429999999999
 21
-0.0000000000000854
 31
0.0
  0
LINE
  5
118
330
1E
100
AcDbEntity
  8
0
100
AcDbLine
 10
104.7109999999999
 20
-0.0000000000000854
 30
0.0
 11
105.2279999999999
 21
-0.0000000000000853
 31
0.0
  0
LINE
  5
119
330
1E
100
AcDbEntity
  8
0
100
AcDbLine
 10
105.1339999999999
 20
-0.0000000000000833
 30
0.0
 11
106.8659999999999
 21
-0.0000000000000833
 31
0.0
  0
LINE
  5
11A
330
1E
100
AcDbEntity
  8
0
100
AcDbLine
 10
106.6429999999999
 20
-0.0000000000000854
 30
0.0
 11
107.1599999999999
 21
-0.0000000000000853
 31
0.0
  0
LINE
  5
11B
330
1E
100
AcDbEntity
  8
0
100
AcDbLine
 10
109.111
 20
-0.0000000000000844
 30
0.0
 11
111.043
 21
-0.0000000000000844
 31
0.0
  0
LINE
  5
11C
330
1E
100
AcDbEntity
  8
0
100
AcDbLine
 10
108.5929999999999
 20
-0.0000000000000845
 30
0.0
 11
110.525
 21
-0.0000000000000845
 31
0.0
  0
LINE
  5
11D
330
1E
100
AcDbEntity
  8
0
100
AcDbLine
 10
108.5929999999999
 20
-0.0000000000000845
 30
0.0
 11
109.111
 21
-0.0000000000000844
 31
0.0
  0
LINE
  5
11E
330
1E
100
AcDbEntity
  8
0
100
AcDbLine
 10
110.525
 20
-0.0000000000000845
 30
0.0
 11
111.043
 21
-0.0000000000000844
 31
0.0
  0
LINE
  5
11F
330
1E
100
AcDbEntity
  8
0
100
AcDbLine
 10
112.9929999999999
 20
-0.0000000000000835
 30
0.0
 11
114.925
 21
-0.0000000000000835
 31
0.0
  0
LINE
  5
120
330
1E
100
AcDbEntity
  8
0
100
AcDbLine
 10
112.4749999999999
 20
-0.0000000000000836
 30
0.0
 11
114.407
 21
-0.0000000000000836
 31
0.0
  0
LINE
  5
121
330
1E
100
AcDbEntity
  8
0
100
AcDbLine
 10
112.4749999999999
 20
-0.0000000000000836
 30
0.0
 11
112.9929999999999
 21
-0.0000000000000835
 31
0.0
  0
LINE
  5
122
330
1E
100
AcDbEntity
  8
0
100
AcDbLine
 10
121.5
 20
-0.0000000000000882
 30
0.0
 11
121.5
 21
1.99999999999991
 31
0.0
  0
LINE
  5
123
330
1E
100
AcDbEntity
  8
0
100
AcDbLine
 10
121.5
 20
-0.0000000000000882
 30
0.0
 11
123.5
 21
-0.0000000000000882
 31
0.0
  0
LINE
  5
124
330
1E
100
AcDbEntity
  8
0
100
AcDbLine
 10
121.5
 20
-0.0000000000000883
 30
0.0
 11
121.5
 21
1.99999999999991
 31
0.0
  0
LINE
  5
125
330
1E
100
AcDbEntity
  8
0
100
AcDbLine
 10
121.5
 20
-0.0000000000000883
 30
0.0
 11
123.5
 21
-0.0000000000000883
 31
0.0
  0
LINE
  5
126
330
1E
100
AcDbEntity
  8
0
100
AcDbLine
 10
121.5
 20
-0.0000000000000873
 30
0.0
 11
121.5
 21
1.99999999999991
 31
0.0
  0
LINE
  5
127
330
1E
100
AcDbEntity
  8
0
100
AcDbLine
 10
121.5
 20
-0.0000000000000873
 30
0.0
 11
123.5
 21
-0.0000000000000873
 31
0.0
  0
LINE
  5
128
330
1E
100
AcDbEntity
  8
0
100
AcDbLine
 10
121.5
 20
-0.0000000000000874
 30
0.0
 11
121.5
 21
1.99999999999991
 31
0.0
  0
LINE
  5
129
330
1E
100
AcDbEntity
  8
0
100
AcDbLine
 10
121.5
 20
-0.0000000000000874
 30
0.0
 11
123.5
 21
-0.0000000000000874
 31
0.0
  0
LINE
  5
12A
330
1E
100
AcDbEntity
  8
0
100
AcDbLine
 10
121.5
 20
-0.0000000000000863
 30
0.0
 11
121.5
 21
1.99999999999991
 31
0.0
  0
LINE
  5
12B
330
1E
100
AcDbEntity
  8
0
100
AcDbLine
 10
121.5
 20
-0.0000000000000863
 30
0.0
 11
123.5
 21
-0.0000000000000863
 31
0.0
  0
LINE
  5
12C
330
1E
100
AcDbEntity
  8
0
100
AcDbLine
 10
121.5
 20
-0.0000000000000865
 30
0.0
 11
121.5
 21
1.99999999999991
 31
0.0
  0
LINE
  5
12D
330
1E
100
AcDbEntity
  8
0
100
AcDbLine
 10
121.5
 20
-0.0000000000000865
 30
0.0
 11
123.5
 21
-0.0000000000000865
 31
0.0
  0
LINE
  5
12E
330
1E
100
AcDbEntity
  8
0
100
AcDbLine
 10
121.5
 20
-0.0000000000000854
 30
0.0
 11
121.5
 21
1.99999999999991
 31
0.0
  0
LINE
  5
12F
330
1E
100
AcDbEntity
  8
0
100
AcDbLine
 10
121.5
 20
-0.0000000000000854
 30
0.0
 11
123.5
 21
-0.0000000000000854
 31
0.0
  0
LINE
  5
130
330
1E
100
AcDbEntity
  8
0
100
AcDbLine
 10
121.5
 20
-0.0000000000000855
 30
0.0
 11
121.5
 21
1.99999999999991
 31
0.0
  0
LINE
  5
131
330
1E
100
AcDbEntity
  8
0
100
AcDbLine
 10
121.5
 20
-0.0000000000000855
 30
0.0
 11
123.5
 21
-0.0000000000000855
 31
0.0
  0
LINE
  5
132
330
1E
100
AcDbEntity
  8
0
100
AcDbLine
 10
121.5
 20
-0.0000000000000845
 30
0.0
 11
121.5
 21
1.999999999999919
 31
0.0
  0
LINE
  5
133
330
1E
100
AcDbEntity
  8
0
100
AcDbLine
 10
121.5
 20
-0.0000000000000845
 30
0.0
 11
123.5
 21
-0.0000000000000845
 31
0.0
  0
LINE
  5
134
330
1E
100
AcDbEntity
  8
0
100
AcDbLine
 10
121.5
 20
-0.0000000000000846
 30
0.0
 11
121.5
 21
1.999999999999919
 31
0.0
  0
LINE
  5
135
330
1E
100
AcDbEntity
  8
0
100
AcDbLine
 10
121.5
 20
-0.0000000000000846
 30
0.0
 11
123.5
 21
-0.0000000000000846
 31
0.0
  0
LINE
  5
136
330
1E
100
AcDbEntity
  8
0
100
AcDbLine
 10
121.5
 20
-0.0000000000000836
 30
0.0
 11
121.5
 21
1.999999999999919
 31
0.0
  0
LINE
  5
137
330
1E
100
AcDbEntity
  8
0
100
AcDbLine
 10
121.5
 20
-0.0000000000000836
 30
0.0
 11
123.5
 21
-0.0000000000000836
 31
0.0
  0
LINE
  5
138
330
1E
100
AcDbEntity
  8
0
100
AcDbLine
 10
121.5
 20
-0.0000000000000837
 30
0.0
 11
121.5
 21
1.999999999999919
 31
0.0
  0
LINE
  5
139
330
1E
100
AcDbEntity
  8
0
100
AcDbLine
 10
121.5
 20
-0.0000000000000837
 30
0.0
 11
123.5
 21
-0.0000000000000837
 31
0.0
  0
LINE
  5
13A
330
1E
100
AcDbEntity
  8
0
100
AcDbLine
 10
114.407
 20
-0.0000000000000836
 30
0.0
 11
114.925
 21
-0.0000000000000835
 31
0.0
  0
LINE
  5
13B
330
1E
100
AcDbEntity
  8
0
100
AcDbLine
 10
121.5
 20
-0.0000000000000828
 30
0.0
 11
121.5
 21
1.999999999999919
 31
0.0
  0
LINE
  5
13C
330
1E
100
AcDbEntity
  8
0
100
AcDbLine
 10
121.5
 20
-0.0000000000000828
 30
0.0
 11
123.5
 21
-0.0000000000000828
 31
0.0
  0
LINE
  5
13D
330
1E
100
AcDbEntity
  8
0
100
AcDbLine
 10
118.29
 20
-0.0000000000000828
 30
0.0
 11
118.8069999999999
 21
-0.0000000000000826
 31
0.0
  0
LINE
  5
13E
330
1E
100
AcDbEntity
  8
0
100
AcDbLine
 10
105.8659999999999
 20
-0.0000000000000834
 30
0.0
 11
106.8659999999999
 21
-0.0000000000000833
 31
0.0
  0
LINE
  5
13F
330
1E
100
AcDbEntity
  8
0
100
AcDbLine
 10
121.5
 20
-0.0000000000000827
 30
0.0
 11
121.5
 21
1.999999999999919
 31
0.0
  0
LINE
  5
140
330
1E
100
AcDbEntity
  8
0
100
AcDbLine
 10
121.5
 20
-0.0000000000000827
 30
0.0
 11
123.5
 21
-0.0000000000000827
 31
0.0
  0
LINE
  5
141
330
1E
100
AcDbEntity
  8
0
100
AcDbLine
 10
116.3579999999999
 20
-0.0000000000000827
 30
0.0
 11
116.3579999999999
 21
1.999999999999919
 31
0.0
  0
LINE
  5
142
330
1E
100
AcDbEntity
  8
0
100
AcDbLine
 10
116.3579999999999
 20
-0.0000000000000827
 30
0.0
 11
118.29
 21
-0.0000000000000828
 31
0.0
  0
LINE
  5
143
330
1E
100
AcDbEntity
  8
0
100
AcDbLine
 10
116.3579999999999
 20
-0.0000000000000827
 30
0.0
 11
116.8749999999999
 21
-0.0000000000000826
 31
0.0
  0
LINE
  5
144
330
1E
100
AcDbEntity
  8
0
100
AcDbLine
 10
113.366
 20
-0.0000000000000827
 30
0.0
 11
114.366
 21
-0.0000000000000825
 31
0.0
  0
LINE
  5
145
330
1E
100
AcDbEntity
  8
0
100
AcDbLine
 10
126.7099999999999
 20
-0.0000000000000828
 30
0.0
 11
128.6419999999999
 21
-0.0000000000000827
 31
0.0
  0
LINE
  5
146
330
1E
100
AcDbEntity
  8
0
100
AcDbLine
 10
130.0749999999999
 20
-0.0000000000000835
 30
0.0
 11
130.5929999999999
 21
-0.0000000000000836
 31
0.0
  0
LINE
  5
147
330
1E
100
AcDbEntity
  8
0
100
AcDbLine
 10
130.0749999999999
 20
-0.0000000000000835
 30
0.0
 11
130.0749999999999
 21
1.999999999999919
 31
0.0
  0
LINE
  5
148
330
1E
100
AcDbEntity
  8
0
100
AcDbLine
 10
130.0749999999999
 20
-0.0000000000000835
 30
0.0
 11
132.007
 21
-0.0000000000000835
 31
0.0
  0
LINE
  5
149
330
1E
100
AcDbEntity
  8
0
100
AcDbLine
 10
130.5929999999999
 20
-0.0000000000000836
 30
0.0
 11
132.525
 21
-0.0000000000000836
 31
0.0
  0
LINE
  5
14A
330
1E
100
AcDbEntity
  8
0
100
AcDbLine
 10
132.007
 20
-0.0000000000000835
 30
0.0
 11
132.525
 21
-0.0000000000000836
 31
0.0
  0
LINE
  5
14B
330
1E
100
AcDbEntity
  8
0
100
AcDbLine
 10
116.8749999999999
 20
-0.0000000000000826
 30
0.0
 11
118.8069999999999
 21
-0.0000000000000826
 31
0.0
  0
LINE
  5
14C
330
1E
100
AcDbEntity
  8
0
100
AcDbLine
 10
126.1929999999999
 20
-0.0000000000000826
 30
0.0
 11
126.7099999999999
 21
-0.0000000000000828
 31
0.0
  0
LINE
  5
14D
330
1E
100
AcDbEntity
  8
0
100
AcDbLine
 10
126.1929999999999
 20
-0.0000000000000826
 30
0.0
 11
126.1929999999999
 21
1.999999999999919
 31
0.0
  0
LINE
  5
14E
330
1E
100
AcDbEntity
  8
0
100
AcDbLine
 10
126.1929999999999
 20
-0.0000000000000826
 30
0.0
 11
128.125
 21
-0.0000000000000826
 31
0.0
  0
LINE
  5
14F
330
1E
100
AcDbEntity
  8
0
100
AcDbLine
 10
105.679
 20
-0.0000000000000822
 30
0.0
 11
107.412
 21
-0.0000000000000822
 31
0.0
  0
LINE
  5
150
330
1E
100
AcDbEntity
  8
0
100
AcDbLine
 10
109.0649999999999
 20
-0.0000000000000825
 30
0.0
 11
110.4789999999999
 21
-0.0000000000000824
 31
0.0
  0
LINE
  5
151
330
1E
100
AcDbEntity
  8
0
100
AcDbLine
 10
109.0649999999999
 20
-0.0000000000000823
 30
0.0
 11
110.4789999999999
 21
-0.0000000000000824
 31
0.0
  0
LINE
  5
152
330
1E
100
AcDbEntity
  8
0
100
AcDbLine
 10
107.651
 20
-0.0000000000000824
 30
0.0
 11
107.651
 21
1.999999999999919
 31
0.0
  0
LINE
  5
153
330
1E
100
AcDbEntity
  8
0
100
AcDbLine
 10
107.651
 20
-0.0000000000000824
 30
0.0
 11
109.0649999999999
 21
-0.0000000000000825
 31
0.0
  0
LINE
  5
154
330
1E
100
AcDbEntity
  8
0
100
AcDbLine
 10
107.651
 20
-0.0000000000000824
 30
0.0
 11
109.0649999999999
 21
-0.0000000000000823
 31
0.0
  0
LINE
  5
155
330
1E
100
AcDbEntity
  8
0
100
AcDbLine
 10
112.634
 20
-0.0000000000000825
 30
0.0
 11
114.366
 21
-0.0000000000000825
 31
0.0
  0
LINE
  5
156
330
1E
100
AcDbEntity
  8
0
100
AcDbLine
 10
111.634
 20
-0.0000000000000826
 30
0.0
 11
111.634
 21
1.999999999999919
 31
0.0
  0
LINE
  5
157
330
1E
100
AcDbEntity
  8
0
100
AcDbLine
 10
111.634
 20
-0.0000000000000826
 30
0.0
 11
113.366
 21
-0.0000000000000827
 31
0.0
  0
LINE
  5
158
330
1E
100
AcDbEntity
  8
0
100
AcDbLine
 10
111.634
 20
-0.0000000000000826
 30
0.0
 11
112.634
 21
-0.0000000000000825
 31
0.0
  0
LINE
  5
159
330
1E
100
AcDbEntity
  8
0
100
AcDbLine
 10
128.125
 20
-0.0000000000000826
 30
0.0
 11
128.6419999999999
 21
-0.0000000000000827
 31
0.0
  0
LINE
  5
15A
330
1E
100
AcDbEntity
  8
0
100
AcDbLine
 10
130.6339999999999
 20
-0.0000000000000825
 30
0.0
 11
131.6339999999999
 21
-0.0000000000000827
 31
0.0
  0
LINE
  5
15B
330
1E
100
AcDbEntity
  8
0
100
AcDbLine
 10
130.6339999999999
 20
-0.0000000000000825
 30
0.0
 11
132.366
 21
-0.0000000000000825
 31
0.0
  0
LINE
  5
15C
330
1E
100
AcDbEntity
  8
0
100
AcDbLine
 10
131.6339999999999
 20
-0.0000000000000827
 30
0.0
 11
133.366
 21
-0.0000000000000826
 31
0.0
  0
LINE
  5
15D
330
1E
100
AcDbEntity
  8
0
100
AcDbLine
 10
137.84
 20
-0.0000000000000853
 30
0.0
 11
138.3569999999999
 21
-0.0000000000000854
 31
0.0
  0
LINE
  5
15E
330
1E
100
AcDbEntity
  8
0
100
AcDbLine
 10
137.84
 20
-0.0000000000000853
 30
0.0
 11
139.772
 21
-0.0000000000000853
 31
0.0
  0
LINE
  5
15F
330
1E
100
AcDbEntity
  8
0
100
AcDbLine
 10
134.4749999999999
 20
-0.0000000000000845
 30
0.0
 11
136.407
 21
-0.0000000000000845
 31
0.0
  0
LINE
  5
160
330
1E
100
AcDbEntity
  8
0
100
AcDbLine
 10
133.9569999999999
 20
-0.0000000000000844
 30
0.0
 11
134.4749999999999
 21
-0.0000000000000845
 31
0.0
  0
LINE
  5
161
330
1E
100
AcDbEntity
  8
0
100
AcDbLine
 10
133.9569999999999
 20
-0.0000000000000844
 30
0.0
 11
133.9569999999999
 21
1.999999999999919
 31
0.0
  0
LINE
  5
162
330
1E
100
AcDbEntity
  8
0
100
AcDbLine
 10
133.9569999999999
 20
-0.0000000000000844
 30
0.0
 11
135.889
 21
-0.0000000000000844
 31
0.0
  0
LINE
  5
163
330
1E
100
AcDbEntity
  8
0
100
AcDbLine
 10
135.889
 20
-0.0000000000000844
 30
0.0
 11
136.407
 21
-0.0000000000000845
 31
0.0
  0
LINE
  5
164
330
1E
100
AcDbEntity
  8
0
100
AcDbLine
 10
134.521
 20
-0.0000000000000824
 30
0.0
 11
135.935
 21
-0.0000000000000825
 31
0.0
  0
LINE
  5
165
330
1E
100
AcDbEntity
  8
0
100
AcDbLine
 10
134.521
 20
-0.0000000000000824
 30
0.0
 11
135.935
 21
-0.0000000000000823
 31
0.0
  0
LINE
  5
166
330
1E
100
AcDbEntity
  8
0
100
AcDbLine
 10
135.935
 20
-0.0000000000000825
 30
0.0
 11
137.3489999999999
 21
-0.0000000000000824
 31
0.0
  0
LINE
  5
167
330
1E
100
AcDbEntity
  8
0
100
AcDbLine
 10
135.935
 20
-0.0000000000000823
 30
0.0
 11
137.3489999999999
 21
-0.0000000000000824
 31
0.0
  0
LINE
  5
168
330
1E
100
AcDbEntity
  8
0
100
AcDbLine
 10
132.366
 20
-0.0000000000000825
 30
0.0
 11
133.366
 21
-0.0000000000000826
 31
0.0
  0
LINE
  5
169
330
1E
100
AcDbEntity
  8
0
100
AcDbLine
 10
138.3569999999999
 20
-0.0000000000000854
 30
0.0
 11
140.289
 21
-0.0000000000000854
 31
0.0
  0
LINE
  5
16A
330
1E
100
AcDbEntity
  8
0
100
AcDbLine
 10
138.1339999999999
 20
-0.0000000000000833
 30
0.0
 11
139.1339999999999
 21
-0.0000000000000834
 31
0.0
  0
LINE
  5
16B
330
1E
100
AcDbEntity
  8
0
100
AcDbLine
 10
138.1339999999999
 20
-0.0000000000000833
 30
0.0
 11
139.866
 21
-0.0000000000000833
 31
0.0
  0
LINE
  5
16C
330
1E
100
AcDbEntity
  8
0
100
AcDbLine
 10
106.412
 20
-0.0000000000000821
 30
0.0
 11
107.412
 21
-0.0000000000000822
 31
0.0
  0
LINE
  5
16D
330
1E
100
AcDbEntity
  8
0
100
AcDbLine
 10
104.679
 20
-0.0000000000000821
 30
0.0
 11
105.679
 21
-0.0000000000000822
 31
0.0
  0
LINE
  5
16E
330
1E
100
AcDbEntity
  8
0
100
AcDbLine
 10
104.679
 20
-0.0000000000000821
 30
0.0
 11
106.412
 21
-0.0000000000000821
 31
0.0
  0
LINE
  5
16F
330
1E
100
AcDbEntity
  8
0
100
AcDbLine
 10
137.5879999999999
 20
-0.0000000000000822
 30
0.0
 11
137.5879999999999
 21
1.999999999999919
 31
0.0
  0
LINE
  5
170
330
1E
100
AcDbEntity
  8
0
100
AcDbLine
 10
137.5879999999999
 20
-0.0000000000000822
 30
0.0
 11
139.321
 21
-0.0000000000000822
 31
0.0
  0
LINE
  5
171
330
1E
100
AcDbEntity
  8
0
100
AcDbLine
 10
137.5879999999999
 20
-0.0000000000000822
 30
0.0
 11
138.588
 21
-0.0000000000000821
 31
0.0
  0
LINE
  5
172
330
1E
100
AcDbEntity
  8
0
100
AcDbLine
 10
139.772
 20
-0.0000000000000853
 30
0.0
 11
140.289
 21
-0.0000000000000854
 31
0.0
  0
LINE
  5
173
330
1E
100
AcDbEntity
  8
0
100
AcDbLine
 10
139.1339999999999
 20
-0.0000000000000834
 30
0.0
 11
140.866
 21
-0.0000000000000834
 31
0.0
  0
LINE
  5
174
330
1E
100
AcDbEntity
  8
0
100
AcDbLine
 10
139.866
 20
-0.0000000000000833
 30
0.0
 11
140.866
 21
-0.0000000000000834
 31
0.0
  0
LINE
  5
175
330
1E
100
AcDbEntity
  8
0
100
AcDbLine
 10
139.321
 20
-0.0000000000000822
 30
0.0
 11
140.321
 21
-0.0000000000000821
 31
0.0
  0
LINE
  5
176
330
1E
100
AcDbEntity
  8
0
100
AcDbLine
 10
138.588
 20
-0.0000000000000821
 30
0.0
 11
140.321
 21
-0.0000000000000821
 31
0.0
  0
LINE
  5
177
330
1E
100
AcDbEntity
  8
0
100
AcDbLine
 10
104.855
 20
-0.0000000000000818
 30
0.0
 11
105.372
 21
-0.0000000000000819
 31
0.0
  0
LINE
  5
178
330
1E
100
AcDbEntity
  8
0
100
AcDbLine
 10
139.6279999999999
 20
-0.0000000000000819
 30
0.0
 11
141.5599999999999
 21
-0.0000000000000819
 31
0.0
  0
LINE
  5
179
330
1E
100
AcDbEntity
  8
0
100
AcDbLine
 10
139.6279999999999
 20
-0.0000000000000819
 30
0.0
 11
140.145
 21
-0.0000000000000818
 31
0.0
  0
LINE
  5
17A
330
1E
100
AcDbEntity
  8
0
100
AcDbLine
 10
141.722
 20
-0.0000000000000862
 30
0.0
 11
142.24
 21
-0.0000000000000863
 31
0.0
  0
LINE
  5
17B
330
1E
100
AcDbEntity
  8
0
100
AcDbLine
 10
141.722
 20
-0.0000000000000862
 30
0.0
 11
143.6539999999999
 21
-0.0000000000000862
 31
0.0
  0
LINE
  5
17C
330
1E
100
AcDbEntity
  8
0
100
AcDbLine
 10
142.24
 20
-0.0000000000000863
 30
0.0
 11
144.171
 21
-0.0000000000000863
 31
0.0
  0
LINE
  5
17D
330
1E
100
AcDbEntity
  8
0
100
AcDbLine
 10
141.5599999999999
 20
-0.0000000000000819
 30
0.0
 11
142.077
 21
-0.0000000000000818
 31
0.0
  0
LINE
  5
17E
330
1E
100
AcDbEntity
  8
0
100
AcDbLine
 10
140.145
 20
-0.0000000000000818
 30
0.0
 11
142.077
 21
-0.0000000000000818
 31
0.0
  0
LINE
  5
17F
330
1E
100
AcDbEntity
  8
0
100
AcDbLine
 10
145.6039999999999
 20
-0.0000000000000871
 30
0.0
 11
146.122
 21
-0.0000000000000872
 31
0.0
  0
LINE
  5
180
330
1E
100
AcDbEntity
  8
0
100
AcDbLine
 10
145.6039999999999
 20
-0.0000000000000871
 30
0.0
 11
147.536
 21
-0.000000000000087
 31
0.0
  0
LINE
  5
181
330
1E
100
AcDbEntity
  8
0
100
AcDbLine
 10
143.6539999999999
 20
-0.0000000000000862
 30
0.0
 11
144.171
 21
-0.0000000000000863
 31
0.0
  0
LINE
  5
182
330
1E
100
AcDbEntity
  8
0
100
AcDbLine
 10
146.122
 20
-0.0000000000000872
 30
0.0
 11
148.0539999999999
 21
-0.0000000000000872
 31
0.0
  0
LINE
  5
183
330
1E
100
AcDbEntity
  8
0
100
AcDbLine
 10
145.6339999999999
 20
-0.0000000000000841
 30
0.0
 11
146.6339999999999
 21
-0.0000000000000842
 31
0.0
  0
LINE
  5
184
330
1E
100
AcDbEntity
  8
0
100
AcDbLine
 10
145.6339999999999
 20
-0.0000000000000841
 30
0.0
 11
147.366
 21
-0.0000000000000841
 31
0.0
  0
LINE
  5
185
330
1E
100
AcDbEntity
  8
0
100
AcDbLine
 10
145.127
 20
-0.000000000000083
 30
0.0
 11
145.127
 21
1.999999999999919
 31
0.0
  0
LINE
  5
186
330
1E
100
AcDbEntity
  8
0
100
AcDbLine
 10
145.127
 20
-0.000000000000083
 30
0.0
 11
146.5419999999999
 21
-0.0000000000000831
 31
0.0
  0
LINE
  5
187
330
1E
100
AcDbEntity
  8
0
100
AcDbLine
 10
145.127
 20
-0.000000000000083
 30
0.0
 11
146.5419999999999
 21
-0.0000000000000829
 31
0.0
  0
LINE
  5
188
330
1E
100
AcDbEntity
  8
0
100
AcDbLine
 10
146.5419999999999
 20
-0.0000000000000831
 30
0.0
 11
147.956
 21
-0.000000000000083
 31
0.0
  0
LINE
  5
189
330
1E
100
AcDbEntity
  8
0
100
AcDbLine
 10
146.6339999999999
 20
-0.0000000000000842
 30
0.0
 11
148.366
 21
-0.0000000000000842
 31
0.0
  0
LINE
  5
18A
330
1E
100
AcDbEntity
  8
0
100
AcDbLine
 10
147.536
 20
-0.000000000000087
 30
0.0
 11
148.0539999999999
 21
-0.0000000000000872
 31
0.0
  0
LINE
  5
18B
330
1E
100
AcDbEntity
  8
0
100
AcDbLine
 10
149.4869999999999
 20
-0.000000000000088
 30
0.0
 11
150.004
 21
-0.0000000000000881
 31
0.0
  0
LINE
  5
18C
330
1E
100
AcDbEntity
  8
0
100
AcDbLine
 10
149.4869999999999
 20
-0.000000000000088
 30
0.0
 11
149.4869999999999
 21
1.99999999999991
 31
0.0
  0
LINE
  5
18D
330
1E
100
AcDbEntity
  8
0
100
AcDbLine
 10
149.4869999999999
 20
-0.000000000000088
 30
0.0
 11
151.418
 21
-0.0000000000000879
 31
0.0
  0
LINE
  5
18E
330
1E
100
AcDbEntity
  8
0
100
AcDbLine
 10
150.004
 20
-0.0000000000000881
 30
0.0
 11
151.9359999999999
 21
-0.0000000000000881
 31
0.0
  0
LINE
  5
18F
330
1E
100
AcDbEntity
  8
0
100
AcDbLine
 10
151.418
 20
-0.0000000000000879
 30
0.0
 11
151.9359999999999
 21
-0.0000000000000881
 31
0.0
  0
LINE
  5
190
330
1E
100
AcDbEntity
  8
0
100
AcDbLine
 10
147.366
 20
-0.0000000000000841
 30
0.0
 11
148.366
 21
-0.0000000000000842
 31
0.0
  0
LINE
  5
191
330
1E
100
AcDbEntity
  8
0
100
AcDbLine
 10
146.5419999999999
 20
-0.0000000000000829
 30
0.0
 11
147.956
 21
-0.000000000000083
 31
0.0
  0
LINE
  5
192
330
1E
100
AcDbEntity
  8
0
100
AcDbLine
 10
150.579
 20
-0.0000000000000826
 30
0.0
 11
152.311
 21
-0.0000000000000827
 31
0.0
  0
LINE
  5
193
330
1E
100
AcDbEntity
  8
0
100
AcDbLine
 10
150.579
 20
-0.0000000000000826
 30
0.0
 11
151.579
 21
-0.0000000000000825
 31
0.0
  0
LINE
  5
194
330
1E
100
AcDbEntity
  8
0
100
AcDbLine
 10
153.1339999999999
 20
-0.0000000000000849
 30
0.0
 11
154.1339999999999
 21
-0.000000000000085
 31
0.0
  0
LINE
  5
195
330
1E
100
AcDbEntity
  8
0
100
AcDbLine
 10
153.1339999999999
 20
-0.0000000000000849
 30
0.0
 11
154.866
 21
-0.0000000000000849
 31
0.0
  0
LINE
  5
196
330
1E
100
AcDbEntity
  8
0
100
AcDbLine
 10
154.1339999999999
 20
-0.000000000000085
 30
0.0
 11
155.866
 21
-0.000000000000085
 31
0.0
  0
LINE
  5
197
330
1E
100
AcDbEntity
  8
0
100
AcDbLine
 10
154.866
 20
-0.0000000000000849
 30
0.0
 11
155.866
 21
-0.000000000000085
 31
0.0
  0
LINE
  5
198
330
1E
100
AcDbEntity
  8
0
100
AcDbLine
 10
155.734
 20
-0.0000000000000837
 30
0.0
 11
157.148
 21
-0.0000000000000838
 31
0.0
  0
LINE
  5
199
330
1E
100
AcDbEntity
  8
0
100
AcDbLine
 10
155.734
 20
-0.0000000000000837
 30
0.0
 11
157.148
 21
-0.0000000000000836
 31
0.0
  0
LINE
  5
19A
330
1E
100
AcDbEntity
  8
0
100
AcDbLine
 10
152.311
 20
-0.0000000000000827
 30
0.0
 11
153.311
 21
-0.0000000000000826
 31
0.0
  0
LINE
  5
19B
330
1E
100
AcDbEntity
  8
0
100
AcDbLine
 10
151.579
 20
-0.0000000000000825
 30
0.0
 11
153.311
 21
-0.0000000000000826
 31
0.0
  0
LINE
  5
19C
330
1E
100
AcDbEntity
  8
0
100
AcDbLine
 10
154.117
 20
-0.0000000000000821
 30
0.0
 11
156.049
 21
-0.0000000000000822
 31
0.0
  0
LINE
  5
19D
330
1E
100
AcDbEntity
  8
0
100
AcDbLine
 10
154.117
 20
-0.0000000000000821
 30
0.0
 11
154.6339999999999
 21
-0.000000000000082
 31
0.0
  0
LINE
  5
19E
330
1E
100
AcDbEntity
  8
0
100
AcDbLine
 10
157.148
 20
-0.0000000000000838
 30
0.0
 11
158.562
 21
-0.0000000000000837
 31
0.0
  0
LINE
  5
19F
330
1E
100
AcDbEntity
  8
0
100
AcDbLine
 10
157.148
 20
-0.0000000000000836
 30
0.0
 11
158.562
 21
-0.0000000000000837
 31
0.0
  0
LINE
  5
1A0
330
1E
100
AcDbEntity
  8
0
100
AcDbLine
 10
156.049
 20
-0.0000000000000822
 30
0.0
 11
156.566
 21
-0.0000000000000821
 31
0.0
  0
LINE
  5
1A1
330
1E
100
AcDbEntity
  8
0
100
AcDbLine
 10
154.6339999999999
 20
-0.000000000000082
 30
0.0
 11
156.566
 21
-0.0000000000000821
 31
0.0
  0
LINE
  5
1A2
330
1E
100
AcDbEntity
  8
0
100
AcDbLine
 10
160.6339999999999
 20
-0.0000000000000857
 30
0.0
 11
160.6339999999999
 21
1.99999999999991
 31
0.0
  0
LINE
  5
1A3
330
1E
100
AcDbEntity
  8
0
100
AcDbLine
 10
160.6339999999999
 20
-0.0000000000000857
 30
0.0
 11
161.6339999999999
 21
-0.0000000000000858
 31
0.0
  0
LINE
  5
1A4
330
1E
100
AcDbEntity
  8
0
100
AcDbLine
 10
160.6339999999999
 20
-0.0000000000000857
 30
0.0
 11
162.366
 21
-0.0000000000000857
 31
0.0
  0
LINE
  5
1A5
330
1E
100
AcDbEntity
  8
0
100
AcDbLine
 10
161.6339999999999
 20
-0.0000000000000858
 30
0.0
 11
163.366
 21
-0.0000000000000858
 31
0.0
  0
LINE
  5
1A6
330
1E
100
AcDbEntity
  8
0
100
AcDbLine
 10
162.366
 20
-0.0000000000000857
 30
0.0
 11
163.366
 21
-0.0000000000000858
 31
0.0
  0
LINE
  5
1A7
330
1E
100
AcDbEntity
  8
0
100
AcDbLine
 10
163.5689999999999
 20
-0.0000000000000831
 30
0.0
 11
163.5689999999999
 21
1.999999999999919
 31
0.0
  0
LINE
  5
1A8
330
1E
100
AcDbEntity
  8
0
100
AcDbLine
 10
163.5689999999999
 20
-0.0000000000000831
 30
0.0
 11
165.3009999999999
 21
-0.0000000000000831
 31
0.0
  0
LINE
  5
1A9
330
1E
100
AcDbEntity
  8
0
100
AcDbLine
 10
163.5689999999999
 20
-0.0000000000000831
 30
0.0
 11
164.569
 21
-0.000000000000083
 31
0.0
  0
LINE
  5
1AA
330
1E
100
AcDbEntity
  8
0
100
AcDbLine
 10
168.134
 20
-0.0000000000000865
 30
0.0
 11
169.134
 21
-0.0000000000000866
 31
0.0
  0
LINE
  5
1AB
330
1E
100
AcDbEntity
  8
0
100
AcDbLine
 10
168.134
 20
-0.0000000000000865
 30
0.0
 11
169.8659999999999
 21
-0.0000000000000865
 31
0.0
  0
LINE
  5
1AC
330
1E
100
AcDbEntity
  8
0
100
AcDbLine
 10
169.134
 20
-0.0000000000000866
 30
0.0
 11
170.8659999999999
 21
-0.0000000000000866
 31
0.0
  0
LINE
  5
1AD
330
1E
100
AcDbEntity
  8
0
100
AcDbLine
 10
166.3409999999999
 20
-0.0000000000000843
 30
0.0
 11
166.3409999999999
 21
1.999999999999919
 31
0.0
  0
LINE
  5
1AE
330
1E
100
AcDbEntity
  8
0
100
AcDbLine
 10
166.3409999999999
 20
-0.0000000000000843
 30
0.0
 11
167.755
 21
-0.0000000000000844
 31
0.0
  0
LINE
  5
1AF
330
1E
100
AcDbEntity
  8
0
100
AcDbLine
 10
166.3409999999999
 20
-0.0000000000000843
 30
0.0
 11
167.755
 21
-0.0000000000000842
 31
0.0
  0
LINE
  5
1B0
330
1E
100
AcDbEntity
  8
0
100
AcDbLine
 10
167.755
 20
-0.0000000000000844
 30
0.0
 11
169.169
 21
-0.0000000000000843
 31
0.0
  0
LINE
  5
1B1
330
1E
100
AcDbEntity
  8
0
100
AcDbLine
 10
169.8659999999999
 20
-0.0000000000000865
 30
0.0
 11
170.8659999999999
 21
-0.0000000000000866
 31
0.0
  0
LINE
  5
1B2
330
1E
100
AcDbEntity
  8
0
100
AcDbLine
 10
167.755
 20
-0.0000000000000842
 30
0.0
 11
169.169
 21
-0.0000000000000843
 31
0.0
  0
LINE
  5
1B3
330
1E
100
AcDbEntity
  8
0
100
AcDbLine
 10
165.3009999999999
 20
-0.0000000000000831
 30
0.0
 11
166.3009999999999
 21
-0.000000000000083
 31
0.0
  0
LINE
  5
1B4
330
1E
100
AcDbEntity
  8
0
100
AcDbLine
 10
164.569
 20
-0.000000000000083
 30
0.0
 11
166.3009999999999
 21
-0.000000000000083
 31
0.0
  0
LINE
  5
1B5
330
1E
100
AcDbEntity
  8
0
100
AcDbLine
 10
168.6059999999999
 20
-0.0000000000000824
 30
0.0
 11
170.537
 21
-0.0000000000000824
 31
0.0
  0
LINE
  5
1B6
330
1E
100
AcDbEntity
  8
0
100
AcDbLine
 10
168.6059999999999
 20
-0.0000000000000824
 30
0.0
 11
169.123
 21
-0.0000000000000823
 31
0.0
  0
LINE
  5
1B7
330
1E
100
AcDbEntity
  8
0
100
AcDbLine
 10
170.537
 20
-0.0000000000000824
 30
0.0
 11
171.055
 21
-0.0000000000000823
 31
0.0
  0
LINE
  5
1B8
330
1E
100
AcDbEntity
  8
0
100
AcDbLine
 10
169.123
 20
-0.0000000000000823
 30
0.0
 11
171.055
 21
-0.0000000000000823
 31
0.0
  0
LINE
  5
1B9
330
1E
100
AcDbEntity
  8
0
100
AcDbLine
 10
175.634
 20
-0.0000000000000873
 30
0.0
 11
175.634
 21
1.99999999999991
 31
0.0
  0
LINE
  5
1BA
330
1E
100
AcDbEntity
  8
0
100
AcDbLine
 10
175.634
 20
-0.0000000000000873
 30
0.0
 11
176.634
 21
-0.0000000000000874
 31
0.0
  0
LINE
  5
1BB
330
1E
100
AcDbEntity
  8
0
100
AcDbLine
 10
175.634
 20
-0.0000000000000873
 30
0.0
 11
177.3659999999999
 21
-0.0000000000000873
 31
0.0
  0
LINE
  5
1BC
330
1E
100
AcDbEntity
  8
0
100
AcDbLine
 10
176.634
 20
-0.0000000000000874
 30
0.0
 11
178.3659999999999
 21
-0.0000000000000874
 31
0.0
  0
LINE
  5
1BD
330
1E
100
AcDbEntity
  8
0
100
AcDbLine
 10
177.3659999999999
 20
-0.0000000000000873
 30
0.0
 11
178.3659999999999
 21
-0.0000000000000874
 31
0.0
  0
LINE
  5
1BE
330
1E
100
AcDbEntity
  8
0
100
AcDbLine
 10
176.947
 20
-0.000000000000085
 30
0.0
 11
178.3609999999999
 21
-0.0000000000000851
 31
0.0
  0
LINE
  5
1BF
330
1E
100
AcDbEntity
  8
0
100
AcDbLine
 10
176.947
 20
-0.000000000000085
 30
0.0
 11
178.3609999999999
 21
-0.0000000000000849
 31
0.0
  0
LINE
  5
1C0
330
1E
100
AcDbEntity
  8
0
100
AcDbLine
 10
176.56
 20
-0.0000000000000835
 30
0.0
 11
178.292
 21
-0.0000000000000836
 31
0.0
  0
LINE
  5
1C1
330
1E
100
AcDbEntity
  8
0
100
AcDbLine
 10
176.56
 20
-0.0000000000000835
 30
0.0
 11
177.56
 21
-0.0000000000000834
 31
0.0
  0
LINE
  5
1C2
330
1E
100
AcDbEntity
  8
0
100
AcDbLine
 10
178.3609999999999
 20
-0.0000000000000851
 30
0.0
 11
179.7759999999999
 21
-0.000000000000085
 31
0.0
  0
LINE
  5
1C3
330
1E
100
AcDbEntity
  8
0
100
AcDbLine
 10
178.3609999999999
 20
-0.0000000000000849
 30
0.0
 11
179.7759999999999
 21
-0.000000000000085
 31
0.0
  0
LINE
  5
1C4
330
1E
100
AcDbEntity
  8
0
100
AcDbLine
 10
178.292
 20
-0.0000000000000836
 30
0.0
 11
179.292
 21
-0.0000000000000835
 31
0.0
  0
LINE
  5
1C5
330
1E
100
AcDbEntity
  8
0
100
AcDbLine
 10
177.56
 20
-0.0000000000000834
 30
0.0
 11
179.292
 21
-0.0000000000000835
 31
0.0
  0
LINE
  5
1C6
330
1E
100
AcDbEntity
  8
0
100
AcDbLine
 10
183.0949999999999
 20
-0.0000000000000826
 30
0.0
 11
183.0949999999999
 21
1.999999999999919
 31
0.0
  0
LINE
  5
1C7
330
1E
100
AcDbEntity
  8
0
100
AcDbLine
 10
183.0949999999999
 20
-0.0000000000000826
 30
0.0
 11
185.0259999999999
 21
-0.0000000000000827
 31
0.0
  0
LINE
  5
1C8
330
1E
100
AcDbEntity
  8
0
100
AcDbLine
 10
183.0949999999999
 20
-0.0000000000000826
 30
0.0
 11
183.612
 21
-0.0000000000000825
 31
0.0
  0
LINE
  5
1C9
330
1E
100
AcDbEntity
  8
0
100
AcDbLine
 10
185.0259999999999
 20
-0.0000000000000827
 30
0.0
 11
185.544
 21
-0.0000000000000825
 31
0.0
  0
LINE
  5
1CA
330
1E
100
AcDbEntity
  8
0
100
AcDbLine
 10
183.612
 20
-0.0000000000000825
 30
0.0
 11
185.544
 21
-0.0000000000000825
 31
0.0
  0
LINE
  5
1CB
330
1E
100
AcDbEntity
  8
0
100
AcDbLine
 10
170.5
 20
-0.0000000000000816
 30
0.0
 11
172.5
 21
-0.0000000000000816
 31
0.0
  0
LINE
  5
1CC
330
1E
100
AcDbEntity
  8
0
100
AcDbLine
 10
155.4999999999999
 20
-0.0000000000000816
 30
0.0
 11
157.5
 21
-0.0000000000000816
 31
0.0
  0
LINE
  5
1CD
330
1E
100
AcDbEntity
  8
0
100
AcDbLine
 10
140.5
 20
-0.0000000000000816
 30
0.0
 11
142.5
 21
-0.0000000000000816
 31
0.0
  0
LINE
  5
1CE
330
1E
100
AcDbEntity
  8
0
100
AcDbLine
 10
172.5
 20
-0.0000000000000815
 30
0.0
 11
172.5
 21
1.999999999999919
 31
0.0
  0
LINE
  5
1CF
330
1E
100
AcDbEntity
  8
0
100
AcDbLine
 10
170.5
 20
-0.0000000000000815
 30
0.0
 11
172.5
 21
-0.0000000000000815
 31
0.0
  0
LINE
  5
1D0
330
1E
100
AcDbEntity
  8
0
100
AcDbLine
 10
155.4999999999999
 20
-0.0000000000000815
 30
0.0
 11
157.5
 21
-0.0000000000000815
 31
0.0
  0
LINE
  5
1D1
330
1E
100
AcDbEntity
  8
0
100
AcDbLine
 10
140.5
 20
-0.0000000000000815
 30
0.0
 11
142.5
 21
-0.0000000000000815
 31
0.0
  0
LINE
  5
1D2
330
1E
100
AcDbEntity
  8
0
100
AcDbLine
 10
185.5
 20
-0.0000000000000816
 30
0.0
 11
187.5
 21
-0.0000000000000816
 31
0.0
  0
LINE
  5
1D3
330
1E
100
AcDbEntity
  8
0
100
AcDbLine
 10
187.5539999999999
 20
-0.0000000000000856
 30
0.0
 11
187.5539999999999
 21
1.99999999999991
 31
0.0
  0
LINE
  5
1D4
330
1E
100
AcDbEntity
  8
0
100
AcDbLine
 10
187.5539999999999
 20
-0.0000000000000856
 30
0.0
 11
188.968
 21
-0.0000000000000857
 31
0.0
  0
LINE
  5
1D5
330
1E
100
AcDbEntity
  8
0
100
AcDbLine
 10
187.5539999999999
 20
-0.0000000000000856
 30
0.0
 11
188.968
 21
-0.0000000000000855
 31
0.0
  0
LINE
  5
1D6
330
1E
100
AcDbEntity
  8
0
100
AcDbLine
 10
188.968
 20
-0.0000000000000857
 30
0.0
 11
190.3819999999999
 21
-0.0000000000000856
 31
0.0
  0
LINE
  5
1D7
330
1E
100
AcDbEntity
  8
0
100
AcDbLine
 10
188.968
 20
-0.0000000000000855
 30
0.0
 11
190.3819999999999
 21
-0.0000000000000856
 31
0.0
  0
LINE
  5
1D8
330
1E
100
AcDbEntity
  8
0
100
AcDbLine
 10
189.55
 20
-0.000000000000084
 30
0.0
 11
191.282
 21
-0.0000000000000841
 31
0.0
  0
LINE
  5
1D9
330
1E
100
AcDbEntity
  8
0
100
AcDbLine
 10
189.55
 20
-0.000000000000084
 30
0.0
 11
190.55
 21
-0.0000000000000839
 31
0.0
  0
LINE
  5
1DA
330
1E
100
AcDbEntity
  8
0
100
AcDbLine
 10
198.16
 20
-0.0000000000000863
 30
0.0
 11
199.5749999999999
 21
-0.0000000000000864
 31
0.0
  0
LINE
  5
1DB
330
1E
100
AcDbEntity
  8
0
100
AcDbLine
 10
198.16
 20
-0.0000000000000863
 30
0.0
 11
199.5749999999999
 21
-0.0000000000000862
 31
0.0
  0
LINE
  5
1DC
330
1E
100
AcDbEntity
  8
0
100
AcDbLine
 10
199.5749999999999
 20
-0.0000000000000864
 30
0.0
 11
200.9889999999999
 21
-0.0000000000000863
 31
0.0
  0
LINE
  5
1DD
330
1E
100
AcDbEntity
  8
0
100
AcDbLine
 10
199.5749999999999
 20
-0.0000000000000862
 30
0.0
 11
200.9889999999999
 21
-0.0000000000000863
 31
0.0
  0
LINE
  5
1DE
330
1E
100
AcDbEntity
  8
0
100
AcDbLine
 10
191.282
 20
-0.0000000000000841
 30
0.0
 11
192.282
 21
-0.000000000000084
 31
0.0
  0
LINE
  5
1DF
330
1E
100
AcDbEntity
  8
0
100
AcDbLine
 10
190.55
 20
-0.0000000000000839
 30
0.0
 11
192.282
 21
-0.000000000000084
 31
0.0
  0
LINE
  5
1E0
330
1E
100
AcDbEntity
  8
0
100
AcDbLine
 10
197.583
 20
-0.0000000000000829
 30
0.0
 11
197.583
 21
1.999999999999919
 31
0.0
  0
LINE
  5
1E1
330
1E
100
AcDbEntity
  8
0
100
AcDbLine
 10
197.583
 20
-0.0000000000000829
 30
0.0
 11
199.5149999999999
 21
-0.0000000000000829
 31
0.0
  0
LINE
  5
1E2
330
1E
100
AcDbEntity
  8
0
100
AcDbLine
 10
197.583
 20
-0.0000000000000829
 30
0.0
 11
198.1009999999999
 21
-0.0000000000000827
 31
0.0
  0
LINE
  5
1E3
330
1E
100
AcDbEntity
  8
0
100
AcDbLine
 10
199.5149999999999
 20
-0.0000000000000829
 30
0.0
 11
200.0329999999999
 21
-0.0000000000000828
 31
0.0
  0
LINE
  5
1E4
330
1E
100
AcDbEntity
  8
0
100
AcDbLine
 10
198.1009999999999
 20
-0.0000000000000827
 30
0.0
 11
200.0329999999999
 21
-0.0000000000000828
 31
0.0
  0
LINE
  5
1E5
330
1E
100
AcDbEntity
  8
0
100
AcDbLine
 10
200.4999999999999
 20
-0.0000000000000816
 30
0.0
 11
202.4999999999999
 21
-0.0000000000000816
 31
0.0
  0
LINE
  5
1E6
330
1E
100
AcDbEntity
  8
0
100
AcDbLine
 10
202.5399999999999
 20
-0.0000000000000845
 30
0.0
 11
202.5399999999999
 21
1.999999999999919
 31
0.0
  0
LINE
  5
1E7
330
1E
100
AcDbEntity
  8
0
100
AcDbLine
 10
202.5399999999999
 20
-0.0000000000000845
 30
0.0
 11
204.272
 21
-0.0000000000000845
 31
0.0
  0
LINE
  5
1E8
330
1E
100
AcDbEntity
  8
0
100
AcDbLine
 10
202.5399999999999
 20
-0.0000000000000845
 30
0.0
 11
203.54
 21
-0.0000000000000844
 31
0.0
  0
LINE
  5
1E9
330
1E
100
AcDbEntity
  8
0
100
AcDbLine
 10
204.272
 20
-0.0000000000000845
 30
0.0
 11
205.272
 21
-0.0000000000000844
 31
0.0
  0
LINE
  5
1EA
330
1E
100
AcDbEntity
  8
0
100
AcDbLine
 10
203.54
 20
-0.0000000000000844
 30
0.0
 11
205.272
 21
-0.0000000000000844
 31
0.0
  0
LINE
  5
1EB
330
1E
100
AcDbEntity
  8
0
100
AcDbLine
 10
212.0719999999999
 20
-0.0000000000000831
 30
0.0
 11
212.0719999999999
 21
1.999999999999919
 31
0.0
  0
LINE
  5
1EC
330
1E
100
AcDbEntity
  8
0
100
AcDbLine
 10
212.0719999999999
 20
-0.0000000000000831
 30
0.0
 11
214.004
 21
-0.0000000000000831
 31
0.0
  0
LINE
  5
1ED
330
1E
100
AcDbEntity
  8
0
100
AcDbLine
 10
212.0719999999999
 20
-0.0000000000000831
 30
0.0
 11
212.59
 21
-0.000000000000083
 31
0.0
  0
LINE
  5
1EE
330
1E
100
AcDbEntity
  8
0
100
AcDbLine
 10
214.004
 20
-0.0000000000000831
 30
0.0
 11
214.522
 21
-0.000000000000083
 31
0.0
  0
LINE
  5
1EF
330
1E
100
AcDbEntity
  8
0
100
AcDbLine
 10
215.5309999999999
 20
-0.0000000000000849
 30
0.0
 11
217.263
 21
-0.000000000000085
 31
0.0
  0
LINE
  5
1F0
330
1E
100
AcDbEntity
  8
0
100
AcDbLine
 10
215.5309999999999
 20
-0.0000000000000849
 30
0.0
 11
216.5309999999999
 21
-0.0000000000000848
 31
0.0
  0
LINE
  5
1F1
330
1E
100
AcDbEntity
  8
0
100
AcDbLine
 10
217.263
 20
-0.000000000000085
 30
0.0
 11
218.263
 21
-0.0000000000000849
 31
0.0
  0
LINE
  5
1F2
330
1E
100
AcDbEntity
  8
0
100
AcDbLine
 10
216.5309999999999
 20
-0.0000000000000848
 30
0.0
 11
218.263
 21
-0.0000000000000849
 31
0.0
  0
LINE
  5
1F3
330
1E
100
AcDbEntity
  8
0
100
AcDbLine
 10
212.59
 20
-0.000000000000083
 30
0.0
 11
214.522
 21
-0.000000000000083
 31
0.0
  0
LINE
  5
1F4
330
1E
100
AcDbEntity
  8
0
100
AcDbLine
 10
226.5609999999999
 20
-0.0000000000000833
 30
0.0
 11
226.5609999999999
 21
1.999999999999919
 31
0.0
  0
LINE
  5
1F5
330
1E
100
AcDbEntity
  8
0
100
AcDbLine
 10
226.5609999999999
 20
-0.0000000000000833
 30
0.0
 11
228.493
 21
-0.0000000000000834
 31
0.0
  0
LINE
  5
1F6
330
1E
100
AcDbEntity
  8
0
100
AcDbLine
 10
226.5609999999999
 20
-0.0000000000000833
 30
0.0
 11
227.079
 21
-0.0000000000000832
 31
0.0
  0
LINE
  5
1F7
330
1E
100
AcDbEntity
  8
0
100
AcDbLine
 10
228.493
 20
-0.0000000000000834
 30
0.0
 11
229.0109999999999
 21
-0.0000000000000832
 31
0.0
  0
LINE
  5
1F8
330
1E
100
AcDbEntity
  8
0
100
AcDbLine
 10
227.079
 20
-0.0000000000000832
 30
0.0
 11
229.0109999999999
 21
-0.0000000000000832
 31
0.0
  0
LINE
  5
1F9
330
1E
100
AcDbEntity
  8
0
100
AcDbLine
 10
215.5
 20
-0.0000000000000816
 30
0.0
 11
215.5
 21
1.999999999999919
 31
0.0
  0
LINE
  5
1FA
330
1E
100
AcDbEntity
  8
0
100
AcDbLine
 10
215.5
 20
-0.0000000000000816
 30
0.0
 11
217.5
 21
-0.0000000000000816
 31
0.0
  0
LINE
  5
1FB
330
1E
100
AcDbEntity
  8
0
100
AcDbLine
 10
215.5
 20
-0.0000000000000815
 30
0.0
 11
217.5
 21
-0.0000000000000815
 31
0.0
  0
LINE
  5
1FC
330
1E
100
AcDbEntity
  8
0
100
AcDbLine
 10
215.5
 20
-0.0000000000000815
 30
0.0
 11
215.5
 21
1.999999999999919
 31
0.0
  0
LINE
  5
1FD
330
1E
100
AcDbEntity
  8
0
100
AcDbLine
 10
230.5
 20
-0.0000000000000816
 30
0.0
 11
230.5
 21
1.999999999999919
 31
0.0
  0
LINE
  5
1FE
330
1E
100
AcDbEntity
  8
0
100
AcDbLine
 10
230.5
 20
-0.0000000000000816
 30
0.0
 11
232.5
 21
-0.0000000000000816
 31
0.0
  0
LINE
  5
1FF
330
1E
100
AcDbEntity
  8
0
100
AcDbLine
 10
232.5
 20
-0.0000000000000815
 30
0.0
 11
232.5
 21
1.999999999999919
 31
0.0
  0
LINE
  5
200
330
1E
100
AcDbEntity
  8
0
100
AcDbLine
 10
230.5
 20
-0.0000000000000815
 30
0.0
 11
232.5
 21
-0.0000000000000815
 31
0.0
  0
LINE
  5
201
330
1E
100
AcDbEntity
  8
0
100
AcDbLine
 10
230.5
 20
-0.0000000000000815
 30
0.0
 11
230.5
 21
1.999999999999919
 31
0.0
  0
LINE
  5
202
330
1E
100
AcDbEntity
  8
0
100
AcDbLine
 10
202.4999999999999
 20
-0.0000000000000815
 30
0.0
 11
202.4999999999999
 21
1.999999999999919
 31
0.0
  0
LINE
  5
203
330
1E
100
AcDbEntity
  8
0
100
AcDbLine
 10
200.4999999999999
 20
-0.0000000000000815
 30
0.0
 11
202.4999999999999
 21
-0.0000000000000815
 31
0.0
  0
LINE
  5
204
330
1E
100
AcDbEntity
  8
0
100
AcDbLine
 10
187.5
 20
-0.0000000000000815
 30
0.0
 11
187.5
 21
1.999999999999919
 31
0.0
  0
LINE
  5
205
330
1E
100
AcDbEntity
  8
0
100
AcDbLine
 10
185.5
 20
-0.0000000000000815
 30
0.0
 11
187.5
 21
-0.0000000000000815
 31
0.0
  0
LINE
  5
206
330
1E
100
AcDbEntity
  8
0
100
AcDbLine
 10
102.4999999999999
 20
-0.0000000000000816
 30
0.0
 11
104.4999999999999
 21
-0.0000000000000816
 31
0.0
  0
LINE
  5
207
330
1E
100
AcDbEntity
  8
0
100
AcDbLine
 10
102.4999999999999
 20
-0.0000000000000815
 30
0.0
 11
104.4999999999999
 21
-0.0000000000000815
 31
0.0
  0
LINE
  5
208
330
1E
100
AcDbEntity
  8
0
100
AcDbLine
 10
87.5
 20
-0.0000000000000816
 30
0.0
 11
89.50000000000001
 21
-0.0000000000000816
 31
0.0
  0
LINE
  5
209
330
1E
100
AcDbEntity
  8
0
100
AcDbLine
 10
87.5
 20
-0.0000000000000815
 30
0.0
 11
89.50000000000001
 21
-0.0000000000000815
 31
0.0
  0
LINE
  5
20A
330
1E
100
AcDbEntity
  8
0
100
AcDbLine
 10
72.5
 20
-0.0000000000000816
 30
0.0
 11
72.5
 21
1.999999999999919
 31
0.0
  0
LINE
  5
20B
330
1E
100
AcDbEntity
  8
0
100
AcDbLine
 10
72.5
 20
-0.0000000000000816
 30
0.0
 11
74.5
 21
-0.0000000000000816
 31
0.0
  0
LINE
  5
20C
330
1E
100
AcDbEntity
  8
0
100
AcDbLine
 10
72.5
 20
-0.0000000000000815
 30
0.0
 11
72.5
 21
1.999999999999919
 31
0.0
  0
LINE
  5
20D
330
1E
100
AcDbEntity
  8
0
100
AcDbLine
 10
72.5
 20
-0.0000000000000815
 30
0.0
 11
74.5
 21
-0.0000000000000815
 31
0.0
  0
LINE
  5
20E
330
1E
100
AcDbEntity
  8
0
100
AcDbLine
 10
57.5
 20
-0.0000000000000816
 30
0.0
 11
57.5
 21
1.999999999999919
 31
0.0
  0
LINE
  5
20F
330
1E
100
AcDbEntity
  8
0
100
AcDbLine
 10
57.5
 20
-0.0000000000000816
 30
0.0
 11
59.5
 21
-0.0000000000000816
 31
0.0
  0
LINE
  5
210
330
1E
100
AcDbEntity
  8
0
100
AcDbLine
 10
59.456
 20
-0.0000000000000806
 30
0.0
 11
59.456
 21
1.999999999999919
 31
0.0
  0
LINE
  5
211
330
1E
100
AcDbEntity
  8
0
100
AcDbLine
 10
59.456
 20
-0.0000000000000806
 30
0.0
 11
59.9736
 21
-0.0000000000000805
 31
0.0
  0
LINE
  5
212
330
1E
100
AcDbEntity
  8
0
100
AcDbLine
 10
59.456
 20
-0.0000000000000806
 30
0.0
 11
61.3879
 21
-0.0000000000000806
 31
0.0
  0
LINE
  5
213
330
1E
100
AcDbEntity
  8
0
100
AcDbLine
 10
47.4166
 20
-0.0000000000000803
 30
0.0
 11
47.4166
 21
1.999999999999919
 31
0.0
  0
LINE
  5
214
330
1E
100
AcDbEntity
  8
0
100
AcDbLine
 10
46.89899999999999
 20
-0.0000000000000804
 30
0.0
 11
47.4166
 21
-0.0000000000000803
 31
0.0
  0
LINE
  5
215
330
1E
100
AcDbEntity
  8
0
100
AcDbLine
 10
44.9671
 20
-0.0000000000000804
 30
0.0
 11
45.4848
 21
-0.0000000000000802
 31
0.0
  0
LINE
  5
216
330
1E
100
AcDbEntity
  8
0
100
AcDbLine
 10
44.9671
 20
-0.0000000000000804
 30
0.0
 11
46.89899999999999
 21
-0.0000000000000804
 31
0.0
  0
LINE
  5
217
330
1E
100
AcDbEntity
  8
0
100
AcDbLine
 10
45.4254
 20
-0.0000000000000769
 30
0.0
 11
46.83959999999999
 21
-0.0000000000000768
 31
0.0
  0
LINE
  5
218
330
1E
100
AcDbEntity
  8
0
100
AcDbLine
 10
54.45
 20
-0.0000000000000792
 30
0.0
 11
55.45
 21
-0.0000000000000791
 31
0.0
  0
LINE
  5
219
330
1E
100
AcDbEntity
  8
0
100
AcDbLine
 10
52.718
 20
-0.0000000000000792
 30
0.0
 11
52.718
 21
1.999999999999919
 31
0.0
  0
LINE
  5
21A
330
1E
100
AcDbEntity
  8
0
100
AcDbLine
 10
52.718
 20
-0.0000000000000792
 30
0.0
 11
53.718
 21
-0.0000000000000791
 31
0.0
  0
LINE
  5
21B
330
1E
100
AcDbEntity
  8
0
100
AcDbLine
 10
52.718
 20
-0.0000000000000792
 30
0.0
 11
54.45
 21
-0.0000000000000792
 31
0.0
  0
LINE
  5
21C
330
1E
100
AcDbEntity
  8
0
100
AcDbLine
 10
46.83959999999999
 20
-0.0000000000000768
 30
0.0
 11
46.83959999999999
 21
1.999999999999919
 31
0.0
  0
LINE
  5
21D
330
1E
100
AcDbEntity
  8
0
100
AcDbLine
 10
54.6177
 20
-0.0000000000000775
 30
0.0
 11
54.6177
 21
1.999999999999919
 31
0.0
  0
LINE
  5
21E
330
1E
100
AcDbEntity
  8
0
100
AcDbLine
 10
54.6177
 20
-0.0000000000000775
 30
0.0
 11
56.032
 21
-0.0000000000000774
 31
0.0
  0
LINE
  5
21F
330
1E
100
AcDbEntity
  8
0
100
AcDbLine
 10
54.6177
 20
-0.0000000000000775
 30
0.0
 11
56.032
 21
-0.0000000000000776
 31
0.0
  0
LINE
  5
220
330
1E
100
AcDbEntity
  8
0
100
AcDbLine
 10
57.4462
 20
-0.0000000000000775
 30
0.0
 11
57.4462
 21
1.999999999999919
 31
0.0
  0
LINE
  5
221
330
1E
100
AcDbEntity
  8
0
100
AcDbLine
 10
56.032
 20
-0.0000000000000776
 30
0.0
 11
57.4462
 21
-0.0000000000000775
 31
0.0
  0
LINE
  5
222
330
1E
100
AcDbEntity
  8
0
100
AcDbLine
 10
56.032
 20
-0.0000000000000774
 30
0.0
 11
56.032
 21
1.999999999999919
 31
0.0
  0
LINE
  5
223
330
1E
100
AcDbEntity
  8
0
100
AcDbLine
 10
56.032
 20
-0.0000000000000774
 30
0.0
 11
57.4462
 21
-0.0000000000000775
 31
0.0
  0
LINE
  5
224
330
1E
100
AcDbEntity
  8
0
100
AcDbLine
 10
53.718
 20
-0.0000000000000791
 30
0.0
 11
53.718
 21
1.999999999999919
 31
0.0
  0
LINE
  5
225
330
1E
100
AcDbEntity
  8
0
100
AcDbLine
 10
53.718
 20
-0.0000000000000791
 30
0.0
 11
55.45
 21
-0.0000000000000791
 31
0.0
  0
LINE
  5
226
330
1E
100
AcDbEntity
  8
0
100
AcDbLine
 10
45.4848
 20
-0.0000000000000802
 30
0.0
 11
47.4166
 21
-0.0000000000000803
 31
0.0
  0
LINE
  5
227
330
1E
100
AcDbEntity
  8
0
100
AcDbLine
 10
102.9229999999999
 20
-0.0000000000000813
 30
0.0
 11
103.4399999999999
 21
-0.0000000000000812
 31
0.0
  0
LINE
  5
228
330
1E
100
AcDbEntity
  8
0
100
AcDbLine
 10
102.9229999999999
 20
-0.0000000000000813
 30
0.0
 11
104.855
 21
-0.0000000000000813
 31
0.0
  0
LINE
  5
229
330
1E
100
AcDbEntity
  8
0
100
AcDbLine
 10
140.145
 20
-0.0000000000000813
 30
0.0
 11
142.077
 21
-0.0000000000000813
 31
0.0
  0
LINE
  5
22A
330
1E
100
AcDbEntity
  8
0
100
AcDbLine
 10
139.6279999999999
 20
-0.0000000000000812
 30
0.0
 11
141.5599999999999
 21
-0.0000000000000812
 31
0.0
  0
LINE
  5
22B
330
1E
100
AcDbEntity
  8
0
100
AcDbLine
 10
139.6279999999999
 20
-0.0000000000000812
 30
0.0
 11
140.145
 21
-0.0000000000000813
 31
0.0
  0
LINE
  5
22C
330
1E
100
AcDbEntity
  8
0
100
AcDbLine
 10
154.6339999999999
 20
-0.0000000000000811
 30
0.0
 11
156.566
 21
-0.0000000000000811
 31
0.0
  0
LINE
  5
22D
330
1E
100
AcDbEntity
  8
0
100
AcDbLine
 10
141.5599999999999
 20
-0.0000000000000812
 30
0.0
 11
142.077
 21
-0.0000000000000813
 31
0.0
  0
LINE
  5
22E
330
1E
100
AcDbEntity
  8
0
100
AcDbLine
 10
141.5599999999999
 20
-0.0000000000000812
 30
0.0
 11
141.5599999999999
 21
1.999999999999919
 31
0.0
  0
LINE
  5
22F
330
1E
100
AcDbEntity
  8
0
100
AcDbLine
 10
104.855
 20
-0.0000000000000813
 30
0.0
 11
105.372
 21
-0.0000000000000812
 31
0.0
  0
LINE
  5
230
330
1E
100
AcDbEntity
  8
0
100
AcDbLine
 10
103.4399999999999
 20
-0.0000000000000812
 30
0.0
 11
103.4399999999999
 21
1.999999999999919
 31
0.0
  0
LINE
  5
231
330
1E
100
AcDbEntity
  8
0
100
AcDbLine
 10
103.4399999999999
 20
-0.0000000000000812
 30
0.0
 11
105.372
 21
-0.0000000000000812
 31
0.0
  0
LINE
  5
232
330
1E
100
AcDbEntity
  8
0
100
AcDbLine
 10
138.588
 20
-0.0000000000000811
 30
0.0
 11
140.321
 21
-0.000000000000081
 31
0.0
  0
LINE
  5
233
330
1E
100
AcDbEntity
  8
0
100
AcDbLine
 10
106.412
 20
-0.0000000000000811
 30
0.0
 11
107.412
 21
-0.000000000000081
 31
0.0
  0
LINE
  5
234
330
1E
100
AcDbEntity
  8
0
100
AcDbLine
 10
137.5879999999999
 20
-0.000000000000081
 30
0.0
 11
137.5879999999999
 21
1.999999999999919
 31
0.0
  0
LINE
  5
235
330
1E
100
AcDbEntity
  8
0
100
AcDbLine
 10
137.5879999999999
 20
-0.000000000000081
 30
0.0
 11
139.321
 21
-0.0000000000000809
 31
0.0
  0
LINE
  5
236
330
1E
100
AcDbEntity
  8
0
100
AcDbLine
 10
137.5879999999999
 20
-0.000000000000081
 30
0.0
 11
138.588
 21
-0.0000000000000811
 31
0.0
  0
LINE
  5
237
330
1E
100
AcDbEntity
  8
0
100
AcDbLine
 10
154.117
 20
-0.000000000000081
 30
0.0
 11
156.049
 21
-0.0000000000000809
 31
0.0
  0
LINE
  5
238
330
1E
100
AcDbEntity
  8
0
100
AcDbLine
 10
154.117
 20
-0.000000000000081
 30
0.0
 11
154.6339999999999
 21
-0.0000000000000811
 31
0.0
  0
LINE
  5
239
330
1E
100
AcDbEntity
  8
0
100
AcDbLine
 10
107.412
 20
-0.000000000000081
 30
0.0
 11
107.412
 21
1.999999999999919
 31
0.0
  0
LINE
  5
23A
330
1E
100
AcDbEntity
  8
0
100
AcDbLine
 10
104.679
 20
-0.000000000000081
 30
0.0
 11
105.679
 21
-0.0000000000000809
 31
0.0
  0
LINE
  5
23B
330
1E
100
AcDbEntity
  8
0
100
AcDbLine
 10
104.679
 20
-0.000000000000081
 30
0.0
 11
106.412
 21
-0.0000000000000811
 31
0.0
  0
LINE
  5
23C
330
1E
100
AcDbEntity
  8
0
100
AcDbLine
 10
90.36559999999999
 20
-0.0000000000000811
 30
0.0
 11
90.8833
 21
-0.000000000000081
 31
0.0
  0
LINE
  5
23D
330
1E
100
AcDbEntity
  8
0
100
AcDbLine
 10
88.43380000000001
 20
-0.0000000000000811
 30
0.0
 11
88.95140000000001
 21
-0.0000000000000809
 31
0.0
  0
LINE
  5
23E
330
1E
100
AcDbEntity
  8
0
100
AcDbLine
 10
88.43380000000001
 20
-0.0000000000000811
 30
0.0
 11
90.36559999999999
 21
-0.0000000000000811
 31
0.0
  0
LINE
  5
23F
330
1E
100
AcDbEntity
  8
0
100
AcDbLine
 10
139.321
 20
-0.0000000000000809
 30
0.0
 11
140.321
 21
-0.000000000000081
 31
0.0
  0
LINE
  5
240
330
1E
100
AcDbEntity
  8
0
100
AcDbLine
 10
105.679
 20
-0.0000000000000809
 30
0.0
 11
107.412
 21
-0.000000000000081
 31
0.0
  0
LINE
  5
241
330
1E
100
AcDbEntity
  8
0
100
AcDbLine
 10
88.95140000000001
 20
-0.0000000000000809
 30
0.0
 11
90.8833
 21
-0.000000000000081
 31
0.0
  0
LINE
  5
242
330
1E
100
AcDbEntity
  8
0
100
AcDbLine
 10
75.8767
 20
-0.0000000000000809
 30
0.0
 11
76.3944
 21
-0.0000000000000807
 31
0.0
  0
LINE
  5
243
330
1E
100
AcDbEntity
  8
0
100
AcDbLine
 10
135.935
 20
-0.0000000000000808
 30
0.0
 11
137.3489999999999
 21
-0.0000000000000807
 31
0.0
  0
LINE
  5
244
330
1E
100
AcDbEntity
  8
0
100
AcDbLine
 10
109.0649999999999
 20
-0.0000000000000808
 30
0.0
 11
110.4789999999999
 21
-0.0000000000000807
 31
0.0
  0
LINE
  5
245
330
1E
100
AcDbEntity
  8
0
100
AcDbLine
 10
73.94490000000001
 20
-0.0000000000000808
 30
0.0
 11
73.94490000000001
 21
1.999999999999919
 31
0.0
  0
LINE
  5
246
330
1E
100
AcDbEntity
  8
0
100
AcDbLine
 10
73.94490000000001
 20
-0.0000000000000808
 30
0.0
 11
74.4625
 21
-0.0000000000000807
 31
0.0
  0
LINE
  5
247
330
1E
100
AcDbEntity
  8
0
100
AcDbLine
 10
73.94490000000001
 20
-0.0000000000000808
 30
0.0
 11
75.8767
 21
-0.0000000000000809
 31
0.0
  0
LINE
  5
248
330
1E
100
AcDbEntity
  8
0
100
AcDbLine
 10
156.049
 20
-0.0000000000000809
 30
0.0
 11
156.566
 21
-0.0000000000000811
 31
0.0
  0
LINE
  5
249
330
1E
100
AcDbEntity
  8
0
100
AcDbLine
 10
169.123
 20
-0.0000000000000809
 30
0.0
 11
171.055
 21
-0.0000000000000808
 31
0.0
  0
LINE
  5
24A
330
1E
100
AcDbEntity
  8
0
100
AcDbLine
 10
171.055
 20
-0.0000000000000808
 30
0.0
 11
171.055
 21
1.999999999999919
 31
0.0
  0
LINE
  5
24B
330
1E
100
AcDbEntity
  8
0
100
AcDbLine
 10
74.4625
 20
-0.0000000000000807
 30
0.0
 11
76.3944
 21
-0.0000000000000807
 31
0.0
  0
LINE
  5
24C
330
1E
100
AcDbEntity
  8
0
100
AcDbLine
 10
78.6987
 20
-0.0000000000000801
 30
0.0
 11
78.6987
 21
1.999999999999919
 31
0.0
  0
LINE
  5
24D
330
1E
100
AcDbEntity
  8
0
100
AcDbLine
 10
78.6987
 20
-0.0000000000000801
 30
0.0
 11
79.6987
 21
-0.00000000000008
 31
0.0
  0
LINE
  5
24E
330
1E
100
AcDbEntity
  8
0
100
AcDbLine
 10
78.6987
 20
-0.0000000000000801
 30
0.0
 11
80.43080000000001
 21
-0.0000000000000801
 31
0.0
  0
LINE
  5
24F
330
1E
100
AcDbEntity
  8
0
100
AcDbLine
 10
81.43080000000001
 20
-0.00000000000008
 30
0.0
 11
81.43080000000001
 21
1.999999999999919
 31
0.0
  0
LINE
  5
250
330
1E
100
AcDbEntity
  8
0
100
AcDbLine
 10
80.43080000000001
 20
-0.0000000000000801
 30
0.0
 11
81.43080000000001
 21
-0.00000000000008
 31
0.0
  0
LINE
  5
251
330
1E
100
AcDbEntity
  8
0
100
AcDbLine
 10
79.6987
 20
-0.00000000000008
 30
0.0
 11
79.6987
 21
1.999999999999919
 31
0.0
  0
LINE
  5
252
330
1E
100
AcDbEntity
  8
0
100
AcDbLine
 10
79.6987
 20
-0.00000000000008
 30
0.0
 11
81.43080000000001
 21
-0.00000000000008
 31
0.0
  0
LINE
  5
253
330
1E
100
AcDbEntity
  8
0
100
AcDbLine
 10
67.4404
 20
-0.0000000000000797
 30
0.0
 11
68.44039999999999
 21
-0.0000000000000796
 31
0.0
  0
LINE
  5
254
330
1E
100
AcDbEntity
  8
0
100
AcDbLine
 10
65.7084
 20
-0.0000000000000796
 30
0.0
 11
66.7084
 21
-0.0000000000000795
 31
0.0
  0
LINE
  5
255
330
1E
100
AcDbEntity
  8
0
100
AcDbLine
 10
65.7084
 20
-0.0000000000000796
 30
0.0
 11
67.4404
 21
-0.0000000000000797
 31
0.0
  0
LINE
  5
256
330
1E
100
AcDbEntity
  8
0
100
AcDbLine
 10
66.7084
 20
-0.0000000000000795
 30
0.0
 11
68.44039999999999
 21
-0.0000000000000796
 31
0.0
  0
LINE
  5
257
330
1E
100
AcDbEntity
  8
0
100
AcDbLine
 10
61.9055
 20
-0.0000000000000805
 30
0.0
 11
61.9055
 21
1.999999999999919
 31
0.0
  0
LINE
  5
258
330
1E
100
AcDbEntity
  8
0
100
AcDbLine
 10
61.3879
 20
-0.0000000000000806
 30
0.0
 11
61.9055
 21
-0.0000000000000805
 31
0.0
  0
LINE
  5
259
330
1E
100
AcDbEntity
  8
0
100
AcDbLine
 10
59.9736
 20
-0.0000000000000805
 30
0.0
 11
59.9736
 21
1.999999999999919
 31
0.0
  0
LINE
  5
25A
330
1E
100
AcDbEntity
  8
0
100
AcDbLine
 10
59.9736
 20
-0.0000000000000805
 30
0.0
 11
61.9055
 21
-0.0000000000000805
 31
0.0
  0
LINE
  5
25B
330
1E
100
AcDbEntity
  8
0
100
AcDbLine
 10
75.831
 20
-0.0000000000000788
 30
0.0
 11
77.2452
 21
-0.0000000000000787
 31
0.0
  0
LINE
  5
25C
330
1E
100
AcDbEntity
  8
0
100
AcDbLine
 10
75.831
 20
-0.0000000000000788
 30
0.0
 11
77.2452
 21
-0.0000000000000789
 31
0.0
  0
LINE
  5
25D
330
1E
100
AcDbEntity
  8
0
100
AcDbLine
 10
66.63859999999999
 20
-0.0000000000000782
 30
0.0
 11
68.0528
 21
-0.0000000000000781
 31
0.0
  0
LINE
  5
25E
330
1E
100
AcDbEntity
  8
0
100
AcDbLine
 10
65.22429999999999
 20
-0.0000000000000781
 30
0.0
 11
65.22429999999999
 21
1.999999999999919
 31
0.0
  0
LINE
  5
25F
330
1E
100
AcDbEntity
  8
0
100
AcDbLine
 10
65.22429999999999
 20
-0.0000000000000781
 30
0.0
 11
66.63859999999999
 21
-0.0000000000000781
 31
0.0
  0
LINE
  5
260
330
1E
100
AcDbEntity
  8
0
100
AcDbLine
 10
65.22429999999999
 20
-0.0000000000000781
 30
0.0
 11
66.63859999999999
 21
-0.0000000000000782
 31
0.0
  0
LINE
  5
261
330
1E
100
AcDbEntity
  8
0
100
AcDbLine
 10
66.63859999999999
 20
-0.0000000000000781
 30
0.0
 11
68.0528
 21
-0.0000000000000781
 31
0.0
  0
LINE
  5
262
330
1E
100
AcDbEntity
  8
0
100
AcDbLine
 10
78.65940000000001
 20
-0.0000000000000788
 30
0.0
 11
78.65940000000001
 21
1.999999999999919
 31
0.0
  0
LINE
  5
263
330
1E
100
AcDbEntity
  8
0
100
AcDbLine
 10
77.2452
 20
-0.0000000000000789
 30
0.0
 11
78.65940000000001
 21
-0.0000000000000788
 31
0.0
  0
LINE
  5
264
330
1E
100
AcDbEntity
  8
0
100
AcDbLine
 10
77.2452
 20
-0.0000000000000787
 30
0.0
 11
77.2452
 21
1.999999999999919
 31
0.0
  0
LINE
  5
265
330
1E
100
AcDbEntity
  8
0
100
AcDbLine
 10
77.2452
 20
-0.0000000000000787
 30
0.0
 11
78.65940000000001
 21
-0.0000000000000788
 31
0.0
  0
LINE
  5
266
330
1E
100
AcDbEntity
  8
0
100
AcDbLine
 10
86.4376
 20
-0.0000000000000794
 30
0.0
 11
86.4376
 21
1.999999999999919
 31
0.0
  0
LINE
  5
267
330
1E
100
AcDbEntity
  8
0
100
AcDbLine
 10
86.4376
 20
-0.0000000000000794
 30
0.0
 11
87.8518
 21
-0.0000000000000794
 31
0.0
  0
LINE
  5
268
330
1E
100
AcDbEntity
  8
0
100
AcDbLine
 10
86.4376
 20
-0.0000000000000794
 30
0.0
 11
87.8518
 21
-0.0000000000000795
 31
0.0
  0
LINE
  5
269
330
1E
100
AcDbEntity
  8
0
100
AcDbLine
 10
84.366
 20
-0.0000000000000774
 30
0.0
 11
84.366
 21
1.999999999999919
 31
0.0
  0
LINE
  5
26A
330
1E
100
AcDbEntity
  8
0
100
AcDbLine
 10
82.634
 20
-0.0000000000000775
 30
0.0
 11
84.366
 21
-0.0000000000000774
 31
0.0
  0
LINE
  5
26B
330
1E
100
AcDbEntity
  8
0
100
AcDbLine
 10
81.63400000000001
 20
-0.0000000000000773
 30
0.0
 11
81.63400000000001
 21
1.999999999999919
 31
0.0
  0
LINE
  5
26C
330
1E
100
AcDbEntity
  8
0
100
AcDbLine
 10
81.63400000000001
 20
-0.0000000000000773
 30
0.0
 11
83.366
 21
-0.0000000000000773
 31
0.0
  0
LINE
  5
26D
330
1E
100
AcDbEntity
  8
0
100
AcDbLine
 10
81.63400000000001
 20
-0.0000000000000773
 30
0.0
 11
82.634
 21
-0.0000000000000775
 31
0.0
  0
LINE
  5
26E
330
1E
100
AcDbEntity
  8
0
100
AcDbLine
 10
83.366
 20
-0.0000000000000773
 30
0.0
 11
83.366
 21
1.999999999999919
 31
0.0
  0
LINE
  5
26F
330
1E
100
AcDbEntity
  8
0
100
AcDbLine
 10
83.366
 20
-0.0000000000000773
 30
0.0
 11
84.366
 21
-0.0000000000000774
 31
0.0
  0
LINE
  5
270
330
1E
100
AcDbEntity
  8
0
100
AcDbLine
 10
87.8518
 20
-0.0000000000000795
 30
0.0
 11
89.266
 21
-0.0000000000000794
 31
0.0
  0
LINE
  5
271
330
1E
100
AcDbEntity
  8
0
100
AcDbLine
 10
87.8518
 20
-0.0000000000000794
 30
0.0
 11
87.8518
 21
1.999999999999919
 31
0.0
  0
LINE
  5
272
330
1E
100
AcDbEntity
  8
0
100
AcDbLine
 10
87.8518
 20
-0.0000000000000794
 30
0.0
 11
89.266
 21
-0.0000000000000794
 31
0.0
  0
LINE
  5
273
330
1E
100
AcDbEntity
  8
0
100
AcDbLine
 10
93.42119999999999
 20
-0.0000000000000806
 30
0.0
 11
94.4212
 21
-0.0000000000000805
 31
0.0
  0
LINE
  5
274
330
1E
100
AcDbEntity
  8
0
100
AcDbLine
 10
91.6891
 20
-0.0000000000000805
 30
0.0
 11
92.68909999999999
 21
-0.0000000000000804
 31
0.0
  0
LINE
  5
275
330
1E
100
AcDbEntity
  8
0
100
AcDbLine
 10
91.6891
 20
-0.0000000000000805
 30
0.0
 11
93.42119999999999
 21
-0.0000000000000806
 31
0.0
  0
LINE
  5
276
330
1E
100
AcDbEntity
  8
0
100
AcDbLine
 10
97.0442
 20
-0.0000000000000801
 30
0.0
 11
98.4584
 21
-0.00000000000008
 31
0.0
  0
LINE
  5
277
330
1E
100
AcDbEntity
  8
0
100
AcDbLine
 10
97.0442
 20
-0.0000000000000801
 30
0.0
 11
98.4584
 21
-0.0000000000000802
 31
0.0
  0
LINE
  5
278
330
1E
100
AcDbEntity
  8
0
100
AcDbLine
 10
97.634
 20
-0.000000000000079
 30
0.0
 11
99.366
 21
-0.000000000000079
 31
0.0
  0
LINE
  5
279
330
1E
100
AcDbEntity
  8
0
100
AcDbLine
 10
96.63400000000001
 20
-0.0000000000000789
 30
0.0
 11
96.63400000000001
 21
1.999999999999919
 31
0.0
  0
LINE
  5
27A
330
1E
100
AcDbEntity
  8
0
100
AcDbLine
 10
96.63400000000001
 20
-0.0000000000000789
 30
0.0
 11
98.366
 21
-0.0000000000000789
 31
0.0
  0
LINE
  5
27B
330
1E
100
AcDbEntity
  8
0
100
AcDbLine
 10
96.63400000000001
 20
-0.0000000000000789
 30
0.0
 11
97.634
 21
-0.000000000000079
 31
0.0
  0
LINE
  5
27C
330
1E
100
AcDbEntity
  8
0
100
AcDbLine
 10
98.4584
 20
-0.0000000000000802
 30
0.0
 11
99.8726
 21
-0.0000000000000801
 31
0.0
  0
LINE
  5
27D
330
1E
100
AcDbEntity
  8
0
100
AcDbLine
 10
99.8726
 20
-0.0000000000000801
 30
0.0
 11
99.8726
 21
1.999999999999919
 31
0.0
  0
LINE
  5
27E
330
1E
100
AcDbEntity
  8
0
100
AcDbLine
 10
98.4584
 20
-0.00000000000008
 30
0.0
 11
99.8726
 21
-0.0000000000000801
 31
0.0
  0
LINE
  5
27F
330
1E
100
AcDbEntity
  8
0
100
AcDbLine
 10
98.366
 20
-0.0000000000000789
 30
0.0
 11
99.366
 21
-0.000000000000079
 31
0.0
  0
LINE
  5
280
330
1E
100
AcDbEntity
  8
0
100
AcDbLine
 10
92.68909999999999
 20
-0.0000000000000804
 30
0.0
 11
92.68909999999999
 21
1.999999999999919
 31
0.0
  0
LINE
  5
281
330
1E
100
AcDbEntity
  8
0
100
AcDbLine
 10
92.68909999999999
 20
-0.0000000000000804
 30
0.0
 11
94.4212
 21
-0.0000000000000805
 31
0.0
  0
LINE
  5
282
330
1E
100
AcDbEntity
  8
0
100
AcDbLine
 10
90.134
 20
-0.0000000000000783
 30
0.0
 11
91.866
 21
-0.0000000000000782
 31
0.0
  0
LINE
  5
283
330
1E
100
AcDbEntity
  8
0
100
AcDbLine
 10
89.13400000000001
 20
-0.0000000000000781
 30
0.0
 11
89.13400000000001
 21
1.999999999999919
 31
0.0
  0
LINE
  5
284
330
1E
100
AcDbEntity
  8
0
100
AcDbLine
 10
89.13400000000001
 20
-0.0000000000000781
 30
0.0
 11
90.866
 21
-0.0000000000000781
 31
0.0
  0
LINE
  5
285
330
1E
100
AcDbEntity
  8
0
100
AcDbLine
 10
89.13400000000001
 20
-0.0000000000000781
 30
0.0
 11
90.134
 21
-0.0000000000000783
 31
0.0
  0
LINE
  5
286
330
1E
100
AcDbEntity
  8
0
100
AcDbLine
 10
90.866
 20
-0.0000000000000781
 30
0.0
 11
90.866
 21
1.999999999999919
 31
0.0
  0
LINE
  5
287
330
1E
100
AcDbEntity
  8
0
100
AcDbLine
 10
90.866
 20
-0.0000000000000781
 30
0.0
 11
91.866
 21
-0.0000000000000782
 31
0.0
  0
LINE
  5
288
330
1E
100
AcDbEntity
  8
0
100
AcDbLine
 10
91.866
 20
-0.0000000000000782
 30
0.0
 11
91.866
 21
1.999999999999919
 31
0.0
  0
LINE
  5
289
330
1E
100
AcDbEntity
  8
0
100
AcDbLine
 10
107.651
 20
-0.0000000000000807
 30
0.0
 11
107.651
 21
1.999999999999919
 31
0.0
  0
LINE
  5
28A
330
1E
100
AcDbEntity
  8
0
100
AcDbLine
 10
107.651
 20
-0.0000000000000807
 30
0.0
 11
109.0649999999999
 21
-0.0000000000000807
 31
0.0
  0
LINE
  5
28B
330
1E
100
AcDbEntity
  8
0
100
AcDbLine
 10
107.651
 20
-0.0000000000000807
 30
0.0
 11
109.0649999999999
 21
-0.0000000000000808
 31
0.0
  0
LINE
  5
28C
330
1E
100
AcDbEntity
  8
0
100
AcDbLine
 10
134.521
 20
-0.0000000000000807
 30
0.0
 11
135.935
 21
-0.0000000000000807
 31
0.0
  0
LINE
  5
28D
330
1E
100
AcDbEntity
  8
0
100
AcDbLine
 10
134.521
 20
-0.0000000000000807
 30
0.0
 11
135.935
 21
-0.0000000000000808
 31
0.0
  0
LINE
  5
28E
330
1E
100
AcDbEntity
  8
0
100
AcDbLine
 10
137.3489999999999
 20
-0.0000000000000807
 30
0.0
 11
137.3489999999999
 21
1.999999999999919
 31
0.0
  0
LINE
  5
28F
330
1E
100
AcDbEntity
  8
0
100
AcDbLine
 10
135.935
 20
-0.0000000000000807
 30
0.0
 11
137.3489999999999
 21
-0.0000000000000807
 31
0.0
  0
LINE
  5
290
330
1E
100
AcDbEntity
  8
0
100
AcDbLine
 10
132.366
 20
-0.0000000000000806
 30
0.0
 11
133.366
 21
-0.0000000000000805
 31
0.0
  0
LINE
  5
291
330
1E
100
AcDbEntity
  8
0
100
AcDbLine
 10
109.0649999999999
 20
-0.0000000000000807
 30
0.0
 11
110.4789999999999
 21
-0.0000000000000807
 31
0.0
  0
LINE
  5
292
330
1E
100
AcDbEntity
  8
0
100
AcDbLine
 10
151.579
 20
-0.0000000000000806
 30
0.0
 11
153.311
 21
-0.0000000000000805
 31
0.0
  0
LINE
  5
293
330
1E
100
AcDbEntity
  8
0
100
AcDbLine
 10
112.634
 20
-0.0000000000000806
 30
0.0
 11
114.366
 21
-0.0000000000000806
 31
0.0
  0
LINE
  5
294
330
1E
100
AcDbEntity
  8
0
100
AcDbLine
 10
168.6059999999999
 20
-0.0000000000000807
 30
0.0
 11
170.537
 21
-0.0000000000000807
 31
0.0
  0
LINE
  5
295
330
1E
100
AcDbEntity
  8
0
100
AcDbLine
 10
168.6059999999999
 20
-0.0000000000000807
 30
0.0
 11
169.123
 21
-0.0000000000000809
 31
0.0
  0
LINE
  5
296
330
1E
100
AcDbEntity
  8
0
100
AcDbLine
 10
183.612
 20
-0.0000000000000806
 30
0.0
 11
185.544
 21
-0.0000000000000806
 31
0.0
  0
LINE
  5
297
330
1E
100
AcDbEntity
  8
0
100
AcDbLine
 10
170.537
 20
-0.0000000000000807
 30
0.0
 11
171.055
 21
-0.0000000000000808
 31
0.0
  0
LINE
  5
298
330
1E
100
AcDbEntity
  8
0
100
AcDbLine
 10
130.6339999999999
 20
-0.0000000000000806
 30
0.0
 11
131.6339999999999
 21
-0.0000000000000805
 31
0.0
  0
LINE
  5
299
330
1E
100
AcDbEntity
  8
0
100
AcDbLine
 10
130.6339999999999
 20
-0.0000000000000806
 30
0.0
 11
132.366
 21
-0.0000000000000806
 31
0.0
  0
LINE
  5
29A
330
1E
100
AcDbEntity
  8
0
100
AcDbLine
 10
185.544
 20
-0.0000000000000806
 30
0.0
 11
185.544
 21
1.999999999999919
 31
0.0
  0
LINE
  5
29B
330
1E
100
AcDbEntity
  8
0
100
AcDbLine
 10
111.634
 20
-0.0000000000000805
 30
0.0
 11
111.634
 21
1.999999999999919
 31
0.0
  0
LINE
  5
29C
330
1E
100
AcDbEntity
  8
0
100
AcDbLine
 10
111.634
 20
-0.0000000000000805
 30
0.0
 11
113.366
 21
-0.0000000000000805
 31
0.0
  0
LINE
  5
29D
330
1E
100
AcDbEntity
  8
0
100
AcDbLine
 10
111.634
 20
-0.0000000000000805
 30
0.0
 11
112.634
 21
-0.0000000000000806
 31
0.0
  0
LINE
  5
29E
330
1E
100
AcDbEntity
  8
0
100
AcDbLine
 10
113.366
 20
-0.0000000000000805
 30
0.0
 11
114.366
 21
-0.0000000000000806
 31
0.0
  0
LINE
  5
29F
330
1E
100
AcDbEntity
  8
0
100
AcDbLine
 10
133.366
 20
-0.0000000000000805
 30
0.0
 11
133.366
 21
1.999999999999919
 31
0.0
  0
LINE
  5
2A0
330
1E
100
AcDbEntity
  8
0
100
AcDbLine
 10
128.125
 20
-0.0000000000000805
 30
0.0
 11
128.6419999999999
 21
-0.0000000000000804
 31
0.0
  0
LINE
  5
2A1
330
1E
100
AcDbEntity
  8
0
100
AcDbLine
 10
121.5
 20
-0.0000000000000805
 30
0.0
 11
121.5
 21
1.999999999999919
 31
0.0
  0
LINE
  5
2A2
330
1E
100
AcDbEntity
  8
0
100
AcDbLine
 10
121.5
 20
-0.0000000000000805
 30
0.0
 11
123.5
 21
-0.0000000000000805
 31
0.0
  0
LINE
  5
2A3
330
1E
100
AcDbEntity
  8
0
100
AcDbLine
 10
126.1929999999999
 20
-0.0000000000000805
 30
0.0
 11
126.1929999999999
 21
1.999999999999919
 31
0.0
  0
LINE
  5
2A4
330
1E
100
AcDbEntity
  8
0
100
AcDbLine
 10
126.1929999999999
 20
-0.0000000000000805
 30
0.0
 11
126.7099999999999
 21
-0.0000000000000804
 31
0.0
  0
LINE
  5
2A5
330
1E
100
AcDbEntity
  8
0
100
AcDbLine
 10
126.1929999999999
 20
-0.0000000000000805
 30
0.0
 11
128.125
 21
-0.0000000000000805
 31
0.0
  0
LINE
  5
2A6
330
1E
100
AcDbEntity
  8
0
100
AcDbLine
 10
131.6339999999999
 20
-0.0000000000000805
 30
0.0
 11
133.366
 21
-0.0000000000000805
 31
0.0
  0
LINE
  5
2A7
330
1E
100
AcDbEntity
  8
0
100
AcDbLine
 10
128.6419999999999
 20
-0.0000000000000804
 30
0.0
 11
128.6419999999999
 21
1.999999999999919
 31
0.0
  0
LINE
  5
2A8
330
1E
100
AcDbEntity
  8
0
100
AcDbLine
 10
126.7099999999999
 20
-0.0000000000000804
 30
0.0
 11
126.7099999999999
 21
1.999999999999919
 31
0.0
  0
LINE
  5
2A9
330
1E
100
AcDbEntity
  8
0
100
AcDbLine
 10
126.7099999999999
 20
-0.0000000000000804
 30
0.0
 11
128.6419999999999
 21
-0.0000000000000804
 31
0.0
  0
LINE
  5
2AA
330
1E
100
AcDbEntity
  8
0
100
AcDbLine
 10
118.8069999999999
 20
-0.0000000000000805
 30
0.0
 11
118.8069999999999
 21
1.999999999999919
 31
0.0
  0
LINE
  5
2AB
330
1E
100
AcDbEntity
  8
0
100
AcDbLine
 10
116.8749999999999
 20
-0.0000000000000805
 30
0.0
 11
118.8069999999999
 21
-0.0000000000000805
 31
0.0
  0
LINE
  5
2AC
330
1E
100
AcDbEntity
  8
0
100
AcDbLine
 10
116.3579999999999
 20
-0.0000000000000804
 30
0.0
 11
116.3579999999999
 21
1.999999999999919
 31
0.0
  0
LINE
  5
2AD
330
1E
100
AcDbEntity
  8
0
100
AcDbLine
 10
116.3579999999999
 20
-0.0000000000000804
 30
0.0
 11
118.29
 21
-0.0000000000000804
 31
0.0
  0
LINE
  5
2AE
330
1E
100
AcDbEntity
  8
0
100
AcDbLine
 10
116.3579999999999
 20
-0.0000000000000804
 30
0.0
 11
116.8749999999999
 21
-0.0000000000000805
 31
0.0
  0
LINE
  5
2AF
330
1E
100
AcDbEntity
  8
0
100
AcDbLine
 10
121.5
 20
-0.0000000000000803
 30
0.0
 11
121.5
 21
1.999999999999919
 31
0.0
  0
LINE
  5
2B0
330
1E
100
AcDbEntity
  8
0
100
AcDbLine
 10
121.5
 20
-0.0000000000000803
 30
0.0
 11
123.5
 21
-0.0000000000000803
 31
0.0
  0
LINE
  5
2B1
330
1E
100
AcDbEntity
  8
0
100
AcDbLine
 10
118.29
 20
-0.0000000000000804
 30
0.0
 11
118.8069999999999
 21
-0.0000000000000805
 31
0.0
  0
LINE
  5
2B2
330
1E
100
AcDbEntity
  8
0
100
AcDbLine
 10
118.29
 20
-0.0000000000000804
 30
0.0
 11
118.29
 21
1.999999999999919
 31
0.0
  0
LINE
  5
2B3
330
1E
100
AcDbEntity
  8
0
100
AcDbLine
 10
105.1339999999999
 20
-0.0000000000000798
 30
0.0
 11
106.8659999999999
 21
-0.0000000000000798
 31
0.0
  0
LINE
  5
2B4
330
1E
100
AcDbEntity
  8
0
100
AcDbLine
 10
105.2279999999999
 20
-0.0000000000000779
 30
0.0
 11
107.1599999999999
 21
-0.0000000000000778
 31
0.0
  0
LINE
  5
2B5
330
1E
100
AcDbEntity
  8
0
100
AcDbLine
 10
104.7109999999999
 20
-0.0000000000000777
 30
0.0
 11
104.7109999999999
 21
1.999999999999919
 31
0.0
  0
LINE
  5
2B6
330
1E
100
AcDbEntity
  8
0
100
AcDbLine
 10
104.7109999999999
 20
-0.0000000000000777
 30
0.0
 11
106.6429999999999
 21
-0.0000000000000777
 31
0.0
  0
LINE
  5
2B7
330
1E
100
AcDbEntity
  8
0
100
AcDbLine
 10
104.7109999999999
 20
-0.0000000000000777
 30
0.0
 11
105.2279999999999
 21
-0.0000000000000779
 31
0.0
  0
LINE
  5
2B8
330
1E
100
AcDbEntity
  8
0
100
AcDbLine
 10
104.1339999999999
 20
-0.0000000000000797
 30
0.0
 11
104.1339999999999
 21
1.999999999999919
 31
0.0
  0
LINE
  5
2B9
330
1E
100
AcDbEntity
  8
0
100
AcDbLine
 10
104.1339999999999
 20
-0.0000000000000797
 30
0.0
 11
105.8659999999999
 21
-0.0000000000000797
 31
0.0
  0
LINE
  5
2BA
330
1E
100
AcDbEntity
  8
0
100
AcDbLine
 10
104.1339999999999
 20
-0.0000000000000797
 30
0.0
 11
105.1339999999999
 21
-0.0000000000000798
 31
0.0
  0
LINE
  5
2BB
330
1E
100
AcDbEntity
  8
0
100
AcDbLine
 10
112.9929999999999
 20
-0.0000000000000796
 30
0.0
 11
114.925
 21
-0.0000000000000796
 31
0.0
  0
LINE
  5
2BC
330
1E
100
AcDbEntity
  8
0
100
AcDbLine
 10
112.4749999999999
 20
-0.0000000000000795
 30
0.0
 11
112.4749999999999
 21
1.999999999999919
 31
0.0
  0
LINE
  5
2BD
330
1E
100
AcDbEntity
  8
0
100
AcDbLine
 10
112.4749999999999
 20
-0.0000000000000795
 30
0.0
 11
114.407
 21
-0.0000000000000795
 31
0.0
  0
LINE
  5
2BE
330
1E
100
AcDbEntity
  8
0
100
AcDbLine
 10
112.4749999999999
 20
-0.0000000000000795
 30
0.0
 11
112.9929999999999
 21
-0.0000000000000796
 31
0.0
  0
LINE
  5
2BF
330
1E
100
AcDbEntity
  8
0
100
AcDbLine
 10
130.0749999999999
 20
-0.0000000000000796
 30
0.0
 11
130.0749999999999
 21
1.999999999999919
 31
0.0
  0
LINE
  5
2C0
330
1E
100
AcDbEntity
  8
0
100
AcDbLine
 10
130.0749999999999
 20
-0.0000000000000796
 30
0.0
 11
130.5929999999999
 21
-0.0000000000000795
 31
0.0
  0
LINE
  5
2C1
330
1E
100
AcDbEntity
  8
0
100
AcDbLine
 10
130.0749999999999
 20
-0.0000000000000796
 30
0.0
 11
132.007
 21
-0.0000000000000796
 31
0.0
  0
LINE
  5
2C2
330
1E
100
AcDbEntity
  8
0
100
AcDbLine
 10
138.1339999999999
 20
-0.0000000000000798
 30
0.0
 11
139.1339999999999
 21
-0.0000000000000797
 31
0.0
  0
LINE
  5
2C3
330
1E
100
AcDbEntity
  8
0
100
AcDbLine
 10
138.1339999999999
 20
-0.0000000000000798
 30
0.0
 11
139.866
 21
-0.0000000000000798
 31
0.0
  0
LINE
  5
2C4
330
1E
100
AcDbEntity
  8
0
100
AcDbLine
 10
139.1339999999999
 20
-0.0000000000000797
 30
0.0
 11
140.866
 21
-0.0000000000000797
 31
0.0
  0
LINE
  5
2C5
330
1E
100
AcDbEntity
  8
0
100
AcDbLine
 10
140.866
 20
-0.0000000000000797
 30
0.0
 11
140.866
 21
1.999999999999919
 31
0.0
  0
LINE
  5
2C6
330
1E
100
AcDbEntity
  8
0
100
AcDbLine
 10
139.866
 20
-0.0000000000000798
 30
0.0
 11
140.866
 21
-0.0000000000000797
 31
0.0
  0
LINE
  5
2C7
330
1E
100
AcDbEntity
  8
0
100
AcDbLine
 10
132.007
 20
-0.0000000000000796
 30
0.0
 11
132.525
 21
-0.0000000000000795
 31
0.0
  0
LINE
  5
2C8
330
1E
100
AcDbEntity
  8
0
100
AcDbLine
 10
121.5
 20
-0.0000000000000795
 30
0.0
 11
121.5
 21
1.999999999999919
 31
0.0
  0
LINE
  5
2C9
330
1E
100
AcDbEntity
  8
0
100
AcDbLine
 10
121.5
 20
-0.0000000000000795
 30
0.0
 11
123.5
 21
-0.0000000000000795
 31
0.0
  0
LINE
  5
2CA
330
1E
100
AcDbEntity
  8
0
100
AcDbLine
 10
121.5
 20
-0.0000000000000794
 30
0.0
 11
121.5
 21
1.999999999999919
 31
0.0
  0
LINE
  5
2CB
330
1E
100
AcDbEntity
  8
0
100
AcDbLine
 10
121.5
 20
-0.0000000000000794
 30
0.0
 11
123.5
 21
-0.0000000000000794
 31
0.0
  0
LINE
  5
2CC
330
1E
100
AcDbEntity
  8
0
100
AcDbLine
 10
130.5929999999999
 20
-0.0000000000000795
 30
0.0
 11
130.5929999999999
 21
1.999999999999919
 31
0.0
  0
LINE
  5
2CD
330
1E
100
AcDbEntity
  8
0
100
AcDbLine
 10
130.5929999999999
 20
-0.0000000000000795
 30
0.0
 11
132.525
 21
-0.0000000000000795
 31
0.0
  0
LINE
  5
2CE
330
1E
100
AcDbEntity
  8
0
100
AcDbLine
 10
132.525
 20
-0.0000000000000795
 30
0.0
 11
132.525
 21
1.999999999999919
 31
0.0
  0
LINE
  5
2CF
330
1E
100
AcDbEntity
  8
0
100
AcDbLine
 10
135.889
 20
-0.0000000000000787
 30
0.0
 11
136.407
 21
-0.0000000000000786
 31
0.0
  0
LINE
  5
2D0
330
1E
100
AcDbEntity
  8
0
100
AcDbLine
 10
114.925
 20
-0.0000000000000796
 30
0.0
 11
114.925
 21
1.999999999999919
 31
0.0
  0
LINE
  5
2D1
330
1E
100
AcDbEntity
  8
0
100
AcDbLine
 10
114.407
 20
-0.0000000000000795
 30
0.0
 11
114.925
 21
-0.0000000000000796
 31
0.0
  0
LINE
  5
2D2
330
1E
100
AcDbEntity
  8
0
100
AcDbLine
 10
114.407
 20
-0.0000000000000795
 30
0.0
 11
114.407
 21
1.999999999999919
 31
0.0
  0
LINE
  5
2D3
330
1E
100
AcDbEntity
  8
0
100
AcDbLine
 10
121.5
 20
-0.0000000000000786
 30
0.0
 11
121.5
 21
1.999999999999919
 31
0.0
  0
LINE
  5
2D4
330
1E
100
AcDbEntity
  8
0
100
AcDbLine
 10
121.5
 20
-0.0000000000000786
 30
0.0
 11
123.5
 21
-0.0000000000000786
 31
0.0
  0
LINE
  5
2D5
330
1E
100
AcDbEntity
  8
0
100
AcDbLine
 10
133.9569999999999
 20
-0.0000000000000787
 30
0.0
 11
133.9569999999999
 21
1.999999999999919
 31
0.0
  0
LINE
  5
2D6
330
1E
100
AcDbEntity
  8
0
100
AcDbLine
 10
133.9569999999999
 20
-0.0000000000000787
 30
0.0
 11
134.4749999999999
 21
-0.0000000000000786
 31
0.0
  0
LINE
  5
2D7
330
1E
100
AcDbEntity
  8
0
100
AcDbLine
 10
133.9569999999999
 20
-0.0000000000000787
 30
0.0
 11
135.889
 21
-0.0000000000000787
 31
0.0
  0
LINE
  5
2D8
330
1E
100
AcDbEntity
  8
0
100
AcDbLine
 10
134.4749999999999
 20
-0.0000000000000786
 30
0.0
 11
134.4749999999999
 21
1.999999999999919
 31
0.0
  0
LINE
  5
2D9
330
1E
100
AcDbEntity
  8
0
100
AcDbLine
 10
134.4749999999999
 20
-0.0000000000000786
 30
0.0
 11
136.407
 21
-0.0000000000000786
 31
0.0
  0
LINE
  5
2DA
330
1E
100
AcDbEntity
  8
0
100
AcDbLine
 10
136.407
 20
-0.0000000000000786
 30
0.0
 11
136.407
 21
1.999999999999919
 31
0.0
  0
LINE
  5
2DB
330
1E
100
AcDbEntity
  8
0
100
AcDbLine
 10
111.043
 20
-0.0000000000000787
 30
0.0
 11
111.043
 21
1.999999999999919
 31
0.0
  0
LINE
  5
2DC
330
1E
100
AcDbEntity
  8
0
100
AcDbLine
 10
109.111
 20
-0.0000000000000787
 30
0.0
 11
111.043
 21
-0.0000000000000787
 31
0.0
  0
LINE
  5
2DD
330
1E
100
AcDbEntity
  8
0
100
AcDbLine
 10
108.5929999999999
 20
-0.0000000000000786
 30
0.0
 11
108.5929999999999
 21
1.999999999999919
 31
0.0
  0
LINE
  5
2DE
330
1E
100
AcDbEntity
  8
0
100
AcDbLine
 10
108.5929999999999
 20
-0.0000000000000786
 30
0.0
 11
110.525
 21
-0.0000000000000786
 31
0.0
  0
LINE
  5
2DF
330
1E
100
AcDbEntity
  8
0
100
AcDbLine
 10
108.5929999999999
 20
-0.0000000000000786
 30
0.0
 11
109.111
 21
-0.0000000000000787
 31
0.0
  0
LINE
  5
2E0
330
1E
100
AcDbEntity
  8
0
100
AcDbLine
 10
121.5
 20
-0.0000000000000785
 30
0.0
 11
121.5
 21
1.999999999999919
 31
0.0
  0
LINE
  5
2E1
330
1E
100
AcDbEntity
  8
0
100
AcDbLine
 10
121.5
 20
-0.0000000000000785
 30
0.0
 11
123.5
 21
-0.0000000000000785
 31
0.0
  0
LINE
  5
2E2
330
1E
100
AcDbEntity
  8
0
100
AcDbLine
 10
139.772
 20
-0.0000000000000779
 30
0.0
 11
140.289
 21
-0.0000000000000777
 31
0.0
  0
LINE
  5
2E3
330
1E
100
AcDbEntity
  8
0
100
AcDbLine
 10
110.525
 20
-0.0000000000000786
 30
0.0
 11
111.043
 21
-0.0000000000000787
 31
0.0
  0
LINE
  5
2E4
330
1E
100
AcDbEntity
  8
0
100
AcDbLine
 10
110.525
 20
-0.0000000000000786
 30
0.0
 11
110.525
 21
1.999999999999919
 31
0.0
  0
LINE
  5
2E5
330
1E
100
AcDbEntity
  8
0
100
AcDbLine
 10
137.84
 20
-0.0000000000000778
 30
0.0
 11
137.84
 21
1.999999999999919
 31
0.0
  0
LINE
  5
2E6
330
1E
100
AcDbEntity
  8
0
100
AcDbLine
 10
137.84
 20
-0.0000000000000778
 30
0.0
 11
138.3569999999999
 21
-0.0000000000000777
 31
0.0
  0
LINE
  5
2E7
330
1E
100
AcDbEntity
  8
0
100
AcDbLine
 10
137.84
 20
-0.0000000000000778
 30
0.0
 11
139.772
 21
-0.0000000000000779
 31
0.0
  0
LINE
  5
2E8
330
1E
100
AcDbEntity
  8
0
100
AcDbLine
 10
121.5
 20
-0.0000000000000777
 30
0.0
 11
121.5
 21
1.999999999999919
 31
0.0
  0
LINE
  5
2E9
330
1E
100
AcDbEntity
  8
0
100
AcDbLine
 10
121.5
 20
-0.0000000000000777
 30
0.0
 11
123.5
 21
-0.0000000000000777
 31
0.0
  0
LINE
  5
2EA
330
1E
100
AcDbEntity
  8
0
100
AcDbLine
 10
121.5
 20
-0.0000000000000776
 30
0.0
 11
121.5
 21
1.999999999999919
 31
0.0
  0
LINE
  5
2EB
330
1E
100
AcDbEntity
  8
0
100
AcDbLine
 10
121.5
 20
-0.0000000000000776
 30
0.0
 11
123.5
 21
-0.0000000000000776
 31
0.0
  0
LINE
  5
2EC
330
1E
100
AcDbEntity
  8
0
100
AcDbLine
 10
138.3569999999999
 20
-0.0000000000000777
 30
0.0
 11
138.3569999999999
 21
1.999999999999919
 31
0.0
  0
LINE
  5
2ED
330
1E
100
AcDbEntity
  8
0
100
AcDbLine
 10
138.3569999999999
 20
-0.0000000000000777
 30
0.0
 11
140.289
 21
-0.0000000000000777
 31
0.0
  0
LINE
  5
2EE
330
1E
100
AcDbEntity
  8
0
100
AcDbLine
 10
140.289
 20
-0.0000000000000777
 30
0.0
 11
140.289
 21
1.999999999999919
 31
0.0
  0
LINE
  5
2EF
330
1E
100
AcDbEntity
  8
0
100
AcDbLine
 10
107.1599999999999
 20
-0.0000000000000778
 30
0.0
 11
107.1599999999999
 21
1.999999999999919
 31
0.0
  0
LINE
  5
2F0
330
1E
100
AcDbEntity
  8
0
100
AcDbLine
 10
106.6429999999999
 20
-0.0000000000000777
 30
0.0
 11
107.1599999999999
 21
-0.0000000000000778
 31
0.0
  0
LINE
  5
2F1
330
1E
100
AcDbEntity
  8
0
100
AcDbLine
 10
106.6429999999999
 20
-0.0000000000000777
 30
0.0
 11
106.6429999999999
 21
1.999999999999919
 31
0.0
  0
LINE
  5
2F2
330
1E
100
AcDbEntity
  8
0
100
AcDbLine
 10
105.8659999999999
 20
-0.0000000000000797
 30
0.0
 11
106.8659999999999
 21
-0.0000000000000798
 31
0.0
  0
LINE
  5
2F3
330
1E
100
AcDbEntity
  8
0
100
AcDbLine
 10
146.5419999999999
 20
-0.0000000000000802
 30
0.0
 11
147.956
 21
-0.0000000000000801
 31
0.0
  0
LINE
  5
2F4
330
1E
100
AcDbEntity
  8
0
100
AcDbLine
 10
150.579
 20
-0.0000000000000805
 30
0.0
 11
152.311
 21
-0.0000000000000804
 31
0.0
  0
LINE
  5
2F5
330
1E
100
AcDbEntity
  8
0
100
AcDbLine
 10
150.579
 20
-0.0000000000000805
 30
0.0
 11
151.579
 21
-0.0000000000000806
 31
0.0
  0
LINE
  5
2F6
330
1E
100
AcDbEntity
  8
0
100
AcDbLine
 10
152.311
 20
-0.0000000000000804
 30
0.0
 11
152.311
 21
1.999999999999919
 31
0.0
  0
LINE
  5
2F7
330
1E
100
AcDbEntity
  8
0
100
AcDbLine
 10
152.311
 20
-0.0000000000000804
 30
0.0
 11
153.311
 21
-0.0000000000000805
 31
0.0
  0
LINE
  5
2F8
330
1E
100
AcDbEntity
  8
0
100
AcDbLine
 10
145.127
 20
-0.0000000000000801
 30
0.0
 11
145.127
 21
1.999999999999919
 31
0.0
  0
LINE
  5
2F9
330
1E
100
AcDbEntity
  8
0
100
AcDbLine
 10
145.127
 20
-0.0000000000000801
 30
0.0
 11
146.5419999999999
 21
-0.00000000000008
 31
0.0
  0
LINE
  5
2FA
330
1E
100
AcDbEntity
  8
0
100
AcDbLine
 10
145.127
 20
-0.0000000000000801
 30
0.0
 11
146.5419999999999
 21
-0.0000000000000802
 31
0.0
  0
LINE
  5
2FB
330
1E
100
AcDbEntity
  8
0
100
AcDbLine
 10
146.5419999999999
 20
-0.00000000000008
 30
0.0
 11
147.956
 21
-0.0000000000000801
 31
0.0
  0
LINE
  5
2FC
330
1E
100
AcDbEntity
  8
0
100
AcDbLine
 10
163.5689999999999
 20
-0.00000000000008
 30
0.0
 11
163.5689999999999
 21
1.999999999999919
 31
0.0
  0
LINE
  5
2FD
330
1E
100
AcDbEntity
  8
0
100
AcDbLine
 10
163.5689999999999
 20
-0.00000000000008
 30
0.0
 11
165.3009999999999
 21
-0.00000000000008
 31
0.0
  0
LINE
  5
2FE
330
1E
100
AcDbEntity
  8
0
100
AcDbLine
 10
163.5689999999999
 20
-0.00000000000008
 30
0.0
 11
164.569
 21
-0.0000000000000801
 31
0.0
  0
LINE
  5
2FF
330
1E
100
AcDbEntity
  8
0
100
AcDbLine
 10
164.569
 20
-0.0000000000000801
 30
0.0
 11
166.3009999999999
 21
-0.0000000000000801
 31
0.0
  0
LINE
  5
300
330
1E
100
AcDbEntity
  8
0
100
AcDbLine
 10
183.0949999999999
 20
-0.0000000000000805
 30
0.0
 11
183.0949999999999
 21
1.999999999999919
 31
0.0
  0
LINE
  5
301
330
1E
100
AcDbEntity
  8
0
100
AcDbLine
 10
183.0949999999999
 20
-0.0000000000000805
 30
0.0
 11
185.0259999999999
 21
-0.0000000000000805
 31
0.0
  0
LINE
  5
302
330
1E
100
AcDbEntity
  8
0
100
AcDbLine
 10
183.0949999999999
 20
-0.0000000000000805
 30
0.0
 11
183.612
 21
-0.0000000000000806
 31
0.0
  0
LINE
  5
303
330
1E
100
AcDbEntity
  8
0
100
AcDbLine
 10
185.0259999999999
 20
-0.0000000000000805
 30
0.0
 11
185.544
 21
-0.0000000000000806
 31
0.0
  0
LINE
  5
304
330
1E
100
AcDbEntity
  8
0
100
AcDbLine
 10
185.0259999999999
 20
-0.0000000000000805
 30
0.0
 11
185.0259999999999
 21
1.999999999999919
 31
0.0
  0
LINE
  5
305
330
1E
100
AcDbEntity
  8
0
100
AcDbLine
 10
197.583
 20
-0.0000000000000803
 30
0.0
 11
197.583
 21
1.999999999999919
 31
0.0
  0
LINE
  5
306
330
1E
100
AcDbEntity
  8
0
100
AcDbLine
 10
197.583
 20
-0.0000000000000803
 30
0.0
 11
199.5149999999999
 21
-0.0000000000000802
 31
0.0
  0
LINE
  5
307
330
1E
100
AcDbEntity
  8
0
100
AcDbLine
 10
197.583
 20
-0.0000000000000803
 30
0.0
 11
198.1009999999999
 21
-0.0000000000000804
 31
0.0
  0
LINE
  5
308
330
1E
100
AcDbEntity
  8
0
100
AcDbLine
 10
198.1009999999999
 20
-0.0000000000000804
 30
0.0
 11
200.0329999999999
 21
-0.0000000000000804
 31
0.0
  0
LINE
  5
309
330
1E
100
AcDbEntity
  8
0
100
AcDbLine
 10
165.3009999999999
 20
-0.00000000000008
 30
0.0
 11
165.3009999999999
 21
1.999999999999919
 31
0.0
  0
LINE
  5
30A
330
1E
100
AcDbEntity
  8
0
100
AcDbLine
 10
165.3009999999999
 20
-0.00000000000008
 30
0.0
 11
166.3009999999999
 21
-0.0000000000000801
 31
0.0
  0
LINE
  5
30B
330
1E
100
AcDbEntity
  8
0
100
AcDbLine
 10
166.3009999999999
 20
-0.0000000000000801
 30
0.0
 11
166.3009999999999
 21
1.999999999999919
 31
0.0
  0
LINE
  5
30C
330
1E
100
AcDbEntity
  8
0
100
AcDbLine
 10
176.56
 20
-0.0000000000000796
 30
0.0
 11
178.292
 21
-0.0000000000000795
 31
0.0
  0
LINE
  5
30D
330
1E
100
AcDbEntity
  8
0
100
AcDbLine
 10
176.56
 20
-0.0000000000000796
 30
0.0
 11
177.56
 21
-0.0000000000000797
 31
0.0
  0
LINE
  5
30E
330
1E
100
AcDbEntity
  8
0
100
AcDbLine
 10
177.56
 20
-0.0000000000000797
 30
0.0
 11
179.292
 21
-0.0000000000000796
 31
0.0
  0
LINE
  5
30F
330
1E
100
AcDbEntity
  8
0
100
AcDbLine
 10
178.292
 20
-0.0000000000000795
 30
0.0
 11
179.292
 21
-0.0000000000000796
 31
0.0
  0
LINE
  5
310
330
1E
100
AcDbEntity
  8
0
100
AcDbLine
 10
157.148
 20
-0.0000000000000795
 30
0.0
 11
158.562
 21
-0.0000000000000794
 31
0.0
  0
LINE
  5
311
330
1E
100
AcDbEntity
  8
0
100
AcDbLine
 10
212.0719999999999
 20
-0.00000000000008
 30
0.0
 11
212.0719999999999
 21
1.999999999999919
 31
0.0
  0
LINE
  5
312
330
1E
100
AcDbEntity
  8
0
100
AcDbLine
 10
212.0719999999999
 20
-0.00000000000008
 30
0.0
 11
214.004
 21
-0.00000000000008
 31
0.0
  0
LINE
  5
313
330
1E
100
AcDbEntity
  8
0
100
AcDbLine
 10
212.0719999999999
 20
-0.00000000000008
 30
0.0
 11
212.59
 21
-0.0000000000000801
 31
0.0
  0
LINE
  5
314
330
1E
100
AcDbEntity
  8
0
100
AcDbLine
 10
212.59
 20
-0.0000000000000801
 30
0.0
 11
214.522
 21
-0.0000000000000801
 31
0.0
  0
LINE
  5
315
330
1E
100
AcDbEntity
  8
0
100
AcDbLine
 10
199.5149999999999
 20
-0.0000000000000802
 30
0.0
 11
200.0329999999999
 21
-0.0000000000000804
 31
0.0
  0
LINE
  5
316
330
1E
100
AcDbEntity
  8
0
100
AcDbLine
 10
226.5609999999999
 20
-0.0000000000000798
 30
0.0
 11
226.5609999999999
 21
1.999999999999919
 31
0.0
  0
LINE
  5
317
330
1E
100
AcDbEntity
  8
0
100
AcDbLine
 10
226.5609999999999
 20
-0.0000000000000798
 30
0.0
 11
228.493
 21
-0.0000000000000798
 31
0.0
  0
LINE
  5
318
330
1E
100
AcDbEntity
  8
0
100
AcDbLine
 10
226.5609999999999
 20
-0.0000000000000798
 30
0.0
 11
227.079
 21
-0.0000000000000799
 31
0.0
  0
LINE
  5
319
330
1E
100
AcDbEntity
  8
0
100
AcDbLine
 10
227.079
 20
-0.0000000000000799
 30
0.0
 11
229.0109999999999
 21
-0.0000000000000799
 31
0.0
  0
LINE
  5
31A
330
1E
100
AcDbEntity
  8
0
100
AcDbLine
 10
214.004
 20
-0.00000000000008
 30
0.0
 11
214.522
 21
-0.0000000000000801
 31
0.0
  0
LINE
  5
31B
330
1E
100
AcDbEntity
  8
0
100
AcDbLine
 10
214.004
 20
-0.00000000000008
 30
0.0
 11
214.004
 21
1.999999999999919
 31
0.0
  0
LINE
  5
31C
330
1E
100
AcDbEntity
  8
0
100
AcDbLine
 10
214.522
 20
-0.0000000000000801
 30
0.0
 11
214.522
 21
1.999999999999919
 31
0.0
  0
LINE
  5
31D
330
1E
100
AcDbEntity
  8
0
100
AcDbLine
 10
228.493
 20
-0.0000000000000798
 30
0.0
 11
229.0109999999999
 21
-0.0000000000000799
 31
0.0
  0
LINE
  5
31E
330
1E
100
AcDbEntity
  8
0
100
AcDbLine
 10
228.493
 20
-0.0000000000000798
 30
0.0
 11
228.493
 21
1.999999999999919
 31
0.0
  0
LINE
  5
31F
330
1E
100
AcDbEntity
  8
0
100
AcDbLine
 10
229.0109999999999
 20
-0.0000000000000799
 30
0.0
 11
229.0109999999999
 21
1.999999999999919
 31
0.0
  0
LINE
  5
320
330
1E
100
AcDbEntity
  8
0
100
AcDbLine
 10
155.734
 20
-0.0000000000000794
 30
0.0
 11
157.148
 21
-0.0000000000000794
 31
0.0
  0
LINE
  5
321
330
1E
100
AcDbEntity
  8
0
100
AcDbLine
 10
155.734
 20
-0.0000000000000794
 30
0.0
 11
157.148
 21
-0.0000000000000795
 31
0.0
  0
LINE
  5
322
330
1E
100
AcDbEntity
  8
0
100
AcDbLine
 10
157.148
 20
-0.0000000000000794
 30
0.0
 11
157.148
 21
1.999999999999919
 31
0.0
  0
LINE
  5
323
330
1E
100
AcDbEntity
  8
0
100
AcDbLine
 10
157.148
 20
-0.0000000000000794
 30
0.0
 11
158.562
 21
-0.0000000000000794
 31
0.0
  0
LINE
  5
324
330
1E
100
AcDbEntity
  8
0
100
AcDbLine
 10
158.562
 20
-0.0000000000000794
 30
0.0
 11
158.562
 21
1.999999999999919
 31
0.0
  0
LINE
  5
325
330
1E
100
AcDbEntity
  8
0
100
AcDbLine
 10
145.6339999999999
 20
-0.000000000000079
 30
0.0
 11
146.6339999999999
 21
-0.0000000000000789
 31
0.0
  0
LINE
  5
326
330
1E
100
AcDbEntity
  8
0
100
AcDbLine
 10
145.6339999999999
 20
-0.000000000000079
 30
0.0
 11
147.366
 21
-0.000000000000079
 31
0.0
  0
LINE
  5
327
330
1E
100
AcDbEntity
  8
0
100
AcDbLine
 10
148.366
 20
-0.0000000000000789
 30
0.0
 11
148.366
 21
1.999999999999919
 31
0.0
  0
LINE
  5
328
330
1E
100
AcDbEntity
  8
0
100
AcDbLine
 10
147.366
 20
-0.000000000000079
 30
0.0
 11
148.366
 21
-0.0000000000000789
 31
0.0
  0
LINE
  5
329
330
1E
100
AcDbEntity
  8
0
100
AcDbLine
 10
166.3409999999999
 20
-0.0000000000000788
 30
0.0
 11
166.3409999999999
 21
1.999999999999919
 31
0.0
  0
LINE
  5
32A
330
1E
100
AcDbEntity
  8
0
100
AcDbLine
 10
166.3409999999999
 20
-0.0000000000000788
 30
0.0
 11
167.755
 21
-0.0000000000000787
 31
0.0
  0
LINE
  5
32B
330
1E
100
AcDbEntity
  8
0
100
AcDbLine
 10
166.3409999999999
 20
-0.0000000000000788
 30
0.0
 11
167.755
 21
-0.0000000000000789
 31
0.0
  0
LINE
  5
32C
330
1E
100
AcDbEntity
  8
0
100
AcDbLine
 10
167.755
 20
-0.0000000000000787
 30
0.0
 11
167.755
 21
1.999999999999919
 31
0.0
  0
LINE
  5
32D
330
1E
100
AcDbEntity
  8
0
100
AcDbLine
 10
167.755
 20
-0.0000000000000787
 30
0.0
 11
169.169
 21
-0.0000000000000788
 31
0.0
  0
LINE
  5
32E
330
1E
100
AcDbEntity
  8
0
100
AcDbLine
 10
167.755
 20
-0.0000000000000789
 30
0.0
 11
169.169
 21
-0.0000000000000788
 31
0.0
  0
LINE
  5
32F
330
1E
100
AcDbEntity
  8
0
100
AcDbLine
 10
153.1339999999999
 20
-0.0000000000000782
 30
0.0
 11
153.1339999999999
 21
1.999999999999919
 31
0.0
  0
LINE
  5
330
330
1E
100
AcDbEntity
  8
0
100
AcDbLine
 10
153.1339999999999
 20
-0.0000000000000782
 30
0.0
 11
154.1339999999999
 21
-0.0000000000000781
 31
0.0
  0
LINE
  5
331
330
1E
100
AcDbEntity
  8
0
100
AcDbLine
 10
153.1339999999999
 20
-0.0000000000000782
 30
0.0
 11
154.866
 21
-0.0000000000000783
 31
0.0
  0
LINE
  5
332
330
1E
100
AcDbEntity
  8
0
100
AcDbLine
 10
155.866
 20
-0.0000000000000781
 30
0.0
 11
155.866
 21
1.999999999999919
 31
0.0
  0
LINE
  5
333
330
1E
100
AcDbEntity
  8
0
100
AcDbLine
 10
154.866
 20
-0.0000000000000783
 30
0.0
 11
155.866
 21
-0.0000000000000781
 31
0.0
  0
LINE
  5
334
330
1E
100
AcDbEntity
  8
0
100
AcDbLine
 10
146.6339999999999
 20
-0.0000000000000789
 30
0.0
 11
148.366
 21
-0.0000000000000789
 31
0.0
  0
LINE
  5
335
330
1E
100
AcDbEntity
  8
0
100
AcDbLine
 10
189.55
 20
-0.0000000000000791
 30
0.0
 11
191.282
 21
-0.0000000000000791
 31
0.0
  0
LINE
  5
336
330
1E
100
AcDbEntity
  8
0
100
AcDbLine
 10
189.55
 20
-0.0000000000000791
 30
0.0
 11
190.55
 21
-0.0000000000000792
 31
0.0
  0
LINE
  5
337
330
1E
100
AcDbEntity
  8
0
100
AcDbLine
 10
191.282
 20
-0.0000000000000791
 30
0.0
 11
191.282
 21
1.999999999999919
 31
0.0
  0
LINE
  5
338
330
1E
100
AcDbEntity
  8
0
100
AcDbLine
 10
191.282
 20
-0.0000000000000791
 30
0.0
 11
192.282
 21
-0.0000000000000792
 31
0.0
  0
LINE
  5
339
330
1E
100
AcDbEntity
  8
0
100
AcDbLine
 10
192.282
 20
-0.0000000000000792
 30
0.0
 11
192.282
 21
1.999999999999919
 31
0.0
  0
LINE
  5
33A
330
1E
100
AcDbEntity
  8
0
100
AcDbLine
 10
190.55
 20
-0.0000000000000792
 30
0.0
 11
192.282
 21
-0.0000000000000792
 31
0.0
  0
LINE
  5
33B
330
1E
100
AcDbEntity
  8
0
100
AcDbLine
 10
176.947
 20
-0.0000000000000781
 30
0.0
 11
178.3609999999999
 21
-0.0000000000000781
 31
0.0
  0
LINE
  5
33C
330
1E
100
AcDbEntity
  8
0
100
AcDbLine
 10
176.947
 20
-0.0000000000000781
 30
0.0
 11
178.3609999999999
 21
-0.0000000000000782
 31
0.0
  0
LINE
  5
33D
330
1E
100
AcDbEntity
  8
0
100
AcDbLine
 10
179.7759999999999
 20
-0.0000000000000781
 30
0.0
 11
179.7759999999999
 21
1.999999999999919
 31
0.0
  0
LINE
  5
33E
330
1E
100
AcDbEntity
  8
0
100
AcDbLine
 10
178.3609999999999
 20
-0.0000000000000782
 30
0.0
 11
179.7759999999999
 21
-0.0000000000000781
 31
0.0
  0
LINE
  5
33F
330
1E
100
AcDbEntity
  8
0
100
AcDbLine
 10
205.272
 20
-0.0000000000000787
 30
0.0
 11
205.272
 21
1.999999999999919
 31
0.0
  0
LINE
  5
340
330
1E
100
AcDbEntity
  8
0
100
AcDbLine
 10
203.54
 20
-0.0000000000000788
 30
0.0
 11
205.272
 21
-0.0000000000000787
 31
0.0
  0
LINE
  5
341
330
1E
100
AcDbEntity
  8
0
100
AcDbLine
 10
202.5399999999999
 20
-0.0000000000000787
 30
0.0
 11
202.5399999999999
 21
1.999999999999919
 31
0.0
  0
LINE
  5
342
330
1E
100
AcDbEntity
  8
0
100
AcDbLine
 10
202.5399999999999
 20
-0.0000000000000787
 30
0.0
 11
204.272
 21
-0.0000000000000786
 31
0.0
  0
LINE
  5
343
330
1E
100
AcDbEntity
  8
0
100
AcDbLine
 10
202.5399999999999
 20
-0.0000000000000787
 30
0.0
 11
203.54
 21
-0.0000000000000788
 31
0.0
  0
LINE
  5
344
330
1E
100
AcDbEntity
  8
0
100
AcDbLine
 10
215.5309999999999
 20
-0.0000000000000782
 30
0.0
 11
215.5309999999999
 21
1.999999999999919
 31
0.0
  0
LINE
  5
345
330
1E
100
AcDbEntity
  8
0
100
AcDbLine
 10
215.5309999999999
 20
-0.0000000000000782
 30
0.0
 11
217.263
 21
-0.0000000000000781
 31
0.0
  0
LINE
  5
346
330
1E
100
AcDbEntity
  8
0
100
AcDbLine
 10
215.5309999999999
 20
-0.0000000000000782
 30
0.0
 11
216.5309999999999
 21
-0.0000000000000783
 31
0.0
  0
LINE
  5
347
330
1E
100
AcDbEntity
  8
0
100
AcDbLine
 10
217.263
 20
-0.0000000000000781
 30
0.0
 11
217.263
 21
1.999999999999919
 31
0.0
  0
LINE
  5
348
330
1E
100
AcDbEntity
  8
0
100
AcDbLine
 10
217.263
 20
-0.0000000000000781
 30
0.0
 11
218.263
 21
-0.0000000000000782
 31
0.0
  0
LINE
  5
349
330
1E
100
AcDbEntity
  8
0
100
AcDbLine
 10
216.5309999999999
 20
-0.0000000000000783
 30
0.0
 11
218.263
 21
-0.0000000000000782
 31
0.0
  0
LINE
  5
34A
330
1E
100
AcDbEntity
  8
0
100
AcDbLine
 10
204.272
 20
-0.0000000000000786
 30
0.0
 11
204.272
 21
1.999999999999919
 31
0.0
  0
LINE
  5
34B
330
1E
100
AcDbEntity
  8
0
100
AcDbLine
 10
204.272
 20
-0.0000000000000786
 30
0.0
 11
205.272
 21
-0.0000000000000787
 31
0.0
  0
LINE
  5
34C
330
1E
100
AcDbEntity
  8
0
100
AcDbLine
 10
154.1339999999999
 20
-0.0000000000000781
 30
0.0
 11
154.1339999999999
 21
1.999999999999919
 31
0.0
  0
LINE
  5
34D
330
1E
100
AcDbEntity
  8
0
100
AcDbLine
 10
154.1339999999999
 20
-0.0000000000000781
 30
0.0
 11
155.866
 21
-0.0000000000000781
 31
0.0
  0
LINE
  5
34E
330
1E
100
AcDbEntity
  8
0
100
AcDbLine
 10
160.6339999999999
 20
-0.0000000000000774
 30
0.0
 11
160.6339999999999
 21
1.999999999999919
 31
0.0
  0
LINE
  5
34F
330
1E
100
AcDbEntity
  8
0
100
AcDbLine
 10
160.6339999999999
 20
-0.0000000000000774
 30
0.0
 11
161.6339999999999
 21
-0.0000000000000773
 31
0.0
  0
LINE
  5
350
330
1E
100
AcDbEntity
  8
0
100
AcDbLine
 10
160.6339999999999
 20
-0.0000000000000774
 30
0.0
 11
162.366
 21
-0.0000000000000775
 31
0.0
  0
LINE
  5
351
330
1E
100
AcDbEntity
  8
0
100
AcDbLine
 10
162.366
 20
-0.0000000000000775
 30
0.0
 11
163.366
 21
-0.0000000000000773
 31
0.0
  0
LINE
  5
352
330
1E
100
AcDbEntity
  8
0
100
AcDbLine
 10
178.3609999999999
 20
-0.0000000000000781
 30
0.0
 11
179.7759999999999
 21
-0.0000000000000781
 31
0.0
  0
LINE
  5
353
330
1E
100
AcDbEntity
  8
0
100
AcDbLine
 10
187.5539999999999
 20
-0.0000000000000775
 30
0.0
 11
187.5539999999999
 21
1.999999999999919
 31
0.0
  0
LINE
  5
354
330
1E
100
AcDbEntity
  8
0
100
AcDbLine
 10
187.5539999999999
 20
-0.0000000000000775
 30
0.0
 11
188.968
 21
-0.0000000000000774
 31
0.0
  0
LINE
  5
355
330
1E
100
AcDbEntity
  8
0
100
AcDbLine
 10
187.5539999999999
 20
-0.0000000000000775
 30
0.0
 11
188.968
 21
-0.0000000000000776
 31
0.0
  0
LINE
  5
356
330
1E
100
AcDbEntity
  8
0
100
AcDbLine
 10
188.968
 20
-0.0000000000000774
 30
0.0
 11
188.968
 21
1.999999999999919
 31
0.0
  0
LINE
  5
357
330
1E
100
AcDbEntity
  8
0
100
AcDbLine
 10
188.968
 20
-0.0000000000000774
 30
0.0
 11
190.3819999999999
 21
-0.0000000000000775
 31
0.0
  0
LINE
  5
358
330
1E
100
AcDbEntity
  8
0
100
AcDbLine
 10
188.968
 20
-0.0000000000000776
 30
0.0
 11
190.3819999999999
 21
-0.0000000000000775
 31
0.0
  0
LINE
  5
359
330
1E
100
AcDbEntity
  8
0
100
AcDbLine
 10
161.6339999999999
 20
-0.0000000000000773
 30
0.0
 11
161.6339999999999
 21
1.999999999999919
 31
0.0
  0
LINE
  5
35A
330
1E
100
AcDbEntity
  8
0
100
AcDbLine
 10
161.6339999999999
 20
-0.0000000000000773
 30
0.0
 11
163.366
 21
-0.0000000000000773
 31
0.0
  0
LINE
  5
35B
330
1E
100
AcDbEntity
  8
0
100
AcDbLine
 10
163.366
 20
-0.0000000000000773
 30
0.0
 11
163.366
 21
1.999999999999919
 31
0.0
  0
LINE
  5
35C
330
1E
100
AcDbEntity
  8
0
100
AcDbLine
 10
190.3819999999999
 20
-0.0000000000000775
 30
0.0
 11
190.3819999999999
 21
1.999999999999919
 31
0.0
  0
LINE
  5
35D
330
1E
100
AcDbEntity
  8
0
100
AcDbLine
 10
218.263
 20
-0.0000000000000782
 30
0.0
 11
218.263
 21
1.999999999999919
 31
0.0
  0
LINE
  5
35E
330
1E
100
AcDbEntity
  8
0
100
AcDbLine
 10
101.346
 20
-0.000000000000077
 30
0.0
 11
103.278
 21
-0.0000000000000769
 31
0.0
  0
LINE
  5
35F
330
1E
100
AcDbEntity
  8
0
100
AcDbLine
 10
100.8289999999999
 20
-0.0000000000000768
 30
0.0
 11
100.8289999999999
 21
1.999999999999919
 31
0.0
  0
LINE
  5
360
330
1E
100
AcDbEntity
  8
0
100
AcDbLine
 10
100.8289999999999
 20
-0.0000000000000768
 30
0.0
 11
102.76
 21
-0.0000000000000768
 31
0.0
  0
LINE
  5
361
330
1E
100
AcDbEntity
  8
0
100
AcDbLine
 10
100.8289999999999
 20
-0.0000000000000768
 30
0.0
 11
101.346
 21
-0.000000000000077
 31
0.0
  0
LINE
  5
362
330
1E
100
AcDbEntity
  8
0
100
AcDbLine
 10
102.76
 20
-0.0000000000000768
 30
0.0
 11
103.278
 21
-0.0000000000000769
 31
0.0
  0
LINE
  5
363
330
1E
100
AcDbEntity
  8
0
100
AcDbLine
 10
102.76
 20
-0.0000000000000768
 30
0.0
 11
102.76
 21
1.999999999999919
 31
0.0
  0
LINE
  5
364
330
1E
100
AcDbEntity
  8
0
100
AcDbLine
 10
141.722
 20
-0.0000000000000769
 30
0.0
 11
141.722
 21
1.999999999999919
 31
0.0
  0
LINE
  5
365
330
1E
100
AcDbEntity
  8
0
100
AcDbLine
 10
141.722
 20
-0.0000000000000769
 30
0.0
 11
142.24
 21
-0.0000000000000768
 31
0.0
  0
LINE
  5
366
330
1E
100
AcDbEntity
  8
0
100
AcDbLine
 10
141.722
 20
-0.0000000000000769
 30
0.0
 11
143.6539999999999
 21
-0.000000000000077
 31
0.0
  0
LINE
  5
367
330
1E
100
AcDbEntity
  8
0
100
AcDbLine
 10
143.6539999999999
 20
-0.000000000000077
 30
0.0
 11
144.171
 21
-0.0000000000000768
 31
0.0
  0
LINE
  5
368
330
1E
100
AcDbEntity
  8
0
100
AcDbLine
 10
199.5749999999999
 20
-0.0000000000000769
 30
0.0
 11
200.9889999999999
 21
-0.0000000000000768
 31
0.0
  0
LINE
  5
369
330
1E
100
AcDbEntity
  8
0
100
AcDbLine
 10
198.16
 20
-0.0000000000000768
 30
0.0
 11
198.16
 21
1.999999999999919
 31
0.0
  0
LINE
  5
36A
330
1E
100
AcDbEntity
  8
0
100
AcDbLine
 10
198.16
 20
-0.0000000000000768
 30
0.0
 11
199.5749999999999
 21
-0.0000000000000768
 31
0.0
  0
LINE
  5
36B
330
1E
100
AcDbEntity
  8
0
100
AcDbLine
 10
198.16
 20
-0.0000000000000768
 30
0.0
 11
199.5749999999999
 21
-0.0000000000000769
 31
0.0
  0
LINE
  5
36C
330
1E
100
AcDbEntity
  8
0
100
AcDbLine
 10
142.24
 20
-0.0000000000000768
 30
0.0
 11
142.24
 21
1.999999999999919
 31
0.0
  0
LINE
  5
36D
330
1E
100
AcDbEntity
  8
0
100
AcDbLine
 10
142.24
 20
-0.0000000000000768
 30
0.0
 11
144.171
 21
-0.0000000000000768
 31
0.0
  0
LINE
  5
36E
330
1E
100
AcDbEntity
  8
0
100
AcDbLine
 10
144.171
 20
-0.0000000000000768
 30
0.0
 11
144.171
 21
1.999999999999919
 31
0.0
  0
LINE
  5
36F
330
1E
100
AcDbEntity
  8
0
100
AcDbLine
 10
103.278
 20
-0.0000000000000769
 30
0.0
 11
103.278
 21
1.999999999999919
 31
0.0
  0
LINE
  5
370
330
1E
100
AcDbEntity
  8
0
100
AcDbLine
 10
121.5
 20
-0.0000000000000768
 30
0.0
 11
121.5
 21
1.999999999999919
 31
0.0
  0
LINE
  5
371
330
1E
100
AcDbEntity
  8
0
100
AcDbLine
 10
121.5
 20
-0.0000000000000768
 30
0.0
 11
123.5
 21
-0.0000000000000768
 31
0.0
  0
LINE
  5
372
330
1E
100
AcDbEntity
  8
0
100
AcDbLine
 10
200.9889999999999
 20
-0.0000000000000768
 30
0.0
 11
200.9889999999999
 21
1.999999999999919
 31
0.0
  0
LINE
  5
373
330
1E
100
AcDbEntity
  8
0
100
AcDbLine
 10
57.5
 20
-0.0000000000000815
 30
0.0
 11
57.5
 21
1.999999999999919
 31
0.0
  0
LINE
  5
374
330
1E
100
AcDbEntity
  8
0
100
AcDbLine
 10
57.5
 20
-0.0000000000000815
 30
0.0
 11
59.5
 21
-0.0000000000000815
 31
0.0
  0
LINE
  5
375
330
1E
100
AcDbEntity
  8
0
100
AcDbLine
 10
57.4462
 20
1.99999999999991
 30
0.0
 11
57.5
 21
1.99999999999991
 31
0.0
  0
LINE
  5
376
330
1E
100
AcDbEntity
  8
0
100
AcDbLine
 10
47.4166
 20
1.99999999999991
 30
0.0
 11
52.718
 21
1.99999999999991
 31
0.0
  0
LINE
  5
377
330
1E
100
AcDbEntity
  8
0
100
AcDbLine
 10
52.718
 20
1.999999999999919
 30
0.0
 11
52.718
 21
-0.000000000000084
 31
0.0
  0
LINE
  5
378
330
1E
100
AcDbEntity
  8
0
100
AcDbLine
 10
45.4254
 20
-0.0000000000000768
 30
0.0
 11
45.4254
 21
1.999999999999919
 31
0.0
  0
LINE
  5
379
330
1E
100
AcDbEntity
  8
0
100
AcDbLine
 10
45.4254
 20
-0.0000000000000768
 30
0.0
 11
46.83959999999999
 21
-0.0000000000000768
 31
0.0
  0
LINE
  5
37A
330
1E
100
AcDbEntity
  8
0
100
AcDbLine
 10
44.0111
 20
1.999999999999919
 30
0.0
 11
45.4254
 21
1.999999999999919
 31
0.0
  0
LINE
  5
37B
330
1E
100
AcDbEntity
  8
0
100
AcDbLine
 10
44.0111
 20
1.999999999999919
 30
0.0
 11
44.0111
 21
-0.0000000000000768
 31
0.0
  0
LINE
  5
37C
330
1E
100
AcDbEntity
  8
0
100
AcDbLine
 10
46.83959999999999
 20
1.999999999999919
 30
0.0
 11
46.83959999999999
 21
-0.0000000000000768
 31
0.0
  0
LINE
  5
37D
330
1E
100
AcDbEntity
  8
0
100
AcDbLine
 10
45.4254
 20
1.999999999999919
 30
0.0
 11
46.83959999999999
 21
1.999999999999919
 31
0.0
  0
LINE
  5
37E
330
1E
100
AcDbEntity
  8
0
100
AcDbLine
 10
45.4254
 20
1.999999999999919
 30
0.0
 11
45.4254
 21
-0.0000000000000768
 31
0.0
  0
LINE
  5
37F
330
1E
100
AcDbEntity
  8
0
100
AcDbLine
 10
52.718
 20
1.999999999999919
 30
0.0
 11
53.718
 21
1.999999999999919
 31
0.0
  0
LINE
  5
380
330
1E
100
AcDbEntity
  8
0
100
AcDbLine
 10
52.718
 20
1.999999999999919
 30
0.0
 11
52.718
 21
-0.0000000000000791
 31
0.0
  0
LINE
  5
381
330
1E
100
AcDbEntity
  8
0
100
AcDbLine
 10
54.6177
 20
1.999999999999919
 30
0.0
 11
56.032
 21
1.999999999999919
 31
0.0
  0
LINE
  5
382
330
1E
100
AcDbEntity
  8
0
100
AcDbLine
 10
54.6177
 20
1.999999999999919
 30
0.0
 11
54.6177
 21
-0.0000000000000775
 31
0.0
  0
LINE
  5
383
330
1E
100
AcDbEntity
  8
0
100
AcDbLine
 10
57.4462
 20
1.999999999999919
 30
0.0
 11
57.4462
 21
-0.0000000000000775
 31
0.0
  0
LINE
  5
384
330
1E
100
AcDbEntity
  8
0
100
AcDbLine
 10
56.032
 20
1.999999999999919
 30
0.0
 11
57.4462
 21
1.999999999999919
 31
0.0
  0
LINE
  5
385
330
1E
100
AcDbEntity
  8
0
100
AcDbLine
 10
56.032
 20
1.999999999999919
 30
0.0
 11
56.032
 21
-0.0000000000000773
 31
0.0
  0
LINE
  5
386
330
1E
100
AcDbEntity
  8
0
100
AcDbLine
 10
53.718
 20
1.999999999999919
 30
0.0
 11
54.6177
 21
1.999999999999919
 31
0.0
  0
LINE
  5
387
330
1E
100
AcDbEntity
  8
0
100
AcDbLine
 10
53.718
 20
1.999999999999919
 30
0.0
 11
53.718
 21
-0.0000000000000791
 31
0.0
  0
LINE
  5
388
330
1E
100
AcDbEntity
  8
0
100
AcDbLine
 10
47.4166
 20
1.999999999999919
 30
0.0
 11
47.4166
 21
-0.0000000000000803
 31
0.0
  0
LINE
  5
389
330
1E
100
AcDbEntity
  8
0
100
AcDbLine
 10
46.83959999999999
 20
1.999999999999919
 30
0.0
 11
47.4166
 21
1.999999999999919
 31
0.0
  0
LINE
  5
38A
330
1E
100
AcDbEntity
  8
0
100
AcDbLine
 10
57.5
 20
1.999999999999919
 30
0.0
 11
57.5
 21
-0.0000000000000817
 31
0.0
  0
LINE
  5
38B
330
1E
100
AcDbEntity
  8
0
100
AcDbLine
 10
67.634
 20
-0.0000000000000759
 30
0.0
 11
69.366
 21
-0.0000000000000758
 31
0.0
  0
LINE
  5
38C
330
1E
100
AcDbEntity
  8
0
100
AcDbLine
 10
61.9055
 20
1.99999999999991
 30
0.0
 11
62.1
 21
1.99999999999991
 31
0.0
  0
LINE
  5
38D
330
1E
100
AcDbEntity
  8
0
100
AcDbLine
 10
62.1
 20
1.99999999999991
 30
0.0
 11
65.22429999999999
 21
1.99999999999991
 31
0.0
  0
LINE
  5
38E
330
1E
100
AcDbEntity
  8
0
100
AcDbLine
 10
65.22429999999999
 20
1.999999999999919
 30
0.0
 11
65.22429999999999
 21
-0.0000000000000849
 31
0.0
  0
LINE
  5
38F
330
1E
100
AcDbEntity
  8
0
100
AcDbLine
 10
66.634
 20
-0.0000000000000758
 30
0.0
 11
66.634
 21
1.999999999999919
 31
0.0
  0
LINE
  5
390
330
1E
100
AcDbEntity
  8
0
100
AcDbLine
 10
66.634
 20
-0.0000000000000758
 30
0.0
 11
68.366
 21
-0.0000000000000757
 31
0.0
  0
LINE
  5
391
330
1E
100
AcDbEntity
  8
0
100
AcDbLine
 10
66.634
 20
-0.0000000000000758
 30
0.0
 11
67.634
 21
-0.0000000000000759
 31
0.0
  0
LINE
  5
392
330
1E
100
AcDbEntity
  8
0
100
AcDbLine
 10
69.366
 20
1.99999999999991
 30
0.0
 11
72.5
 21
1.99999999999991
 31
0.0
  0
LINE
  5
393
330
1E
100
AcDbEntity
  8
0
100
AcDbLine
 10
69.366
 20
-0.0000000000000758
 30
0.0
 11
69.366
 21
1.999999999999919
 31
0.0
  0
LINE
  5
394
330
1E
100
AcDbEntity
  8
0
100
AcDbLine
 10
68.366
 20
-0.0000000000000757
 30
0.0
 11
68.366
 21
1.999999999999919
 31
0.0
  0
LINE
  5
395
330
1E
100
AcDbEntity
  8
0
100
AcDbLine
 10
68.366
 20
-0.0000000000000757
 30
0.0
 11
69.366
 21
-0.0000000000000758
 31
0.0
  0
LINE
  5
396
330
1E
100
AcDbEntity
  8
0
100
AcDbLine
 10
121.5
 20
-0.0000000000000767
 30
0.0
 11
121.5
 21
1.999999999999919
 31
0.0
  0
LINE
  5
397
330
1E
100
AcDbEntity
  8
0
100
AcDbLine
 10
121.5
 20
-0.0000000000000767
 30
0.0
 11
123.5
 21
-0.0000000000000767
 31
0.0
  0
LINE
  5
398
330
1E
100
AcDbEntity
  8
0
100
AcDbLine
 10
169.8659999999999
 20
-0.0000000000000767
 30
0.0
 11
170.8659999999999
 21
-0.0000000000000766
 31
0.0
  0
LINE
  5
399
330
1E
100
AcDbEntity
  8
0
100
AcDbLine
 10
168.134
 20
-0.0000000000000766
 30
0.0
 11
168.134
 21
1.999999999999919
 31
0.0
  0
LINE
  5
39A
330
1E
100
AcDbEntity
  8
0
100
AcDbLine
 10
168.134
 20
-0.0000000000000766
 30
0.0
 11
169.134
 21
-0.0000000000000765
 31
0.0
  0
LINE
  5
39B
330
1E
100
AcDbEntity
  8
0
100
AcDbLine
 10
168.134
 20
-0.0000000000000766
 30
0.0
 11
169.8659999999999
 21
-0.0000000000000767
 31
0.0
  0
LINE
  5
39C
330
1E
100
AcDbEntity
  8
0
100
AcDbLine
 10
170.8659999999999
 20
-0.0000000000000766
 30
0.0
 11
170.8659999999999
 21
1.999999999999919
 31
0.0
  0
LINE
  5
39D
330
1E
100
AcDbEntity
  8
0
100
AcDbLine
 10
76.866
 20
-0.0000000000000766
 30
0.0
 11
76.866
 21
1.999999999999919
 31
0.0
  0
LINE
  5
39E
330
1E
100
AcDbEntity
  8
0
100
AcDbLine
 10
75.134
 20
-0.0000000000000767
 30
0.0
 11
76.866
 21
-0.0000000000000766
 31
0.0
  0
LINE
  5
39F
330
1E
100
AcDbEntity
  8
0
100
AcDbLine
 10
74.134
 20
-0.0000000000000766
 30
0.0
 11
74.134
 21
1.999999999999919
 31
0.0
  0
LINE
  5
3A0
330
1E
100
AcDbEntity
  8
0
100
AcDbLine
 10
74.134
 20
-0.0000000000000766
 30
0.0
 11
75.866
 21
-0.0000000000000765
 31
0.0
  0
LINE
  5
3A1
330
1E
100
AcDbEntity
  8
0
100
AcDbLine
 10
74.134
 20
-0.0000000000000766
 30
0.0
 11
75.134
 21
-0.0000000000000767
 31
0.0
  0
LINE
  5
3A2
330
1E
100
AcDbEntity
  8
0
100
AcDbLine
 10
75.866
 20
-0.0000000000000765
 30
0.0
 11
75.866
 21
1.999999999999919
 31
0.0
  0
LINE
  5
3A3
330
1E
100
AcDbEntity
  8
0
100
AcDbLine
 10
75.866
 20
-0.0000000000000765
 30
0.0
 11
76.866
 21
-0.0000000000000766
 31
0.0
  0
LINE
  5
3A4
330
1E
100
AcDbEntity
  8
0
100
AcDbLine
 10
93.58159999999999
 20
-0.0000000000000752
 30
0.0
 11
95.51349999999999
 21
-0.0000000000000752
 31
0.0
  0
LINE
  5
3A5
330
1E
100
AcDbEntity
  8
0
100
AcDbLine
 10
81.43080000000001
 20
1.99999999999991
 30
0.0
 11
81.63400000000001
 21
1.99999999999991
 31
0.0
  0
LINE
  5
3A6
330
1E
100
AcDbEntity
  8
0
100
AcDbLine
 10
78.6987
 20
1.999999999999919
 30
0.0
 11
78.6987
 21
-0.0000000000000831
 31
0.0
  0
LINE
  5
3A7
330
1E
100
AcDbEntity
  8
0
100
AcDbLine
 10
84.366
 20
1.99999999999991
 30
0.0
 11
86.4376
 21
1.99999999999991
 31
0.0
  0
LINE
  5
3A8
330
1E
100
AcDbEntity
  8
0
100
AcDbLine
 10
86.4376
 20
1.999999999999919
 30
0.0
 11
86.4376
 21
-0.0000000000000838
 31
0.0
  0
LINE
  5
3A9
330
1E
100
AcDbEntity
  8
0
100
AcDbLine
 10
81.63400000000001
 20
1.99999999999991
 30
0.0
 11
81.63400000000001
 21
-0.0000000000000858
 31
0.0
  0
LINE
  5
3AA
330
1E
100
AcDbEntity
  8
0
100
AcDbLine
 10
93.064
 20
-0.0000000000000751
 30
0.0
 11
93.064
 21
1.99999999999993
 31
0.0
  0
LINE
  5
3AB
330
1E
100
AcDbEntity
  8
0
100
AcDbLine
 10
93.064
 20
-0.0000000000000751
 30
0.0
 11
94.99579999999999
 21
-0.000000000000075
 31
0.0
  0
LINE
  5
3AC
330
1E
100
AcDbEntity
  8
0
100
AcDbLine
 10
93.064
 20
-0.0000000000000751
 30
0.0
 11
93.58159999999999
 21
-0.0000000000000752
 31
0.0
  0
LINE
  5
3AD
330
1E
100
AcDbEntity
  8
0
100
AcDbLine
 10
147.536
 20
-0.0000000000000761
 30
0.0
 11
148.0539999999999
 21
-0.000000000000076
 31
0.0
  0
LINE
  5
3AE
330
1E
100
AcDbEntity
  8
0
100
AcDbLine
 10
145.6039999999999
 20
-0.000000000000076
 30
0.0
 11
145.6039999999999
 21
1.999999999999919
 31
0.0
  0
LINE
  5
3AF
330
1E
100
AcDbEntity
  8
0
100
AcDbLine
 10
145.6039999999999
 20
-0.000000000000076
 30
0.0
 11
146.122
 21
-0.0000000000000759
 31
0.0
  0
LINE
  5
3B0
330
1E
100
AcDbEntity
  8
0
100
AcDbLine
 10
145.6039999999999
 20
-0.000000000000076
 30
0.0
 11
147.536
 21
-0.0000000000000761
 31
0.0
  0
LINE
  5
3B1
330
1E
100
AcDbEntity
  8
0
100
AcDbLine
 10
148.0539999999999
 20
-0.000000000000076
 30
0.0
 11
148.0539999999999
 21
1.999999999999919
 31
0.0
  0
LINE
  5
3B2
330
1E
100
AcDbEntity
  8
0
100
AcDbLine
 10
146.122
 20
-0.0000000000000759
 30
0.0
 11
146.122
 21
1.999999999999919
 31
0.0
  0
LINE
  5
3B3
330
1E
100
AcDbEntity
  8
0
100
AcDbLine
 10
146.122
 20
-0.0000000000000759
 30
0.0
 11
148.0539999999999
 21
-0.000000000000076
 31
0.0
  0
LINE
  5
3B4
330
1E
100
AcDbEntity
  8
0
100
AcDbLine
 10
99.39579999999999
 20
-0.000000000000076
 30
0.0
 11
99.39579999999999
 21
1.999999999999919
 31
0.0
  0
LINE
  5
3B5
330
1E
100
AcDbEntity
  8
0
100
AcDbLine
 10
97.46389999999999
 20
-0.0000000000000761
 30
0.0
 11
99.39579999999999
 21
-0.000000000000076
 31
0.0
  0
LINE
  5
3B6
330
1E
100
AcDbEntity
  8
0
100
AcDbLine
 10
96.9463
 20
-0.000000000000076
 30
0.0
 11
96.9463
 21
1.999999999999919
 31
0.0
  0
LINE
  5
3B7
330
1E
100
AcDbEntity
  8
0
100
AcDbLine
 10
96.9463
 20
-0.000000000000076
 30
0.0
 11
98.87810000000001
 21
-0.0000000000000759
 31
0.0
  0
LINE
  5
3B8
330
1E
100
AcDbEntity
  8
0
100
AcDbLine
 10
96.9463
 20
-0.000000000000076
 30
0.0
 11
97.46389999999999
 21
-0.0000000000000761
 31
0.0
  0
LINE
  5
3B9
330
1E
100
AcDbEntity
  8
0
100
AcDbLine
 10
121.5
 20
-0.0000000000000759
 30
0.0
 11
121.5
 21
1.999999999999919
 31
0.0
  0
LINE
  5
3BA
330
1E
100
AcDbEntity
  8
0
100
AcDbLine
 10
121.5
 20
-0.0000000000000759
 30
0.0
 11
123.5
 21
-0.0000000000000759
 31
0.0
  0
LINE
  5
3BB
330
1E
100
AcDbEntity
  8
0
100
AcDbLine
 10
121.5
 20
-0.0000000000000757
 30
0.0
 11
121.5
 21
1.999999999999919
 31
0.0
  0
LINE
  5
3BC
330
1E
100
AcDbEntity
  8
0
100
AcDbLine
 10
121.5
 20
-0.0000000000000757
 30
0.0
 11
123.5
 21
-0.0000000000000757
 31
0.0
  0
LINE
  5
3BD
330
1E
100
AcDbEntity
  8
0
100
AcDbLine
 10
149.4869999999999
 20
-0.0000000000000752
 30
0.0
 11
149.4869999999999
 21
1.999999999999919
 31
0.0
  0
LINE
  5
3BE
330
1E
100
AcDbEntity
  8
0
100
AcDbLine
 10
149.4869999999999
 20
-0.0000000000000752
 30
0.0
 11
150.004
 21
-0.000000000000075
 31
0.0
  0
LINE
  5
3BF
330
1E
100
AcDbEntity
  8
0
100
AcDbLine
 10
149.4869999999999
 20
-0.0000000000000752
 30
0.0
 11
151.418
 21
-0.0000000000000752
 31
0.0
  0
LINE
  5
3C0
330
1E
100
AcDbEntity
  8
0
100
AcDbLine
 10
150.004
 20
-0.000000000000075
 30
0.0
 11
150.004
 21
1.99999999999993
 31
0.0
  0
LINE
  5
3C1
330
1E
100
AcDbEntity
  8
0
100
AcDbLine
 10
150.004
 20
-0.000000000000075
 30
0.0
 11
151.9359999999999
 21
-0.0000000000000751
 31
0.0
  0
LINE
  5
3C2
330
1E
100
AcDbEntity
  8
0
100
AcDbLine
 10
98.87810000000001
 20
-0.0000000000000759
 30
0.0
 11
99.39579999999999
 21
-0.000000000000076
 31
0.0
  0
LINE
  5
3C3
330
1E
100
AcDbEntity
  8
0
100
AcDbLine
 10
98.87810000000001
 20
-0.0000000000000759
 30
0.0
 11
98.87810000000001
 21
1.999999999999919
 31
0.0
  0
LINE
  5
3C4
330
1E
100
AcDbEntity
  8
0
100
AcDbLine
 10
95.51349999999999
 20
-0.0000000000000752
 30
0.0
 11
95.51349999999999
 21
1.999999999999919
 31
0.0
  0
LINE
  5
3C5
330
1E
100
AcDbEntity
  8
0
100
AcDbLine
 10
121.5
 20
-0.0000000000000749
 30
0.0
 11
121.5
 21
1.99999999999993
 31
0.0
  0
LINE
  5
3C6
330
1E
100
AcDbEntity
  8
0
100
AcDbLine
 10
121.5
 20
-0.0000000000000749
 30
0.0
 11
123.5
 21
-0.0000000000000749
 31
0.0
  0
LINE
  5
3C7
330
1E
100
AcDbEntity
  8
0
100
AcDbLine
 10
99.8726
 20
1.99999999999991
 30
0.0
 11
100.8289999999999
 21
1.99999999999991
 31
0.0
  0
LINE
  5
3C8
330
1E
100
AcDbEntity
  8
0
100
AcDbLine
 10
95.51349999999999
 20
1.99999999999991
 30
0.0
 11
96.63400000000001
 21
1.99999999999991
 31
0.0
  0
LINE
  5
3C9
330
1E
100
AcDbEntity
  8
0
100
AcDbLine
 10
111.043
 20
1.99999999999991
 30
0.0
 11
111.634
 21
1.99999999999991
 31
0.0
  0
LINE
  5
3CA
330
1E
100
AcDbEntity
  8
0
100
AcDbLine
 10
107.412
 20
1.99999999999991
 30
0.0
 11
107.651
 21
1.99999999999991
 31
0.0
  0
LINE
  5
3CB
330
1E
100
AcDbEntity
  8
0
100
AcDbLine
 10
100.8289999999999
 20
1.99999999999991
 30
0.0
 11
100.8289999999999
 21
-0.0000000000000863
 31
0.0
  0
LINE
  5
3CC
330
1E
100
AcDbEntity
  8
0
100
AcDbLine
 10
107.651
 20
1.999999999999919
 30
0.0
 11
107.651
 21
-0.0000000000000824
 31
0.0
  0
LINE
  5
3CD
330
1E
100
AcDbEntity
  8
0
100
AcDbLine
 10
96.63400000000001
 20
1.999999999999919
 30
0.0
 11
96.63400000000001
 21
-0.0000000000000842
 31
0.0
  0
LINE
  5
3CE
330
1E
100
AcDbEntity
  8
0
100
AcDbLine
 10
114.925
 20
1.99999999999991
 30
0.0
 11
116.3579999999999
 21
1.99999999999991
 31
0.0
  0
LINE
  5
3CF
330
1E
100
AcDbEntity
  8
0
100
AcDbLine
 10
118.8069999999999
 20
1.99999999999991
 30
0.0
 11
121.5
 21
1.99999999999991
 31
0.0
  0
LINE
  5
3D0
330
1E
100
AcDbEntity
  8
0
100
AcDbLine
 10
121.5
 20
1.99999999999991
 30
0.0
 11
121.5
 21
-0.0000000000000881
 31
0.0
  0
LINE
  5
3D1
330
1E
100
AcDbEntity
  8
0
100
AcDbLine
 10
121.5
 20
1.99999999999991
 30
0.0
 11
121.5
 21
-0.0000000000000884
 31
0.0
  0
LINE
  5
3D2
330
1E
100
AcDbEntity
  8
0
100
AcDbLine
 10
121.5
 20
1.99999999999991
 30
0.0
 11
121.5
 21
-0.0000000000000872
 31
0.0
  0
LINE
  5
3D3
330
1E
100
AcDbEntity
  8
0
100
AcDbLine
 10
121.5
 20
1.99999999999991
 30
0.0
 11
121.5
 21
-0.0000000000000874
 31
0.0
  0
LINE
  5
3D4
330
1E
100
AcDbEntity
  8
0
100
AcDbLine
 10
121.5
 20
1.99999999999991
 30
0.0
 11
121.5
 21
-0.0000000000000863
 31
0.0
  0
LINE
  5
3D5
330
1E
100
AcDbEntity
  8
0
100
AcDbLine
 10
121.5
 20
1.99999999999991
 30
0.0
 11
121.5
 21
-0.0000000000000865
 31
0.0
  0
LINE
  5
3D6
330
1E
100
AcDbEntity
  8
0
100
AcDbLine
 10
121.5
 20
1.99999999999991
 30
0.0
 11
121.5
 21
-0.0000000000000854
 31
0.0
  0
LINE
  5
3D7
330
1E
100
AcDbEntity
  8
0
100
AcDbLine
 10
121.5
 20
1.99999999999991
 30
0.0
 11
121.5
 21
-0.0000000000000856
 31
0.0
  0
LINE
  5
3D8
330
1E
100
AcDbEntity
  8
0
100
AcDbLine
 10
121.5
 20
1.999999999999919
 30
0.0
 11
121.5
 21
-0.0000000000000844
 31
0.0
  0
LINE
  5
3D9
330
1E
100
AcDbEntity
  8
0
100
AcDbLine
 10
121.5
 20
1.999999999999919
 30
0.0
 11
121.5
 21
-0.0000000000000847
 31
0.0
  0
LINE
  5
3DA
330
1E
100
AcDbEntity
  8
0
100
AcDbLine
 10
121.5
 20
1.999999999999919
 30
0.0
 11
121.5
 21
-0.0000000000000835
 31
0.0
  0
LINE
  5
3DB
330
1E
100
AcDbEntity
  8
0
100
AcDbLine
 10
121.5
 20
1.999999999999919
 30
0.0
 11
121.5
 21
-0.0000000000000838
 31
0.0
  0
LINE
  5
3DC
330
1E
100
AcDbEntity
  8
0
100
AcDbLine
 10
123.5
 20
1.99999999999991
 30
0.0
 11
126.1929999999999
 21
1.99999999999991
 31
0.0
  0
LINE
  5
3DD
330
1E
100
AcDbEntity
  8
0
100
AcDbLine
 10
121.5
 20
1.999999999999919
 30
0.0
 11
121.5
 21
-0.0000000000000828
 31
0.0
  0
LINE
  5
3DE
330
1E
100
AcDbEntity
  8
0
100
AcDbLine
 10
121.5
 20
1.999999999999919
 30
0.0
 11
121.5
 21
-0.0000000000000826
 31
0.0
  0
LINE
  5
3DF
330
1E
100
AcDbEntity
  8
0
100
AcDbLine
 10
116.3579999999999
 20
1.999999999999919
 30
0.0
 11
116.3579999999999
 21
-0.0000000000000828
 31
0.0
  0
LINE
  5
3E0
330
1E
100
AcDbEntity
  8
0
100
AcDbLine
 10
111.634
 20
1.999999999999919
 30
0.0
 11
111.634
 21
-0.0000000000000826
 31
0.0
  0
LINE
  5
3E1
330
1E
100
AcDbEntity
  8
0
100
AcDbLine
 10
121.5
 20
-0.0000000000000748
 30
0.0
 11
121.5
 21
1.99999999999993
 31
0.0
  0
LINE
  5
3E2
330
1E
100
AcDbEntity
  8
0
100
AcDbLine
 10
121.5
 20
-0.0000000000000748
 30
0.0
 11
123.5
 21
-0.0000000000000748
 31
0.0
  0
LINE
  5
3E3
330
1E
100
AcDbEntity
  8
0
100
AcDbLine
 10
123.5
 20
-0.0000000000000748
 30
0.0
 11
123.5
 21
1.99999999999993
 31
0.0
  0
LINE
  5
3E4
330
1E
100
AcDbEntity
  8
0
100
AcDbLine
 10
128.6419999999999
 20
1.99999999999991
 30
0.0
 11
130.0749999999999
 21
1.99999999999991
 31
0.0
  0
LINE
  5
3E5
330
1E
100
AcDbEntity
  8
0
100
AcDbLine
 10
137.3489999999999
 20
1.99999999999991
 30
0.0
 11
137.5879999999999
 21
1.99999999999991
 31
0.0
  0
LINE
  5
3E6
330
1E
100
AcDbEntity
  8
0
100
AcDbLine
 10
144.171
 20
1.99999999999991
 30
0.0
 11
145.127
 21
1.99999999999991
 31
0.0
  0
LINE
  5
3E7
330
1E
100
AcDbEntity
  8
0
100
AcDbLine
 10
148.366
 20
1.99999999999991
 30
0.0
 11
149.4869999999999
 21
1.99999999999991
 31
0.0
  0
LINE
  5
3E8
330
1E
100
AcDbEntity
  8
0
100
AcDbLine
 10
133.366
 20
1.99999999999991
 30
0.0
 11
133.9569999999999
 21
1.99999999999991
 31
0.0
  0
LINE
  5
3E9
330
1E
100
AcDbEntity
  8
0
100
AcDbLine
 10
149.4869999999999
 20
1.99999999999991
 30
0.0
 11
149.4869999999999
 21
-0.0000000000000879
 31
0.0
  0
LINE
  5
3EA
330
1E
100
AcDbEntity
  8
0
100
AcDbLine
 10
133.9569999999999
 20
1.999999999999919
 30
0.0
 11
133.9569999999999
 21
-0.0000000000000844
 31
0.0
  0
LINE
  5
3EB
330
1E
100
AcDbEntity
  8
0
100
AcDbLine
 10
130.0749999999999
 20
1.999999999999919
 30
0.0
 11
130.0749999999999
 21
-0.0000000000000835
 31
0.0
  0
LINE
  5
3EC
330
1E
100
AcDbEntity
  8
0
100
AcDbLine
 10
145.127
 20
1.999999999999919
 30
0.0
 11
145.127
 21
-0.0000000000000831
 31
0.0
  0
LINE
  5
3ED
330
1E
100
AcDbEntity
  8
0
100
AcDbLine
 10
126.1929999999999
 20
1.999999999999919
 30
0.0
 11
126.1929999999999
 21
-0.0000000000000826
 31
0.0
  0
LINE
  5
3EE
330
1E
100
AcDbEntity
  8
0
100
AcDbLine
 10
94.99579999999999
 20
-0.000000000000075
 30
0.0
 11
95.51349999999999
 21
-0.0000000000000752
 31
0.0
  0
LINE
  5
3EF
330
1E
100
AcDbEntity
  8
0
100
AcDbLine
 10
94.99579999999999
 20
-0.000000000000075
 30
0.0
 11
94.99579999999999
 21
1.99999999999993
 31
0.0
  0
LINE
  5
3F0
330
1E
100
AcDbEntity
  8
0
100
AcDbLine
 10
163.366
 20
1.99999999999991
 30
0.0
 11
163.5689999999999
 21
1.99999999999991
 31
0.0
  0
LINE
  5
3F1
330
1E
100
AcDbEntity
  8
0
100
AcDbLine
 10
158.562
 20
1.99999999999991
 30
0.0
 11
160.6339999999999
 21
1.99999999999991
 31
0.0
  0
LINE
  5
3F2
330
1E
100
AcDbEntity
  8
0
100
AcDbLine
 10
151.9359999999999
 20
-0.0000000000000751
 30
0.0
 11
151.9359999999999
 21
1.99999999999993
 31
0.0
  0
LINE
  5
3F3
330
1E
100
AcDbEntity
  8
0
100
AcDbLine
 10
151.418
 20
-0.0000000000000752
 30
0.0
 11
151.9359999999999
 21
-0.0000000000000751
 31
0.0
  0
LINE
  5
3F4
330
1E
100
AcDbEntity
  8
0
100
AcDbLine
 10
160.6339999999999
 20
1.99999999999991
 30
0.0
 11
160.6339999999999
 21
-0.0000000000000858
 31
0.0
  0
LINE
  5
3F5
330
1E
100
AcDbEntity
  8
0
100
AcDbLine
 10
172.5
 20
1.99999999999991
 30
0.0
 11
175.634
 21
1.99999999999991
 31
0.0
  0
LINE
  5
3F6
330
1E
100
AcDbEntity
  8
0
100
AcDbLine
 10
169.134
 20
-0.0000000000000765
 30
0.0
 11
169.134
 21
1.999999999999919
 31
0.0
  0
LINE
  5
3F7
330
1E
100
AcDbEntity
  8
0
100
AcDbLine
 10
169.134
 20
-0.0000000000000765
 30
0.0
 11
170.8659999999999
 21
-0.0000000000000766
 31
0.0
  0
LINE
  5
3F8
330
1E
100
AcDbEntity
  8
0
100
AcDbLine
 10
166.3409999999999
 20
1.999999999999919
 30
0.0
 11
166.3409999999999
 21
-0.0000000000000844
 31
0.0
  0
LINE
  5
3F9
330
1E
100
AcDbEntity
  8
0
100
AcDbLine
 10
163.5689999999999
 20
1.999999999999919
 30
0.0
 11
163.5689999999999
 21
-0.0000000000000831
 31
0.0
  0
LINE
  5
3FA
330
1E
100
AcDbEntity
  8
0
100
AcDbLine
 10
137.5879999999999
 20
1.999999999999919
 30
0.0
 11
137.5879999999999
 21
-0.0000000000000821
 31
0.0
  0
LINE
  5
3FB
330
1E
100
AcDbEntity
  8
0
100
AcDbLine
 10
175.634
 20
-0.0000000000000758
 30
0.0
 11
175.634
 21
1.999999999999919
 31
0.0
  0
LINE
  5
3FC
330
1E
100
AcDbEntity
  8
0
100
AcDbLine
 10
175.634
 20
-0.0000000000000758
 30
0.0
 11
176.634
 21
-0.0000000000000757
 31
0.0
  0
LINE
  5
3FD
330
1E
100
AcDbEntity
  8
0
100
AcDbLine
 10
175.634
 20
-0.0000000000000758
 30
0.0
 11
177.3659999999999
 21
-0.0000000000000759
 31
0.0
  0
LINE
  5
3FE
330
1E
100
AcDbEntity
  8
0
100
AcDbLine
 10
175.634
 20
1.99999999999991
 30
0.0
 11
175.634
 21
-0.0000000000000872
 31
0.0
  0
LINE
  5
3FF
330
1E
100
AcDbEntity
  8
0
100
AcDbLine
 10
176.634
 20
-0.0000000000000757
 30
0.0
 11
176.634
 21
1.999999999999919
 31
0.0
  0
LINE
  5
400
330
1E
100
AcDbEntity
  8
0
100
AcDbLine
 10
176.634
 20
-0.0000000000000757
 30
0.0
 11
178.3659999999999
 21
-0.0000000000000758
 31
0.0
  0
LINE
  5
401
330
1E
100
AcDbEntity
  8
0
100
AcDbLine
 10
182.9
 20
1.99999999999991
 30
0.0
 11
183.0949999999999
 21
1.99999999999991
 31
0.0
  0
LINE
  5
402
330
1E
100
AcDbEntity
  8
0
100
AcDbLine
 10
187.5
 20
1.99999999999991
 30
0.0
 11
187.5539999999999
 21
1.99999999999991
 31
0.0
  0
LINE
  5
403
330
1E
100
AcDbEntity
  8
0
100
AcDbLine
 10
179.7759999999999
 20
1.99999999999991
 30
0.0
 11
182.9
 21
1.99999999999991
 31
0.0
  0
LINE
  5
404
330
1E
100
AcDbEntity
  8
0
100
AcDbLine
 10
178.3659999999999
 20
-0.0000000000000758
 30
0.0
 11
178.3659999999999
 21
1.999999999999919
 31
0.0
  0
LINE
  5
405
330
1E
100
AcDbEntity
  8
0
100
AcDbLine
 10
177.3659999999999
 20
-0.0000000000000759
 30
0.0
 11
178.3659999999999
 21
-0.0000000000000758
 31
0.0
  0
LINE
  5
406
330
1E
100
AcDbEntity
  8
0
100
AcDbLine
 10
183.0949999999999
 20
1.999999999999919
 30
0.0
 11
183.0949999999999
 21
-0.0000000000000826
 31
0.0
  0
LINE
  5
407
330
1E
100
AcDbEntity
  8
0
100
AcDbLine
 10
172.5
 20
1.999999999999919
 30
0.0
 11
172.5
 21
-0.0000000000000814
 31
0.0
  0
LINE
  5
408
330
1E
100
AcDbEntity
  8
0
100
AcDbLine
 10
171.055
 20
1.999999999999919
 30
0.0
 11
172.5
 21
1.999999999999919
 31
0.0
  0
LINE
  5
409
330
1E
100
AcDbEntity
  8
0
100
AcDbLine
 10
192.282
 20
1.99999999999991
 30
0.0
 11
197.583
 21
1.99999999999991
 31
0.0
  0
LINE
  5
40A
330
1E
100
AcDbEntity
  8
0
100
AcDbLine
 10
199.5749999999999
 20
-0.0000000000000768
 30
0.0
 11
199.5749999999999
 21
1.999999999999919
 31
0.0
  0
LINE
  5
40B
330
1E
100
AcDbEntity
  8
0
100
AcDbLine
 10
199.5749999999999
 20
-0.0000000000000768
 30
0.0
 11
200.9889999999999
 21
-0.0000000000000768
 31
0.0
  0
LINE
  5
40C
330
1E
100
AcDbEntity
  8
0
100
AcDbLine
 10
187.5539999999999
 20
1.99999999999991
 30
0.0
 11
187.5539999999999
 21
-0.0000000000000856
 31
0.0
  0
LINE
  5
40D
330
1E
100
AcDbEntity
  8
0
100
AcDbLine
 10
197.583
 20
1.999999999999919
 30
0.0
 11
197.583
 21
-0.0000000000000828
 31
0.0
  0
LINE
  5
40E
330
1E
100
AcDbEntity
  8
0
100
AcDbLine
 10
205.272
 20
1.99999999999991
 30
0.0
 11
208.3
 21
1.99999999999991
 31
0.0
  0
LINE
  5
40F
330
1E
100
AcDbEntity
  8
0
100
AcDbLine
 10
214.522
 20
1.99999999999991
 30
0.0
 11
215.5
 21
1.99999999999991
 31
0.0
  0
LINE
  5
410
330
1E
100
AcDbEntity
  8
0
100
AcDbLine
 10
208.3
 20
1.99999999999991
 30
0.0
 11
212.0719999999999
 21
1.99999999999991
 31
0.0
  0
LINE
  5
411
330
1E
100
AcDbEntity
  8
0
100
AcDbLine
 10
202.5399999999999
 20
1.999999999999919
 30
0.0
 11
202.5399999999999
 21
-0.0000000000000844
 31
0.0
  0
LINE
  5
412
330
1E
100
AcDbEntity
  8
0
100
AcDbLine
 10
212.0719999999999
 20
1.999999999999919
 30
0.0
 11
212.0719999999999
 21
-0.0000000000000831
 31
0.0
  0
LINE
  5
413
330
1E
100
AcDbEntity
  8
0
100
AcDbLine
 10
218.263
 20
1.99999999999991
 30
0.0
 11
226.5609999999999
 21
1.99999999999991
 31
0.0
  0
LINE
  5
414
330
1E
100
AcDbEntity
  8
0
100
AcDbLine
 10
232.5
 20
1.999999999999919
 30
0.0
 11
239.5999999999999
 21
1.999999999999919
 31
0.0
  0
LINE
  5
415
330
1E
100
AcDbEntity
  8
0
100
AcDbLine
 10
229.0109999999999
 20
1.999999999999919
 30
0.0
 11
230.5
 21
1.999999999999919
 31
0.0
  0
LINE
  5
416
330
1E
100
AcDbEntity
  8
0
100
AcDbLine
 10
226.5609999999999
 20
1.999999999999919
 30
0.0
 11
226.5609999999999
 21
-0.0000000000000833
 31
0.0
  0
LINE
  5
417
330
1E
100
AcDbEntity
  8
0
100
AcDbLine
 10
215.5
 20
1.999999999999919
 30
0.0
 11
215.5
 21
-0.0000000000000817
 31
0.0
  0
LINE
  5
418
330
1E
100
AcDbEntity
  8
0
100
AcDbLine
 10
215.5
 20
1.999999999999919
 30
0.0
 11
215.5
 21
-0.0000000000000814
 31
0.0
  0
LINE
  5
419
330
1E
100
AcDbEntity
  8
0
100
AcDbLine
 10
230.5
 20
1.999999999999919
 30
0.0
 11
230.5
 21
-0.0000000000000817
 31
0.0
  0
LINE
  5
41A
330
1E
100
AcDbEntity
  8
0
100
AcDbLine
 10
239.5999999999999
 20
1.999999999999919
 30
0.0
 11
244.0
 21
1.999999999999919
 31
0.0
  0
LINE
  5
41B
330
1E
100
AcDbEntity
  8
0
100
AcDbLine
 10
244.0
 20
1.999999999999919
 30
0.0
 11
245.0
 21
2.99999999999992
 31
0.0
  0
LINE
  5
41C
330
1E
100
AcDbEntity
  8
0
100
AcDbLine
 10
232.5
 20
1.999999999999919
 30
0.0
 11
232.5
 21
-0.0000000000000814
 31
0.0
  0
LINE
  5
41D
330
1E
100
AcDbEntity
  8
0
100
AcDbLine
 10
230.5
 20
1.999999999999919
 30
0.0
 11
230.5
 21
-0.0000000000000814
 31
0.0
  0
LINE
  5
41E
330
1E
100
AcDbEntity
  8
0
100
AcDbLine
 10
230.5
 20
1.999999999999919
 30
0.0
 11
232.5
 21
1.999999999999919
 31
0.0
  0
LINE
  5
41F
330
1E
100
AcDbEntity
  8
0
100
AcDbLine
 10
202.4999999999999
 20
1.999999999999919
 30
0.0
 11
202.4999999999999
 21
-0.0000000000000814
 31
0.0
  0
LINE
  5
420
330
1E
100
AcDbEntity
  8
0
100
AcDbLine
 10
200.9889999999999
 20
1.999999999999919
 30
0.0
 11
202.4999999999999
 21
1.999999999999919
 31
0.0
  0
LINE
  5
421
330
1E
100
AcDbEntity
  8
0
100
AcDbLine
 10
187.5
 20
1.999999999999919
 30
0.0
 11
187.5
 21
-0.0000000000000814
 31
0.0
  0
LINE
  5
422
330
1E
100
AcDbEntity
  8
0
100
AcDbLine
 10
185.544
 20
1.999999999999919
 30
0.0
 11
187.5
 21
1.999999999999919
 31
0.0
  0
LINE
  5
423
330
1E
100
AcDbEntity
  8
0
100
AcDbLine
 10
72.5
 20
1.999999999999919
 30
0.0
 11
72.5
 21
-0.0000000000000817
 31
0.0
  0
LINE
  5
424
330
1E
100
AcDbEntity
  8
0
100
AcDbLine
 10
59.456
 20
1.999999999999919
 30
0.0
 11
59.9736
 21
1.999999999999919
 31
0.0
  0
LINE
  5
425
330
1E
100
AcDbEntity
  8
0
100
AcDbLine
 10
59.456
 20
1.999999999999919
 30
0.0
 11
59.456
 21
-0.0000000000000805
 31
0.0
  0
LINE
  5
426
330
1E
100
AcDbEntity
  8
0
100
AcDbLine
 10
140.866
 20
1.999999999999919
 30
0.0
 11
141.5599999999999
 21
1.999999999999919
 31
0.0
  0
LINE
  5
427
330
1E
100
AcDbEntity
  8
0
100
AcDbLine
 10
141.5599999999999
 20
1.999999999999919
 30
0.0
 11
141.722
 21
1.999999999999919
 31
0.0
  0
LINE
  5
428
330
1E
100
AcDbEntity
  8
0
100
AcDbLine
 10
141.5599999999999
 20
1.999999999999919
 30
0.0
 11
141.5599999999999
 21
-0.0000000000000812
 31
0.0
  0
LINE
  5
429
330
1E
100
AcDbEntity
  8
0
100
AcDbLine
 10
103.278
 20
1.999999999999919
 30
0.0
 11
103.4399999999999
 21
1.999999999999919
 31
0.0
  0
LINE
  5
42A
330
1E
100
AcDbEntity
  8
0
100
AcDbLine
 10
91.866
 20
1.999999999999919
 30
0.0
 11
92.68909999999999
 21
1.999999999999919
 31
0.0
  0
LINE
  5
42B
330
1E
100
AcDbEntity
  8
0
100
AcDbLine
 10
137.5879999999999
 20
1.999999999999919
 30
0.0
 11
137.84
 21
1.999999999999919
 31
0.0
  0
LINE
  5
42C
330
1E
100
AcDbEntity
  8
0
100
AcDbLine
 10
137.5879999999999
 20
1.999999999999919
 30
0.0
 11
137.5879999999999
 21
-0.000000000000081
 31
0.0
  0
LINE
  5
42D
330
1E
100
AcDbEntity
  8
0
100
AcDbLine
 10
107.412
 20
1.999999999999919
 30
0.0
 11
107.412
 21
-0.000000000000081
 31
0.0
  0
LINE
  5
42E
330
1E
100
AcDbEntity
  8
0
100
AcDbLine
 10
107.651
 20
1.999999999999919
 30
0.0
 11
108.5929999999999
 21
1.999999999999919
 31
0.0
  0
LINE
  5
42F
330
1E
100
AcDbEntity
  8
0
100
AcDbLine
 10
107.651
 20
1.999999999999919
 30
0.0
 11
107.651
 21
-0.0000000000000808
 31
0.0
  0
LINE
  5
430
330
1E
100
AcDbEntity
  8
0
100
AcDbLine
 10
111.634
 20
1.999999999999919
 30
0.0
 11
112.4749999999999
 21
1.999999999999919
 31
0.0
  0
LINE
  5
431
330
1E
100
AcDbEntity
  8
0
100
AcDbLine
 10
111.634
 20
1.999999999999919
 30
0.0
 11
111.634
 21
-0.0000000000000805
 31
0.0
  0
LINE
  5
432
330
1E
100
AcDbEntity
  8
0
100
AcDbLine
 10
170.8659999999999
 20
1.999999999999919
 30
0.0
 11
171.055
 21
1.999999999999919
 31
0.0
  0
LINE
  5
433
330
1E
100
AcDbEntity
  8
0
100
AcDbLine
 10
171.055
 20
1.999999999999919
 30
0.0
 11
171.055
 21
-0.0000000000000808
 31
0.0
  0
LINE
  5
434
330
1E
100
AcDbEntity
  8
0
100
AcDbLine
 10
137.3489999999999
 20
1.999999999999919
 30
0.0
 11
137.3489999999999
 21
-0.0000000000000808
 31
0.0
  0
LINE
  5
435
330
1E
100
AcDbEntity
  8
0
100
AcDbLine
 10
151.9359999999999
 20
1.999999999999919
 30
0.0
 11
152.311
 21
1.999999999999919
 31
0.0
  0
LINE
  5
436
330
1E
100
AcDbEntity
  8
0
100
AcDbLine
 10
183.0949999999999
 20
1.999999999999919
 30
0.0
 11
185.0259999999999
 21
1.999999999999919
 31
0.0
  0
LINE
  5
437
330
1E
100
AcDbEntity
  8
0
100
AcDbLine
 10
183.0949999999999
 20
1.999999999999919
 30
0.0
 11
183.0949999999999
 21
-0.0000000000000805
 31
0.0
  0
LINE
  5
438
330
1E
100
AcDbEntity
  8
0
100
AcDbLine
 10
185.0259999999999
 20
1.999999999999919
 30
0.0
 11
185.544
 21
1.999999999999919
 31
0.0
  0
LINE
  5
439
330
1E
100
AcDbEntity
  8
0
100
AcDbLine
 10
185.0259999999999
 20
1.999999999999919
 30
0.0
 11
185.0259999999999
 21
-0.0000000000000805
 31
0.0
  0
LINE
  5
43A
330
1E
100
AcDbEntity
  8
0
100
AcDbLine
 10
185.544
 20
1.999999999999919
 30
0.0
 11
185.544
 21
-0.0000000000000805
 31
0.0
  0
LINE
  5
43B
330
1E
100
AcDbEntity
  8
0
100
AcDbLine
 10
152.311
 20
1.999999999999919
 30
0.0
 11
153.1339999999999
 21
1.999999999999919
 31
0.0
  0
LINE
  5
43C
330
1E
100
AcDbEntity
  8
0
100
AcDbLine
 10
152.311
 20
1.999999999999919
 30
0.0
 11
152.311
 21
-0.0000000000000805
 31
0.0
  0
LINE
  5
43D
330
1E
100
AcDbEntity
  8
0
100
AcDbLine
 10
136.407
 20
1.999999999999919
 30
0.0
 11
137.3489999999999
 21
1.999999999999919
 31
0.0
  0
LINE
  5
43E
330
1E
100
AcDbEntity
  8
0
100
AcDbLine
 10
133.366
 20
1.999999999999919
 30
0.0
 11
133.366
 21
-0.0000000000000805
 31
0.0
  0
LINE
  5
43F
330
1E
100
AcDbEntity
  8
0
100
AcDbLine
 10
132.525
 20
1.999999999999919
 30
0.0
 11
133.366
 21
1.999999999999919
 31
0.0
  0
LINE
  5
440
330
1E
100
AcDbEntity
  8
0
100
AcDbLine
 10
121.5
 20
1.999999999999919
 30
0.0
 11
121.5
 21
-0.0000000000000805
 31
0.0
  0
LINE
  5
441
330
1E
100
AcDbEntity
  8
0
100
AcDbLine
 10
126.1929999999999
 20
1.999999999999919
 30
0.0
 11
126.7099999999999
 21
1.999999999999919
 31
0.0
  0
LINE
  5
442
330
1E
100
AcDbEntity
  8
0
100
AcDbLine
 10
126.1929999999999
 20
1.999999999999919
 30
0.0
 11
126.1929999999999
 21
-0.0000000000000805
 31
0.0
  0
LINE
  5
443
330
1E
100
AcDbEntity
  8
0
100
AcDbLine
 10
118.8069999999999
 20
1.999999999999919
 30
0.0
 11
118.8069999999999
 21
-0.0000000000000805
 31
0.0
  0
LINE
  5
444
330
1E
100
AcDbEntity
  8
0
100
AcDbLine
 10
107.1599999999999
 20
1.999999999999919
 30
0.0
 11
107.412
 21
1.999999999999919
 31
0.0
  0
LINE
  5
445
330
1E
100
AcDbEntity
  8
0
100
AcDbLine
 10
92.68909999999999
 20
1.999999999999919
 30
0.0
 11
93.064
 21
1.999999999999919
 31
0.0
  0
LINE
  5
446
330
1E
100
AcDbEntity
  8
0
100
AcDbLine
 10
92.68909999999999
 20
1.999999999999919
 30
0.0
 11
92.68909999999999
 21
-0.0000000000000805
 31
0.0
  0
LINE
  5
447
330
1E
100
AcDbEntity
  8
0
100
AcDbLine
 10
103.4399999999999
 20
1.999999999999919
 30
0.0
 11
104.1339999999999
 21
1.999999999999919
 31
0.0
  0
LINE
  5
448
330
1E
100
AcDbEntity
  8
0
100
AcDbLine
 10
103.4399999999999
 20
1.999999999999919
 30
0.0
 11
103.4399999999999
 21
-0.0000000000000812
 31
0.0
  0
LINE
  5
449
330
1E
100
AcDbEntity
  8
0
100
AcDbLine
 10
73.94490000000001
 20
1.999999999999919
 30
0.0
 11
74.134
 21
1.999999999999919
 31
0.0
  0
LINE
  5
44A
330
1E
100
AcDbEntity
  8
0
100
AcDbLine
 10
73.94490000000001
 20
1.999999999999919
 30
0.0
 11
73.94490000000001
 21
-0.0000000000000808
 31
0.0
  0
LINE
  5
44B
330
1E
100
AcDbEntity
  8
0
100
AcDbLine
 10
65.22429999999999
 20
1.999999999999919
 30
0.0
 11
66.634
 21
1.999999999999919
 31
0.0
  0
LINE
  5
44C
330
1E
100
AcDbEntity
  8
0
100
AcDbLine
 10
65.22429999999999
 20
1.999999999999919
 30
0.0
 11
65.22429999999999
 21
-0.0000000000000782
 31
0.0
  0
LINE
  5
44D
330
1E
100
AcDbEntity
  8
0
100
AcDbLine
 10
62.1
 20
3.99999999999992
 30
0.0
 11
91.3
 21
3.99999999999993
 31
0.0
  0
LINE
  5
44E
330
1E
100
AcDbEntity
  8
0
100
AcDbLine
 10
61.6
 20
2.99999999999992
 30
0.0
 11
91.0
 21
2.99999999999993
 31
0.0
  0
LINE
  5
450
330
1E
100
AcDbEntity
  8
0
100
AcDbLine
 10
64.5
 20
23.9999999999999
 30
0.0
 11
92.5
 21
23.9999999999999
 31
0.0
  0
LINE
  5
451
330
1E
100
AcDbEntity
  8
0
100
AcDbLine
 10
64.0
 20
19.99999999999989
 30
0.0
 11
92.3
 21
19.99999999999989
 31
0.0
  0
LINE
  5
452
330
1E
100
AcDbEntity
  8
0
100
AcDbLine
 10
63.5
 20
18.99999999999989
 30
0.0
 11
92.0
 21
18.99999999999989
 31
0.0
  0
LINE
  5
453
330
1E
100
AcDbEntity
  8
0
100
AcDbLine
 10
62.7
 20
10.9999999999999
 30
0.0
 11
91.5
 21
10.9999999999999
 31
0.0
  0
LINE
  5
454
330
1E
100
AcDbEntity
  8
0
100
AcDbLine
 10
62.1
 20
1.999999999999919
 30
0.0
 11
91.3
 21
1.99999999999993
 31
0.0
  0
LINE
  5
455
330
1E
100
AcDbEntity
  8
0
100
AcDbLine
 10
66.634
 20
1.999999999999919
 30
0.0
 11
68.366
 21
1.999999999999919
 31
0.0
  0
LINE
  5
456
330
1E
100
AcDbEntity
  8
0
100
AcDbLine
 10
66.634
 20
1.999999999999919
 30
0.0
 11
66.634
 21
-0.0000000000000757
 31
0.0
  0
LINE
  5
457
330
1E
100
AcDbEntity
  8
0
100
AcDbLine
 10
74.134
 20
1.999999999999919
 30
0.0
 11
75.866
 21
1.999999999999919
 31
0.0
  0
LINE
  5
458
330
1E
100
AcDbEntity
  8
0
100
AcDbLine
 10
74.134
 20
1.999999999999919
 30
0.0
 11
74.134
 21
-0.0000000000000766
 31
0.0
  0
LINE
  5
459
330
1E
100
AcDbEntity
  8
0
100
AcDbLine
 10
76.866
 20
1.999999999999919
 30
0.0
 11
77.2452
 21
1.999999999999919
 31
0.0
  0
LINE
  5
45A
330
1E
100
AcDbEntity
  8
0
100
AcDbLine
 10
78.65940000000001
 20
1.999999999999919
 30
0.0
 11
78.65940000000001
 21
-0.0000000000000789
 31
0.0
  0
LINE
  5
45B
330
1E
100
AcDbEntity
  8
0
100
AcDbLine
 10
77.2452
 20
1.999999999999919
 30
0.0
 11
78.65940000000001
 21
1.999999999999919
 31
0.0
  0
LINE
  5
45C
330
1E
100
AcDbEntity
  8
0
100
AcDbLine
 10
77.2452
 20
1.999999999999919
 30
0.0
 11
77.2452
 21
-0.0000000000000787
 31
0.0
  0
LINE
  5
45D
330
1E
100
AcDbEntity
  8
0
100
AcDbLine
 10
76.866
 20
1.999999999999919
 30
0.0
 11
76.866
 21
-0.0000000000000766
 31
0.0
  0
LINE
  5
45E
330
1E
100
AcDbEntity
  8
0
100
AcDbLine
 10
75.866
 20
1.999999999999919
 30
0.0
 11
76.866
 21
1.999999999999919
 31
0.0
  0
LINE
  5
45F
330
1E
100
AcDbEntity
  8
0
100
AcDbLine
 10
75.866
 20
1.999999999999919
 30
0.0
 11
75.866
 21
-0.0000000000000766
 31
0.0
  0
LINE
  5
460
330
1E
100
AcDbEntity
  8
0
100
AcDbLine
 10
69.366
 20
1.999999999999919
 30
0.0
 11
69.366
 21
-0.0000000000000759
 31
0.0
  0
LINE
  5
461
330
1E
100
AcDbEntity
  8
0
100
AcDbLine
 10
68.366
 20
1.999999999999919
 30
0.0
 11
69.366
 21
1.999999999999919
 31
0.0
  0
LINE
  5
462
330
1E
100
AcDbEntity
  8
0
100
AcDbLine
 10
68.366
 20
1.999999999999919
 30
0.0
 11
68.366
 21
-0.0000000000000757
 31
0.0
  0
LINE
  5
463
330
1E
100
AcDbEntity
  8
0
100
AcDbLine
 10
78.6987
 20
1.999999999999919
 30
0.0
 11
79.6987
 21
1.999999999999919
 31
0.0
  0
LINE
  5
464
330
1E
100
AcDbEntity
  8
0
100
AcDbLine
 10
78.6987
 20
1.999999999999919
 30
0.0
 11
78.6987
 21
-0.0000000000000801
 31
0.0
  0
LINE
  5
465
330
1E
100
AcDbEntity
  8
0
100
AcDbLine
 10
99.8726
 20
1.999999999999919
 30
0.0
 11
99.8726
 21
-0.0000000000000801
 31
0.0
  0
LINE
  5
466
330
1E
100
AcDbEntity
  8
0
100
AcDbLine
 10
99.39579999999999
 20
1.999999999999919
 30
0.0
 11
99.8726
 21
1.999999999999919
 31
0.0
  0
LINE
  5
467
330
1E
100
AcDbEntity
  8
0
100
AcDbLine
 10
116.3579999999999
 20
1.999999999999919
 30
0.0
 11
118.29
 21
1.999999999999919
 31
0.0
  0
LINE
  5
468
330
1E
100
AcDbEntity
  8
0
100
AcDbLine
 10
116.3579999999999
 20
1.999999999999919
 30
0.0
 11
116.3579999999999
 21
-0.0000000000000803
 31
0.0
  0
LINE
  5
469
330
1E
100
AcDbEntity
  8
0
100
AcDbLine
 10
121.5
 20
1.999999999999919
 30
0.0
 11
121.5
 21
-0.0000000000000803
 31
0.0
  0
LINE
  5
46A
330
1E
100
AcDbEntity
  8
0
100
AcDbLine
 10
197.583
 20
1.999999999999919
 30
0.0
 11
198.16
 21
1.999999999999919
 31
0.0
  0
LINE
  5
46B
330
1E
100
AcDbEntity
  8
0
100
AcDbLine
 10
197.583
 20
1.999999999999919
 30
0.0
 11
197.583
 21
-0.0000000000000803
 31
0.0
  0
LINE
  5
46C
330
1E
100
AcDbEntity
  8
0
100
AcDbLine
 10
128.6419999999999
 20
1.999999999999919
 30
0.0
 11
128.6419999999999
 21
-0.0000000000000803
 31
0.0
  0
LINE
  5
46D
330
1E
100
AcDbEntity
  8
0
100
AcDbLine
 10
163.5689999999999
 20
1.999999999999919
 30
0.0
 11
165.3009999999999
 21
1.999999999999919
 31
0.0
  0
LINE
  5
46E
330
1E
100
AcDbEntity
  8
0
100
AcDbLine
 10
163.5689999999999
 20
1.999999999999919
 30
0.0
 11
163.5689999999999
 21
-0.0000000000000801
 31
0.0
  0
LINE
  5
46F
330
1E
100
AcDbEntity
  8
0
100
AcDbLine
 10
212.0719999999999
 20
1.999999999999919
 30
0.0
 11
214.004
 21
1.999999999999919
 31
0.0
  0
LINE
  5
470
330
1E
100
AcDbEntity
  8
0
100
AcDbLine
 10
212.0719999999999
 20
1.999999999999919
 30
0.0
 11
212.0719999999999
 21
-0.0000000000000801
 31
0.0
  0
LINE
  5
471
330
1E
100
AcDbEntity
  8
0
100
AcDbLine
 10
214.004
 20
1.999999999999919
 30
0.0
 11
214.522
 21
1.999999999999919
 31
0.0
  0
LINE
  5
472
330
1E
100
AcDbEntity
  8
0
100
AcDbLine
 10
214.004
 20
1.999999999999919
 30
0.0
 11
214.004
 21
-0.0000000000000801
 31
0.0
  0
LINE
  5
473
330
1E
100
AcDbEntity
  8
0
100
AcDbLine
 10
214.522
 20
1.999999999999919
 30
0.0
 11
214.522
 21
-0.0000000000000801
 31
0.0
  0
LINE
  5
474
330
1E
100
AcDbEntity
  8
0
100
AcDbLine
 10
166.3009999999999
 20
1.999999999999919
 30
0.0
 11
166.3009999999999
 21
-0.0000000000000801
 31
0.0
  0
LINE
  5
475
330
1E
100
AcDbEntity
  8
0
100
AcDbLine
 10
165.3009999999999
 20
1.999999999999919
 30
0.0
 11
166.3009999999999
 21
1.999999999999919
 31
0.0
  0
LINE
  5
476
330
1E
100
AcDbEntity
  8
0
100
AcDbLine
 10
165.3009999999999
 20
1.999999999999919
 30
0.0
 11
165.3009999999999
 21
-0.0000000000000801
 31
0.0
  0
LINE
  5
477
330
1E
100
AcDbEntity
  8
0
100
AcDbLine
 10
145.127
 20
1.999999999999919
 30
0.0
 11
145.6039999999999
 21
1.999999999999919
 31
0.0
  0
LINE
  5
478
330
1E
100
AcDbEntity
  8
0
100
AcDbLine
 10
145.127
 20
1.999999999999919
 30
0.0
 11
145.127
 21
-0.0000000000000801
 31
0.0
  0
LINE
  5
479
330
1E
100
AcDbEntity
  8
0
100
AcDbLine
 10
126.7099999999999
 20
1.999999999999919
 30
0.0
 11
128.6419999999999
 21
1.999999999999919
 31
0.0
  0
LINE
  5
47A
330
1E
100
AcDbEntity
  8
0
100
AcDbLine
 10
126.7099999999999
 20
1.999999999999919
 30
0.0
 11
126.7099999999999
 21
-0.0000000000000803
 31
0.0
  0
LINE
  5
47B
330
1E
100
AcDbEntity
  8
0
100
AcDbLine
 10
118.29
 20
1.999999999999919
 30
0.0
 11
118.8069999999999
 21
1.999999999999919
 31
0.0
  0
LINE
  5
47C
330
1E
100
AcDbEntity
  8
0
100
AcDbLine
 10
118.29
 20
1.999999999999919
 30
0.0
 11
118.29
 21
-0.0000000000000803
 31
0.0
  0
LINE
  5
47D
330
1E
100
AcDbEntity
  8
0
100
AcDbLine
 10
81.63400000000001
 20
1.999999999999919
 30
0.0
 11
83.366
 21
1.999999999999919
 31
0.0
  0
LINE
  5
47E
330
1E
100
AcDbEntity
  8
0
100
AcDbLine
 10
81.63400000000001
 20
1.999999999999919
 30
0.0
 11
81.63400000000001
 21
-0.0000000000000773
 31
0.0
  0
LINE
  5
47F
330
1E
100
AcDbEntity
  8
0
100
AcDbLine
 10
86.4376
 20
1.999999999999919
 30
0.0
 11
87.8518
 21
1.999999999999919
 31
0.0
  0
LINE
  5
480
330
1E
100
AcDbEntity
  8
0
100
AcDbLine
 10
86.4376
 20
1.999999999999919
 30
0.0
 11
86.4376
 21
-0.0000000000000794
 31
0.0
  0
LINE
  5
481
330
1E
100
AcDbEntity
  8
0
100
AcDbLine
 10
87.8518
 20
1.999999999999919
 30
0.0
 11
89.13400000000001
 21
1.999999999999919
 31
0.0
  0
LINE
  5
482
330
1E
100
AcDbEntity
  8
0
100
AcDbLine
 10
87.8518
 20
1.999999999999919
 30
0.0
 11
87.8518
 21
-0.0000000000000794
 31
0.0
  0
LINE
  5
483
330
1E
100
AcDbEntity
  8
0
100
AcDbLine
 10
89.13400000000001
 20
1.999999999999919
 30
0.0
 11
90.866
 21
1.999999999999919
 31
0.0
  0
LINE
  5
484
330
1E
100
AcDbEntity
  8
0
100
AcDbLine
 10
89.13400000000001
 20
1.999999999999919
 30
0.0
 11
89.13400000000001
 21
-0.0000000000000782
 31
0.0
  0
LINE
  5
485
330
1E
100
AcDbEntity
  8
0
100
AcDbLine
 10
91.866
 20
1.999999999999919
 30
0.0
 11
91.866
 21
-0.0000000000000782
 31
0.0
  0
LINE
  5
486
330
1E
100
AcDbEntity
  8
0
100
AcDbLine
 10
90.866
 20
1.999999999999919
 30
0.0
 11
91.866
 21
1.999999999999919
 31
0.0
  0
LINE
  5
487
330
1E
100
AcDbEntity
  8
0
100
AcDbLine
 10
90.866
 20
1.999999999999919
 30
0.0
 11
90.866
 21
-0.000000000000078
 31
0.0
  0
LINE
  5
488
330
1E
100
AcDbEntity
  8
0
100
AcDbLine
 10
84.366
 20
1.999999999999919
 30
0.0
 11
84.366
 21
-0.0000000000000773
 31
0.0
  0
LINE
  5
489
330
1E
100
AcDbEntity
  8
0
100
AcDbLine
 10
83.366
 20
1.999999999999919
 30
0.0
 11
84.366
 21
1.999999999999919
 31
0.0
  0
LINE
  5
48A
330
1E
100
AcDbEntity
  8
0
100
AcDbLine
 10
83.366
 20
1.999999999999919
 30
0.0
 11
83.366
 21
-0.0000000000000773
 31
0.0
  0
LINE
  5
48B
330
1E
100
AcDbEntity
  8
0
100
AcDbLine
 10
93.064
 20
1.99999999999993
 30
0.0
 11
94.99579999999999
 21
1.99999999999993
 31
0.0
  0
LINE
  5
48C
330
1E
100
AcDbEntity
  8
0
100
AcDbLine
 10
93.064
 20
1.99999999999993
 30
0.0
 11
93.064
 21
-0.000000000000075
 31
0.0
  0
LINE
  5
48D
330
1E
100
AcDbEntity
  8
0
100
AcDbLine
 10
91.5
 20
102.0
 30
0.0
 11
92.58254
 21
109.9714
 31
0.0
  0
LINE
  5
48E
330
1E
100
AcDbEntity
  8
0
100
AcDbLine
 10
91.5
 20
102.0
 30
0.0
 11
92.58254
 21
94.02859999999989
 31
0.0
  0
LINE
  5
490
330
1E
100
AcDbEntity
  8
0
100
AcDbLine
 10
92.58254
 20
94.02859999999989
 30
0.0
 11
95.63333
 21
86.54919999999989
 31
0.0
  0
LINE
  5
491
330
1E
100
AcDbEntity
  8
0
100
AcDbLine
 10
92.58254
 20
109.9714
 30
0.0
 11
95.63333
 21
117.4508
 31
0.0
  0
LINE
  5
492
330
1E
100
AcDbEntity
  8
0
100
AcDbLine
 10
92.5
 20
23.9999999999999
 30
0.0
 11
122.5
 21
23.9999999999999
 31
0.0
  0
LINE
  5
493
330
1E
100
AcDbEntity
  8
0
100
AcDbLine
 10
92.3
 20
19.99999999999989
 30
0.0
 11
122.5
 21
19.99999999999989
 31
0.0
  0
LINE
  5
494
330
1E
100
AcDbEntity
  8
0
100
AcDbLine
 10
92.0
 20
18.99999999999989
 30
0.0
 11
122.5
 21
18.99999999999989
 31
0.0
  0
LINE
  5
495
330
1E
100
AcDbEntity
  8
0
100
AcDbLine
 10
91.5
 20
10.9999999999999
 30
0.0
 11
122.5
 21
10.9999999999999
 31
0.0
  0
LINE
  5
496
330
1E
100
AcDbEntity
  8
0
100
AcDbLine
 10
91.3
 20
3.99999999999993
 30
0.0
 11
122.5
 21
3.99999999999993
 31
0.0
  0
LINE
  5
497
330
1E
100
AcDbEntity
  8
0
100
AcDbLine
 10
91.0
 20
2.99999999999993
 30
0.0
 11
122.5
 21
2.99999999999993
 31
0.0
  0
LINE
  5
498
330
1E
100
AcDbEntity
  8
0
100
AcDbLine
 10
91.3
 20
1.99999999999993
 30
0.0
 11
122.5
 21
1.99999999999993
 31
0.0
  0
LINE
  5
499
330
1E
100
AcDbEntity
  8
0
100
AcDbLine
 10
94.0
 20
38.9999999999999
 30
0.0
 11
98.0
 21
39.9999999999999
 31
0.0
  0
LINE
  5
49A
330
1E
100
AcDbEntity
  8
0
100
AcDbLine
 10
94.99579999999999
 20
1.99999999999993
 30
0.0
 11
95.51349999999999
 21
1.999999999999919
 31
0.0
  0
LINE
  5
49B
330
1E
100
AcDbEntity
  8
0
100
AcDbLine
 10
94.99579999999999
 20
1.99999999999993
 30
0.0
 11
94.99579999999999
 21
-0.000000000000075
 31
0.0
  0
LINE
  5
49C
330
1E
100
AcDbEntity
  8
0
100
AcDbLine
 10
96.63400000000001
 20
1.999999999999919
 30
0.0
 11
96.9463
 21
1.999999999999919
 31
0.0
  0
LINE
  5
49D
330
1E
100
AcDbEntity
  8
0
100
AcDbLine
 10
96.63400000000001
 20
1.999999999999919
 30
0.0
 11
96.63400000000001
 21
-0.0000000000000789
 31
0.0
  0
LINE
  5
49E
330
1E
100
AcDbEntity
  8
0
100
AcDbLine
 10
100.8289999999999
 20
1.999999999999919
 30
0.0
 11
102.76
 21
1.999999999999919
 31
0.0
  0
LINE
  5
49F
330
1E
100
AcDbEntity
  8
0
100
AcDbLine
 10
100.8289999999999
 20
1.999999999999919
 30
0.0
 11
100.8289999999999
 21
-0.0000000000000768
 31
0.0
  0
LINE
  5
4A0
330
1E
100
AcDbEntity
  8
0
100
AcDbLine
 10
102.76
 20
1.999999999999919
 30
0.0
 11
103.278
 21
1.999999999999919
 31
0.0
  0
LINE
  5
4A1
330
1E
100
AcDbEntity
  8
0
100
AcDbLine
 10
102.76
 20
1.999999999999919
 30
0.0
 11
102.76
 21
-0.0000000000000768
 31
0.0
  0
LINE
  5
4A2
330
1E
100
AcDbEntity
  8
0
100
AcDbLine
 10
226.5609999999999
 20
1.999999999999919
 30
0.0
 11
228.493
 21
1.999999999999919
 31
0.0
  0
LINE
  5
4A3
330
1E
100
AcDbEntity
  8
0
100
AcDbLine
 10
226.5609999999999
 20
1.999999999999919
 30
0.0
 11
226.5609999999999
 21
-0.0000000000000798
 31
0.0
  0
LINE
  5
4A4
330
1E
100
AcDbEntity
  8
0
100
AcDbLine
 10
228.493
 20
1.999999999999919
 30
0.0
 11
229.0109999999999
 21
1.999999999999919
 31
0.0
  0
LINE
  5
4A5
330
1E
100
AcDbEntity
  8
0
100
AcDbLine
 10
228.493
 20
1.999999999999919
 30
0.0
 11
228.493
 21
-0.0000000000000798
 31
0.0
  0
LINE
  5
4A6
330
1E
100
AcDbEntity
  8
0
100
AcDbLine
 10
229.0109999999999
 20
1.999999999999919
 30
0.0
 11
229.0109999999999
 21
-0.0000000000000798
 31
0.0
  0
LINE
  5
4A7
330
1E
100
AcDbEntity
  8
0
100
AcDbLine
 10
140.866
 20
1.999999999999919
 30
0.0
 11
140.866
 21
-0.0000000000000798
 31
0.0
  0
LINE
  5
4A8
330
1E
100
AcDbEntity
  8
0
100
AcDbLine
 10
140.289
 20
1.999999999999919
 30
0.0
 11
140.866
 21
1.999999999999919
 31
0.0
  0
LINE
  5
4A9
330
1E
100
AcDbEntity
  8
0
100
AcDbLine
 10
104.7109999999999
 20
1.999999999999919
 30
0.0
 11
106.6429999999999
 21
1.999999999999919
 31
0.0
  0
LINE
  5
4AA
330
1E
100
AcDbEntity
  8
0
100
AcDbLine
 10
104.7109999999999
 20
1.999999999999919
 30
0.0
 11
104.7109999999999
 21
-0.0000000000000778
 31
0.0
  0
LINE
  5
4AB
330
1E
100
AcDbEntity
  8
0
100
AcDbLine
 10
106.6429999999999
 20
1.999999999999919
 30
0.0
 11
107.1599999999999
 21
1.999999999999919
 31
0.0
  0
LINE
  5
4AC
330
1E
100
AcDbEntity
  8
0
100
AcDbLine
 10
106.6429999999999
 20
1.999999999999919
 30
0.0
 11
106.6429999999999
 21
-0.0000000000000778
 31
0.0
  0
LINE
  5
4AD
330
1E
100
AcDbEntity
  8
0
100
AcDbLine
 10
108.5929999999999
 20
1.999999999999919
 30
0.0
 11
110.525
 21
1.999999999999919
 31
0.0
  0
LINE
  5
4AE
330
1E
100
AcDbEntity
  8
0
100
AcDbLine
 10
108.5929999999999
 20
1.999999999999919
 30
0.0
 11
108.5929999999999
 21
-0.0000000000000787
 31
0.0
  0
LINE
  5
4AF
330
1E
100
AcDbEntity
  8
0
100
AcDbLine
 10
121.5
 20
1.999999999999919
 30
0.0
 11
121.5
 21
-0.0000000000000796
 31
0.0
  0
LINE
  5
4B0
330
1E
100
AcDbEntity
  8
0
100
AcDbLine
 10
239.5999999999999
 20
1.999999999999919
 30
0.0
 11
244.0
 21
1.999999999999919
 31
0.0
  0
LINE
  5
4B1
330
1E
100
AcDbEntity
  8
0
100
AcDbLine
 10
130.0749999999999
 20
1.999999999999919
 30
0.0
 11
130.5929999999999
 21
1.999999999999919
 31
0.0
  0
LINE
  5
4B2
330
1E
100
AcDbEntity
  8
0
100
AcDbLine
 10
130.0749999999999
 20
1.999999999999919
 30
0.0
 11
130.0749999999999
 21
-0.0000000000000796
 31
0.0
  0
LINE
  5
4B3
330
1E
100
AcDbEntity
  8
0
100
AcDbLine
 10
132.525
 20
1.999999999999919
 30
0.0
 11
132.525
 21
-0.0000000000000796
 31
0.0
  0
LINE
  5
4B4
330
1E
100
AcDbEntity
  8
0
100
AcDbLine
 10
112.4749999999999
 20
1.999999999999919
 30
0.0
 11
114.407
 21
1.999999999999919
 31
0.0
  0
LINE
  5
4B5
330
1E
100
AcDbEntity
  8
0
100
AcDbLine
 10
112.4749999999999
 20
1.999999999999919
 30
0.0
 11
112.4749999999999
 21
-0.0000000000000796
 31
0.0
  0
LINE
  5
4B6
330
1E
100
AcDbEntity
  8
0
100
AcDbLine
 10
121.5
 20
1.999999999999919
 30
0.0
 11
121.5
 21
-0.0000000000000794
 31
0.0
  0
LINE
  5
4B7
330
1E
100
AcDbEntity
  8
0
100
AcDbLine
 10
130.5929999999999
 20
1.999999999999919
 30
0.0
 11
132.525
 21
1.999999999999919
 31
0.0
  0
LINE
  5
4B8
330
1E
100
AcDbEntity
  8
0
100
AcDbLine
 10
130.5929999999999
 20
1.999999999999919
 30
0.0
 11
130.5929999999999
 21
-0.0000000000000794
 31
0.0
  0
LINE
  5
4B9
330
1E
100
AcDbEntity
  8
0
100
AcDbLine
 10
121.5
 20
1.999999999999919
 30
0.0
 11
121.5
 21
-0.0000000000000787
 31
0.0
  0
LINE
  5
4BA
330
1E
100
AcDbEntity
  8
0
100
AcDbLine
 10
133.9569999999999
 20
1.999999999999919
 30
0.0
 11
134.4749999999999
 21
1.999999999999919
 31
0.0
  0
LINE
  5
4BB
330
1E
100
AcDbEntity
  8
0
100
AcDbLine
 10
133.9569999999999
 20
1.999999999999919
 30
0.0
 11
133.9569999999999
 21
-0.0000000000000787
 31
0.0
  0
LINE
  5
4BC
330
1E
100
AcDbEntity
  8
0
100
AcDbLine
 10
155.866
 20
1.999999999999919
 30
0.0
 11
157.148
 21
1.999999999999919
 31
0.0
  0
LINE
  5
4BD
330
1E
100
AcDbEntity
  8
0
100
AcDbLine
 10
158.562
 20
1.999999999999919
 30
0.0
 11
158.562
 21
-0.0000000000000794
 31
0.0
  0
LINE
  5
4BE
330
1E
100
AcDbEntity
  8
0
100
AcDbLine
 10
190.3819999999999
 20
1.999999999999919
 30
0.0
 11
191.282
 21
1.999999999999919
 31
0.0
  0
LINE
  5
4BF
330
1E
100
AcDbEntity
  8
0
100
AcDbLine
 10
192.282
 20
1.999999999999919
 30
0.0
 11
192.282
 21
-0.0000000000000791
 31
0.0
  0
LINE
  5
4C0
330
1E
100
AcDbEntity
  8
0
100
AcDbLine
 10
191.282
 20
1.999999999999919
 30
0.0
 11
192.282
 21
1.999999999999919
 31
0.0
  0
LINE
  5
4C1
330
1E
100
AcDbEntity
  8
0
100
AcDbLine
 10
191.282
 20
1.999999999999919
 30
0.0
 11
191.282
 21
-0.0000000000000791
 31
0.0
  0
LINE
  5
4C2
330
1E
100
AcDbEntity
  8
0
100
AcDbLine
 10
157.148
 20
1.999999999999919
 30
0.0
 11
158.562
 21
1.999999999999919
 31
0.0
  0
LINE
  5
4C3
330
1E
100
AcDbEntity
  8
0
100
AcDbLine
 10
157.148
 20
1.999999999999919
 30
0.0
 11
157.148
 21
-0.0000000000000794
 31
0.0
  0
LINE
  5
4C4
330
1E
100
AcDbEntity
  8
0
100
AcDbLine
 10
148.366
 20
1.999999999999919
 30
0.0
 11
148.366
 21
-0.0000000000000789
 31
0.0
  0
LINE
  5
4C5
330
1E
100
AcDbEntity
  8
0
100
AcDbLine
 10
166.3409999999999
 20
1.999999999999919
 30
0.0
 11
167.755
 21
1.999999999999919
 31
0.0
  0
LINE
  5
4C6
330
1E
100
AcDbEntity
  8
0
100
AcDbLine
 10
166.3409999999999
 20
1.999999999999919
 30
0.0
 11
166.3409999999999
 21
-0.0000000000000789
 31
0.0
  0
LINE
  5
4C7
330
1E
100
AcDbEntity
  8
0
100
AcDbLine
 10
167.755
 20
1.999999999999919
 30
0.0
 11
168.134
 21
1.999999999999919
 31
0.0
  0
LINE
  5
4C8
330
1E
100
AcDbEntity
  8
0
100
AcDbLine
 10
167.755
 20
1.999999999999919
 30
0.0
 11
167.755
 21
-0.0000000000000787
 31
0.0
  0
LINE
  5
4C9
330
1E
100
AcDbEntity
  8
0
100
AcDbLine
 10
202.5399999999999
 20
1.999999999999919
 30
0.0
 11
204.272
 21
1.999999999999919
 31
0.0
  0
LINE
  5
4CA
330
1E
100
AcDbEntity
  8
0
100
AcDbLine
 10
202.5399999999999
 20
1.999999999999919
 30
0.0
 11
202.5399999999999
 21
-0.0000000000000787
 31
0.0
  0
LINE
  5
4CB
330
1E
100
AcDbEntity
  8
0
100
AcDbLine
 10
205.272
 20
1.999999999999919
 30
0.0
 11
205.272
 21
-0.0000000000000787
 31
0.0
  0
LINE
  5
4CC
330
1E
100
AcDbEntity
  8
0
100
AcDbLine
 10
204.272
 20
1.999999999999919
 30
0.0
 11
205.272
 21
1.999999999999919
 31
0.0
  0
LINE
  5
4CD
330
1E
100
AcDbEntity
  8
0
100
AcDbLine
 10
204.272
 20
1.999999999999919
 30
0.0
 11
204.272
 21
-0.0000000000000787
 31
0.0
  0
LINE
  5
4CE
330
1E
100
AcDbEntity
  8
0
100
AcDbLine
 10
148.0539999999999
 20
1.999999999999919
 30
0.0
 11
148.366
 21
1.999999999999919
 31
0.0
  0
LINE
  5
4CF
330
1E
100
AcDbEntity
  8
0
100
AcDbLine
 10
136.407
 20
1.999999999999919
 30
0.0
 11
136.407
 21
-0.0000000000000787
 31
0.0
  0
LINE
  5
4D0
330
1E
100
AcDbEntity
  8
0
100
AcDbLine
 10
134.4749999999999
 20
1.999999999999919
 30
0.0
 11
136.407
 21
1.999999999999919
 31
0.0
  0
LINE
  5
4D1
330
1E
100
AcDbEntity
  8
0
100
AcDbLine
 10
134.4749999999999
 20
1.999999999999919
 30
0.0
 11
134.4749999999999
 21
-0.0000000000000787
 31
0.0
  0
LINE
  5
4D2
330
1E
100
AcDbEntity
  8
0
100
AcDbLine
 10
114.407
 20
1.999999999999919
 30
0.0
 11
114.925
 21
1.999999999999919
 31
0.0
  0
LINE
  5
4D3
330
1E
100
AcDbEntity
  8
0
100
AcDbLine
 10
114.407
 20
1.999999999999919
 30
0.0
 11
114.407
 21
-0.0000000000000794
 31
0.0
  0
LINE
  5
4D4
330
1E
100
AcDbEntity
  8
0
100
AcDbLine
 10
114.925
 20
1.999999999999919
 30
0.0
 11
114.925
 21
-0.0000000000000796
 31
0.0
  0
LINE
  5
4D5
330
1E
100
AcDbEntity
  8
0
100
AcDbLine
 10
110.525
 20
1.999999999999919
 30
0.0
 11
111.043
 21
1.999999999999919
 31
0.0
  0
LINE
  5
4D6
330
1E
100
AcDbEntity
  8
0
100
AcDbLine
 10
110.525
 20
1.999999999999919
 30
0.0
 11
110.525
 21
-0.0000000000000787
 31
0.0
  0
LINE
  5
4D7
330
1E
100
AcDbEntity
  8
0
100
AcDbLine
 10
121.5
 20
1.999999999999919
 30
0.0
 11
121.5
 21
-0.0000000000000784
 31
0.0
  0
LINE
  5
4D8
330
1E
100
AcDbEntity
  8
0
100
AcDbLine
 10
121.5
 20
1.999999999999919
 30
0.0
 11
121.5
 21
-0.0000000000000768
 31
0.0
  0
LINE
  5
4D9
330
1E
100
AcDbEntity
  8
0
100
AcDbLine
 10
121.5
 20
1.999999999999919
 30
0.0
 11
121.5
 21
-0.0000000000000766
 31
0.0
  0
LINE
  5
4DA
330
1E
100
AcDbEntity
  8
0
100
AcDbLine
 10
121.5
 20
1.999999999999919
 30
0.0
 11
121.5
 21
-0.0000000000000778
 31
0.0
  0
LINE
  5
4DB
330
1E
100
AcDbEntity
  8
0
100
AcDbLine
 10
137.84
 20
1.999999999999919
 30
0.0
 11
138.3569999999999
 21
1.999999999999919
 31
0.0
  0
LINE
  5
4DC
330
1E
100
AcDbEntity
  8
0
100
AcDbLine
 10
137.84
 20
1.999999999999919
 30
0.0
 11
137.84
 21
-0.0000000000000778
 31
0.0
  0
LINE
  5
4DD
330
1E
100
AcDbEntity
  8
0
100
AcDbLine
 10
140.289
 20
1.999999999999919
 30
0.0
 11
140.289
 21
-0.0000000000000778
 31
0.0
  0
LINE
  5
4DE
330
1E
100
AcDbEntity
  8
0
100
AcDbLine
 10
138.3569999999999
 20
1.999999999999919
 30
0.0
 11
140.289
 21
1.999999999999919
 31
0.0
  0
LINE
  5
4DF
330
1E
100
AcDbEntity
  8
0
100
AcDbLine
 10
138.3569999999999
 20
1.999999999999919
 30
0.0
 11
138.3569999999999
 21
-0.0000000000000778
 31
0.0
  0
LINE
  5
4E0
330
1E
100
AcDbEntity
  8
0
100
AcDbLine
 10
141.722
 20
1.999999999999919
 30
0.0
 11
142.24
 21
1.999999999999919
 31
0.0
  0
LINE
  5
4E1
330
1E
100
AcDbEntity
  8
0
100
AcDbLine
 10
141.722
 20
1.999999999999919
 30
0.0
 11
141.722
 21
-0.0000000000000768
 31
0.0
  0
LINE
  5
4E2
330
1E
100
AcDbEntity
  8
0
100
AcDbLine
 10
153.1339999999999
 20
1.999999999999919
 30
0.0
 11
154.1339999999999
 21
1.999999999999919
 31
0.0
  0
LINE
  5
4E3
330
1E
100
AcDbEntity
  8
0
100
AcDbLine
 10
153.1339999999999
 20
1.999999999999919
 30
0.0
 11
153.1339999999999
 21
-0.0000000000000782
 31
0.0
  0
LINE
  5
4E4
330
1E
100
AcDbEntity
  8
0
100
AcDbLine
 10
155.866
 20
1.999999999999919
 30
0.0
 11
155.866
 21
-0.0000000000000782
 31
0.0
  0
LINE
  5
4E5
330
1E
100
AcDbEntity
  8
0
100
AcDbLine
 10
154.1339999999999
 20
1.999999999999919
 30
0.0
 11
155.866
 21
1.999999999999919
 31
0.0
  0
LINE
  5
4E6
330
1E
100
AcDbEntity
  8
0
100
AcDbLine
 10
154.1339999999999
 20
1.999999999999919
 30
0.0
 11
154.1339999999999
 21
-0.000000000000078
 31
0.0
  0
LINE
  5
4E7
330
1E
100
AcDbEntity
  8
0
100
AcDbLine
 10
160.6339999999999
 20
1.999999999999919
 30
0.0
 11
161.6339999999999
 21
1.999999999999919
 31
0.0
  0
LINE
  5
4E8
330
1E
100
AcDbEntity
  8
0
100
AcDbLine
 10
160.6339999999999
 20
1.999999999999919
 30
0.0
 11
160.6339999999999
 21
-0.0000000000000773
 31
0.0
  0
LINE
  5
4E9
330
1E
100
AcDbEntity
  8
0
100
AcDbLine
 10
163.366
 20
1.999999999999919
 30
0.0
 11
163.366
 21
-0.0000000000000773
 31
0.0
  0
LINE
  5
4EA
330
1E
100
AcDbEntity
  8
0
100
AcDbLine
 10
161.6339999999999
 20
1.999999999999919
 30
0.0
 11
163.366
 21
1.999999999999919
 31
0.0
  0
LINE
  5
4EB
330
1E
100
AcDbEntity
  8
0
100
AcDbLine
 10
161.6339999999999
 20
1.999999999999919
 30
0.0
 11
161.6339999999999
 21
-0.0000000000000773
 31
0.0
  0
LINE
  5
4EC
330
1E
100
AcDbEntity
  8
0
100
AcDbLine
 10
144.171
 20
1.999999999999919
 30
0.0
 11
144.171
 21
-0.0000000000000768
 31
0.0
  0
LINE
  5
4ED
330
1E
100
AcDbEntity
  8
0
100
AcDbLine
 10
142.24
 20
1.999999999999919
 30
0.0
 11
144.171
 21
1.999999999999919
 31
0.0
  0
LINE
  5
4EE
330
1E
100
AcDbEntity
  8
0
100
AcDbLine
 10
142.24
 20
1.999999999999919
 30
0.0
 11
142.24
 21
-0.0000000000000768
 31
0.0
  0
LINE
  5
4EF
330
1E
100
AcDbEntity
  8
0
100
AcDbLine
 10
168.134
 20
1.999999999999919
 30
0.0
 11
169.134
 21
1.999999999999919
 31
0.0
  0
LINE
  5
4F0
330
1E
100
AcDbEntity
  8
0
100
AcDbLine
 10
168.134
 20
1.999999999999919
 30
0.0
 11
168.134
 21
-0.0000000000000766
 31
0.0
  0
LINE
  5
4F1
330
1E
100
AcDbEntity
  8
0
100
AcDbLine
 10
179.7759999999999
 20
1.999999999999919
 30
0.0
 11
179.7759999999999
 21
-0.0000000000000782
 31
0.0
  0
LINE
  5
4F2
330
1E
100
AcDbEntity
  8
0
100
AcDbLine
 10
178.3659999999999
 20
1.999999999999919
 30
0.0
 11
179.7759999999999
 21
1.999999999999919
 31
0.0
  0
LINE
  5
4F3
330
1E
100
AcDbEntity
  8
0
100
AcDbLine
 10
187.5539999999999
 20
1.999999999999919
 30
0.0
 11
188.968
 21
1.999999999999919
 31
0.0
  0
LINE
  5
4F4
330
1E
100
AcDbEntity
  8
0
100
AcDbLine
 10
187.5539999999999
 20
1.999999999999919
 30
0.0
 11
187.5539999999999
 21
-0.0000000000000775
 31
0.0
  0
LINE
  5
4F5
330
1E
100
AcDbEntity
  8
0
100
AcDbLine
 10
190.3819999999999
 20
1.999999999999919
 30
0.0
 11
190.3819999999999
 21
-0.0000000000000775
 31
0.0
  0
LINE
  5
4F6
330
1E
100
AcDbEntity
  8
0
100
AcDbLine
 10
188.968
 20
1.999999999999919
 30
0.0
 11
190.3819999999999
 21
1.999999999999919
 31
0.0
  0
LINE
  5
4F7
330
1E
100
AcDbEntity
  8
0
100
AcDbLine
 10
188.968
 20
1.999999999999919
 30
0.0
 11
188.968
 21
-0.0000000000000773
 31
0.0
  0
LINE
  5
4F8
330
1E
100
AcDbEntity
  8
0
100
AcDbLine
 10
198.16
 20
1.999999999999919
 30
0.0
 11
199.5749999999999
 21
1.999999999999919
 31
0.0
  0
LINE
  5
4F9
330
1E
100
AcDbEntity
  8
0
100
AcDbLine
 10
198.16
 20
1.999999999999919
 30
0.0
 11
198.16
 21
-0.0000000000000768
 31
0.0
  0
LINE
  5
4FA
330
1E
100
AcDbEntity
  8
0
100
AcDbLine
 10
215.5309999999999
 20
1.999999999999919
 30
0.0
 11
217.263
 21
1.999999999999919
 31
0.0
  0
LINE
  5
4FB
330
1E
100
AcDbEntity
  8
0
100
AcDbLine
 10
215.5309999999999
 20
1.999999999999919
 30
0.0
 11
215.5309999999999
 21
-0.0000000000000782
 31
0.0
  0
LINE
  5
4FC
330
1E
100
AcDbEntity
  8
0
100
AcDbLine
 10
218.263
 20
1.999999999999919
 30
0.0
 11
218.263
 21
-0.0000000000000782
 31
0.0
  0
LINE
  5
4FD
330
1E
100
AcDbEntity
  8
0
100
AcDbLine
 10
227.7
 20
1.999999999999919
 30
0.0
 11
239.5999999999999
 21
1.999999999999919
 31
0.0
  0
LINE
  5
4FE
330
1E
100
AcDbEntity
  8
0
100
AcDbLine
 10
217.263
 20
1.999999999999919
 30
0.0
 11
218.263
 21
1.999999999999919
 31
0.0
  0
LINE
  5
4FF
330
1E
100
AcDbEntity
  8
0
100
AcDbLine
 10
217.263
 20
1.999999999999919
 30
0.0
 11
217.263
 21
-0.0000000000000782
 31
0.0
  0
LINE
  5
500
330
1E
100
AcDbEntity
  8
0
100
AcDbLine
 10
200.9889999999999
 20
1.999999999999919
 30
0.0
 11
200.9889999999999
 21
-0.0000000000000768
 31
0.0
  0
LINE
  5
501
330
1E
100
AcDbEntity
  8
0
100
AcDbLine
 10
199.5749999999999
 20
1.999999999999919
 30
0.0
 11
200.9889999999999
 21
1.999999999999919
 31
0.0
  0
LINE
  5
502
330
1E
100
AcDbEntity
  8
0
100
AcDbLine
 10
199.5749999999999
 20
1.999999999999919
 30
0.0
 11
199.5749999999999
 21
-0.0000000000000768
 31
0.0
  0
LINE
  5
503
330
1E
100
AcDbEntity
  8
0
100
AcDbLine
 10
170.8659999999999
 20
1.999999999999919
 30
0.0
 11
170.8659999999999
 21
-0.0000000000000766
 31
0.0
  0
LINE
  5
504
330
1E
100
AcDbEntity
  8
0
100
AcDbLine
 10
208.3
 20
1.999999999999919
 30
0.0
 11
227.7
 21
1.999999999999919
 31
0.0
  0
LINE
  5
505
330
1E
100
AcDbEntity
  8
0
100
AcDbLine
 10
145.6039999999999
 20
1.999999999999919
 30
0.0
 11
146.122
 21
1.999999999999919
 31
0.0
  0
LINE
  5
506
330
1E
100
AcDbEntity
  8
0
100
AcDbLine
 10
145.6039999999999
 20
1.999999999999919
 30
0.0
 11
145.6039999999999
 21
-0.0000000000000761
 31
0.0
  0
LINE
  5
507
330
1E
100
AcDbEntity
  8
0
100
AcDbLine
 10
169.134
 20
1.999999999999919
 30
0.0
 11
170.8659999999999
 21
1.999999999999919
 31
0.0
  0
LINE
  5
508
330
1E
100
AcDbEntity
  8
0
100
AcDbLine
 10
169.134
 20
1.999999999999919
 30
0.0
 11
169.134
 21
-0.0000000000000766
 31
0.0
  0
LINE
  5
509
330
1E
100
AcDbEntity
  8
0
100
AcDbLine
 10
121.5
 20
1.999999999999919
 30
0.0
 11
121.5
 21
-0.0000000000000775
 31
0.0
  0
LINE
  5
50A
330
1E
100
AcDbEntity
  8
0
100
AcDbLine
 10
111.043
 20
1.999999999999919
 30
0.0
 11
111.043
 21
-0.0000000000000787
 31
0.0
  0
LINE
  5
50B
330
1E
100
AcDbEntity
  8
0
100
AcDbLine
 10
107.1599999999999
 20
1.999999999999919
 30
0.0
 11
107.1599999999999
 21
-0.0000000000000778
 31
0.0
  0
LINE
  5
50C
330
1E
100
AcDbEntity
  8
0
100
AcDbLine
 10
104.1339999999999
 20
1.999999999999919
 30
0.0
 11
104.7109999999999
 21
1.999999999999919
 31
0.0
  0
LINE
  5
50D
330
1E
100
AcDbEntity
  8
0
100
AcDbLine
 10
104.1339999999999
 20
1.999999999999919
 30
0.0
 11
104.1339999999999
 21
-0.0000000000000798
 31
0.0
  0
LINE
  5
50E
330
1E
100
AcDbEntity
  8
0
100
AcDbLine
 10
103.278
 20
1.999999999999919
 30
0.0
 11
103.278
 21
-0.0000000000000768
 31
0.0
  0
LINE
  5
50F
330
1E
100
AcDbEntity
  8
0
100
AcDbLine
 10
95.63333
 20
86.54919999999989
 30
0.0
 11
100.65238
 21
80.15239999999989
 31
0.0
  0
LINE
  5
510
330
1E
100
AcDbEntity
  8
0
100
AcDbLine
 10
95.63333
 20
117.4508
 30
0.0
 11
100.65238
 21
123.8476
 31
0.0
  0
LINE
  5
511
330
1E
100
AcDbEntity
  8
0
100
AcDbLine
 10
98.0
 20
39.9999999999999
 30
0.0
 11
100.0
 21
41.9999999999999
 31
0.0
  0
LINE
  5
512
330
1E
100
AcDbEntity
  8
0
100
AcDbLine
 10
96.9463
 20
1.999999999999919
 30
0.0
 11
98.87810000000001
 21
1.999999999999919
 31
0.0
  0
LINE
  5
513
330
1E
100
AcDbEntity
  8
0
100
AcDbLine
 10
96.9463
 20
1.999999999999919
 30
0.0
 11
96.9463
 21
-0.0000000000000759
 31
0.0
  0
LINE
  5
514
330
1E
100
AcDbEntity
  8
0
100
AcDbLine
 10
121.5
 20
1.999999999999919
 30
0.0
 11
121.5
 21
-0.0000000000000759
 31
0.0
  0
LINE
  5
515
330
1E
100
AcDbEntity
  8
0
100
AcDbLine
 10
121.5
 20
1.999999999999919
 30
0.0
 11
121.5
 21
-0.0000000000000757
 31
0.0
  0
LINE
  5
516
330
1E
100
AcDbEntity
  8
0
100
AcDbLine
 10
121.5
 20
1.99999999999993
 30
0.0
 11
121.5
 21
-0.000000000000075
 31
0.0
  0
LINE
  5
517
330
1E
100
AcDbEntity
  8
0
100
AcDbLine
 10
148.0539999999999
 20
1.999999999999919
 30
0.0
 11
148.0539999999999
 21
-0.0000000000000759
 31
0.0
  0
LINE
  5
518
330
1E
100
AcDbEntity
  8
0
100
AcDbLine
 10
146.122
 20
1.999999999999919
 30
0.0
 11
148.0539999999999
 21
1.999999999999919
 31
0.0
  0
LINE
  5
519
330
1E
100
AcDbEntity
  8
0
100
AcDbLine
 10
146.122
 20
1.999999999999919
 30
0.0
 11
146.122
 21
-0.0000000000000759
 31
0.0
  0
LINE
  5
51A
330
1E
100
AcDbEntity
  8
0
100
AcDbLine
 10
149.4869999999999
 20
1.999999999999919
 30
0.0
 11
150.004
 21
1.99999999999993
 31
0.0
  0
LINE
  5
51B
330
1E
100
AcDbEntity
  8
0
100
AcDbLine
 10
149.4869999999999
 20
1.999999999999919
 30
0.0
 11
149.4869999999999
 21
-0.0000000000000752
 31
0.0
  0
LINE
  5
51C
330
1E
100
AcDbEntity
  8
0
100
AcDbLine
 10
175.634
 20
1.999999999999919
 30
0.0
 11
176.634
 21
1.999999999999919
 31
0.0
  0
LINE
  5
51D
330
1E
100
AcDbEntity
  8
0
100
AcDbLine
 10
175.634
 20
1.999999999999919
 30
0.0
 11
175.634
 21
-0.0000000000000759
 31
0.0
  0
LINE
  5
51E
330
1E
100
AcDbEntity
  8
0
100
AcDbLine
 10
178.3659999999999
 20
1.999999999999919
 30
0.0
 11
178.3659999999999
 21
-0.0000000000000757
 31
0.0
  0
LINE
  5
51F
330
1E
100
AcDbEntity
  8
0
100
AcDbLine
 10
182.9
 20
1.999999999999919
 30
0.0
 11
208.3
 21
1.999999999999919
 31
0.0
  0
LINE
  5
520
330
1E
100
AcDbEntity
  8
0
100
AcDbLine
 10
176.634
 20
1.999999999999919
 30
0.0
 11
178.3659999999999
 21
1.999999999999919
 31
0.0
  0
LINE
  5
521
330
1E
100
AcDbEntity
  8
0
100
AcDbLine
 10
176.634
 20
1.999999999999919
 30
0.0
 11
176.634
 21
-0.0000000000000757
 31
0.0
  0
LINE
  5
522
330
1E
100
AcDbEntity
  8
0
100
AcDbLine
 10
151.9359999999999
 20
1.99999999999993
 30
0.0
 11
151.9359999999999
 21
-0.000000000000075
 31
0.0
  0
LINE
  5
523
330
1E
100
AcDbEntity
  8
0
100
AcDbLine
 10
150.004
 20
1.99999999999993
 30
0.0
 11
151.9359999999999
 21
1.99999999999993
 31
0.0
  0
LINE
  5
524
330
1E
100
AcDbEntity
  8
0
100
AcDbLine
 10
150.004
 20
1.99999999999993
 30
0.0
 11
150.004
 21
-0.000000000000075
 31
0.0
  0
LINE
  5
525
330
1E
100
AcDbEntity
  8
0
100
AcDbLine
 10
123.5
 20
1.99999999999993
 30
0.0
 11
123.5
 21
-0.0000000000000748
 31
0.0
  0
LINE
  5
526
330
1E
100
AcDbEntity
  8
0
100
AcDbLine
 10
100.0
 20
43.99999999999989
 30
0.0
 11
100.0
 21
41.9999999999999
 31
0.0
  0
LINE
  5
527
330
1E
100
AcDbEntity
  8
0
100
AcDbLine
 10
100.0
 20
43.99999999999989
 30
0.0
 11
100.8
 21
43.99999999999989
 31
0.0
  0
LINE
  5
528
330
1E
100
AcDbEntity
  8
0
100
AcDbLine
 10
106.6
 20
41.9999999999999
 30
0.0
 11
111.2999999999999
 21
41.9999999999999
 31
0.0
  0
LINE
  5
529
330
1E
100
AcDbEntity
  8
0
100
AcDbLine
 10
153.6999999999999
 20
1.99999999999993
 30
0.0
 11
182.9
 21
1.999999999999919
 31
0.0
  0
LINE
  5
52A
330
1E
100
AcDbEntity
  8
0
100
AcDbLine
 10
122.5
 20
41.9999999999999
 30
0.0
 11
128.3
 21
41.9999999999999
 31
0.0
  0
LINE
  5
52B
330
1E
100
AcDbEntity
  8
0
100
AcDbLine
 10
122.5
 20
23.9999999999999
 30
0.0
 11
152.5
 21
23.9999999999999
 31
0.0
  0
LINE
  5
52D
330
1E
100
AcDbEntity
  8
0
100
AcDbLine
 10
122.5
 20
19.99999999999989
 30
0.0
 11
152.6999999999999
 21
19.99999999999989
 31
0.0
  0
LINE
  5
52E
330
1E
100
AcDbEntity
  8
0
100
AcDbLine
 10
122.5
 20
18.99999999999989
 30
0.0
 11
153.0
 21
18.99999999999989
 31
0.0
  0
LINE
  5
52F
330
1E
100
AcDbEntity
  8
0
100
AcDbLine
 10
122.5
 20
10.9999999999999
 30
0.0
 11
153.5
 21
10.9999999999999
 31
0.0
  0
LINE
  5
530
330
1E
100
AcDbEntity
  8
0
100
AcDbLine
 10
122.5
 20
3.99999999999993
 30
0.0
 11
153.6999999999999
 21
3.99999999999993
 31
0.0
  0
LINE
  5
531
330
1E
100
AcDbEntity
  8
0
100
AcDbLine
 10
209.0
 20
2.99999999999992
 30
0.0
 11
228.6
 21
2.99999999999992
 31
0.0
  0
LINE
  5
532
330
1E
100
AcDbEntity
  8
0
100
AcDbLine
 10
228.6
 20
2.99999999999992
 30
0.0
 11
240.9
 21
2.99999999999992
 31
0.0
  0
LINE
  5
533
330
1E
100
AcDbEntity
  8
0
100
AcDbLine
 10
240.9
 20
2.99999999999992
 30
0.0
 11
245.0
 21
2.99999999999992
 31
0.0
  0
LINE
  5
534
330
1E
100
AcDbEntity
  8
0
100
AcDbLine
 10
183.3999999999999
 20
2.99999999999992
 30
0.0
 11
209.0
 21
2.99999999999992
 31
0.0
  0
LINE
  5
535
330
1E
100
AcDbEntity
  8
0
100
AcDbLine
 10
138.4
 20
41.9999999999999
 30
0.0
 11
142.0
 21
41.9999999999999
 31
0.0
  0
LINE
  5
536
330
1E
100
AcDbEntity
  8
0
100
AcDbLine
 10
142.0
 20
41.9999999999999
 30
0.0
 11
144.1999999999999
 21
41.9999999999999
 31
0.0
  0
LINE
  5
537
330
1E
100
AcDbEntity
  8
0
100
AcDbLine
 10
144.1999999999999
 20
41.9999999999999
 30
0.0
 11
145.0
 21
41.9999999999999
 31
0.0
  0
LINE
  5
538
330
1E
100
AcDbEntity
  8
0
100
AcDbLine
 10
145.0
 20
41.9999999999999
 30
0.0
 11
147.0
 21
39.9999999999999
 31
0.0
  0
LINE
  5
539
330
1E
100
AcDbEntity
  8
0
100
AcDbLine
 10
145.0
 20
41.9999999999999
 30
0.0
 11
145.0
 21
43.99999999999989
 31
0.0
  0
LINE
  5
53A
330
1E
100
AcDbEntity
  8
0
100
AcDbLine
 10
147.0
 20
39.9999999999999
 30
0.0
 11
151.0
 21
38.9999999999999
 31
0.0
  0
LINE
  5
53B
330
1E
100
AcDbEntity
  8
0
100
AcDbLine
 10
151.0
 20
38.9999999999999
 30
0.0
 11
239.0
 21
23.9999999999999
 31
0.0
  0
LINE
  5
53C
330
1E
100
AcDbEntity
  8
0
100
AcDbLine
 10
133.6999999999999
 20
41.9999999999999
 30
0.0
 11
138.4
 21
41.9999999999999
 31
0.0
  0
LINE
  5
53D
330
1E
100
AcDbEntity
  8
0
100
AcDbLine
 10
128.3
 20
41.9999999999999
 30
0.0
 11
133.6999999999999
 21
41.9999999999999
 31
0.0
  0
LINE
  5
53E
330
1E
100
AcDbEntity
  8
0
100
AcDbLine
 10
152.5
 20
23.9999999999999
 30
0.0
 11
180.4999999999999
 21
23.9999999999999
 31
0.0
  0
LINE
  5
540
330
1E
100
AcDbEntity
  8
0
100
AcDbLine
 10
152.6999999999999
 20
19.99999999999989
 30
0.0
 11
181.0
 21
19.99999999999989
 31
0.0
  0
LINE
  5
541
330
1E
100
AcDbEntity
  8
0
100
AcDbLine
 10
153.0
 20
18.99999999999989
 30
0.0
 11
181.4999999999999
 21
18.99999999999989
 31
0.0
  0
LINE
  5
542
330
1E
100
AcDbEntity
  8
0
100
AcDbLine
 10
153.5
 20
10.9999999999999
 30
0.0
 11
182.3
 21
10.9999999999999
 31
0.0
  0
LINE
  5
543
330
1E
100
AcDbEntity
  8
0
100
AcDbLine
 10
243.0
 20
3.99999999999992
 30
0.0
 11
243.0
 21
10.9999999999999
 31
0.0
  0
LINE
  5
544
330
1E
100
AcDbEntity
  8
0
100
AcDbLine
 10
208.3
 20
3.99999999999992
 30
0.0
 11
227.7
 21
3.99999999999992
 31
0.0
  0
LINE
  5
545
330
1E
100
AcDbEntity
  8
0
100
AcDbLine
 10
227.7
 20
3.99999999999992
 30
0.0
 11
239.5999999999999
 21
3.99999999999992
 31
0.0
  0
LINE
  5
546
330
1E
100
AcDbEntity
  8
0
100
AcDbLine
 10
239.5999999999999
 20
3.99999999999992
 30
0.0
 11
244.0
 21
3.99999999999992
 31
0.0
  0
LINE
  5
547
330
1E
100
AcDbEntity
  8
0
100
AcDbLine
 10
244.0
 20
3.99999999999992
 30
0.0
 11
245.0
 21
2.99999999999992
 31
0.0
  0
LINE
  5
548
330
1E
100
AcDbEntity
  8
0
100
AcDbLine
 10
180.4999999999999
 20
23.9999999999999
 30
0.0
 11
204.8
 21
23.9999999999999
 31
0.0
  0
LINE
  5
54A
330
1E
100
AcDbEntity
  8
0
100
AcDbLine
 10
181.0
 20
19.99999999999989
 30
0.0
 11
205.5
 21
19.99999999999989
 31
0.0
  0
LINE
  5
54B
330
1E
100
AcDbEntity
  8
0
100
AcDbLine
 10
181.4999999999999
 20
18.99999999999989
 30
0.0
 11
206.0999999999999
 21
18.99999999999989
 31
0.0
  0
LINE
  5
54C
330
1E
100
AcDbEntity
  8
0
100
AcDbLine
 10
243.0
 20
10.9999999999999
 30
0.0
 11
243.0
 21
3.99999999999992
 31
0.0
  0
LINE
  5
54D
330
1E
100
AcDbEntity
  8
0
100
AcDbLine
 10
241.0
 20
10.9999999999999
 30
0.0
 11
241.0
 21
18.99999999999989
 31
0.0
  0
LINE
  5
54E
330
1E
100
AcDbEntity
  8
0
100
AcDbLine
 10
227.0
 20
10.9999999999999
 30
0.0
 11
238.6
 21
10.9999999999999
 31
0.0
  0
LINE
  5
54F
330
1E
100
AcDbEntity
  8
0
100
AcDbLine
 10
204.8
 20
23.9999999999999
 30
0.0
 11
223.3999999999999
 21
23.9999999999999
 31
0.0
  0
LINE
  5
551
330
1E
100
AcDbEntity
  8
0
100
AcDbLine
 10
205.5
 20
19.99999999999989
 30
0.0
 11
224.1999999999999
 21
19.99999999999989
 31
0.0
  0
LINE
  5
552
330
1E
100
AcDbEntity
  8
0
100
AcDbLine
 10
206.0999999999999
 20
18.99999999999989
 30
0.0
 11
225.0999999999999
 21
18.99999999999989
 31
0.0
  0
LINE
  5
553
330
1E
100
AcDbEntity
  8
0
100
AcDbLine
 10
241.0
 20
18.99999999999989
 30
0.0
 11
241.0
 21
10.9999999999999
 31
0.0
  0
LINE
  5
554
330
1E
100
AcDbEntity
  8
0
100
AcDbLine
 10
225.0999999999999
 20
18.99999999999989
 30
0.0
 11
236.6999999999999
 21
18.99999999999989
 31
0.0
  0
LINE
  5
555
330
1E
100
AcDbEntity
  8
0
100
AcDbLine
 10
223.3999999999999
 20
23.9999999999999
 30
0.0
 11
234.8
 21
23.9999999999999
 31
0.0
  0
LINE
  5
556
330
1E
100
AcDbEntity
  8
0
100
AcDbLine
 10
234.8
 20
23.9999999999999
 30
0.0
 11
239.0
 21
23.9999999999999
 31
0.0
  0
LINE
  5
557
330
1E
100
AcDbEntity
  8
0
100
AcDbLine
 10
239.0
 20
23.9999999999999
 30
0.0
 11
241.0
 21
21.99999999999989
 31
0.0
  0
LINE
  5
55A
330
1E
100
AcDbEntity
  8
0
100
AcDbLine
 10
224.1999999999999
 20
19.99999999999989
 30
0.0
 11
235.8
 21
19.99999999999989
 31
0.0
  0
LINE
  5
55B
330
1E
100
AcDbEntity
  8
0
100
AcDbLine
 10
235.8
 20
19.99999999999989
 30
0.0
 11
240.0
 21
19.99999999999989
 31
0.0
  0
LINE
  5
55C
330
1E
100
AcDbEntity
  8
0
100
AcDbLine
 10
240.0
 20
19.99999999999989
 30
0.0
 11
241.0
 21
18.99999999999989
 31
0.0
  0
LINE
  5
55D
330
1E
100
AcDbEntity
  8
0
100
AcDbLine
 10
240.0
 20
19.99999999999989
 30
0.0
 11
241.0
 21
21.99999999999989
 31
0.0
  0
LINE
  5
55E
330
1E
100
AcDbEntity
  8
0
100
AcDbLine
 10
236.6999999999999
 20
18.99999999999989
 30
0.0
 11
241.0
 21
18.99999999999989
 31
0.0
  0
LINE
  5
55F
330
1E
100
AcDbEntity
  8
0
100
AcDbLine
 10
207.6
 20
10.9999999999999
 30
0.0
 11
227.0
 21
10.9999999999999
 31
0.0
  0
LINE
  5
560
330
1E
100
AcDbEntity
  8
0
100
AcDbLine
 10
238.6
 20
10.9999999999999
 30
0.0
 11
243.0
 21
10.9999999999999
 31
0.0
  0
LINE
  5
561
330
1E
100
AcDbEntity
  8
0
100
AcDbLine
 10
182.3
 20
10.9999999999999
 30
0.0
 11
207.6
 21
10.9999999999999
 31
0.0
  0
LINE
  5
562
330
1E
100
AcDbEntity
  8
0
100
AcDbLine
 10
182.9
 20
3.99999999999992
 30
0.0
 11
208.3
 21
3.99999999999992
 31
0.0
  0
LINE
  5
563
330
1E
100
AcDbEntity
  8
0
100
AcDbLine
 10
153.6999999999999
 20
3.99999999999993
 30
0.0
 11
182.9
 21
3.99999999999992
 31
0.0
  0
LINE
  5
564
330
1E
100
AcDbEntity
  8
0
100
AcDbLine
 10
154.0
 20
2.99999999999993
 30
0.0
 11
183.3999999999999
 21
2.99999999999992
 31
0.0
  0
LINE
  5
565
330
1E
100
AcDbEntity
  8
0
100
AcDbLine
 10
122.5
 20
2.99999999999993
 30
0.0
 11
154.0
 21
2.99999999999993
 31
0.0
  0
LINE
  5
566
330
1E
100
AcDbEntity
  8
0
100
AcDbLine
 10
122.5
 20
1.99999999999993
 30
0.0
 11
153.6999999999999
 21
1.99999999999993
 31
0.0
  0
LINE
  5
567
330
1E
100
AcDbEntity
  8
0
100
AcDbLine
 10
111.2999999999999
 20
41.9999999999999
 30
0.0
 11
116.7
 21
41.9999999999999
 31
0.0
  0
LINE
  5
568
330
1E
100
AcDbEntity
  8
0
100
AcDbLine
 10
116.7
 20
41.9999999999999
 30
0.0
 11
122.5
 21
41.9999999999999
 31
0.0
  0
LINE
  5
569
330
1E
100
AcDbEntity
  8
0
100
AcDbLine
 10
103.0
 20
41.9999999999999
 30
0.0
 11
106.6
 21
41.9999999999999
 31
0.0
  0
LINE
  5
56A
330
1E
100
AcDbEntity
  8
0
100
AcDbLine
 10
100.65238
 20
80.15239999999989
 30
0.0
 11
107.0491999999999
 21
75.1332999999999
 31
0.0
  0
LINE
  5
56B
330
1E
100
AcDbEntity
  8
0
100
AcDbLine
 10
100.65238
 20
123.8476
 30
0.0
 11
107.0491999999999
 21
128.8667
 31
0.0
  0
LINE
  5
56C
330
1E
100
AcDbEntity
  8
0
100
AcDbLine
 10
110.4999999999999
 20
43.99999999999989
 30
0.0
 11
110.4999999999999
 21
53.99999999999989
 31
0.0
  0
LINE
  5
56D
330
1E
100
AcDbEntity
  8
0
100
AcDbLine
 10
106.6
 20
43.99999999999989
 30
0.0
 11
111.2999999999999
 21
43.99999999999989
 31
0.0
  0
LINE
  5
56E
330
1E
100
AcDbEntity
  8
0
100
AcDbLine
 10
111.2999999999999
 20
43.99999999999989
 30
0.0
 11
116.7
 21
43.99999999999989
 31
0.0
  0
LINE
  5
56F
330
1E
100
AcDbEntity
  8
0
100
AcDbLine
 10
134.4999999999999
 20
43.99999999999989
 30
0.0
 11
134.4999999999999
 21
53.99999999999989
 31
0.0
  0
LINE
  5
570
330
1E
100
AcDbEntity
  8
0
100
AcDbLine
 10
138.4
 20
43.99999999999989
 30
0.0
 11
142.0
 21
43.99999999999989
 31
0.0
  0
LINE
  5
571
330
1E
100
AcDbEntity
  8
0
100
AcDbLine
 10
142.0
 20
43.99999999999989
 30
0.0
 11
144.1999999999999
 21
43.99999999999989
 31
0.0
  0
LINE
  5
572
330
1E
100
AcDbEntity
  8
0
100
AcDbLine
 10
145.0
 20
43.99999999999989
 30
0.0
 11
145.0
 21
41.9999999999999
 31
0.0
  0
LINE
  5
573
330
1E
100
AcDbEntity
  8
0
100
AcDbLine
 10
144.1999999999999
 20
43.99999999999989
 30
0.0
 11
145.0
 21
43.99999999999989
 31
0.0
  0
LINE
  5
574
330
1E
100
AcDbEntity
  8
0
100
AcDbLine
 10
133.6999999999999
 20
43.99999999999989
 30
0.0
 11
138.4
 21
43.99999999999989
 31
0.0
  0
LINE
  5
575
330
1E
100
AcDbEntity
  8
0
100
AcDbLine
 10
128.3
 20
43.99999999999989
 30
0.0
 11
133.6999999999999
 21
43.99999999999989
 31
0.0
  0
LINE
  5
576
330
1E
100
AcDbEntity
  8
0
100
AcDbLine
 10
122.5
 20
43.99999999999989
 30
0.0
 11
128.3
 21
43.99999999999989
 31
0.0
  0
LINE
  5
577
330
1E
100
AcDbEntity
  8
0
100
AcDbLine
 10
116.7
 20
43.99999999999989
 30
0.0
 11
122.5
 21
43.99999999999989
 31
0.0
  0
LINE
  5
578
330
1E
100
AcDbEntity
  8
0
100
AcDbLine
 10
110.4999999999999
 20
98.29999999999991
 30
0.0
 11
110.4999999999999
 21
101.0
 31
0.0
  0
LINE
  5
579
330
1E
100
AcDbEntity
  8
0
100
AcDbLine
 10
110.4999999999999
 20
98.29999999999991
 30
0.0
 11
110.4999999999999
 21
93.7999999999999
 31
0.0
  0
LINE
  5
57A
330
1E
100
AcDbEntity
  8
0
100
AcDbLine
 10
110.4999999999999
 20
101.0
 30
0.0
 11
110.4999999999999
 21
102.0
 31
0.0
  0
LINE
  5
57B
330
1E
100
AcDbEntity
  8
0
100
AcDbLine
 10
110.4999999999999
 20
101.0
 30
0.0
 11
110.4999999999999
 21
98.29999999999991
 31
0.0
  0
LINE
  5
57C
330
1E
100
AcDbEntity
  8
0
100
AcDbLine
 10
110.4999999999999
 20
102.0
 30
0.0
 11
110.8999999999999
 21
105.0999999999999
 31
0.0
  0
LINE
  5
57D
330
1E
100
AcDbEntity
  8
0
100
AcDbLine
 10
110.4999999999999
 20
102.0
 30
0.0
 11
110.4999999999999
 21
101.0
 31
0.0
  0
LINE
  5
57E
330
1E
100
AcDbEntity
  8
0
100
AcDbLine
 10
110.4999999999999
 20
102.0
 30
0.0
 11
110.8999999999999
 21
105.0999999999999
 31
0.0
  0
LINE
  5
57F
330
1E
100
AcDbEntity
  8
0
100
AcDbLine
 10
110.4999999999999
 20
93.7999999999999
 30
0.0
 11
110.4999999999999
 21
87.9999999999999
 31
0.0
  0
LINE
  5
580
330
1E
100
AcDbEntity
  8
0
100
AcDbLine
 10
110.4999999999999
 20
93.7999999999999
 30
0.0
 11
110.4999999999999
 21
98.29999999999991
 31
0.0
  0
LINE
  5
581
330
1E
100
AcDbEntity
  8
0
100
AcDbLine
 10
110.4999999999999
 20
87.9999999999999
 30
0.0
 11
110.4999999999999
 21
81.1999999999999
 31
0.0
  0
LINE
  5
582
330
1E
100
AcDbEntity
  8
0
100
AcDbLine
 10
110.4999999999999
 20
87.9999999999999
 30
0.0
 11
110.4999999999999
 21
93.7999999999999
 31
0.0
  0
LINE
  5
583
330
1E
100
AcDbEntity
  8
0
100
AcDbLine
 10
110.4999999999999
 20
81.1999999999999
 30
0.0
 11
110.4999999999999
 21
73.9999999999999
 31
0.0
  0
LINE
  5
584
330
1E
100
AcDbEntity
  8
0
100
AcDbLine
 10
110.4999999999999
 20
81.1999999999999
 30
0.0
 11
110.4999999999999
 21
87.9999999999999
 31
0.0
  0
LINE
  5
585
330
1E
100
AcDbEntity
  8
0
100
AcDbLine
 10
110.4999999999999
 20
73.9999999999999
 30
0.0
 11
110.4999999999999
 21
69.9999999999999
 31
0.0
  0
LINE
  5
586
330
1E
100
AcDbEntity
  8
0
100
AcDbLine
 10
110.4999999999999
 20
73.9999999999999
 30
0.0
 11
110.4999999999999
 21
81.1999999999999
 31
0.0
  0
LINE
  5
587
330
1E
100
AcDbEntity
  8
0
100
AcDbLine
 10
110.4999999999999
 20
69.9999999999999
 30
0.0
 11
110.4999999999999
 21
53.99999999999989
 31
0.0
  0
LINE
  5
588
330
1E
100
AcDbEntity
  8
0
100
AcDbLine
 10
110.4999999999999
 20
69.9999999999999
 30
0.0
 11
110.4999999999999
 21
73.9999999999999
 31
0.0
  0
LINE
  5
589
330
1E
100
AcDbEntity
  8
0
100
AcDbLine
 10
107.0491999999999
 20
75.1332999999999
 30
0.0
 11
110.4999999999999
 21
73.72574048453071
 31
0.0
  0
LINE
  5
58A
330
1E
100
AcDbEntity
  8
0
100
AcDbLine
 10
107.0491999999999
 20
128.8667
 30
0.0
 11
114.5286
 21
131.9174999999999
 31
0.0
  0
LINE
  5
58B
330
1E
100
AcDbEntity
  8
0
100
AcDbLine
 10
110.8999999999999
 20
53.99999999999989
 30
0.0
 11
112.0999999999999
 21
53.99999999999989
 31
0.0
  0
LINE
  5
58C
330
1E
100
AcDbEntity
  8
0
100
AcDbLine
 10
114.0
 20
53.99999999999989
 30
0.0
 11
116.5
 21
53.99999999999989
 31
0.0
  0
LINE
  5
58D
330
1E
100
AcDbEntity
  8
0
100
AcDbLine
 10
119.4
 20
53.99999999999989
 30
0.0
 11
122.5
 21
53.99999999999989
 31
0.0
  0
LINE
  5
58E
330
1E
100
AcDbEntity
  8
0
100
AcDbLine
 10
125.6
 20
53.99999999999989
 30
0.0
 11
128.4999999999999
 21
53.99999999999989
 31
0.0
  0
LINE
  5
58F
330
1E
100
AcDbEntity
  8
0
100
AcDbLine
 10
132.9
 20
53.99999999999989
 30
0.0
 11
134.0999999999999
 21
53.99999999999989
 31
0.0
  0
LINE
  5
590
330
1E
100
AcDbEntity
  8
0
100
AcDbLine
 10
131.0
 20
53.99999999999989
 30
0.0
 11
132.9
 21
53.99999999999989
 31
0.0
  0
LINE
  5
591
330
1E
100
AcDbEntity
  8
0
100
AcDbLine
 10
131.0
 20
53.99999999999989
 30
0.0
 11
132.9
 21
53.99999999999989
 31
0.0
  0
LINE
  5
592
330
1E
100
AcDbEntity
  8
0
100
AcDbLine
 10
132.9
 20
53.99999999999989
 30
0.0
 11
134.0999999999999
 21
53.99999999999989
 31
0.0
  0
LINE
  5
593
330
1E
100
AcDbEntity
  8
0
100
AcDbLine
 10
134.4999999999999
 20
53.99999999999989
 30
0.0
 11
134.4999999999999
 21
43.99999999999989
 31
0.0
  0
LINE
  5
594
330
1E
100
AcDbEntity
  8
0
100
AcDbLine
 10
134.4999999999999
 20
53.99999999999989
 30
0.0
 11
134.4999999999999
 21
69.9999999999999
 31
0.0
  0
LINE
  5
595
330
1E
100
AcDbEntity
  8
0
100
AcDbLine
 10
134.0999999999999
 20
53.99999999999989
 30
0.0
 11
134.4999999999999
 21
53.99999999999989
 31
0.0
  0
LINE
  5
596
330
1E
100
AcDbEntity
  8
0
100
AcDbLine
 10
128.4999999999999
 20
53.99999999999989
 30
0.0
 11
131.0
 21
53.99999999999989
 31
0.0
  0
LINE
  5
597
330
1E
100
AcDbEntity
  8
0
100
AcDbLine
 10
125.6
 20
53.99999999999989
 30
0.0
 11
128.4999999999999
 21
53.99999999999989
 31
0.0
  0
LINE
  5
598
330
1E
100
AcDbEntity
  8
0
100
AcDbLine
 10
122.5
 20
53.99999999999989
 30
0.0
 11
125.6
 21
53.99999999999989
 31
0.0
  0
LINE
  5
599
330
1E
100
AcDbEntity
  8
0
100
AcDbLine
 10
122.5
 20
53.99999999999989
 30
0.0
 11
125.6
 21
53.99999999999989
 31
0.0
  0
LINE
  5
59A
330
1E
100
AcDbEntity
  8
0
100
AcDbLine
 10
116.5
 20
53.99999999999989
 30
0.0
 11
119.4
 21
53.99999999999989
 31
0.0
  0
LINE
  5
59B
330
1E
100
AcDbEntity
  8
0
100
AcDbLine
 10
116.5
 20
53.99999999999989
 30
0.0
 11
119.4
 21
53.99999999999989
 31
0.0
  0
LINE
  5
59C
330
1E
100
AcDbEntity
  8
0
100
AcDbLine
 10
119.4
 20
53.99999999999989
 30
0.0
 11
122.5
 21
53.99999999999989
 31
0.0
  0
LINE
  5
59D
330
1E
100
AcDbEntity
  8
0
100
AcDbLine
 10
112.0999999999999
 20
53.99999999999989
 30
0.0
 11
114.0
 21
53.99999999999989
 31
0.0
  0
LINE
  5
59E
330
1E
100
AcDbEntity
  8
0
100
AcDbLine
 10
110.8999999999999
 20
105.0999999999999
 30
0.0
 11
112.0999999999999
 21
108.0
 31
0.0
  0
LINE
  5
59F
330
1E
100
AcDbEntity
  8
0
100
AcDbLine
 10
112.0999999999999
 20
108.0
 30
0.0
 11
114.0
 21
110.4999999999999
 31
0.0
  0
LINE
  5
5A0
330
1E
100
AcDbEntity
  8
0
100
AcDbLine
 10
114.0
 20
110.4999999999999
 30
0.0
 11
116.5
 21
112.4
 31
0.0
  0
LINE
  5
5A1
330
1E
100
AcDbEntity
  8
0
100
AcDbLine
 10
134.4999999999999
 20
73.9999999999999
 30
0.0
 11
134.4999999999999
 21
69.9999999999999
 31
0.0
  0
LINE
  5
5A2
330
1E
100
AcDbEntity
  8
0
100
AcDbLine
 10
134.4999999999999
 20
73.9999999999999
 30
0.0
 11
134.4999999999999
 21
81.1999999999999
 31
0.0
  0
LINE
  5
5A3
330
1E
100
AcDbEntity
  8
0
100
AcDbLine
 10
134.4999999999999
 20
69.9999999999999
 30
0.0
 11
134.4999999999999
 21
53.99999999999989
 31
0.0
  0
LINE
  5
5A4
330
1E
100
AcDbEntity
  8
0
100
AcDbLine
 10
134.4999999999999
 20
69.9999999999999
 30
0.0
 11
134.4999999999999
 21
73.9999999999999
 31
0.0
  0
LINE
  5
5A5
330
1E
100
AcDbEntity
  8
0
100
AcDbLine
 10
134.4999999999999
 20
73.72574048453071
 30
0.0
 11
137.9507999999999
 21
75.1332999999999
 31
0.0
  0
LINE
  5
5A6
330
1E
100
AcDbEntity
  8
0
100
AcDbLine
 10
134.4999999999999
 20
81.1999999999999
 30
0.0
 11
134.4999999999999
 21
73.9999999999999
 31
0.0
  0
LINE
  5
5A7
330
1E
100
AcDbEntity
  8
0
100
AcDbLine
 10
134.4999999999999
 20
81.1999999999999
 30
0.0
 11
134.4999999999999
 21
87.9999999999999
 31
0.0
  0
LINE
  5
5A8
330
1E
100
AcDbEntity
  8
0
100
AcDbLine
 10
137.9507999999999
 20
75.1332999999999
 30
0.0
 11
144.3475999999999
 21
80.15239999999989
 31
0.0
  0
LINE
  5
5A9
330
1E
100
AcDbEntity
  8
0
100
AcDbLine
 10
144.3475999999999
 20
80.15239999999989
 30
0.0
 11
149.3667
 21
86.54919999999989
 31
0.0
  0
LINE
  5
5AA
330
1E
100
AcDbEntity
  8
0
100
AcDbLine
 10
134.4999999999999
 20
87.9999999999999
 30
0.0
 11
134.4999999999999
 21
81.1999999999999
 31
0.0
  0
LINE
  5
5AB
330
1E
100
AcDbEntity
  8
0
100
AcDbLine
 10
134.4999999999999
 20
87.9999999999999
 30
0.0
 11
134.4999999999999
 21
93.7999999999999
 31
0.0
  0
LINE
  5
5AC
330
1E
100
AcDbEntity
  8
0
100
AcDbLine
 10
134.4999999999999
 20
93.7999999999999
 30
0.0
 11
134.4999999999999
 21
98.29999999999991
 31
0.0
  0
LINE
  5
5AD
330
1E
100
AcDbEntity
  8
0
100
AcDbLine
 10
134.4999999999999
 20
93.7999999999999
 30
0.0
 11
134.4999999999999
 21
87.9999999999999
 31
0.0
  0
LINE
  5
5AE
330
1E
100
AcDbEntity
  8
0
100
AcDbLine
 10
134.4999999999999
 20
98.29999999999991
 30
0.0
 11
134.4999999999999
 21
101.0
 31
0.0
  0
LINE
  5
5AF
330
1E
100
AcDbEntity
  8
0
100
AcDbLine
 10
134.4999999999999
 20
98.29999999999991
 30
0.0
 11
134.4999999999999
 21
93.7999999999999
 31
0.0
  0
LINE
  5
5B0
330
1E
100
AcDbEntity
  8
0
100
AcDbLine
 10
134.4999999999999
 20
102.0
 30
0.0
 11
134.4999999999999
 21
101.0
 31
0.0
  0
LINE
  5
5B1
330
1E
100
AcDbEntity
  8
0
100
AcDbLine
 10
134.4999999999999
 20
101.0
 30
0.0
 11
134.4999999999999
 21
102.0
 31
0.0
  0
LINE
  5
5B2
330
1E
100
AcDbEntity
  8
0
100
AcDbLine
 10
134.4999999999999
 20
101.0
 30
0.0
 11
134.4999999999999
 21
98.29999999999991
 31
0.0
  0
LINE
  5
5B3
330
1E
100
AcDbEntity
  8
0
100
AcDbLine
 10
134.0999999999999
 20
105.0999999999999
 30
0.0
 11
134.4999999999999
 21
102.0
 31
0.0
  0
LINE
  5
5B4
330
1E
100
AcDbEntity
  8
0
100
AcDbLine
 10
134.0999999999999
 20
105.0999999999999
 30
0.0
 11
134.4999999999999
 21
102.0
 31
0.0
  0
LINE
  5
5B5
330
1E
100
AcDbEntity
  8
0
100
AcDbLine
 10
132.9
 20
108.0
 30
0.0
 11
134.0999999999999
 21
105.0999999999999
 31
0.0
  0
LINE
  5
5B6
330
1E
100
AcDbEntity
  8
0
100
AcDbLine
 10
149.3667
 20
86.54919999999989
 30
0.0
 11
152.4174999999999
 21
94.02859999999989
 31
0.0
  0
LINE
  5
5B7
330
1E
100
AcDbEntity
  8
0
100
AcDbLine
 10
152.4174999999999
 20
94.02859999999989
 30
0.0
 11
153.5
 21
102.0
 31
0.0
  0
LINE
  5
5B8
330
1E
100
AcDbEntity
  8
0
100
AcDbLine
 10
116.5
 20
112.4
 30
0.0
 11
119.4
 21
113.5999999999999
 31
0.0
  0
LINE
  5
5B9
330
1E
100
AcDbEntity
  8
0
100
AcDbLine
 10
131.0
 20
110.4999999999999
 30
0.0
 11
132.9
 21
108.0
 31
0.0
  0
LINE
  5
5BA
330
1E
100
AcDbEntity
  8
0
100
AcDbLine
 10
128.4999999999999
 20
112.4
 30
0.0
 11
131.0
 21
110.4999999999999
 31
0.0
  0
LINE
  5
5BB
330
1E
100
AcDbEntity
  8
0
100
AcDbLine
 10
125.6
 20
113.5999999999999
 30
0.0
 11
128.4999999999999
 21
112.4
 31
0.0
  0
LINE
  5
5BC
330
1E
100
AcDbEntity
  8
0
100
AcDbLine
 10
122.5
 20
114.0
 30
0.0
 11
125.6
 21
113.5999999999999
 31
0.0
  0
LINE
  5
5BD
330
1E
100
AcDbEntity
  8
0
100
AcDbLine
 10
119.4
 20
113.5999999999999
 30
0.0
 11
122.5
 21
114.0
 31
0.0
  0
LINE
  5
5BE
330
1E
100
AcDbEntity
  8
0
100
AcDbLine
 10
122.5
 20
133.0
 30
0.0
 11
130.4713999999999
 21
131.9174999999999
 31
0.0
  0
LINE
  5
5BF
330
1E
100
AcDbEntity
  8
0
100
AcDbLine
 10
130.4713999999999
 20
131.9174999999999
 30
0.0
 11
137.9507999999999
 21
128.8667
 31
0.0
  0
LINE
  5
5C0
330
1E
100
AcDbEntity
  8
0
100
AcDbLine
 10
137.9507999999999
 20
128.8667
 30
0.0
 11
144.3475999999999
 21
123.8476
 31
0.0
  0
LINE
  5
5C1
330
1E
100
AcDbEntity
  8
0
100
AcDbLine
 10
144.3475999999999
 20
123.8476
 30
0.0
 11
149.3667
 21
117.4508
 31
0.0
  0
LINE
  5
5C2
330
1E
100
AcDbEntity
  8
0
100
AcDbLine
 10
149.3667
 20
117.4508
 30
0.0
 11
152.4174999999999
 21
109.9714
 31
0.0
  0
LINE
  5
5C3
330
1E
100
AcDbEntity
  8
0
100
AcDbLine
 10
152.4174999999999
 20
109.9714
 30
0.0
 11
153.5
 21
102.0
 31
0.0
  0
LINE
  5
5C4
330
1E
100
AcDbEntity
  8
0
100
AcDbLine
 10
114.5286
 20
131.9174999999999
 30
0.0
 11
122.5
 21
133.0
 31
0.0
  0
LINE
  5
5C5
330
1E
100
AcDbEntity
  8
0
100
AcDbLine
 10
110.8999999999999
 20
53.99999999999989
 30
0.0
 11
112.0999999999999
 21
53.99999999999989
 31
0.0
  0
LINE
  5
5C6
330
1E
100
AcDbEntity
  8
0
100
AcDbLine
 10
110.4999999999999
 20
53.99999999999989
 30
0.0
 11
110.4999999999999
 21
43.99999999999989
 31
0.0
  0
LINE
  5
5C7
330
1E
100
AcDbEntity
  8
0
100
AcDbLine
 10
110.4999999999999
 20
53.99999999999989
 30
0.0
 11
110.8999999999999
 21
53.99999999999989
 31
0.0
  0
LINE
  5
5C8
330
1E
100
AcDbEntity
  8
0
100
AcDbLine
 10
110.4999999999999
 20
53.99999999999989
 30
0.0
 11
110.8999999999999
 21
53.99999999999989
 31
0.0
  0
LINE
  5
5C9
330
1E
100
AcDbEntity
  8
0
100
AcDbLine
 10
110.4999999999999
 20
53.99999999999989
 30
0.0
 11
110.4999999999999
 21
69.9999999999999
 31
0.0
  0
LINE
  5
5CA
330
1E
100
AcDbEntity
  8
0
100
AcDbLine
 10
103.0
 20
43.99999999999989
 30
0.0
 11
106.6
 21
43.99999999999989
 31
0.0
  0
LINE
  5
5CB
330
1E
100
AcDbEntity
  8
0
100
AcDbLine
 10
100.8
 20
43.99999999999989
 30
0.0
 11
103.0
 21
43.99999999999989
 31
0.0
  0
LINE
  5
5CC
330
1E
100
AcDbEntity
  8
0
100
AcDbLine
 10
100.8
 20
41.9999999999999
 30
0.0
 11
103.0
 21
41.9999999999999
 31
0.0
  0
LINE
  5
5CD
330
1E
100
AcDbEntity
  8
0
100
AcDbLine
 10
100.0
 20
41.9999999999999
 30
0.0
 11
100.8
 21
41.9999999999999
 31
0.0
  0
LINE
  5
5CE
330
1E
100
AcDbEntity
  8
0
100
AcDbLine
 10
100.0
 20
41.9999999999999
 30
0.0
 11
100.0
 21
43.99999999999989
 31
0.0
  0
LINE
  5
5CF
330
1E
100
AcDbEntity
  8
0
100
AcDbLine
 10
121.5
 20
1.99999999999993
 30
0.0
 11
123.5
 21
1.99999999999993
 31
0.0
  0
LINE
  5
5D0
330
1E
100
AcDbEntity
  8
0
100
AcDbLine
 10
121.5
 20
1.99999999999993
 30
0.0
 11
121.5
 21
-0.0000000000000748
 31
0.0
  0
LINE
  5
5D1
330
1E
100
AcDbEntity
  8
0
100
AcDbLine
 10
98.87810000000001
 20
1.999999999999919
 30
0.0
 11
99.39579999999999
 21
1.999999999999919
 31
0.0
  0
LINE
  5
5D2
330
1E
100
AcDbEntity
  8
0
100
AcDbLine
 10
98.87810000000001
 20
1.999999999999919
 30
0.0
 11
98.87810000000001
 21
-0.0000000000000759
 31
0.0
  0
LINE
  5
5D3
330
1E
100
AcDbEntity
  8
0
100
AcDbLine
 10
99.39579999999999
 20
1.999999999999919
 30
0.0
 11
99.39579999999999
 21
-0.0000000000000761
 31
0.0
  0
LINE
  5
5D4
330
1E
100
AcDbEntity
  8
0
100
AcDbLine
 10
95.51349999999999
 20
1.999999999999919
 30
0.0
 11
95.51349999999999
 21
-0.0000000000000752
 31
0.0
  0
LINE
  5
5D5
330
1E
100
AcDbEntity
  8
0
100
AcDbLine
 10
81.43080000000001
 20
1.999999999999919
 30
0.0
 11
81.43080000000001
 21
-0.0000000000000801
 31
0.0
  0
LINE
  5
5D6
330
1E
100
AcDbEntity
  8
0
100
AcDbLine
 10
79.6987
 20
1.999999999999919
 30
0.0
 11
81.43080000000001
 21
1.999999999999919
 31
0.0
  0
LINE
  5
5D7
330
1E
100
AcDbEntity
  8
0
100
AcDbLine
 10
79.6987
 20
1.999999999999919
 30
0.0
 11
79.6987
 21
-0.0000000000000801
 31
0.0
  0
LINE
  5
5D8
330
1E
100
AcDbEntity
  8
0
100
AcDbLine
 10
61.9055
 20
1.999999999999919
 30
0.0
 11
61.9055
 21
-0.0000000000000805
 31
0.0
  0
LINE
  5
5D9
330
1E
100
AcDbEntity
  8
0
100
AcDbLine
 10
59.9736
 20
1.999999999999919
 30
0.0
 11
61.9055
 21
1.999999999999919
 31
0.0
  0
LINE
  5
5DA
330
1E
100
AcDbEntity
  8
0
100
AcDbLine
 10
59.9736
 20
1.999999999999919
 30
0.0
 11
59.9736
 21
-0.0000000000000805
 31
0.0
  0
LINE
  5
5DB
330
1E
100
AcDbEntity
  8
0
100
AcDbLine
 10
72.5
 20
1.999999999999919
 30
0.0
 11
73.94490000000001
 21
1.999999999999919
 31
0.0
  0
LINE
  5
5DC
330
1E
100
AcDbEntity
  8
0
100
AcDbLine
 10
72.5
 20
1.999999999999919
 30
0.0
 11
72.5
 21
-0.0000000000000814
 31
0.0
  0
LINE
  5
5DD
330
1E
100
AcDbEntity
  8
0
100
AcDbLine
 10
57.5
 20
1.999999999999919
 30
0.0
 11
59.456
 21
1.999999999999919
 31
0.0
  0
LINE
  5
5DE
330
1E
100
AcDbEntity
  8
0
100
AcDbLine
 10
57.5
 20
1.999999999999919
 30
0.0
 11
57.5
 21
-0.0000000000000814
 31
0.0
  0
LINE
  5
5DF
330
1E
100
AcDbEntity
  8
0
100
AcDbLine
 10
42.5
 20
1.999999999999919
 30
0.0
 11
44.0111
 21
1.999999999999919
 31
0.0
  0
LINE
  5
5E0
330
1E
100
AcDbEntity
  8
0
100
AcDbLine
 10
42.5
 20
1.999999999999919
 30
0.0
 11
42.5
 21
-0.0000000000000814
 31
0.0
  0
ENDSEC
  0
SECTION
  2
OBJECTS
  0
DICTIONARY
  5
C
330
0
100
AcDbDictionary
281
     1
  3
ACAD_GROUP
350
D
  3
ACAD_LAYOUT
350
19
  3
ACAD_MLINESTYLE
350
16
  3
ACAD_PLOTSETTINGS
350
18
  3
ACAD_PLOTSTYLENAME
350
E
  3
AcDbVariableDictionary
350
5E5
  0
DICTIONARY
  5
D
102
{ACAD_REACTORS
330
C
102
}
330
C
100
AcDbDictionary
281
     1
  0
DICTIONARY
  5
19
102
{ACAD_REACTORS
330
C
102
}
330
C
100
AcDbDictionary
281
     1
  3
Layout1
350
1D
  3
Model
350
21
  0
DICTIONARY
  5
16
102
{ACAD_REACTORS
330
C
102
}
330
C
100
AcDbDictionary
281
     1
  3
Standard
350
17
  0
DICTIONARY
  5
18
102
{ACAD_REACTORS
330
C
102
}
330
C
100
AcDbDictionary
281
     1
  0
ACDBDICTIONARYWDFLT
  5
E
102
{ACAD_REACTORS
330
C
102
}
330
C
100
AcDbDictionary
281
     1
  3
Normal
350
F
100
AcDbDictionaryWithDefault
340
F
  0
DICTIONARY
  5
5E5
102
{ACAD_REACTORS
330
C
102
}
330
C
100
AcDbDictionary
281
     1
  3
DIMASSOC
350
5E6
  0
LAYOUT
  5
1D
102
{ACAD_REACTORS
330
19
102
}
330
19
100
AcDbPlotSettings
  1

  2
hp deskjet 980c series
  4

  6

 40
0.0
 41
0.0
 42
0.0
 43
0.0
 44
0.0
 45
0.0
 46
0.0
 47
0.0
 48
0.0
 49
0.0
140
0.0
141
0.0
142
1.0
143
1.0
 70
   688
 72
     0
 73
     0
 74
     5
  7

 75
    16
147
1.0
148
0.0
149
0.0
100
AcDbLayout
  1
Layout1
 70
     1
 71
     1
 10
0.0
 20
0.0
 11
12.0
 21
9.0
 12
0.0
 22
0.0
 32
0.0
 14
1.000000000000000E+20
 24
1.000000000000000E+20
 34
1.000000000000000E+20
 15
-1.000000000000000E+20
 25
-1.000000000000000E+20
 35
-1.000000000000000E+20
146
0.0
 13
0.0
 23
0.0
 33
0.0
 16
1.0
 26
0.0
 36
0.0
 17
0.0
 27
1.0
 37
0.0
 76
     0
330
1A
  0
LAYOUT
  5
21
102
{ACAD_REACTORS
330
19
102
}
330
19
100
AcDbPlotSettings
  1

  2
hp deskjet 980c series
  4

  6

 40
0.0
 41
0.0
 42
0.0
 43
0.0
 44
0.0
 45
0.0
 46
0.0
 47
0.0
 48
0.0
 49
0.0
140
0.0
141
0.0
142
1.0
143
1.0
 70
  1712
 72
     0
 73
     0
 74
     0
  7

 75
     0
147
1.0
148
0.0
149
0.0
100
AcDbLayout
  1
Model
 70
     1
 71
     0
 10
0.0
 20
0.0
 11
12.0
 21
9.0
 12
0.0
 22
0.0
 32
0.0
 14
0.0
 24
0.0
 34
0.0
 15
0.0
 25
0.0
 35
0.0
146
0.0
 13
0.0
 23
0.0
 33
0.0
 16
1.0
 26
0.0
 36
0.0
 17
0.0
 27
1.0
 37
0.0
 76
     0
330
1E
  0
MLINESTYLE
  5
17
102
{ACAD_REACTORS
330
16
102
}
330
16
100
AcDbMlineStyle
  2
STANDARD
 70
     0
  3

 62
   256
 51
90.0
 52
90.0
 71
     2
 49
0.5
 62
   256
  6
BYLAYER
 49
-0.5
 62
   256
  6
BYLAYER
  0
ACDBPLACEHOLDER
  5
F
102
{ACAD_REACTORS
330
E
102
}
330
E
  0
DICTIONARYVAR
  5
5E6
102
{ACAD_REACTORS
330
5E5
102
}
330
5E5
100
DictionaryVariables
280
     0
  1
1
  0
ENDSEC
  0
EOF
