  0
SECTION
  2
HEADER
  9
$ACADVER
  1
AC1015
  9
$ACADMAINTVER
 70
    13
  9
$DWGCODEPAGE
  3
ANSI_1252
  9
$INSBASE
 10
0.0
 20
0.0
 30
0.0
  9
$EXTMIN
 10
-0.0000000000000111
 20
0.211294487998939
 30
0.0
  9
$EXTMAX
 10
245.0
 20
368.788705512001
 30
0.0
  9
$LIMMIN
 10
0.0
 20
0.0
  9
$LIMMAX
 10
12.0
 20
9.0
  9
$ORTHOMODE
 70
     0
  9
$REGENMODE
 70
     1
  9
$FILLMODE
 70
     1
  9
$QTEXTMODE
 70
     0
  9
$MIRRTEXT
 70
     1
  9
$LTSCALE
 40
1.0
  9
$ATTMODE
 70
     1
  9
$TEXTSIZE
 40
0.2
  9
$TRACEWID
 40
0.05
  9
$TEXTSTYLE
  7
Standard
  9
$CLAYER
  8
0
  9
$CELTYPE
  6
Continuous
  9
$CECOLOR
 62
   256
  9
$CELTSCALE
 40
1.0
  9
$DISPSILH
 70
     0
  9
$DIMSCALE
 40
1.0
  9
$DIMASZ
 40
0.18
  9
$DIMEXO
 40
0.0625
  9
$DIMDLI
 40
0.38
  9
$DIMRND
 40
0.0
  9
$DIMDLE
 40
0.0
  9
$DIMEXE
 40
0.18
  9
$DIMTP
 40
0.0
  9
$DIMTM
 40
0.0
  9
$DIMTXT
 40
0.18
  9
$DIMCEN
 40
0.09
  9
$DIMTSZ
 40
0.0
  9
$DIMTOL
 70
     0
  9
$DIMLIM
 70
     0
  9
$DIMTIH
 70
     1
  9
$DIMTOH
 70
     1
  9
$DIMSE1
 70
     0
  9
$DIMSE2
 70
     0
  9
$DIMTAD
 70
     0
  9
$DIMZIN
 70
     0
  9
$DIMBLK
  1

  9
$DIMASO
 70
     1
  9
$DIMSHO
 70
     1
  9
$DIMPOST
  1

  9
$DIMAPOST
  1

  9
$DIMALT
 70
     0
  9
$DIMALTD
 70
     2
  9
$DIMALTF
 40
25.4
  9
$DIMLFAC
 40
1.0
  9
$DIMTOFL
 70
     0
  9
$DIMTVP
 40
0.0
  9
$DIMTIX
 70
     0
  9
$DIMSOXD
 70
     0
  9
$DIMSAH
 70
     0
  9
$DIMBLK1
  1

  9
$DIMBLK2
  1

  9
$DIMSTYLE
  2
Standard
  9
$DIMCLRD
 70
     0
  9
$DIMCLRE
 70
     0
  9
$DIMCLRT
 70
     0
  9
$DIMTFAC
 40
1.0
  9
$DIMGAP
 40
0.09
  9
$DIMJUST
 70
     0
  9
$DIMSD1
 70
     0
  9
$DIMSD2
 70
     0
  9
$DIMTOLJ
 70
     1
  9
$DIMTZIN
 70
     0
  9
$DIMALTZ
 70
     0
  9
$DIMALTTZ
 70
     0
  9
$DIMUPT
 70
     0
  9
$DIMDEC
 70
     4
  9
$DIMTDEC
 70
     4
  9
$DIMALTU
 70
     2
  9
$DIMALTTD
 70
     2
  9
$DIMTXSTY
  7
Standard
  9
$DIMAUNIT
 70
     0
  9
$DIMADEC
 70
     0
  9
$DIMALTRND
 40
0.0
  9
$DIMAZIN
 70
     0
  9
$DIMDSEP
 70
    46
  9
$DIMATFIT
 70
     3
  9
$DIMFRAC
 70
     0
  9
$DIMLDRBLK
  1

  9
$DIMLUNIT
 70
     2
  9
$DIMLWD
 70
    -2
  9
$DIMLWE
 70
    -2
  9
$DIMTMOVE
 70
     0
  9
$LUNITS
 70
     2
  9
$LUPREC
 70
     4
  9
$SKETCHINC
 40
0.1
  9
$FILLETRAD
 40
0.0
  9
$AUNITS
 70
     0
  9
$AUPREC
 70
     0
  9
$MENU
  1
.
  9
$ELEVATION
 40
0.0
  9
$PELEVATION
 40
0.0
  9
$THICKNESS
 40
0.0
  9
$LIMCHECK
 70
     0
  9
$CHAMFERA
 40
0.0
  9
$CHAMFERB
 40
0.0
  9
$CHAMFERC
 40
0.0
  9
$CHAMFERD
 40
0.0
  9
$SKPOLY
 70
     0
  9
$TDCREATE
 40
2454752.507341574
  9
$TDUCREATE
 40
2454752.424008241
  9
$TDUPDATE
 40
2454752.509951342
  9
$TDUUPDATE
 40
2454752.426618009
  9
$TDINDWG
 40
0.0026099537
  9
$TDUSRTIMER
 40
0.0026099537
  9
$USRTIMER
 70
     1
  9
$ANGBASE
 50
0.0
  9
$ANGDIR
 70
     0
  9
$PDMODE
 70
     0
  9
$PDSIZE
 40
0.0
  9
$PLINEWID
 40
0.0
  9
$SPLFRAME
 70
     0
  9
$SPLINETYPE
 70
     6
  9
$SPLINESEGS
 70
     8
  9
$HANDSEED
  5
175
  9
$SURFTAB1
 70
     6
  9
$SURFTAB2
 70
     6
  9
$SURFTYPE
 70
     6
  9
$SURFU
 70
     6
  9
$SURFV
 70
     6
  9
$UCSBASE
  2

  9
$UCSNAME
  2

  9
$UCSORG
 10
0.0
 20
0.0
 30
0.0
  9
$UCSXDIR
 10
1.0
 20
0.0
 30
0.0
  9
$UCSYDIR
 10
0.0
 20
1.0
 30
0.0
  9
$UCSORTHOREF
  2

  9
$UCSORTHOVIEW
 70
     1
  9
$UCSORGTOP
 10
0.0
 20
0.0
 30
0.0
  9
$UCSORGBOTTOM
 10
0.0
 20
0.0
 30
0.0
  9
$UCSORGLEFT
 10
0.0
 20
0.0
 30
0.0
  9
$UCSORGRIGHT
 10
0.0
 20
0.0
 30
0.0
  9
$UCSORGFRONT
 10
0.0
 20
0.0
 30
0.0
  9
$UCSORGBACK
 10
0.0
 20
0.0
 30
0.0
  9
$PUCSBASE
  2

  9
$PUCSNAME
  2

  9
$PUCSORG
 10
0.0
 20
0.0
 30
0.0
  9
$PUCSXDIR
 10
1.0
 20
0.0
 30
0.0
  9
$PUCSYDIR
 10
0.0
 20
1.0
 30
0.0
  9
$PUCSORTHOREF
  2

  9
$PUCSORTHOVIEW
 70
     0
  9
$PUCSORGTOP
 10
0.0
 20
0.0
 30
0.0
  9
$PUCSORGBOTTOM
 10
0.0
 20
0.0
 30
0.0
  9
$PUCSORGLEFT
 10
0.0
 20
0.0
 30
0.0
  9
$PUCSORGRIGHT
 10
0.0
 20
0.0
 30
0.0
  9
$PUCSORGFRONT
 10
0.0
 20
0.0
 30
0.0
  9
$PUCSORGBACK
 10
0.0
 20
0.0
 30
0.0
  9
$USERI1
 70
     0
  9
$USERI2
 70
     0
  9
$USERI3
 70
     0
  9
$USERI4
 70
     0
  9
$USERI5
 70
     0
  9
$USERR1
 40
0.0
  9
$USERR2
 40
0.0
  9
$USERR3
 40
0.0
  9
$USERR4
 40
0.0
  9
$USERR5
 40
0.0
  9
$WORLDVIEW
 70
     1
  9
$SHADEDGE
 70
     3
  9
$SHADEDIF
 70
    70
  9
$TILEMODE
 70
     1
  9
$MAXACTVP
 70
    64
  9
$PINSBASE
 10
0.0
 20
0.0
 30
0.0
  9
$PLIMCHECK
 70
     0
  9
$PEXTMIN
 10
1.000000000000000E+20
 20
1.000000000000000E+20
 30
1.000000000000000E+20
  9
$PEXTMAX
 10
-1.000000000000000E+20
 20
-1.000000000000000E+20
 30
-1.000000000000000E+20
  9
$PLIMMIN
 10
0.0
 20
0.0
  9
$PLIMMAX
 10
12.0
 20
9.0
  9
$UNITMODE
 70
     0
  9
$VISRETAIN
 70
     1
  9
$PLINEGEN
 70
     0
  9
$PSLTSCALE
 70
     1
  9
$TREEDEPTH
 70
  3020
  9
$CMLSTYLE
  2
Standard
  9
$CMLJUST
 70
     0
  9
$CMLSCALE
 40
1.0
  9
$PROXYGRAPHICS
 70
     1
  9
$MEASUREMENT
 70
     0
  9
$CELWEIGHT
370
    -1
  9
$ENDCAPS
280
     0
  9
$JOINSTYLE
280
     0
  9
$LWDISPLAY
290
     0
  9
$INSUNITS
 70
     0
  9
$HYPERLINKBASE
  1

  9
$STYLESHEET
  1

  9
$XEDIT
290
     1
  9
$CEPSNTYPE
380
     0
  9
$PSTYLEMODE
290
     1
  9
$FINGERPRINTGUID
  2
{B1DD2F91-50F1-47B7-B3D9-2F9F20C58539}
  9
$VERSIONGUID
  2
{D2FA37A5-4F87-4446-882A-743B83246A3B}
  9
$EXTNAMES
290
     1
  9
$PSVPSCALE
 40
0.0
  9
$OLESTARTUP
290
     0
  0
ENDSEC
  0
SECTION
  2
CLASSES
  0
CLASS
  1
ACDBDICTIONARYWDFLT
  2
AcDbDictionaryWithDefault
  3
AutoCAD 2000
 90
        0
280
     0
281
     0
  0
CLASS
  1
ACDBPLACEHOLDER
  2
AcDbPlaceHolder
  3
AutoCAD 2000
 90
        0
280
     0
281
     0
  0
CLASS
  1
LAYOUT
  2
AcDbLayout
  3
AutoCAD 2000
 90
        0
280
     0
281
     0
  0
CLASS
  1
DICTIONARYVAR
  2
AcDbDictionaryVar
  3
AutoCAD 2000
 90
        0
280
     0
281
     0
  0
ENDSEC
  0
SECTION
  2
TABLES
  0
TABLE
  2
VPORT
  5
8
330
0
100
AcDbSymbolTable
 70
     2
  0
VPORT
  5
174
330
8
100
AcDbSymbolTableRecord
100
AcDbViewportTableRecord
  2
*Active
 70
     0
 10
0.0
 20
0.0
 11
1.0
 21
1.0
 12
122.4999999999999
 22
184.4999999999999
 13
0.0
 23
0.0
 14
1.0
 24
1.0
 15
0.0
 25
0.0
 16
0.0
 26
0.0
 36
1.0
 17
0.0
 27
0.0
 37
0.0
 40
371.405370699378
 41
2.078104993597951
 42
50.0
 43
0.0
 44
0.0
 50
0.0
 51
0.0
 71
     0
 72
   100
 73
     1
 74
     3
 75
     0
 76
     0
 77
     0
 78
     0
281
     0
 65
     1
110
0.0
120
0.0
130
0.0
111
1.0
121
0.0
131
0.0
112
0.0
122
1.0
132
0.0
 79
     1
146
0.0
  0
ENDTAB
  0
TABLE
  2
LTYPE
  5
5
330
0
100
AcDbSymbolTable
 70
     1
  0
LTYPE
  5
13
330
5
100
AcDbSymbolTableRecord
100
AcDbLinetypeTableRecord
  2
ByBlock
 70
     0
  3

 72
    65
 73
     0
 40
0.0
  0
LTYPE
  5
14
330
5
100
AcDbSymbolTableRecord
100
AcDbLinetypeTableRecord
  2
ByLayer
 70
     0
  3

 72
    65
 73
     0
 40
0.0
  0
LTYPE
  5
15
330
5
100
AcDbSymbolTableRecord
100
AcDbLinetypeTableRecord
  2
Continuous
 70
     0
  3
Solid line
 72
    65
 73
     0
 40
0.0
  0
ENDTAB
  0
TABLE
  2
LAYER
  5
2
330
0
100
AcDbSymbolTable
 70
     1
  0
LAYER
  5
10
330
2
100
AcDbSymbolTableRecord
100
AcDbLayerTableRecord
  2
0
 70
     0
 62
     7
  6
Continuous
370
    -3
390
F
  0
ENDTAB
  0
TABLE
  2
STYLE
  5
3
330
0
100
AcDbSymbolTable
 70
     1
  0
STYLE
  5
11
330
3
100
AcDbSymbolTableRecord
100
AcDbTextStyleTableRecord
  2
Standard
 70
     0
 40
0.0
 41
1.0
 50
0.0
 71
     0
 42
0.2
  3
txt
  4

  0
ENDTAB
  0
TABLE
  2
VIEW
  5
6
330
0
100
AcDbSymbolTable
 70
     0
  0
ENDTAB
  0
TABLE
  2
UCS
  5
7
330
0
100
AcDbSymbolTable
 70
     0
  0
ENDTAB
  0
TABLE
  2
APPID
  5
9
330
0
100
AcDbSymbolTable
 70
     1
  0
APPID
  5
12
330
9
100
AcDbSymbolTableRecord
100
AcDbRegAppTableRecord
  2
ACAD
 70
     0
  0
ENDTAB
  0
TABLE
  2
DIMSTYLE
  5
A
330
0
100
AcDbSymbolTable
 70
     1
100
AcDbDimStyleTable
 71
     0
  0
DIMSTYLE
105
16E
330
A
100
AcDbSymbolTableRecord
100
AcDbDimStyleTableRecord
  2
Standard
 70
     0
340
11
  0
ENDTAB
  0
TABLE
  2
BLOCK_RECORD
  5
1
330
0
100
AcDbSymbolTable
 70
     0
  0
BLOCK_RECORD
  5
1E
330
1
100
AcDbSymbolTableRecord
100
AcDbBlockTableRecord
  2
*Model_Space
340
21
  0
BLOCK_RECORD
  5
1A
330
1
100
AcDbSymbolTableRecord
100
AcDbBlockTableRecord
  2
*Paper_Space
340
1D
  0
ENDTAB
  0
ENDSEC
  0
SECTION
  2
BLOCKS
  0
BLOCK
  5
1F
330
1E
100
AcDbEntity
  8
0
100
AcDbBlockBegin
  2
*Model_Space
 70
     0
 10
0.0
 20
0.0
 30
0.0
  3
*Model_Space
  1

  0
ENDBLK
  5
20
330
1E
100
AcDbEntity
  8
0
100
AcDbBlockEnd
  0
BLOCK
  5
1B
330
1A
100
AcDbEntity
 67
     1
  8
0
100
AcDbBlockBegin
  2
*Paper_Space
 70
     0
 10
0.0
 20
0.0
 30
0.0
  3
*Paper_Space
  1

  0
ENDBLK
  5
1C
330
1A
100
AcDbEntity
 67
     1
  8
0
100
AcDbBlockEnd
  0
ENDSEC
  0
SECTION
  2
ENTITIES
  0
LINE
  5
22
330
1E
100
AcDbEntity
  8
0
100
AcDbLine
 10
4.09999999999999
 20
82.68654576703671
 30
0.0
 11
16.39999999999999
 21
56.0406953538091
 31
0.0
  0
LINE
  5
23
330
1E
100
AcDbEntity
  8
0
100
AcDbLine
 10
37.4
 20
37.4884282502235
 30
0.0
 11
62.7
 21
19.9057922632638
 31
0.0
  0
LINE
  5
24
330
1E
100
AcDbEntity
  8
0
100
AcDbLine
 10
63.5
 20
26.2762817402309
 30
0.0
 11
92.0
 21
15.7629530057601
 31
0.0
  0
LINE
  5
25
330
1E
100
AcDbEntity
  8
0
100
AcDbLine
 10
63.5
 20
25.00851481223739
 30
0.0
 11
92.0
 21
14.49518607776659
 31
0.0
  0
LINE
  5
26
330
1E
100
AcDbEntity
  8
0
100
AcDbLine
 10
38.9
 20
43.49638915013979
 30
0.0
 11
63.5
 21
26.2762817402309
 31
0.0
  0
LINE
  5
27
330
1E
100
AcDbEntity
  8
0
100
AcDbLine
 10
40.2
 20
45.51978497755029
 30
0.0
 11
64.5
 21
28.6622061446921
 31
0.0
  0
LINE
  5
28
330
1E
100
AcDbEntity
  8
0
100
AcDbLine
 10
38.9
 20
42.22862222214629
 30
0.0
 11
63.5
 21
25.00851481223739
 31
0.0
  0
LINE
  5
29
330
1E
100
AcDbEntity
  8
0
100
AcDbLine
 10
38.9
 20
38.8479104141637
 30
0.0
 11
63.5
 21
21.62780300425469
 31
0.0
  0
LINE
  5
2A
330
1E
100
AcDbEntity
  8
0
100
AcDbLine
 10
64.5
 20
28.6622061446921
 30
0.0
 11
92.5
 21
18.3301416987467
 31
0.0
  0
LINE
  5
2B
330
1E
100
AcDbEntity
  8
0
100
AcDbLine
 10
63.5
 20
21.62780300425469
 30
0.0
 11
92.0
 21
11.1144742697839
 31
0.0
  0
LINE
  5
2C
330
1E
100
AcDbEntity
  8
0
100
AcDbLine
 10
62.7
 20
19.9057922632638
 30
0.0
 11
91.5
 21
9.392463528793051
 31
0.0
  0
LINE
  5
2D
330
1E
100
AcDbEntity
  8
0
100
AcDbLine
 10
37.4
 20
34.53030541823869
 30
0.0
 11
62.7
 21
16.94766943127899
 31
0.0
  0
LINE
  5
2E
330
1E
100
AcDbEntity
  8
0
100
AcDbLine
 10
62.7
 20
16.94766943127899
 30
0.0
 11
91.5
 21
6.434340696808219
 31
0.0
  0
LINE
  5
2F
330
1E
100
AcDbEntity
  8
0
100
AcDbLine
 10
36.7
 20
33.89588040839989
 30
0.0
 11
62.1
 21
16.3132444214402
 31
0.0
  0
LINE
  5
30
330
1E
100
AcDbEntity
  8
0
100
AcDbLine
 10
62.1
 20
16.3132444214402
 30
0.0
 11
91.3
 21
5.528019254181429
 31
0.0
  0
LINE
  5
31
330
1E
100
AcDbEntity
  8
0
100
AcDbLine
 10
62.1
 20
16.3132444214402
 30
0.0
 11
91.3
 21
5.528019254181429
 31
0.0
  0
LINE
  5
32
330
1E
100
AcDbEntity
  8
0
100
AcDbLine
 10
36.0
 20
32.8388664225633
 30
0.0
 11
61.6
 21
15.0749661470783
 31
0.0
  0
LINE
  5
33
330
1E
100
AcDbEntity
  8
0
100
AcDbLine
 10
61.6
 20
15.0749661470783
 30
0.0
 11
91.0
 21
3.927212402768769
 31
0.0
  0
LINE
  5
34
330
1E
100
AcDbEntity
  8
0
100
AcDbLine
 10
122.5
 20
5.404649181235179
 30
0.0
 11
153.5
 21
9.392463528793051
 31
0.0
  0
LINE
  5
35
330
1E
100
AcDbEntity
  8
0
100
AcDbLine
 10
122.5
 20
2.446526349250349
 30
0.0
 11
153.5
 21
6.434340696808219
 31
0.0
  0
LINE
  5
36
330
1E
100
AcDbEntity
  8
0
100
AcDbLine
 10
122.5
 20
1.54020490662356
 30
0.0
 11
153.6999999999999
 21
5.528019254181429
 31
0.0
  0
LINE
  5
37
330
1E
100
AcDbEntity
  8
0
100
AcDbLine
 10
122.5
 20
0.211294487998939
 30
0.0
 11
154.0
 21
3.927212402768769
 31
0.0
  0
LINE
  5
38
330
1E
100
AcDbEntity
  8
0
100
AcDbLine
 10
153.6999999999999
 20
5.528019254181429
 30
0.0
 11
182.9
 21
16.3132444214402
 31
0.0
  0
LINE
  5
39
330
1E
100
AcDbEntity
  8
0
100
AcDbLine
 10
153.6999999999999
 20
5.528019254181429
 30
0.0
 11
182.9
 21
16.3132444214402
 31
0.0
  0
LINE
  5
3A
330
1E
100
AcDbEntity
  8
0
100
AcDbLine
 10
154.0
 20
3.927212402768769
 30
0.0
 11
183.3999999999999
 21
15.0749661470783
 31
0.0
  0
LINE
  5
3B
330
1E
100
AcDbEntity
  8
0
100
AcDbLine
 10
122.5
 20
0.211294487998939
 30
0.0
 11
154.0
 21
3.927212402768769
 31
0.0
  0
LINE
  5
3C
330
1E
100
AcDbEntity
  8
0
100
AcDbLine
 10
91.5
 20
9.392463528793051
 30
0.0
 11
122.5
 21
5.404649181235179
 31
0.0
  0
LINE
  5
3D
330
1E
100
AcDbEntity
  8
0
100
AcDbLine
 10
122.5
 20
7.21729206648875
 30
0.0
 11
153.0
 21
11.1144742697839
 31
0.0
  0
LINE
  5
3E
330
1E
100
AcDbEntity
  8
0
100
AcDbLine
 10
122.5
 20
10.5980038744714
 30
0.0
 11
153.0
 21
14.49518607776659
 31
0.0
  0
LINE
  5
3F
330
1E
100
AcDbEntity
  8
0
100
AcDbLine
 10
153.0
 20
11.1144742697839
 30
0.0
 11
181.4999999999999
 21
21.62780300425469
 31
0.0
  0
LINE
  5
40
330
1E
100
AcDbEntity
  8
0
100
AcDbLine
 10
153.5
 20
9.392463528793051
 30
0.0
 11
182.3
 21
19.9057922632638
 31
0.0
  0
LINE
  5
41
330
1E
100
AcDbEntity
  8
0
100
AcDbLine
 10
153.5
 20
6.434340696808219
 30
0.0
 11
182.3
 21
16.94766943127899
 31
0.0
  0
LINE
  5
42
330
1E
100
AcDbEntity
  8
0
100
AcDbLine
 10
92.0
 20
15.7629530057601
 30
0.0
 11
122.5
 21
11.86577080246489
 31
0.0
  0
LINE
  5
43
330
1E
100
AcDbEntity
  8
0
100
AcDbLine
 10
122.5
 20
14.52359163971419
 30
0.0
 11
152.5
 21
18.3301416987467
 31
0.0
  0
LINE
  5
44
330
1E
100
AcDbEntity
  8
0
100
AcDbLine
 10
153.0
 20
15.7629530057601
 30
0.0
 11
181.4999999999999
 21
26.2762817402309
 31
0.0
  0
LINE
  5
45
330
1E
100
AcDbEntity
  8
0
100
AcDbLine
 10
122.5
 20
11.86577080246489
 30
0.0
 11
153.0
 21
15.7629530057601
 31
0.0
  0
LINE
  5
46
330
1E
100
AcDbEntity
  8
0
100
AcDbLine
 10
153.0
 20
14.49518607776659
 30
0.0
 11
181.4999999999999
 21
25.00851481223739
 31
0.0
  0
LINE
  5
47
330
1E
100
AcDbEntity
  8
0
100
AcDbLine
 10
152.5
 20
18.3301416987467
 30
0.0
 11
180.4999999999999
 21
28.6622061446921
 31
0.0
  0
LINE
  5
48
330
1E
100
AcDbEntity
  8
0
100
AcDbLine
 10
182.3
 20
16.94766943127899
 30
0.0
 11
207.6
 21
34.53030541823869
 31
0.0
  0
LINE
  5
49
330
1E
100
AcDbEntity
  8
0
100
AcDbLine
 10
182.9
 20
16.3132444214402
 30
0.0
 11
208.3
 21
33.89588040839989
 31
0.0
  0
LINE
  5
4A
330
1E
100
AcDbEntity
  8
0
100
AcDbLine
 10
183.3999999999999
 20
15.0749661470783
 30
0.0
 11
209.0
 21
32.8388664225633
 31
0.0
  0
LINE
  5
4B
330
1E
100
AcDbEntity
  8
0
100
AcDbLine
 10
180.4999999999999
 20
28.6622061446921
 30
0.0
 11
204.8
 21
45.51978497755029
 31
0.0
  0
LINE
  5
4C
330
1E
100
AcDbEntity
  8
0
100
AcDbLine
 10
181.4999999999999
 20
26.2762817402309
 30
0.0
 11
206.0999999999999
 21
43.49638915013979
 31
0.0
  0
LINE
  5
4D
330
1E
100
AcDbEntity
  8
0
100
AcDbLine
 10
181.4999999999999
 20
25.00851481223739
 30
0.0
 11
206.0999999999999
 21
42.22862222214629
 31
0.0
  0
LINE
  5
4E
330
1E
100
AcDbEntity
  8
0
100
AcDbLine
 10
181.4999999999999
 20
21.62780300425469
 30
0.0
 11
206.0999999999999
 21
38.8479104141637
 31
0.0
  0
LINE
  5
4F
330
1E
100
AcDbEntity
  8
0
100
AcDbLine
 10
204.8
 20
45.51978497755029
 30
0.0
 11
223.3999999999999
 21
67.5433960333813
 31
0.0
  0
LINE
  5
50
330
1E
100
AcDbEntity
  8
0
100
AcDbLine
 10
206.0999999999999
 20
43.49638915013979
 30
0.0
 11
225.0999999999999
 21
65.79189663875879
 31
0.0
  0
LINE
  5
51
330
1E
100
AcDbEntity
  8
0
100
AcDbLine
 10
206.0999999999999
 20
42.22862222214629
 30
0.0
 11
225.0999999999999
 21
64.5241297107653
 31
0.0
  0
LINE
  5
52
330
1E
100
AcDbEntity
  8
0
100
AcDbLine
 10
206.0999999999999
 20
38.8479104141637
 30
0.0
 11
225.0999999999999
 21
61.1434179027827
 31
0.0
  0
LINE
  5
53
330
1E
100
AcDbEntity
  8
0
100
AcDbLine
 10
207.6
 20
37.4884282502235
 30
0.0
 11
227.0
 21
60.4183607486812
 31
0.0
  0
LINE
  5
54
330
1E
100
AcDbEntity
  8
0
100
AcDbLine
 10
207.6
 20
34.53030541823869
 30
0.0
 11
227.0
 21
57.46023791669639
 31
0.0
  0
LINE
  5
55
330
1E
100
AcDbEntity
  8
0
100
AcDbLine
 10
208.3
 20
33.89588040839989
 30
0.0
 11
227.7
 21
56.9164450511203
 31
0.0
  0
LINE
  5
56
330
1E
100
AcDbEntity
  8
0
100
AcDbLine
 10
209.0
 20
32.8388664225633
 30
0.0
 11
228.6
 21
56.0406953538091
 31
0.0
  0
LINE
  5
57
330
1E
100
AcDbEntity
  8
0
100
AcDbLine
 10
227.7
 20
56.9164450511203
 30
0.0
 11
239.5999999999999
 21
83.38103117582258
 31
0.0
  0
LINE
  5
58
330
1E
100
AcDbEntity
  8
0
100
AcDbLine
 10
228.6
 20
56.0406953538091
 30
0.0
 11
240.9
 21
82.68654576703671
 31
0.0
  0
LINE
  5
59
330
1E
100
AcDbEntity
  8
0
100
AcDbLine
 10
182.3
 20
19.9057922632638
 30
0.0
 11
207.6
 21
37.4884282502235
 31
0.0
  0
LINE
  5
5A
330
1E
100
AcDbEntity
  8
0
100
AcDbLine
 10
92.5
 20
18.3301416987467
 30
0.0
 11
122.5
 21
14.52359163971419
 31
0.0
  0
LINE
  5
5B
330
1E
100
AcDbEntity
  8
0
100
AcDbLine
 10
92.0
 20
14.49518607776659
 30
0.0
 11
122.5
 21
10.5980038744714
 31
0.0
  0
LINE
  5
5C
330
1E
100
AcDbEntity
  8
0
100
AcDbLine
 10
92.0
 20
11.1144742697839
 30
0.0
 11
122.5
 21
7.21729206648875
 31
0.0
  0
LINE
  5
5D
330
1E
100
AcDbEntity
  8
0
100
AcDbLine
 10
91.5
 20
6.434340696808219
 30
0.0
 11
122.5
 21
2.446526349250349
 31
0.0
  0
LINE
  5
5E
330
1E
100
AcDbEntity
  8
0
100
AcDbLine
 10
91.3
 20
5.528019254181429
 30
0.0
 11
122.5
 21
1.54020490662356
 31
0.0
  0
LINE
  5
5F
330
1E
100
AcDbEntity
  8
0
100
AcDbLine
 10
91.0
 20
3.927212402768769
 30
0.0
 11
122.5
 21
0.211294487998939
 31
0.0
  0
LINE
  5
60
330
1E
100
AcDbEntity
  8
0
100
AcDbLine
 10
91.0
 20
3.927212402768769
 30
0.0
 11
122.5
 21
0.211294487998939
 31
0.0
  0
LINE
  5
61
330
1E
100
AcDbEntity
  8
0
100
AcDbLine
 10
18.0
 20
60.4183607486812
 30
0.0
 11
37.4
 21
37.4884282502235
 31
0.0
  0
LINE
  5
62
330
1E
100
AcDbEntity
  8
0
100
AcDbLine
 10
225.0999999999999
 20
61.1434179027827
 30
0.0
 11
236.6999999999999
 21
86.97357901764609
 31
0.0
  0
LINE
  5
63
330
1E
100
AcDbEntity
  8
0
100
AcDbLine
 10
227.0
 20
60.4183607486812
 30
0.0
 11
238.6
 21
86.52041829633279
 31
0.0
  0
LINE
  5
64
330
1E
100
AcDbEntity
  8
0
100
AcDbLine
 10
227.0
 20
57.46023791669639
 30
0.0
 11
238.6
 21
83.56229546434791
 31
0.0
  0
LINE
  5
65
330
1E
100
AcDbEntity
  8
0
100
AcDbLine
 10
19.9
 20
65.79189663875879
 30
0.0
 11
38.9
 21
43.49638915013979
 31
0.0
  0
LINE
  5
66
330
1E
100
AcDbEntity
  8
0
100
AcDbLine
 10
223.3999999999999
 20
67.5433960333813
 30
0.0
 11
234.8
 21
92.9203964269314
 31
0.0
  0
LINE
  5
67
330
1E
100
AcDbEntity
  8
0
100
AcDbLine
 10
225.0999999999999
 20
65.79189663875879
 30
0.0
 11
236.6999999999999
 21
91.62205775362229
 31
0.0
  0
LINE
  5
68
330
1E
100
AcDbEntity
  8
0
100
AcDbLine
 10
225.0999999999999
 20
64.5241297107653
 30
0.0
 11
236.6999999999999
 21
90.35429082562879
 31
0.0
  0
LINE
  5
69
330
1E
100
AcDbEntity
  8
0
100
AcDbLine
 10
240.9
 20
82.68654576703671
 30
0.0
 11
245.0
 21
111.2356712097809
 31
0.0
  0
LINE
  5
6A
330
1E
100
AcDbEntity
  8
0
100
AcDbLine
 10
21.6
 20
67.5433960333813
 30
0.0
 11
40.2
 21
45.51978497755029
 31
0.0
  0
LINE
  5
6B
330
1E
100
AcDbEntity
  8
0
100
AcDbLine
 10
19.9
 20
64.5241297107653
 30
0.0
 11
38.9
 21
42.22862222214629
 31
0.0
  0
LINE
  5
6C
330
1E
100
AcDbEntity
  8
0
100
AcDbLine
 10
19.9
 20
61.1434179027827
 30
0.0
 11
38.9
 21
38.8479104141637
 31
0.0
  0
LINE
  5
6D
330
1E
100
AcDbEntity
  8
0
100
AcDbLine
 10
18.0
 20
57.46023791669639
 30
0.0
 11
37.4
 21
34.53030541823869
 31
0.0
  0
LINE
  5
6E
330
1E
100
AcDbEntity
  8
0
100
AcDbLine
 10
17.3
 20
56.9164450511203
 30
0.0
 11
36.7
 21
33.89588040839989
 31
0.0
  0
LINE
  5
6F
330
1E
100
AcDbEntity
  8
0
100
AcDbLine
 10
16.39999999999999
 20
56.0406953538091
 30
0.0
 11
36.0
 21
32.8388664225633
 31
0.0
  0
LINE
  5
70
330
1E
100
AcDbEntity
  8
0
100
AcDbLine
 10
239.5999999999999
 20
83.38103117582258
 30
0.0
 11
244.0
 21
111.658260185778
 31
0.0
  0
LINE
  5
71
330
1E
100
AcDbEntity
  8
0
100
AcDbLine
 10
1.999999999999989
 20
114.616383017763
 30
0.0
 11
1.999999999999989
 21
111.658260185778
 31
0.0
  0
LINE
  5
72
330
1E
100
AcDbEntity
  8
0
100
AcDbLine
 10
1.999999999999989
 20
114.616383017763
 30
0.0
 11
6.39999999999999
 21
86.52041829633279
 31
0.0
  0
LINE
  5
73
330
1E
100
AcDbEntity
  8
0
100
AcDbLine
 10
1.999999999999989
 20
114.616383017763
 30
0.0
 11
6.39999999999999
 21
142.712347739194
 31
0.0
  0
LINE
  5
74
330
1E
100
AcDbEntity
  8
0
100
AcDbLine
 10
238.6
 20
83.56229546434791
 30
0.0
 11
243.0
 21
111.658260185778
 31
0.0
  0
LINE
  5
75
330
1E
100
AcDbEntity
  8
0
100
AcDbLine
 10
3.99999999999999
 20
119.264861753739
 30
0.0
 11
8.29999999999999
 21
91.62205775362229
 31
0.0
  0
LINE
  5
76
330
1E
100
AcDbEntity
  8
0
100
AcDbLine
 10
3.99999999999999
 20
119.264861753739
 30
0.0
 11
8.29999999999999
 21
146.9076657538559
 31
0.0
  0
LINE
  5
77
330
1E
100
AcDbEntity
  8
0
100
AcDbLine
 10
4.09999999999999
 20
139.7847966525239
 30
0.0
 11
16.39999999999999
 21
166.4306470657519
 31
0.0
  0
LINE
  5
78
330
1E
100
AcDbEntity
  8
0
100
AcDbLine
 10
6.39999999999999
 20
142.712347739194
 30
0.0
 11
18.0
 21
168.8144052868449
 31
0.0
  0
LINE
  5
79
330
1E
100
AcDbEntity
  8
0
100
AcDbLine
 10
5.39999999999999
 20
139.9354891957339
 30
0.0
 11
6.267129754304179
 21
141.863911890194
 31
0.0
  0
LINE
  5
7A
330
1E
100
AcDbEntity
  8
0
100
AcDbLine
 10
4.09999999999999
 20
139.7847966525239
 30
0.0
 11
16.39999999999999
 21
166.4306470657519
 31
0.0
  0
LINE
  5
7B
330
1E
100
AcDbEntity
  8
0
100
AcDbLine
 10
5.99999999999999
 20
120.1100397057349
 30
0.0
 11
10.2
 21
92.9203964269314
 31
0.0
  0
LINE
  5
7C
330
1E
100
AcDbEntity
  8
0
100
AcDbLine
 10
5.99999999999999
 20
120.1100397057349
 30
0.0
 11
10.2
 21
147.299682984539
 31
0.0
  0
LINE
  5
7D
330
1E
100
AcDbEntity
  8
0
100
AcDbLine
 10
3.99999999999999
 20
117.997094825746
 30
0.0
 11
3.99999999999999
 21
114.616383017763
 31
0.0
  0
LINE
  5
7E
330
1E
100
AcDbEntity
  8
0
100
AcDbLine
 10
3.99999999999999
 20
117.997094825746
 30
0.0
 11
8.29999999999999
 21
90.35429082562879
 31
0.0
  0
LINE
  5
7F
330
1E
100
AcDbEntity
  8
0
100
AcDbLine
 10
3.99999999999999
 20
117.997094825746
 30
0.0
 11
4.098604283963889
 21
118.630978289743
 31
0.0
  0
LINE
  5
80
330
1E
100
AcDbEntity
  8
0
100
AcDbLine
 10
3.99999999999999
 20
114.616383017763
 30
0.0
 11
8.29999999999999
 21
86.97357901764609
 31
0.0
  0
LINE
  5
81
330
1E
100
AcDbEntity
  8
0
100
AcDbLine
 10
3.99999999999999
 20
114.616383017763
 30
0.0
 11
3.99999999999999
 21
117.997094825746
 31
0.0
  0
LINE
  5
82
330
1E
100
AcDbEntity
  8
0
100
AcDbLine
 10
236.6999999999999
 20
86.97357901764609
 30
0.0
 11
241.0
 21
114.616383017763
 31
0.0
  0
LINE
  5
83
330
1E
100
AcDbEntity
  8
0
100
AcDbLine
 10
238.6
 20
86.52041829633279
 30
0.0
 11
243.0
 21
114.616383017763
 31
0.0
  0
LINE
  5
84
330
1E
100
AcDbEntity
  8
0
100
AcDbLine
 10
8.29999999999999
 20
146.9076657538559
 30
0.0
 11
19.9
 21
172.7378268687199
 31
0.0
  0
LINE
  5
85
330
1E
100
AcDbEntity
  8
0
100
AcDbLine
 10
8.29999999999999
 20
91.62205775362229
 30
0.0
 11
19.9
 21
65.79189663875879
 31
0.0
  0
LINE
  5
86
330
1E
100
AcDbEntity
  8
0
100
AcDbLine
 10
234.8
 20
92.9203964269314
 30
0.0
 11
239.0
 21
120.1100397057349
 31
0.0
  0
LINE
  5
87
330
1E
100
AcDbEntity
  8
0
100
AcDbLine
 10
236.6999999999999
 20
91.62205775362229
 30
0.0
 11
241.0
 21
119.264861753739
 31
0.0
  0
LINE
  5
88
330
1E
100
AcDbEntity
  8
0
100
AcDbLine
 10
236.6999999999999
 20
90.35429082562879
 30
0.0
 11
241.0
 21
117.997094825746
 31
0.0
  0
LINE
  5
89
330
1E
100
AcDbEntity
  8
0
100
AcDbLine
 10
10.2
 20
147.299682984539
 30
0.0
 11
21.6
 21
172.6766833780889
 31
0.0
  0
LINE
  5
8A
330
1E
100
AcDbEntity
  8
0
100
AcDbLine
 10
21.6
 20
172.6766833780889
 30
0.0
 11
40.2
 21
194.70029443392
 31
0.0
  0
LINE
  5
8B
330
1E
100
AcDbEntity
  8
0
100
AcDbLine
 10
19.9
 20
172.7378268687199
 30
0.0
 11
38.9
 21
195.0333343573389
 31
0.0
  0
LINE
  5
8C
330
1E
100
AcDbEntity
  8
0
100
AcDbLine
 10
18.0
 20
168.8144052868449
 30
0.0
 11
18.2942053470408
 21
169.1621428511919
 31
0.0
  0
LINE
  5
8D
330
1E
100
AcDbEntity
  8
0
100
AcDbLine
 10
18.0
 20
168.8144052868449
 30
0.0
 11
18.2942053470408
 21
169.1621428511919
 31
0.0
  0
LINE
  5
8E
330
1E
100
AcDbEntity
  8
0
100
AcDbLine
 10
16.39999999999999
 20
166.4306470657519
 30
0.0
 11
17.5407665931252
 21
167.7810486649439
 31
0.0
  0
LINE
  5
8F
330
1E
100
AcDbEntity
  8
0
100
AcDbLine
 10
40.2
 20
194.70029443392
 30
0.0
 11
64.5
 21
211.5578732667779
 31
0.0
  0
LINE
  5
90
330
1E
100
AcDbEntity
  8
0
100
AcDbLine
 10
64.5
 20
211.5578732667779
 30
0.0
 11
92.5
 21
221.8899377127229
 31
0.0
  0
LINE
  5
91
330
1E
100
AcDbEntity
  8
0
100
AcDbLine
 10
38.9
 20
195.0333343573389
 30
0.0
 11
63.5
 21
212.253441767248
 31
0.0
  0
LINE
  5
92
330
1E
100
AcDbEntity
  8
0
100
AcDbLine
 10
91.5
 20
368.788705512001
 30
0.0
 11
92.5
 21
363.290705512001
 31
0.0
  0
LINE
  5
93
330
1E
100
AcDbEntity
  8
0
100
AcDbLine
 10
91.5
 20
368.788705512001
 30
0.0
 11
92.59999999999999
 21
368.788705512001
 31
0.0
  0
LINE
  5
94
330
1E
100
AcDbEntity
  8
0
100
AcDbLine
 10
63.5
 20
212.253441767248
 30
0.0
 11
92.0
 21
222.766770501719
 31
0.0
  0
LINE
  5
95
330
1E
100
AcDbEntity
  8
0
100
AcDbLine
 10
98.7
 20
360.790705512001
 30
0.0
 11
103.0999999999999
 21
360.790705512001
 31
0.0
  0
LINE
  5
96
330
1E
100
AcDbEntity
  8
0
100
AcDbLine
 10
96.0
 20
360.790705512001
 30
0.0
 11
98.7
 21
360.790705512001
 31
0.0
  0
LINE
  5
97
330
1E
100
AcDbEntity
  8
0
100
AcDbLine
 10
95.0
 20
360.790705512001
 30
0.0
 11
96.0
 21
360.790705512001
 31
0.0
  0
LINE
  5
98
330
1E
100
AcDbEntity
  8
0
100
AcDbLine
 10
93.49999999999999
 20
361.290705512001
 30
0.0
 11
95.0
 21
360.790705512001
 31
0.0
  0
LINE
  5
99
330
1E
100
AcDbEntity
  8
0
100
AcDbLine
 10
95.7
 20
368.788705512001
 30
0.0
 11
100.6
 21
368.788705512001
 31
0.0
  0
LINE
  5
9A
330
1E
100
AcDbEntity
  8
0
100
AcDbLine
 10
92.59999999999999
 20
368.788705512001
 30
0.0
 11
95.7
 21
368.788705512001
 31
0.0
  0
LINE
  5
9B
330
1E
100
AcDbEntity
  8
0
100
AcDbLine
 10
93.0
 20
361.790705512001
 30
0.0
 11
93.49999999999999
 21
361.290705512001
 31
0.0
  0
LINE
  5
9C
330
1E
100
AcDbEntity
  8
0
100
AcDbLine
 10
92.5
 20
363.290705512001
 30
0.0
 11
93.0
 21
361.790705512001
 31
0.0
  0
LINE
  5
9D
330
1E
100
AcDbEntity
  8
0
100
AcDbLine
 10
92.5
 20
221.8899377127229
 30
0.0
 11
111.4999999999999
 21
224.3007527501109
 31
0.0
  0
LINE
  5
9E
330
1E
100
AcDbEntity
  8
0
100
AcDbLine
 10
92.0
 20
222.766770501719
 30
0.0
 11
111.4999999999999
 21
225.2584115825139
 31
0.0
  0
LINE
  5
9F
330
1E
100
AcDbEntity
  8
0
100
AcDbLine
 10
100.0
 20
128.561819225692
 30
0.0
 11
100.0
 21
127.7166412736959
 31
0.0
  0
LINE
  5
A0
330
1E
100
AcDbEntity
  8
0
100
AcDbLine
 10
100.0
 20
128.561819225692
 30
0.0
 11
100.8
 21
123.305154858456
 31
0.0
  0
LINE
  5
A1
330
1E
100
AcDbEntity
  8
0
100
AcDbLine
 10
100.0
 20
128.561819225692
 30
0.0
 11
100.8
 21
133.818483592927
 31
0.0
  0
LINE
  5
A2
330
1E
100
AcDbEntity
  8
0
100
AcDbLine
 10
103.0
 20
118.411019068272
 30
0.0
 11
106.6
 21
114.151308287926
 31
0.0
  0
LINE
  5
A3
330
1E
100
AcDbEntity
  8
0
100
AcDbLine
 10
128.3
 20
108.049465968695
 30
0.0
 11
133.6999999999999
 21
110.0433731424739
 31
0.0
  0
LINE
  5
A4
330
1E
100
AcDbEntity
  8
0
100
AcDbLine
 10
122.5
 20
107.3244088145929
 30
0.0
 11
128.3
 21
108.049465968695
 31
0.0
  0
LINE
  5
A5
330
1E
100
AcDbEntity
  8
0
100
AcDbLine
 10
111.2999999999999
 20
110.888551094469
 30
0.0
 11
116.7
 21
108.8946439206899
 31
0.0
  0
LINE
  5
A6
330
1E
100
AcDbEntity
  8
0
100
AcDbLine
 10
106.6
 20
114.151308287926
 30
0.0
 11
111.2999999999999
 21
110.888551094469
 31
0.0
  0
LINE
  5
A7
330
1E
100
AcDbEntity
  8
0
100
AcDbLine
 10
106.6
 20
113.3061303359299
 30
0.0
 11
111.2999999999999
 21
110.0433731424739
 31
0.0
  0
LINE
  5
A8
330
1E
100
AcDbEntity
  8
0
100
AcDbLine
 10
128.3
 20
108.8946439206899
 30
0.0
 11
133.6999999999999
 21
110.888551094469
 31
0.0
  0
LINE
  5
A9
330
1E
100
AcDbEntity
  8
0
100
AcDbLine
 10
122.5
 20
108.1695867665889
 30
0.0
 11
128.3
 21
108.8946439206899
 31
0.0
  0
LINE
  5
AA
330
1E
100
AcDbEntity
  8
0
100
AcDbLine
 10
119.4
 20
122.2743802511989
 30
0.0
 11
122.5
 21
121.9118516741489
 31
0.0
  0
LINE
  5
AB
330
1E
100
AcDbEntity
  8
0
100
AcDbLine
 10
114.0
 20
120.8580869633639
 30
0.0
 11
116.5
 21
119.136076222373
 31
0.0
  0
LINE
  5
AC
330
1E
100
AcDbEntity
  8
0
100
AcDbLine
 10
116.5
 20
119.136076222373
 30
0.0
 11
119.4
 21
118.048490491221
 31
0.0
  0
LINE
  5
AD
330
1E
100
AcDbEntity
  8
0
100
AcDbLine
 10
125.6
 20
122.2743802511989
 30
0.0
 11
128.4999999999999
 21
123.361965982351
 31
0.0
  0
LINE
  5
AE
330
1E
100
AcDbEntity
  8
0
100
AcDbLine
 10
122.5
 20
121.9118516741489
 30
0.0
 11
125.6
 21
122.2743802511989
 31
0.0
  0
LINE
  5
AF
330
1E
100
AcDbEntity
  8
0
100
AcDbLine
 10
131.0
 20
120.8580869633639
 30
0.0
 11
132.9
 21
123.123890569931
 31
0.0
  0
LINE
  5
B0
330
1E
100
AcDbEntity
  8
0
100
AcDbLine
 10
128.4999999999999
 20
119.136076222373
 30
0.0
 11
131.0
 21
120.8580869633639
 31
0.0
  0
LINE
  5
B1
330
1E
100
AcDbEntity
  8
0
100
AcDbLine
 10
125.6
 20
118.048490491221
 30
0.0
 11
128.4999999999999
 21
119.136076222373
 31
0.0
  0
LINE
  5
B2
330
1E
100
AcDbEntity
  8
0
100
AcDbLine
 10
122.5
 20
117.68596191417
 30
0.0
 11
125.6
 21
118.048490491221
 31
0.0
  0
LINE
  5
B3
330
1E
100
AcDbEntity
  8
0
100
AcDbLine
 10
138.4
 20
114.151308287926
 30
0.0
 11
142.0
 21
118.411019068272
 31
0.0
  0
LINE
  5
B4
330
1E
100
AcDbEntity
  8
0
100
AcDbLine
 10
142.0
 20
118.411019068272
 30
0.0
 11
144.1999999999999
 21
123.305154858456
 31
0.0
  0
LINE
  5
B5
330
1E
100
AcDbEntity
  8
0
100
AcDbLine
 10
138.4
 20
113.3061303359299
 30
0.0
 11
142.0
 21
117.5658411162759
 31
0.0
  0
LINE
  5
B6
330
1E
100
AcDbEntity
  8
0
100
AcDbLine
 10
240.901395716036
 20
118.630978289743
 30
0.0
 11
241.0
 21
117.997094825746
 31
0.0
  0
LINE
  5
B7
330
1E
100
AcDbEntity
  8
0
100
AcDbLine
 10
241.0
 20
117.997094825746
 30
0.0
 11
241.0
 21
114.616383017763
 31
0.0
  0
LINE
  5
B8
330
1E
100
AcDbEntity
  8
0
100
AcDbLine
 10
142.0
 20
117.5658411162759
 30
0.0
 11
144.1999999999999
 21
122.4599769064609
 31
0.0
  0
LINE
  5
B9
330
1E
100
AcDbEntity
  8
0
100
AcDbLine
 10
144.1999999999999
 20
122.4599769064609
 30
0.0
 11
145.0
 21
127.7166412736959
 31
0.0
  0
LINE
  5
BA
330
1E
100
AcDbEntity
  8
0
100
AcDbLine
 10
243.0
 20
114.616383017763
 30
0.0
 11
243.0
 21
111.658260185778
 31
0.0
  0
LINE
  5
BB
330
1E
100
AcDbEntity
  8
0
100
AcDbLine
 10
241.0
 20
114.616383017763
 30
0.0
 11
241.0
 21
117.997094825746
 31
0.0
  0
LINE
  5
BC
330
1E
100
AcDbEntity
  8
0
100
AcDbLine
 10
243.0
 20
111.658260185778
 30
0.0
 11
243.0
 21
114.616383017763
 31
0.0
  0
LINE
  5
BD
330
1E
100
AcDbEntity
  8
0
100
AcDbLine
 10
133.6999999999999
 20
110.888551094469
 30
0.0
 11
138.4
 21
114.151308287926
 31
0.0
  0
LINE
  5
BE
330
1E
100
AcDbEntity
  8
0
100
AcDbLine
 10
133.6999999999999
 20
110.0433731424739
 30
0.0
 11
138.4
 21
113.3061303359299
 31
0.0
  0
LINE
  5
BF
330
1E
100
AcDbEntity
  8
0
100
AcDbLine
 10
119.4
 20
118.048490491221
 30
0.0
 11
122.5
 21
117.68596191417
 31
0.0
  0
LINE
  5
C0
330
1E
100
AcDbEntity
  8
0
100
AcDbLine
 10
116.7
 20
108.8946439206899
 30
0.0
 11
122.5
 21
108.1695867665889
 31
0.0
  0
LINE
  5
C1
330
1E
100
AcDbEntity
  8
0
100
AcDbLine
 10
111.2999999999999
 20
110.0433731424739
 30
0.0
 11
116.7
 21
108.049465968695
 31
0.0
  0
LINE
  5
C2
330
1E
100
AcDbEntity
  8
0
100
AcDbLine
 10
116.7
 20
108.049465968695
 30
0.0
 11
122.5
 21
107.3244088145929
 31
0.0
  0
LINE
  5
C3
330
1E
100
AcDbEntity
  8
0
100
AcDbLine
 10
103.0
 20
117.5658411162759
 30
0.0
 11
106.6
 21
113.3061303359299
 31
0.0
  0
LINE
  5
C4
330
1E
100
AcDbEntity
  8
0
100
AcDbLine
 10
100.6
 20
368.788705512001
 30
0.0
 11
107.0999999999999
 21
368.788705512001
 31
0.0
  0
LINE
  5
C5
330
1E
100
AcDbEntity
  8
0
100
AcDbLine
 10
100.8
 20
133.818483592927
 30
0.0
 11
103.0
 21
138.7126193831119
 31
0.0
  0
LINE
  5
C6
330
1E
100
AcDbEntity
  8
0
100
AcDbLine
 10
132.9
 20
123.123890569931
 30
0.0
 11
134.0999999999999
 21
125.752222753549
 31
0.0
  0
LINE
  5
C7
330
1E
100
AcDbEntity
  8
0
100
AcDbLine
 10
122.5
 20
123.301725512001
 30
0.0
 11
125.3769
 21
123.6892755120009
 31
0.0
  0
LINE
  5
C8
330
1E
100
AcDbEntity
  8
0
100
AcDbLine
 10
144.1999999999999
 20
123.305154858456
 30
0.0
 11
145.0
 21
128.561819225692
 31
0.0
  0
LINE
  5
C9
330
1E
100
AcDbEntity
  8
0
100
AcDbLine
 10
128.4999999999999
 20
123.361965982351
 30
0.0
 11
131.0
 21
125.083976723342
 31
0.0
  0
LINE
  5
CA
330
1E
100
AcDbEntity
  8
0
100
AcDbLine
 10
113.0230999999999
 20
128.2267455120009
 30
0.0
 11
114.7154
 21
126.181775512001
 31
0.0
  0
LINE
  5
CB
330
1E
100
AcDbEntity
  8
0
100
AcDbLine
 10
122.5
 20
123.594475512001
 30
0.0
 11
125.316
 21
123.953295512001
 31
0.0
  0
LINE
  5
CC
330
1E
100
AcDbEntity
  8
0
100
AcDbLine
 10
119.6839999999999
 20
123.953295512001
 30
0.0
 11
122.5
 21
123.594475512001
 31
0.0
  0
LINE
  5
CD
330
1E
100
AcDbEntity
  8
0
100
AcDbLine
 10
117.0439999999999
 20
124.9101455120009
 30
0.0
 11
119.6839999999999
 21
123.953295512001
 31
0.0
  0
LINE
  5
CE
330
1E
100
AcDbEntity
  8
0
100
AcDbLine
 10
125.316
 20
123.953295512001
 30
0.0
 11
127.956
 21
124.9101455120009
 31
0.0
  0
LINE
  5
CF
330
1E
100
AcDbEntity
  8
0
100
AcDbLine
 10
127.956
 20
124.9101455120009
 30
0.0
 11
130.2879999999999
 21
126.504875512001
 31
0.0
  0
LINE
  5
D0
330
1E
100
AcDbEntity
  8
0
100
AcDbLine
 10
125.3769
 20
123.6892755120009
 30
0.0
 11
128.0
 21
124.694385512001
 31
0.0
  0
LINE
  5
D1
330
1E
100
AcDbEntity
  8
0
100
AcDbLine
 10
128.0
 20
124.694385512001
 30
0.0
 11
130.2846
 21
126.248675512001
 31
0.0
  0
LINE
  5
D2
330
1E
100
AcDbEntity
  8
0
100
AcDbLine
 10
119.6231
 20
123.6809455120009
 30
0.0
 11
122.5
 21
123.301725512001
 31
0.0
  0
LINE
  5
D3
330
1E
100
AcDbEntity
  8
0
100
AcDbLine
 10
117.0
 20
124.669285512001
 30
0.0
 11
119.6231
 21
123.6809455120009
 31
0.0
  0
LINE
  5
D4
330
1E
100
AcDbEntity
  8
0
100
AcDbLine
 10
114.712
 20
126.504875512001
 30
0.0
 11
117.0439999999999
 21
124.9101455120009
 31
0.0
  0
LINE
  5
D5
330
1E
100
AcDbEntity
  8
0
100
AcDbLine
 10
130.2879999999999
 20
126.504875512001
 30
0.0
 11
132.048
 21
128.617895512001
 31
0.0
  0
LINE
  5
D6
330
1E
100
AcDbEntity
  8
0
100
AcDbLine
 10
130.2846
 20
126.248675512001
 30
0.0
 11
131.9768999999999
 21
128.343865512001
 31
0.0
  0
LINE
  5
D7
330
1E
100
AcDbEntity
  8
0
100
AcDbLine
 10
114.7154
 20
126.181775512001
 30
0.0
 11
117.0
 21
124.669285512001
 31
0.0
  0
LINE
  5
D8
330
1E
100
AcDbEntity
  8
0
100
AcDbLine
 10
131.0
 20
125.083976723342
 30
0.0
 11
132.9
 21
127.349780329909
 31
0.0
  0
LINE
  5
D9
330
1E
100
AcDbEntity
  8
0
100
AcDbLine
 10
132.9
 20
127.349780329909
 30
0.0
 11
134.0999999999999
 21
129.9781125135269
 31
0.0
  0
LINE
  5
DA
330
1E
100
AcDbEntity
  8
0
100
AcDbLine
 10
134.0999999999999
 20
125.752222753549
 30
0.0
 11
134.4999999999999
 21
128.561819225692
 31
0.0
  0
LINE
  5
DB
330
1E
100
AcDbEntity
  8
0
100
AcDbLine
 10
131.9768999999999
 20
128.343865512001
 30
0.0
 11
133.0768999999999
 21
130.766705512001
 31
0.0
  0
LINE
  5
DC
330
1E
100
AcDbEntity
  8
0
100
AcDbLine
 10
145.0
 20
128.561819225692
 30
0.0
 11
145.0
 21
127.7166412736959
 31
0.0
  0
LINE
  5
DD
330
1E
100
AcDbEntity
  8
0
100
AcDbLine
 10
134.4999999999999
 20
128.561819225692
 30
0.0
 11
134.4999999999999
 21
132.78770898567
 31
0.0
  0
LINE
  5
DE
330
1E
100
AcDbEntity
  8
0
100
AcDbLine
 10
145.0
 20
127.7166412736959
 30
0.0
 11
145.0
 21
128.561819225692
 31
0.0
  0
LINE
  5
DF
330
1E
100
AcDbEntity
  8
0
100
AcDbLine
 10
114.0
 20
125.083976723342
 30
0.0
 11
116.5
 21
123.361965982351
 31
0.0
  0
LINE
  5
E0
330
1E
100
AcDbEntity
  8
0
100
AcDbLine
 10
116.5
 20
123.361965982351
 30
0.0
 11
119.4
 21
122.2743802511989
 31
0.0
  0
LINE
  5
E1
330
1E
100
AcDbEntity
  8
0
100
AcDbLine
 10
112.0999999999999
 20
127.349780329909
 30
0.0
 11
114.0
 21
125.083976723342
 31
0.0
  0
LINE
  5
E2
330
1E
100
AcDbEntity
  8
0
100
AcDbLine
 10
112.0999999999999
 20
123.123890569931
 30
0.0
 11
114.0
 21
120.8580869633639
 31
0.0
  0
LINE
  5
E3
330
1E
100
AcDbEntity
  8
0
100
AcDbLine
 10
110.8999999999999
 20
125.752222753549
 30
0.0
 11
112.0999999999999
 21
123.123890569931
 31
0.0
  0
LINE
  5
E4
330
1E
100
AcDbEntity
  8
0
100
AcDbLine
 10
103.0
 20
138.7126193831119
 30
0.0
 11
106.6
 21
142.972330163458
 31
0.0
  0
LINE
  5
E5
330
1E
100
AcDbEntity
  8
0
100
AcDbLine
 10
107.0999999999999
 20
368.788705512001
 30
0.0
 11
114.5
 21
368.788705512001
 31
0.0
  0
LINE
  5
E6
330
1E
100
AcDbEntity
  8
0
100
AcDbLine
 10
103.0999999999999
 20
360.790705512001
 30
0.0
 11
108.8
 21
360.790705512001
 31
0.0
  0
LINE
  5
E7
330
1E
100
AcDbEntity
  8
0
100
AcDbLine
 10
108.8
 20
360.790705512001
 30
0.0
 11
111.4999999999999
 21
360.790705512001
 31
0.0
  0
LINE
  5
E8
330
1E
100
AcDbEntity
  8
0
100
AcDbLine
 10
106.6
 20
142.972330163458
 30
0.0
 11
111.2999999999999
 21
146.2350873569139
 31
0.0
  0
LINE
  5
E9
330
1E
100
AcDbEntity
  8
0
100
AcDbLine
 10
112.952
 20
128.617895512001
 30
0.0
 11
114.712
 21
126.504875512001
 31
0.0
  0
LINE
  5
EA
330
1E
100
AcDbEntity
  8
0
100
AcDbLine
 10
132.048
 20
128.617895512001
 30
0.0
 11
133.1039999999999
 21
131.0101055120009
 31
0.0
  0
LINE
  5
EB
330
1E
100
AcDbEntity
  8
0
100
AcDbLine
 10
134.0999999999999
 20
129.9781125135269
 30
0.0
 11
134.4999999999999
 21
132.78770898567
 31
0.0
  0
LINE
  5
EC
330
1E
100
AcDbEntity
  8
0
100
AcDbLine
 10
111.8959999999999
 20
131.0101055120009
 30
0.0
 11
112.952
 21
128.617895512001
 31
0.0
  0
LINE
  5
ED
330
1E
100
AcDbEntity
  8
0
100
AcDbLine
 10
133.1039999999999
 20
131.0101055120009
 30
0.0
 11
133.4999999999999
 21
133.561805512001
 31
0.0
  0
LINE
  5
EE
330
1E
100
AcDbEntity
  8
0
100
AcDbLine
 10
133.0768999999999
 20
130.766705512001
 30
0.0
 11
133.4999999999999
 21
133.415305512001
 31
0.0
  0
LINE
  5
EF
330
1E
100
AcDbEntity
  8
0
100
AcDbLine
 10
111.9231
 20
130.5576055120009
 30
0.0
 11
113.0230999999999
 21
128.2267455120009
 31
0.0
  0
LINE
  5
F0
330
1E
100
AcDbEntity
  8
0
100
AcDbLine
 10
111.4999999999999
 20
133.561805512001
 30
0.0
 11
111.4999999999999
 21
139.9014055120009
 31
0.0
  0
LINE
  5
F1
330
1E
100
AcDbEntity
  8
0
100
AcDbLine
 10
111.4999999999999
 20
133.561805512001
 30
0.0
 11
111.8959999999999
 21
131.0101055120009
 31
0.0
  0
LINE
  5
F2
330
1E
100
AcDbEntity
  8
0
100
AcDbLine
 10
133.4999999999999
 20
133.561805512001
 30
0.0
 11
133.4999999999999
 21
139.9014055120009
 31
0.0
  0
LINE
  5
F3
330
1E
100
AcDbEntity
  8
0
100
AcDbLine
 10
133.488467901874
 20
133.487496282735
 30
0.0
 11
133.4999999999999
 21
133.415305512001
 31
0.0
  0
LINE
  5
F4
330
1E
100
AcDbEntity
  8
0
100
AcDbLine
 10
111.4999999999999
 20
133.1225055120009
 30
0.0
 11
111.9231
 21
130.5576055120009
 31
0.0
  0
LINE
  5
F5
330
1E
100
AcDbEntity
  8
0
100
AcDbLine
 10
111.4999999999999
 20
133.1225055120009
 30
0.0
 11
111.5351269045359
 21
133.3354587385059
 31
0.0
  0
LINE
  5
F6
330
1E
100
AcDbEntity
  8
0
100
AcDbLine
 10
110.8999999999999
 20
135.597305457813
 30
0.0
 11
111.4999999999999
 21
136.9114715496219
 31
0.0
  0
LINE
  5
F7
330
1E
100
AcDbEntity
  8
0
100
AcDbLine
 10
133.4999999999999
 20
136.9114715496219
 30
0.0
 11
134.0999999999999
 21
135.597305457813
 31
0.0
  0
LINE
  5
F8
330
1E
100
AcDbEntity
  8
0
100
AcDbLine
 10
134.0999999999999
 20
135.597305457813
 30
0.0
 11
134.4999999999999
 21
132.78770898567
 31
0.0
  0
LINE
  5
F9
330
1E
100
AcDbEntity
  8
0
100
AcDbLine
 10
134.4999999999999
 20
132.78770898567
 30
0.0
 11
134.4999999999999
 21
128.561819225692
 31
0.0
  0
LINE
  5
FA
330
1E
100
AcDbEntity
  8
0
100
AcDbLine
 10
133.4999999999999
 20
139.9014055120009
 30
0.0
 11
133.4999999999999
 21
133.561805512001
 31
0.0
  0
LINE
  5
FB
330
1E
100
AcDbEntity
  8
0
100
AcDbLine
 10
133.4999999999999
 20
139.9014055120009
 30
0.0
 11
133.4999999999999
 21
143.3699055120009
 31
0.0
  0
LINE
  5
FC
330
1E
100
AcDbEntity
  8
0
100
AcDbLine
 10
111.4999999999999
 20
139.9014055120009
 30
0.0
 11
111.4999999999999
 21
133.561805512001
 31
0.0
  0
LINE
  5
FD
330
1E
100
AcDbEntity
  8
0
100
AcDbLine
 10
111.4999999999999
 20
139.9014055120009
 30
0.0
 11
111.4999999999999
 21
143.3699055120009
 31
0.0
  0
LINE
  5
FE
330
1E
100
AcDbEntity
  8
0
100
AcDbLine
 10
142.0
 20
138.7126193831119
 30
0.0
 11
144.1999999999999
 21
133.818483592927
 31
0.0
  0
LINE
  5
FF
330
1E
100
AcDbEntity
  8
0
100
AcDbLine
 10
144.1999999999999
 20
133.818483592927
 30
0.0
 11
145.0
 21
128.561819225692
 31
0.0
  0
LINE
  5
100
330
1E
100
AcDbEntity
  8
0
100
AcDbLine
 10
133.4999999999999
 20
143.3699055120009
 30
0.0
 11
133.4999999999999
 21
139.9014055120009
 31
0.0
  0
LINE
  5
101
330
1E
100
AcDbEntity
  8
0
100
AcDbLine
 10
133.4999999999999
 20
143.3699055120009
 30
0.0
 11
133.4999999999999
 21
147.5237055120009
 31
0.0
  0
LINE
  5
102
330
1E
100
AcDbEntity
  8
0
100
AcDbLine
 10
111.4999999999999
 20
143.3699055120009
 30
0.0
 11
111.4999999999999
 21
147.5237055120009
 31
0.0
  0
LINE
  5
103
330
1E
100
AcDbEntity
  8
0
100
AcDbLine
 10
111.4999999999999
 20
143.3699055120009
 30
0.0
 11
111.4999999999999
 21
139.9014055120009
 31
0.0
  0
LINE
  5
104
330
1E
100
AcDbEntity
  8
0
100
AcDbLine
 10
111.2999999999999
 20
146.2350873569139
 30
0.0
 11
111.4999999999999
 21
146.308935770758
 31
0.0
  0
LINE
  5
105
330
1E
100
AcDbEntity
  8
0
100
AcDbLine
 10
133.6999999999999
 20
146.2350873569139
 30
0.0
 11
138.4
 21
142.972330163458
 31
0.0
  0
LINE
  5
106
330
1E
100
AcDbEntity
  8
0
100
AcDbLine
 10
133.4999999999999
 20
146.308935770758
 30
0.0
 11
133.6999999999999
 21
146.2350873569139
 31
0.0
  0
LINE
  5
107
330
1E
100
AcDbEntity
  8
0
100
AcDbLine
 10
138.4
 20
142.972330163458
 30
0.0
 11
142.0
 21
138.7126193831119
 31
0.0
  0
LINE
  5
108
330
1E
100
AcDbEntity
  8
0
100
AcDbLine
 10
133.4999999999999
 20
147.5237055120009
 30
0.0
 11
133.4999999999999
 21
152.2682055120009
 31
0.0
  0
LINE
  5
109
330
1E
100
AcDbEntity
  8
0
100
AcDbLine
 10
133.4999999999999
 20
147.5237055120009
 30
0.0
 11
133.4999999999999
 21
143.3699055120009
 31
0.0
  0
LINE
  5
10A
330
1E
100
AcDbEntity
  8
0
100
AcDbLine
 10
111.4999999999999
 20
163.116705512001
 30
0.0
 11
111.4999999999999
 21
157.487305512001
 31
0.0
  0
LINE
  5
10B
330
1E
100
AcDbEntity
  8
0
100
AcDbLine
 10
111.4999999999999
 20
163.116705512001
 30
0.0
 11
111.4999999999999
 21
169.0605055120009
 31
0.0
  0
LINE
  5
10C
330
1E
100
AcDbEntity
  8
0
100
AcDbLine
 10
111.4999999999999
 20
157.487305512001
 30
0.0
 11
111.4999999999999
 21
163.116705512001
 31
0.0
  0
LINE
  5
10D
330
1E
100
AcDbEntity
  8
0
100
AcDbLine
 10
111.4999999999999
 20
157.487305512001
 30
0.0
 11
111.4999999999999
 21
152.2682055120009
 31
0.0
  0
LINE
  5
10E
330
1E
100
AcDbEntity
  8
0
100
AcDbLine
 10
133.4999999999999
 20
163.116705512001
 30
0.0
 11
133.4999999999999
 21
157.487305512001
 31
0.0
  0
LINE
  5
10F
330
1E
100
AcDbEntity
  8
0
100
AcDbLine
 10
133.4999999999999
 20
163.116705512001
 30
0.0
 11
133.4999999999999
 21
169.0605055120009
 31
0.0
  0
LINE
  5
110
330
1E
100
AcDbEntity
  8
0
100
AcDbLine
 10
133.4999999999999
 20
157.487305512001
 30
0.0
 11
133.4999999999999
 21
152.2682055120009
 31
0.0
  0
LINE
  5
111
330
1E
100
AcDbEntity
  8
0
100
AcDbLine
 10
133.4999999999999
 20
157.487305512001
 30
0.0
 11
133.4999999999999
 21
163.116705512001
 31
0.0
  0
LINE
  5
112
330
1E
100
AcDbEntity
  8
0
100
AcDbLine
 10
133.4999999999999
 20
152.2682055120009
 30
0.0
 11
133.4999999999999
 21
147.5237055120009
 31
0.0
  0
LINE
  5
113
330
1E
100
AcDbEntity
  8
0
100
AcDbLine
 10
133.4999999999999
 20
152.2682055120009
 30
0.0
 11
133.4999999999999
 21
157.487305512001
 31
0.0
  0
LINE
  5
114
330
1E
100
AcDbEntity
  8
0
100
AcDbLine
 10
111.4999999999999
 20
152.2682055120009
 30
0.0
 11
111.4999999999999
 21
147.5237055120009
 31
0.0
  0
LINE
  5
115
330
1E
100
AcDbEntity
  8
0
100
AcDbLine
 10
111.4999999999999
 20
152.2682055120009
 30
0.0
 11
111.4999999999999
 21
157.487305512001
 31
0.0
  0
LINE
  5
116
330
1E
100
AcDbEntity
  8
0
100
AcDbLine
 10
111.4999999999999
 20
147.5237055120009
 30
0.0
 11
111.4999999999999
 21
152.2682055120009
 31
0.0
  0
LINE
  5
117
330
1E
100
AcDbEntity
  8
0
100
AcDbLine
 10
111.4999999999999
 20
147.5237055120009
 30
0.0
 11
111.4999999999999
 21
143.3699055120009
 31
0.0
  0
LINE
  5
118
330
1E
100
AcDbEntity
  8
0
100
AcDbLine
 10
234.8
 20
147.299682984539
 30
0.0
 11
239.0
 21
120.1100397057349
 31
0.0
  0
LINE
  5
119
330
1E
100
AcDbEntity
  8
0
100
AcDbLine
 10
236.6999999999999
 20
146.9076657538559
 30
0.0
 11
241.0
 21
119.264861753739
 31
0.0
  0
LINE
  5
11A
330
1E
100
AcDbEntity
  8
0
100
AcDbLine
 10
238.6
 20
142.712347739194
 30
0.0
 11
243.0
 21
114.616383017763
 31
0.0
  0
LINE
  5
11B
330
1E
100
AcDbEntity
  8
0
100
AcDbLine
 10
238.7328702456959
 20
141.863911890194
 30
0.0
 11
239.5999999999999
 21
139.9354891957339
 31
0.0
  0
LINE
  5
11C
330
1E
100
AcDbEntity
  8
0
100
AcDbLine
 10
239.5999999999999
 20
139.9354891957339
 30
0.0
 11
244.0
 21
111.658260185778
 31
0.0
  0
LINE
  5
11D
330
1E
100
AcDbEntity
  8
0
100
AcDbLine
 10
133.4999999999999
 20
169.0605055120009
 30
0.0
 11
133.4999999999999
 21
163.116705512001
 31
0.0
  0
LINE
  5
11E
330
1E
100
AcDbEntity
  8
0
100
AcDbLine
 10
133.4999999999999
 20
169.0605055120009
 30
0.0
 11
133.4999999999999
 21
175.2165055120009
 31
0.0
  0
LINE
  5
11F
330
1E
100
AcDbEntity
  8
0
100
AcDbLine
 10
111.4999999999999
 20
169.0605055120009
 30
0.0
 11
111.4999999999999
 21
163.116705512001
 31
0.0
  0
LINE
  5
120
330
1E
100
AcDbEntity
  8
0
100
AcDbLine
 10
111.4999999999999
 20
169.0605055120009
 30
0.0
 11
111.4999999999999
 21
175.2165055120009
 31
0.0
  0
LINE
  5
121
330
1E
100
AcDbEntity
  8
0
100
AcDbLine
 10
111.4999999999999
 20
175.2165055120009
 30
0.0
 11
111.4999999999999
 21
169.0605055120009
 31
0.0
  0
LINE
  5
122
330
1E
100
AcDbEntity
  8
0
100
AcDbLine
 10
111.4999999999999
 20
175.2165055120009
 30
0.0
 11
111.4999999999999
 21
181.4800055120009
 31
0.0
  0
LINE
  5
123
330
1E
100
AcDbEntity
  8
0
100
AcDbLine
 10
133.4999999999999
 20
175.2165055120009
 30
0.0
 11
133.4999999999999
 21
181.4800055120009
 31
0.0
  0
LINE
  5
124
330
1E
100
AcDbEntity
  8
0
100
AcDbLine
 10
133.4999999999999
 20
175.2165055120009
 30
0.0
 11
133.4999999999999
 21
169.0605055120009
 31
0.0
  0
LINE
  5
125
330
1E
100
AcDbEntity
  8
0
100
AcDbLine
 10
133.4999999999999
 20
181.4800055120009
 30
0.0
 11
133.4999999999999
 21
360.790705512001
 31
0.0
  0
LINE
  5
126
330
1E
100
AcDbEntity
  8
0
100
AcDbLine
 10
133.4999999999999
 20
181.4800055120009
 30
0.0
 11
133.4999999999999
 21
175.2165055120009
 31
0.0
  0
LINE
  5
127
330
1E
100
AcDbEntity
  8
0
100
AcDbLine
 10
111.4999999999999
 20
181.4800055120009
 30
0.0
 11
111.4999999999999
 21
360.790705512001
 31
0.0
  0
LINE
  5
128
330
1E
100
AcDbEntity
  8
0
100
AcDbLine
 10
111.4999999999999
 20
181.4800055120009
 30
0.0
 11
111.4999999999999
 21
175.2165055120009
 31
0.0
  0
LINE
  5
129
330
1E
100
AcDbEntity
  8
0
100
AcDbLine
 10
204.8
 20
194.70029443392
 30
0.0
 11
223.3999999999999
 21
172.6766833780889
 31
0.0
  0
LINE
  5
12A
330
1E
100
AcDbEntity
  8
0
100
AcDbLine
 10
223.3999999999999
 20
172.6766833780889
 30
0.0
 11
234.8
 21
147.299682984539
 31
0.0
  0
LINE
  5
12B
330
1E
100
AcDbEntity
  8
0
100
AcDbLine
 10
112.952
 20
360.790705512001
 30
0.0
 11
114.712
 21
360.790705512001
 31
0.0
  0
LINE
  5
12C
330
1E
100
AcDbEntity
  8
0
100
AcDbLine
 10
111.8959999999999
 20
360.790705512001
 30
0.0
 11
112.952
 21
360.790705512001
 31
0.0
  0
LINE
  5
12D
330
1E
100
AcDbEntity
  8
0
100
AcDbLine
 10
111.4999999999999
 20
360.790705512001
 30
0.0
 11
111.4999999999999
 21
181.4800055120009
 31
0.0
  0
LINE
  5
12E
330
1E
100
AcDbEntity
  8
0
100
AcDbLine
 10
111.4999999999999
 20
360.790705512001
 30
0.0
 11
111.8959999999999
 21
360.790705512001
 31
0.0
  0
LINE
  5
12F
330
1E
100
AcDbEntity
  8
0
100
AcDbLine
 10
130.2879999999999
 20
360.790705512001
 30
0.0
 11
132.048
 21
360.790705512001
 31
0.0
  0
LINE
  5
130
330
1E
100
AcDbEntity
  8
0
100
AcDbLine
 10
127.956
 20
360.790705512001
 30
0.0
 11
130.2879999999999
 21
360.790705512001
 31
0.0
  0
LINE
  5
131
330
1E
100
AcDbEntity
  8
0
100
AcDbLine
 10
125.316
 20
360.790705512001
 30
0.0
 11
127.956
 21
360.790705512001
 31
0.0
  0
LINE
  5
132
330
1E
100
AcDbEntity
  8
0
100
AcDbLine
 10
122.5
 20
360.790705512001
 30
0.0
 11
125.316
 21
360.790705512001
 31
0.0
  0
LINE
  5
133
330
1E
100
AcDbEntity
  8
0
100
AcDbLine
 10
133.4999999999999
 20
360.790705512001
 30
0.0
 11
133.4999999999999
 21
181.4800055120009
 31
0.0
  0
LINE
  5
134
330
1E
100
AcDbEntity
  8
0
100
AcDbLine
 10
133.4999999999999
 20
360.790705512001
 30
0.0
 11
136.1999999999999
 21
360.790705512001
 31
0.0
  0
LINE
  5
135
330
1E
100
AcDbEntity
  8
0
100
AcDbLine
 10
133.1039999999999
 20
360.790705512001
 30
0.0
 11
133.4999999999999
 21
360.790705512001
 31
0.0
  0
LINE
  5
136
330
1E
100
AcDbEntity
  8
0
100
AcDbLine
 10
132.048
 20
360.790705512001
 30
0.0
 11
133.1039999999999
 21
360.790705512001
 31
0.0
  0
LINE
  5
137
330
1E
100
AcDbEntity
  8
0
100
AcDbLine
 10
119.6839999999999
 20
360.790705512001
 30
0.0
 11
122.5
 21
360.790705512001
 31
0.0
  0
LINE
  5
138
330
1E
100
AcDbEntity
  8
0
100
AcDbLine
 10
117.0439999999999
 20
360.790705512001
 30
0.0
 11
119.6839999999999
 21
360.790705512001
 31
0.0
  0
LINE
  5
139
330
1E
100
AcDbEntity
  8
0
100
AcDbLine
 10
122.5
 20
368.788705512001
 30
0.0
 11
130.4999999999999
 21
368.788705512001
 31
0.0
  0
LINE
  5
13A
330
1E
100
AcDbEntity
  8
0
100
AcDbLine
 10
130.4999999999999
 20
368.788705512001
 30
0.0
 11
137.9
 21
368.788705512001
 31
0.0
  0
LINE
  5
13B
330
1E
100
AcDbEntity
  8
0
100
AcDbLine
 10
114.712
 20
360.790705512001
 30
0.0
 11
117.0439999999999
 21
360.790705512001
 31
0.0
  0
LINE
  5
13C
330
1E
100
AcDbEntity
  8
0
100
AcDbLine
 10
114.5
 20
368.788705512001
 30
0.0
 11
122.5
 21
368.788705512001
 31
0.0
  0
LINE
  5
13D
330
1E
100
AcDbEntity
  8
0
100
AcDbLine
 10
133.4999999999999
 20
224.3007527501109
 30
0.0
 11
152.5
 21
221.8899377127229
 31
0.0
  0
LINE
  5
13E
330
1E
100
AcDbEntity
  8
0
100
AcDbLine
 10
180.4999999999999
 20
211.5578732667779
 30
0.0
 11
204.8
 21
194.70029443392
 31
0.0
  0
LINE
  5
13F
330
1E
100
AcDbEntity
  8
0
100
AcDbLine
 10
152.5
 20
221.8899377127229
 30
0.0
 11
180.4999999999999
 21
211.5578732667779
 31
0.0
  0
LINE
  5
140
330
1E
100
AcDbEntity
  8
0
100
AcDbLine
 10
181.4999999999999
 20
212.253441767248
 30
0.0
 11
206.0999999999999
 21
195.0333343573389
 31
0.0
  0
LINE
  5
141
330
1E
100
AcDbEntity
  8
0
100
AcDbLine
 10
137.9
 20
368.788705512001
 30
0.0
 11
144.4
 21
368.788705512001
 31
0.0
  0
LINE
  5
142
330
1E
100
AcDbEntity
  8
0
100
AcDbLine
 10
136.1999999999999
 20
360.790705512001
 30
0.0
 11
141.9
 21
360.790705512001
 31
0.0
  0
LINE
  5
143
330
1E
100
AcDbEntity
  8
0
100
AcDbLine
 10
150.0
 20
360.790705512001
 30
0.0
 11
151.5
 21
361.290705512001
 31
0.0
  0
LINE
  5
144
330
1E
100
AcDbEntity
  8
0
100
AcDbLine
 10
149.0
 20
360.790705512001
 30
0.0
 11
150.0
 21
360.790705512001
 31
0.0
  0
LINE
  5
145
330
1E
100
AcDbEntity
  8
0
100
AcDbLine
 10
151.5
 20
361.290705512001
 30
0.0
 11
152.0
 21
361.790705512001
 31
0.0
  0
LINE
  5
146
330
1E
100
AcDbEntity
  8
0
100
AcDbLine
 10
152.0
 20
361.790705512001
 30
0.0
 11
152.5
 21
363.290705512001
 31
0.0
  0
LINE
  5
147
330
1E
100
AcDbEntity
  8
0
100
AcDbLine
 10
152.5
 20
363.290705512001
 30
0.0
 11
153.5
 21
368.788705512001
 31
0.0
  0
LINE
  5
148
330
1E
100
AcDbEntity
  8
0
100
AcDbLine
 10
149.3
 20
368.788705512001
 30
0.0
 11
152.4
 21
368.788705512001
 31
0.0
  0
LINE
  5
149
330
1E
100
AcDbEntity
  8
0
100
AcDbLine
 10
152.4
 20
368.788705512001
 30
0.0
 11
153.5
 21
368.788705512001
 31
0.0
  0
LINE
  5
14A
330
1E
100
AcDbEntity
  8
0
100
AcDbLine
 10
144.4
 20
368.788705512001
 30
0.0
 11
149.3
 21
368.788705512001
 31
0.0
  0
LINE
  5
14B
330
1E
100
AcDbEntity
  8
0
100
AcDbLine
 10
146.3
 20
360.790705512001
 30
0.0
 11
149.0
 21
360.790705512001
 31
0.0
  0
LINE
  5
14C
330
1E
100
AcDbEntity
  8
0
100
AcDbLine
 10
141.9
 20
360.790705512001
 30
0.0
 11
146.3
 21
360.790705512001
 31
0.0
  0
LINE
  5
14D
330
1E
100
AcDbEntity
  8
0
100
AcDbLine
 10
153.0
 20
222.766770501719
 30
0.0
 11
181.4999999999999
 21
212.253441767248
 31
0.0
  0
LINE
  5
14E
330
1E
100
AcDbEntity
  8
0
100
AcDbLine
 10
133.4999999999999
 20
225.2584115825139
 30
0.0
 11
153.0
 21
222.766770501719
 31
0.0
  0
LINE
  5
14F
330
1E
100
AcDbEntity
  8
0
100
AcDbLine
 10
206.0999999999999
 20
195.0333343573389
 30
0.0
 11
225.0999999999999
 21
172.7378268687199
 31
0.0
  0
LINE
  5
150
330
1E
100
AcDbEntity
  8
0
100
AcDbLine
 10
225.0999999999999
 20
172.7378268687199
 30
0.0
 11
236.6999999999999
 21
146.9076657538559
 31
0.0
  0
LINE
  5
151
330
1E
100
AcDbEntity
  8
0
100
AcDbLine
 10
226.7057946529589
 20
169.1621428511919
 30
0.0
 11
227.0
 21
168.8144052868449
 31
0.0
  0
LINE
  5
152
330
1E
100
AcDbEntity
  8
0
100
AcDbLine
 10
226.7057946529589
 20
169.1621428511919
 30
0.0
 11
227.0
 21
168.8144052868449
 31
0.0
  0
LINE
  5
153
330
1E
100
AcDbEntity
  8
0
100
AcDbLine
 10
227.0
 20
168.8144052868449
 30
0.0
 11
238.6
 21
142.712347739194
 31
0.0
  0
LINE
  5
154
330
1E
100
AcDbEntity
  8
0
100
AcDbLine
 10
227.459233406875
 20
167.7810486649439
 30
0.0
 11
228.6
 21
166.4306470657519
 31
0.0
  0
LINE
  5
155
330
1E
100
AcDbEntity
  8
0
100
AcDbLine
 10
228.6
 20
166.4306470657519
 30
0.0
 11
240.9
 21
139.7847966525239
 31
0.0
  0
LINE
  5
156
330
1E
100
AcDbEntity
  8
0
100
AcDbLine
 10
240.9
 20
139.7847966525239
 30
0.0
 11
245.0
 21
111.2356712097809
 31
0.0
  0
LINE
  5
157
330
1E
100
AcDbEntity
  8
0
100
AcDbLine
 10
110.8999999999999
 20
129.9781125135269
 30
0.0
 11
112.0999999999999
 21
127.349780329909
 31
0.0
  0
LINE
  5
158
330
1E
100
AcDbEntity
  8
0
100
AcDbLine
 10
110.4999999999999
 20
132.78770898567
 30
0.0
 11
110.4999999999999
 21
128.561819225692
 31
0.0
  0
LINE
  5
159
330
1E
100
AcDbEntity
  8
0
100
AcDbLine
 10
110.4999999999999
 20
132.78770898567
 30
0.0
 11
110.8999999999999
 21
129.9781125135269
 31
0.0
  0
LINE
  5
15A
330
1E
100
AcDbEntity
  8
0
100
AcDbLine
 10
110.4999999999999
 20
132.78770898567
 30
0.0
 11
110.8999999999999
 21
135.597305457813
 31
0.0
  0
LINE
  5
15B
330
1E
100
AcDbEntity
  8
0
100
AcDbLine
 10
110.4999999999999
 20
128.561819225692
 30
0.0
 11
110.8999999999999
 21
125.752222753549
 31
0.0
  0
LINE
  5
15C
330
1E
100
AcDbEntity
  8
0
100
AcDbLine
 10
110.4999999999999
 20
128.561819225692
 30
0.0
 11
110.4999999999999
 21
132.78770898567
 31
0.0
  0
LINE
  5
15D
330
1E
100
AcDbEntity
  8
0
100
AcDbLine
 10
100.8
 20
123.305154858456
 30
0.0
 11
103.0
 21
118.411019068272
 31
0.0
  0
LINE
  5
15E
330
1E
100
AcDbEntity
  8
0
100
AcDbLine
 10
100.8
 20
122.4599769064609
 30
0.0
 11
103.0
 21
117.5658411162759
 31
0.0
  0
LINE
  5
15F
330
1E
100
AcDbEntity
  8
0
100
AcDbLine
 10
100.0
 20
127.7166412736959
 30
0.0
 11
100.8
 21
122.4599769064609
 31
0.0
  0
LINE
  5
160
330
1E
100
AcDbEntity
  8
0
100
AcDbLine
 10
100.0
 20
127.7166412736959
 30
0.0
 11
100.0
 21
128.561819225692
 31
0.0
  0
LINE
  5
161
330
1E
100
AcDbEntity
  8
0
100
AcDbLine
 10
10.2
 20
92.9203964269314
 30
0.0
 11
21.6
 21
67.5433960333813
 31
0.0
  0
LINE
  5
162
330
1E
100
AcDbEntity
  8
0
100
AcDbLine
 10
8.29999999999999
 20
90.35429082562879
 30
0.0
 11
19.9
 21
64.5241297107653
 31
0.0
  0
LINE
  5
163
330
1E
100
AcDbEntity
  8
0
100
AcDbLine
 10
8.29999999999999
 20
86.97357901764609
 30
0.0
 11
19.9
 21
61.1434179027827
 31
0.0
  0
LINE
  5
164
330
1E
100
AcDbEntity
  8
0
100
AcDbLine
 10
6.39999999999999
 20
86.52041829633279
 30
0.0
 11
18.0
 21
60.4183607486812
 31
0.0
  0
LINE
  5
165
330
1E
100
AcDbEntity
  8
0
100
AcDbLine
 10
6.39999999999999
 20
83.56229546434791
 30
0.0
 11
18.0
 21
57.46023791669639
 31
0.0
  0
LINE
  5
166
330
1E
100
AcDbEntity
  8
0
100
AcDbLine
 10
1.999999999999989
 20
111.658260185778
 30
0.0
 11
6.39999999999999
 21
83.56229546434791
 31
0.0
  0
LINE
  5
167
330
1E
100
AcDbEntity
  8
0
100
AcDbLine
 10
1.999999999999989
 20
111.658260185778
 30
0.0
 11
1.999999999999989
 21
114.616383017763
 31
0.0
  0
LINE
  5
168
330
1E
100
AcDbEntity
  8
0
100
AcDbLine
 10
5.39999999999999
 20
83.38103117582258
 30
0.0
 11
17.3
 21
56.9164450511203
 31
0.0
  0
LINE
  5
169
330
1E
100
AcDbEntity
  8
0
100
AcDbLine
 10
0.9999999999999889
 20
111.658260185778
 30
0.0
 11
5.39999999999999
 21
83.38103117582258
 31
0.0
  0
LINE
  5
16A
330
1E
100
AcDbEntity
  8
0
100
AcDbLine
 10
0.9999999999999889
 20
111.658260185778
 30
0.0
 11
5.39999999999999
 21
139.9354891957339
 31
0.0
  0
LINE
  5
16B
330
1E
100
AcDbEntity
  8
0
100
AcDbLine
 10
4.09999999999999
 20
82.68654576703671
 30
0.0
 11
16.39999999999999
 21
56.0406953538091
 31
0.0
  0
LINE
  5
16C
330
1E
100
AcDbEntity
  8
0
100
AcDbLine
 10
-0.0000000000000111
 20
111.2356712097809
 30
0.0
 11
4.09999999999999
 21
82.68654576703671
 31
0.0
  0
LINE
  5
16D
330
1E
100
AcDbEntity
  8
0
100
AcDbLine
 10
-0.0000000000000111
 20
111.2356712097809
 30
0.0
 11
4.09999999999999
 21
139.7847966525239
 31
0.0
  0
ENDSEC
  0
SECTION
  2
OBJECTS
  0
DICTIONARY
  5
C
330
0
100
AcDbDictionary
281
     1
  3
ACAD_GROUP
350
D
  3
ACAD_LAYOUT
350
19
  3
ACAD_MLINESTYLE
350
16
  3
ACAD_PLOTSETTINGS
350
18
  3
ACAD_PLOTSTYLENAME
350
E
  3
AcDbVariableDictionary
350
172
  0
DICTIONARY
  5
D
102
{ACAD_REACTORS
330
C
102
}
330
C
100
AcDbDictionary
281
     1
  0
DICTIONARY
  5
19
102
{ACAD_REACTORS
330
C
102
}
330
C
100
AcDbDictionary
281
     1
  3
Layout1
350
1D
  3
Model
350
21
  0
DICTIONARY
  5
16
102
{ACAD_REACTORS
330
C
102
}
330
C
100
AcDbDictionary
281
     1
  3
Standard
350
17
  0
DICTIONARY
  5
18
102
{ACAD_REACTORS
330
C
102
}
330
C
100
AcDbDictionary
281
     1
  0
ACDBDICTIONARYWDFLT
  5
E
102
{ACAD_REACTORS
330
C
102
}
330
C
100
AcDbDictionary
281
     1
  3
Normal
350
F
100
AcDbDictionaryWithDefault
340
F
  0
DICTIONARY
  5
172
102
{ACAD_REACTORS
330
C
102
}
330
C
100
AcDbDictionary
281
     1
  3
DIMASSOC
350
173
  0
LAYOUT
  5
1D
102
{ACAD_REACTORS
330
19
102
}
330
19
100
AcDbPlotSettings
  1

  2
hp deskjet 980c series
  4

  6

 40
0.0
 41
0.0
 42
0.0
 43
0.0
 44
0.0
 45
0.0
 46
0.0
 47
0.0
 48
0.0
 49
0.0
140
0.0
141
0.0
142
1.0
143
1.0
 70
   688
 72
     0
 73
     0
 74
     5
  7

 75
    16
147
1.0
148
0.0
149
0.0
100
AcDbLayout
  1
Layout1
 70
     1
 71
     1
 10
0.0
 20
0.0
 11
12.0
 21
9.0
 12
0.0
 22
0.0
 32
0.0
 14
1.000000000000000E+20
 24
1.000000000000000E+20
 34
1.000000000000000E+20
 15
-1.000000000000000E+20
 25
-1.000000000000000E+20
 35
-1.000000000000000E+20
146
0.0
 13
0.0
 23
0.0
 33
0.0
 16
1.0
 26
0.0
 36
0.0
 17
0.0
 27
1.0
 37
0.0
 76
     0
330
1A
  0
LAYOUT
  5
21
102
{ACAD_REACTORS
330
19
102
}
330
19
100
AcDbPlotSettings
  1

  2
hp deskjet 980c series
  4

  6

 40
0.0
 41
0.0
 42
0.0
 43
0.0
 44
0.0
 45
0.0
 46
0.0
 47
0.0
 48
0.0
 49
0.0
140
0.0
141
0.0
142
1.0
143
1.0
 70
  1712
 72
     0
 73
     0
 74
     0
  7

 75
     0
147
1.0
148
0.0
149
0.0
100
AcDbLayout
  1
Model
 70
     1
 71
     0
 10
0.0
 20
0.0
 11
12.0
 21
9.0
 12
0.0
 22
0.0
 32
0.0
 14
0.0
 24
0.0
 34
0.0
 15
0.0
 25
0.0
 35
0.0
146
0.0
 13
0.0
 23
0.0
 33
0.0
 16
1.0
 26
0.0
 36
0.0
 17
0.0
 27
1.0
 37
0.0
 76
     0
330
1E
  0
MLINESTYLE
  5
17
102
{ACAD_REACTORS
330
16
102
}
330
16
100
AcDbMlineStyle
  2
STANDARD
 70
     0
  3

 62
   256
 51
90.0
 52
90.0
 71
     2
 49
0.5
 62
   256
  6
BYLAYER
 49
-0.5
 62
   256
  6
BYLAYER
  0
ACDBPLACEHOLDER
  5
F
102
{ACAD_REACTORS
330
E
102
}
330
E
  0
DICTIONARYVAR
  5
173
102
{ACAD_REACTORS
330
172
102
}
330
172
100
DictionaryVariables
280
     0
  1
1
  0
ENDSEC
  0
EOF
