  0
SECTION
  2
HEADER
  9
$ACADVER
  1
AC1015
  9
$ACADMAINTVER
 70
    13
  9
$DWGCODEPAGE
  3
ANSI_1252
  9
$INSBASE
 10
0.0
 20
0.0
 30
0.0
  9
$EXTMIN
 10
-0.0000000000000111
 20
-0.0558550717357635
 30
0.0
  9
$EXTMAX
 10
245.0
 20
169.055855071735
 30
0.0
  9
$LIMMIN
 10
0.0
 20
0.0
  9
$LIMMAX
 10
12.0
 20
9.0
  9
$ORTHOMODE
 70
     0
  9
$REGENMODE
 70
     1
  9
$FILLMODE
 70
     1
  9
$QTEXTMODE
 70
     0
  9
$MIRRTEXT
 70
     1
  9
$LTSCALE
 40
1.0
  9
$ATTMODE
 70
     1
  9
$TEXTSIZE
 40
0.2
  9
$TRACEWID
 40
0.05
  9
$TEXTSTYLE
  7
Standard
  9
$CLAYER
  8
0
  9
$CELTYPE
  6
Continuous
  9
$CECOLOR
 62
   256
  9
$CELTSCALE
 40
1.0
  9
$DISPSILH
 70
     0
  9
$DIMSCALE
 40
1.0
  9
$DIMASZ
 40
0.18
  9
$DIMEXO
 40
0.0625
  9
$DIMDLI
 40
0.38
  9
$DIMRND
 40
0.0
  9
$DIMDLE
 40
0.0
  9
$DIMEXE
 40
0.18
  9
$DIMTP
 40
0.0
  9
$DIMTM
 40
0.0
  9
$DIMTXT
 40
0.18
  9
$DIMCEN
 40
0.09
  9
$DIMTSZ
 40
0.0
  9
$DIMTOL
 70
     0
  9
$DIMLIM
 70
     0
  9
$DIMTIH
 70
     1
  9
$DIMTOH
 70
     1
  9
$DIMSE1
 70
     0
  9
$DIMSE2
 70
     0
  9
$DIMTAD
 70
     0
  9
$DIMZIN
 70
     0
  9
$DIMBLK
  1

  9
$DIMASO
 70
     1
  9
$DIMSHO
 70
     1
  9
$DIMPOST
  1

  9
$DIMAPOST
  1

  9
$DIMALT
 70
     0
  9
$DIMALTD
 70
     2
  9
$DIMALTF
 40
25.4
  9
$DIMLFAC
 40
1.0
  9
$DIMTOFL
 70
     0
  9
$DIMTVP
 40
0.0
  9
$DIMTIX
 70
     0
  9
$DIMSOXD
 70
     0
  9
$DIMSAH
 70
     0
  9
$DIMBLK1
  1

  9
$DIMBLK2
  1

  9
$DIMSTYLE
  2
Standard
  9
$DIMCLRD
 70
     0
  9
$DIMCLRE
 70
     0
  9
$DIMCLRT
 70
     0
  9
$DIMTFAC
 40
1.0
  9
$DIMGAP
 40
0.09
  9
$DIMJUST
 70
     0
  9
$DIMSD1
 70
     0
  9
$DIMSD2
 70
     0
  9
$DIMTOLJ
 70
     1
  9
$DIMTZIN
 70
     0
  9
$DIMALTZ
 70
     0
  9
$DIMALTTZ
 70
     0
  9
$DIMUPT
 70
     0
  9
$DIMDEC
 70
     4
  9
$DIMTDEC
 70
     4
  9
$DIMALTU
 70
     2
  9
$DIMALTTD
 70
     2
  9
$DIMTXSTY
  7
Standard
  9
$DIMAUNIT
 70
     0
  9
$DIMADEC
 70
     0
  9
$DIMALTRND
 40
0.0
  9
$DIMAZIN
 70
     0
  9
$DIMDSEP
 70
    46
  9
$DIMATFIT
 70
     3
  9
$DIMFRAC
 70
     0
  9
$DIMLDRBLK
  1

  9
$DIMLUNIT
 70
     2
  9
$DIMLWD
 70
    -2
  9
$DIMLWE
 70
    -2
  9
$DIMTMOVE
 70
     0
  9
$LUNITS
 70
     2
  9
$LUPREC
 70
     4
  9
$SKETCHINC
 40
0.1
  9
$FILLETRAD
 40
0.0
  9
$AUNITS
 70
     0
  9
$AUPREC
 70
     0
  9
$MENU
  1
.
  9
$ELEVATION
 40
0.0
  9
$PELEVATION
 40
0.0
  9
$THICKNESS
 40
0.0
  9
$LIMCHECK
 70
     0
  9
$CHAMFERA
 40
0.0
  9
$CHAMFERB
 40
0.0
  9
$CHAMFERC
 40
0.0
  9
$CHAMFERD
 40
0.0
  9
$SKPOLY
 70
     0
  9
$TDCREATE
 40
2454752.507336690
  9
$TDUCREATE
 40
2454752.424003356
  9
$TDUPDATE
 40
2454752.583265509
  9
$TDUUPDATE
 40
2454752.499932176
  9
$TDINDWG
 40
0.0759288194
  9
$TDUSRTIMER
 40
0.0759288194
  9
$USRTIMER
 70
     1
  9
$ANGBASE
 50
0.0
  9
$ANGDIR
 70
     0
  9
$PDMODE
 70
     0
  9
$PDSIZE
 40
0.0
  9
$PLINEWID
 40
0.0
  9
$SPLFRAME
 70
     0
  9
$SPLINETYPE
 70
     6
  9
$SPLINESEGS
 70
     8
  9
$HANDSEED
  5
913
  9
$SURFTAB1
 70
     6
  9
$SURFTAB2
 70
     6
  9
$SURFTYPE
 70
     6
  9
$SURFU
 70
     6
  9
$SURFV
 70
     6
  9
$UCSBASE
  2

  9
$UCSNAME
  2

  9
$UCSORG
 10
0.0
 20
0.0
 30
0.0
  9
$UCSXDIR
 10
1.0
 20
0.0
 30
0.0
  9
$UCSYDIR
 10
0.0
 20
1.0
 30
0.0
  9
$UCSORTHOREF
  2

  9
$UCSORTHOVIEW
 70
     1
  9
$UCSORGTOP
 10
0.0
 20
0.0
 30
0.0
  9
$UCSORGBOTTOM
 10
0.0
 20
0.0
 30
0.0
  9
$UCSORGLEFT
 10
0.0
 20
0.0
 30
0.0
  9
$UCSORGRIGHT
 10
0.0
 20
0.0
 30
0.0
  9
$UCSORGFRONT
 10
0.0
 20
0.0
 30
0.0
  9
$UCSORGBACK
 10
0.0
 20
0.0
 30
0.0
  9
$PUCSBASE
  2

  9
$PUCSNAME
  2

  9
$PUCSORG
 10
0.0
 20
0.0
 30
0.0
  9
$PUCSXDIR
 10
1.0
 20
0.0
 30
0.0
  9
$PUCSYDIR
 10
0.0
 20
1.0
 30
0.0
  9
$PUCSORTHOREF
  2

  9
$PUCSORTHOVIEW
 70
     0
  9
$PUCSORGTOP
 10
0.0
 20
0.0
 30
0.0
  9
$PUCSORGBOTTOM
 10
0.0
 20
0.0
 30
0.0
  9
$PUCSORGLEFT
 10
0.0
 20
0.0
 30
0.0
  9
$PUCSORGRIGHT
 10
0.0
 20
0.0
 30
0.0
  9
$PUCSORGFRONT
 10
0.0
 20
0.0
 30
0.0
  9
$PUCSORGBACK
 10
0.0
 20
0.0
 30
0.0
  9
$USERI1
 70
     0
  9
$USERI2
 70
     0
  9
$USERI3
 70
     0
  9
$USERI4
 70
     0
  9
$USERI5
 70
     0
  9
$USERR1
 40
0.0
  9
$USERR2
 40
0.0
  9
$USERR3
 40
0.0
  9
$USERR4
 40
0.0
  9
$USERR5
 40
0.0
  9
$WORLDVIEW
 70
     1
  9
$SHADEDGE
 70
     3
  9
$SHADEDIF
 70
    70
  9
$TILEMODE
 70
     1
  9
$MAXACTVP
 70
    64
  9
$PINSBASE
 10
0.0
 20
0.0
 30
0.0
  9
$PLIMCHECK
 70
     0
  9
$PEXTMIN
 10
1.000000000000000E+20
 20
1.000000000000000E+20
 30
1.000000000000000E+20
  9
$PEXTMAX
 10
-1.000000000000000E+20
 20
-1.000000000000000E+20
 30
-1.000000000000000E+20
  9
$PLIMMIN
 10
0.0
 20
0.0
  9
$PLIMMAX
 10
12.0
 20
9.0
  9
$UNITMODE
 70
     0
  9
$VISRETAIN
 70
     1
  9
$PLINEGEN
 70
     0
  9
$PSLTSCALE
 70
     1
  9
$TREEDEPTH
 70
  3020
  9
$CMLSTYLE
  2
Standard
  9
$CMLJUST
 70
     0
  9
$CMLSCALE
 40
1.0
  9
$PROXYGRAPHICS
 70
     1
  9
$MEASUREMENT
 70
     0
  9
$CELWEIGHT
370
    -1
  9
$ENDCAPS
280
     0
  9
$JOINSTYLE
280
     0
  9
$LWDISPLAY
290
     0
  9
$INSUNITS
 70
     0
  9
$HYPERLINKBASE
  1

  9
$STYLESHEET
  1

  9
$XEDIT
290
     1
  9
$CEPSNTYPE
380
     0
  9
$PSTYLEMODE
290
     1
  9
$FINGERPRINTGUID
  2
{1281A5F3-314A-4BE1-81C1-0242728AB9D8}
  9
$VERSIONGUID
  2
{C45CD2BA-9487-4111-8FBF-AA84B517D617}
  9
$EXTNAMES
290
     1
  9
$PSVPSCALE
 40
0.0
  9
$OLESTARTUP
290
     0
  0
ENDSEC
  0
SECTION
  2
CLASSES
  0
CLASS
  1
ACDBDICTIONARYWDFLT
  2
AcDbDictionaryWithDefault
  3
AutoCAD 2000
 90
        0
280
     0
281
     0
  0
CLASS
  1
ACDBPLACEHOLDER
  2
AcDbPlaceHolder
  3
AutoCAD 2000
 90
        0
280
     0
281
     0
  0
CLASS
  1
LAYOUT
  2
AcDbLayout
  3
AutoCAD 2000
 90
        0
280
     0
281
     0
  0
CLASS
  1
DICTIONARYVAR
  2
AcDbDictionaryVar
  3
AutoCAD 2000
 90
        0
280
     0
281
     0
  0
ENDSEC
  0
SECTION
  2
TABLES
  0
TABLE
  2
VPORT
  5
8
330
0
100
AcDbSymbolTable
 70
     2
  0
VPORT
  5
912
330
8
100
AcDbSymbolTableRecord
100
AcDbViewportTableRecord
  2
*Active
 70
     0
 10
0.0
 20
0.0
 11
1.0
 21
1.0
 12
122.4999999999999
 22
84.49999999999963
 13
0.0
 23
0.0
 14
1.0
 24
1.0
 15
0.0
 25
0.0
 16
0.0
 26
0.0
 36
1.0
 17
0.0
 27
0.0
 37
0.0
 40
170.4092424463618
 41
2.078104993597951
 42
50.0
 43
0.0
 44
0.0
 50
0.0
 51
0.0
 71
     0
 72
   100
 73
     1
 74
     3
 75
     0
 76
     0
 77
     0
 78
     0
281
     0
 65
     1
110
0.0
120
0.0
130
0.0
111
1.0
121
0.0
131
0.0
112
0.0
122
1.0
132
0.0
 79
     1
146
0.0
  0
ENDTAB
  0
TABLE
  2
LTYPE
  5
5
330
0
100
AcDbSymbolTable
 70
     1
  0
LTYPE
  5
13
330
5
100
AcDbSymbolTableRecord
100
AcDbLinetypeTableRecord
  2
ByBlock
 70
     0
  3

 72
    65
 73
     0
 40
0.0
  0
LTYPE
  5
14
330
5
100
AcDbSymbolTableRecord
100
AcDbLinetypeTableRecord
  2
ByLayer
 70
     0
  3

 72
    65
 73
     0
 40
0.0
  0
LTYPE
  5
15
330
5
100
AcDbSymbolTableRecord
100
AcDbLinetypeTableRecord
  2
Continuous
 70
     0
  3
Solid line
 72
    65
 73
     0
 40
0.0
  0
ENDTAB
  0
TABLE
  2
LAYER
  5
2
330
0
100
AcDbSymbolTable
 70
     1
  0
LAYER
  5
10
330
2
100
AcDbSymbolTableRecord
100
AcDbLayerTableRecord
  2
0
 70
     0
 62
     7
  6
Continuous
370
    -3
390
F
  0
ENDTAB
  0
TABLE
  2
STYLE
  5
3
330
0
100
AcDbSymbolTable
 70
     1
  0
STYLE
  5
11
330
3
100
AcDbSymbolTableRecord
100
AcDbTextStyleTableRecord
  2
Standard
 70
     0
 40
0.0
 41
1.0
 50
0.0
 71
     0
 42
0.2
  3
txt
  4

  0
ENDTAB
  0
TABLE
  2
VIEW
  5
6
330
0
100
AcDbSymbolTable
 70
     0
  0
ENDTAB
  0
TABLE
  2
UCS
  5
7
330
0
100
AcDbSymbolTable
 70
     0
  0
ENDTAB
  0
TABLE
  2
APPID
  5
9
330
0
100
AcDbSymbolTable
 70
     1
  0
APPID
  5
12
330
9
100
AcDbSymbolTableRecord
100
AcDbRegAppTableRecord
  2
ACAD
 70
     0
  0
ENDTAB
  0
TABLE
  2
DIMSTYLE
  5
A
330
0
100
AcDbSymbolTable
 70
     1
100
AcDbDimStyleTable
 71
     0
  0
DIMSTYLE
105
90C
330
A
100
AcDbSymbolTableRecord
100
AcDbDimStyleTableRecord
  2
Standard
 70
     0
340
11
  0
ENDTAB
  0
TABLE
  2
BLOCK_RECORD
  5
1
330
0
100
AcDbSymbolTable
 70
     0
  0
BLOCK_RECORD
  5
1E
330
1
100
AcDbSymbolTableRecord
100
AcDbBlockTableRecord
  2
*Model_Space
340
21
  0
BLOCK_RECORD
  5
1A
330
1
100
AcDbSymbolTableRecord
100
AcDbBlockTableRecord
  2
*Paper_Space
340
1D
  0
ENDTAB
  0
ENDSEC
  0
SECTION
  2
BLOCKS
  0
BLOCK
  5
1F
330
1E
100
AcDbEntity
  8
0
100
AcDbBlockBegin
  2
*Model_Space
 70
     0
 10
0.0
 20
0.0
 30
0.0
  3
*Model_Space
  1

  0
ENDBLK
  5
20
330
1E
100
AcDbEntity
  8
0
100
AcDbBlockEnd
  0
BLOCK
  5
1B
330
1A
100
AcDbEntity
 67
     1
  8
0
100
AcDbBlockBegin
  2
*Paper_Space
 70
     0
 10
0.0
 20
0.0
 30
0.0
  3
*Paper_Space
  1

  0
ENDBLK
  5
1C
330
1A
100
AcDbEntity
 67
     1
  8
0
100
AcDbBlockEnd
  0
ENDSEC
  0
SECTION
  2
ENTITIES
  0
LINE
  5
22
330
1E
100
AcDbEntity
  8
0
100
AcDbLine
 10
4.09999999999999
 20
38.883474210696
 30
0.0
 11
16.39999999999999
 21
26.4593583163597
 31
0.0
  0
LINE
  5
23
330
1E
100
AcDbEntity
  8
0
100
AcDbLine
 10
4.09999999999999
 20
38.883474210696
 30
0.0
 11
16.39999999999999
 21
26.4593583163597
 31
0.0
  0
LINE
  5
24
330
1E
100
AcDbEntity
  8
0
100
AcDbLine
 10
5.39999999999999
 20
38.10392946086849
 30
0.0
 11
17.3
 21
25.7643313617318
 31
0.0
  0
LINE
  5
25
330
1E
100
AcDbEntity
  8
0
100
AcDbLine
 10
16.39999999999999
 20
26.4593583163597
 30
0.0
 11
17.3
 21
25.7643313617318
 31
0.0
  0
LINE
  5
26
330
1E
100
AcDbEntity
  8
0
100
AcDbLine
 10
17.3
 20
25.7643313617318
 30
0.0
 11
36.7
 21
15.0305713713869
 31
0.0
  0
LINE
  5
27
330
1E
100
AcDbEntity
  8
0
100
AcDbLine
 10
26.7372
 20
28.4122738853342
 30
0.0
 11
26.7372
 21
26.5996310000807
 31
0.0
  0
LINE
  5
28
330
1E
100
AcDbEntity
  8
0
100
AcDbLine
 10
26.7372
 20
28.4122738853342
 30
0.0
 11
28.4693
 21
28.8348628613321
 31
0.0
  0
LINE
  5
29
330
1E
100
AcDbEntity
  8
0
100
AcDbLine
 10
26.7372
 20
26.5996310000807
 30
0.0
 11
27.7372
 21
25.8677068936524
 31
0.0
  0
LINE
  5
2A
330
1E
100
AcDbEntity
  8
0
100
AcDbLine
 10
26.7372
 20
26.5996310000807
 30
0.0
 11
26.7372
 21
28.4122738853342
 31
0.0
  0
LINE
  5
2B
330
1E
100
AcDbEntity
  8
0
100
AcDbLine
 10
26.7372
 20
26.5996310000807
 30
0.0
 11
28.4693
 21
27.0222199760785
 31
0.0
  0
LINE
  5
2C
330
1E
100
AcDbEntity
  8
0
100
AcDbLine
 10
18.4388
 20
37.255634618842
 30
0.0
 11
18.4388
 21
39.0682775040956
 31
0.0
  0
LINE
  5
2D
330
1E
100
AcDbEntity
  8
0
100
AcDbLine
 10
17.92119999999999
 20
39.8842968167474
 30
0.0
 11
17.92119999999999
 21
38.0716539314938
 31
0.0
  0
LINE
  5
2E
330
1E
100
AcDbEntity
  8
0
100
AcDbLine
 10
17.92119999999999
 20
39.8842968167474
 30
0.0
 11
18.4388
 21
39.0682775040956
 31
0.0
  0
LINE
  5
2F
330
1E
100
AcDbEntity
  8
0
100
AcDbLine
 10
17.92119999999999
 20
38.0716539314938
 30
0.0
 11
17.92119999999999
 21
39.8842968167474
 31
0.0
  0
LINE
  5
30
330
1E
100
AcDbEntity
  8
0
100
AcDbLine
 10
17.92119999999999
 20
38.0716539314938
 30
0.0
 11
18.4388
 21
37.255634618842
 31
0.0
  0
LINE
  5
31
330
1E
100
AcDbEntity
  8
0
100
AcDbLine
 10
15.9893
 20
39.6658183161565
 30
0.0
 11
15.9893
 21
37.8531754309029
 31
0.0
  0
LINE
  5
32
330
1E
100
AcDbEntity
  8
0
100
AcDbLine
 10
15.9893
 20
39.6658183161565
 30
0.0
 11
17.92119999999999
 21
39.8842968167474
 31
0.0
  0
LINE
  5
33
330
1E
100
AcDbEntity
  8
0
100
AcDbLine
 10
15.9893
 20
37.8531754309029
 30
0.0
 11
16.507
 21
37.0367335292751
 31
0.0
  0
LINE
  5
34
330
1E
100
AcDbEntity
  8
0
100
AcDbLine
 10
15.9893
 20
37.8531754309029
 30
0.0
 11
15.9893
 21
39.6658183161565
 31
0.0
  0
LINE
  5
35
330
1E
100
AcDbEntity
  8
0
100
AcDbLine
 10
15.9893
 20
37.8531754309029
 30
0.0
 11
17.92119999999999
 21
38.0716539314938
 31
0.0
  0
LINE
  5
36
330
1E
100
AcDbEntity
  8
0
100
AcDbLine
 10
18.4388
 20
39.0682775040956
 30
0.0
 11
18.4388
 21
37.255634618842
 31
0.0
  0
LINE
  5
37
330
1E
100
AcDbEntity
  8
0
100
AcDbLine
 10
16.507
 20
37.0367335292751
 30
0.0
 11
18.4388
 21
37.255634618842
 31
0.0
  0
LINE
  5
38
330
1E
100
AcDbEntity
  8
0
100
AcDbLine
 10
14.5
 20
49.0534736507495
 30
0.0
 11
14.5
 21
49.89865160274519
 31
0.0
  0
LINE
  5
39
330
1E
100
AcDbEntity
  8
0
100
AcDbLine
 10
14.5
 20
49.89865160274519
 30
0.0
 11
14.5
 21
49.0534736507495
 31
0.0
  0
LINE
  5
3A
330
1E
100
AcDbEntity
  8
0
100
AcDbLine
 10
14.5
 20
49.89865160274519
 30
0.0
 11
14.5
 21
51.7112944879987
 31
0.0
  0
LINE
  5
3B
330
1E
100
AcDbEntity
  8
0
100
AcDbLine
 10
12.5
 20
49.0534736507495
 30
0.0
 11
12.5
 21
50.86611653600311
 31
0.0
  0
LINE
  5
3C
330
1E
100
AcDbEntity
  8
0
100
AcDbLine
 10
12.5
 20
49.0534736507495
 30
0.0
 11
14.5
 21
49.0534736507495
 31
0.0
  0
LINE
  5
3D
330
1E
100
AcDbEntity
  8
0
100
AcDbLine
 10
12.5
 20
49.0534736507495
 30
0.0
 11
12.5
 21
49.89865160274519
 31
0.0
  0
LINE
  5
3E
330
1E
100
AcDbEntity
  8
0
100
AcDbLine
 10
12.5
 20
49.89865160274519
 30
0.0
 11
12.5
 21
51.7112944879987
 31
0.0
  0
LINE
  5
3F
330
1E
100
AcDbEntity
  8
0
100
AcDbLine
 10
12.5
 20
49.89865160274519
 30
0.0
 11
14.5
 21
49.89865160274519
 31
0.0
  0
LINE
  5
40
330
1E
100
AcDbEntity
  8
0
100
AcDbLine
 10
12.5
 20
49.89865160274519
 30
0.0
 11
12.5
 21
49.0534736507495
 31
0.0
  0
LINE
  5
41
330
1E
100
AcDbEntity
  8
0
100
AcDbLine
 10
29.4693
 20
26.29029586965019
 30
0.0
 11
29.4693
 21
28.1029387549038
 31
0.0
  0
LINE
  5
42
330
1E
100
AcDbEntity
  8
0
100
AcDbLine
 10
28.4693
 20
28.8348628613321
 30
0.0
 11
28.4693
 21
27.0222199760785
 31
0.0
  0
LINE
  5
43
330
1E
100
AcDbEntity
  8
0
100
AcDbLine
 10
28.4693
 20
28.8348628613321
 30
0.0
 11
29.4693
 21
28.1029387549038
 31
0.0
  0
LINE
  5
44
330
1E
100
AcDbEntity
  8
0
100
AcDbLine
 10
28.4693
 20
27.0222199760785
 30
0.0
 11
28.4693
 21
28.8348628613321
 31
0.0
  0
LINE
  5
45
330
1E
100
AcDbEntity
  8
0
100
AcDbLine
 10
28.4693
 20
27.0222199760785
 30
0.0
 11
29.4693
 21
26.29029586965019
 31
0.0
  0
LINE
  5
46
330
1E
100
AcDbEntity
  8
0
100
AcDbLine
 10
29.4693
 20
28.1029387549038
 30
0.0
 11
29.4693
 21
26.29029586965019
 31
0.0
  0
LINE
  5
47
330
1E
100
AcDbEntity
  8
0
100
AcDbLine
 10
27.7372
 20
25.8677068936524
 30
0.0
 11
29.4693
 21
26.29029586965019
 31
0.0
  0
LINE
  5
48
330
1E
100
AcDbEntity
  8
0
100
AcDbLine
 10
36.7
 20
15.0305713713869
 30
0.0
 11
62.1
 21
6.832345237028909
 31
0.0
  0
LINE
  5
49
330
1E
100
AcDbEntity
  8
0
100
AcDbLine
 10
39.7276
 20
31.581691205318
 30
0.0
 11
39.7276
 21
29.76904832006439
 31
0.0
  0
LINE
  5
4A
330
1E
100
AcDbEntity
  8
0
100
AcDbLine
 10
39.7276
 20
31.581691205318
 30
0.0
 11
41.4596
 21
32.0042801813158
 31
0.0
  0
LINE
  5
4B
330
1E
100
AcDbEntity
  8
0
100
AcDbLine
 10
39.7276
 20
29.76904832006439
 30
0.0
 11
40.7276
 21
29.0371242136361
 31
0.0
  0
LINE
  5
4C
330
1E
100
AcDbEntity
  8
0
100
AcDbLine
 10
39.7276
 20
29.76904832006439
 30
0.0
 11
39.7276
 21
31.581691205318
 31
0.0
  0
LINE
  5
4D
330
1E
100
AcDbEntity
  8
0
100
AcDbLine
 10
39.7276
 20
29.76904832006439
 30
0.0
 11
41.4596
 21
30.19163729606219
 31
0.0
  0
LINE
  5
4E
330
1E
100
AcDbEntity
  8
0
100
AcDbLine
 10
42.4596
 20
29.45971318963399
 30
0.0
 11
42.4596
 21
31.2723560748876
 31
0.0
  0
LINE
  5
4F
330
1E
100
AcDbEntity
  8
0
100
AcDbLine
 10
41.4596
 20
30.19163729606219
 30
0.0
 11
41.4596
 21
32.0042801813158
 31
0.0
  0
LINE
  5
50
330
1E
100
AcDbEntity
  8
0
100
AcDbLine
 10
41.4596
 20
30.19163729606219
 30
0.0
 11
42.4596
 21
29.45971318963399
 31
0.0
  0
LINE
  5
51
330
1E
100
AcDbEntity
  8
0
100
AcDbLine
 10
41.4596
 20
32.0042801813158
 30
0.0
 11
41.4596
 21
30.19163729606219
 31
0.0
  0
LINE
  5
52
330
1E
100
AcDbEntity
  8
0
100
AcDbLine
 10
41.4596
 20
32.0042801813158
 30
0.0
 11
42.4596
 21
31.2723560748876
 31
0.0
  0
LINE
  5
53
330
1E
100
AcDbEntity
  8
0
100
AcDbLine
 10
42.4596
 20
31.2723560748876
 30
0.0
 11
42.4596
 21
29.45971318963399
 31
0.0
  0
LINE
  5
54
330
1E
100
AcDbEntity
  8
0
100
AcDbLine
 10
40.7276
 20
29.0371242136361
 30
0.0
 11
42.4596
 21
29.45971318963399
 31
0.0
  0
LINE
  5
55
330
1E
100
AcDbEntity
  8
0
100
AcDbLine
 10
32.9277
 20
38.8961250236656
 30
0.0
 11
32.9277
 21
40.7087679089192
 31
0.0
  0
LINE
  5
56
330
1E
100
AcDbEntity
  8
0
100
AcDbLine
 10
32.4101
 20
41.52520981054699
 30
0.0
 11
32.4101
 21
39.71256692529339
 31
0.0
  0
LINE
  5
57
330
1E
100
AcDbEntity
  8
0
100
AcDbLine
 10
32.4101
 20
41.52520981054699
 30
0.0
 11
32.9277
 21
40.7087679089192
 31
0.0
  0
LINE
  5
58
330
1E
100
AcDbEntity
  8
0
100
AcDbLine
 10
32.4101
 20
39.71256692529339
 30
0.0
 11
32.4101
 21
41.52520981054699
 31
0.0
  0
LINE
  5
59
330
1E
100
AcDbEntity
  8
0
100
AcDbLine
 10
32.4101
 20
39.71256692529339
 30
0.0
 11
32.9277
 21
38.8961250236656
 31
0.0
  0
LINE
  5
5A
330
1E
100
AcDbEntity
  8
0
100
AcDbLine
 10
30.4782
 20
41.30630872098009
 30
0.0
 11
30.4782
 21
39.49366583572649
 31
0.0
  0
LINE
  5
5B
330
1E
100
AcDbEntity
  8
0
100
AcDbLine
 10
30.4782
 20
41.30630872098009
 30
0.0
 11
32.4101
 21
41.52520981054699
 31
0.0
  0
LINE
  5
5C
330
1E
100
AcDbEntity
  8
0
100
AcDbLine
 10
30.4782
 20
39.49366583572649
 30
0.0
 11
30.9959
 21
38.6772239340987
 31
0.0
  0
LINE
  5
5D
330
1E
100
AcDbEntity
  8
0
100
AcDbLine
 10
30.4782
 20
39.49366583572649
 30
0.0
 11
30.4782
 21
41.30630872098009
 31
0.0
  0
LINE
  5
5E
330
1E
100
AcDbEntity
  8
0
100
AcDbLine
 10
30.4782
 20
39.49366583572649
 30
0.0
 11
32.4101
 21
39.71256692529339
 31
0.0
  0
LINE
  5
5F
330
1E
100
AcDbEntity
  8
0
100
AcDbLine
 10
32.9277
 20
40.7087679089192
 30
0.0
 11
32.9277
 21
38.8961250236656
 31
0.0
  0
LINE
  5
60
330
1E
100
AcDbEntity
  8
0
100
AcDbLine
 10
30.9959
 20
38.6772239340987
 30
0.0
 11
32.9277
 21
38.8961250236656
 31
0.0
  0
LINE
  5
61
330
1E
100
AcDbEntity
  8
0
100
AcDbLine
 10
29.5
 20
49.0534736507495
 30
0.0
 11
29.5
 21
49.89865160274519
 31
0.0
  0
LINE
  5
62
330
1E
100
AcDbEntity
  8
0
100
AcDbLine
 10
29.5
 20
49.89865160274519
 30
0.0
 11
29.5
 21
49.0534736507495
 31
0.0
  0
LINE
  5
63
330
1E
100
AcDbEntity
  8
0
100
AcDbLine
 10
29.5
 20
49.89865160274519
 30
0.0
 11
29.5
 21
51.7112944879987
 31
0.0
  0
LINE
  5
64
330
1E
100
AcDbEntity
  8
0
100
AcDbLine
 10
27.5
 20
49.0534736507495
 30
0.0
 11
27.5
 21
50.86611653600311
 31
0.0
  0
LINE
  5
65
330
1E
100
AcDbEntity
  8
0
100
AcDbLine
 10
27.5
 20
49.0534736507495
 30
0.0
 11
29.5
 21
49.0534736507495
 31
0.0
  0
LINE
  5
66
330
1E
100
AcDbEntity
  8
0
100
AcDbLine
 10
27.5
 20
49.0534736507495
 30
0.0
 11
27.5
 21
49.89865160274519
 31
0.0
  0
LINE
  5
67
330
1E
100
AcDbEntity
  8
0
100
AcDbLine
 10
27.5
 20
49.89865160274519
 30
0.0
 11
27.5
 21
51.7112944879987
 31
0.0
  0
LINE
  5
68
330
1E
100
AcDbEntity
  8
0
100
AcDbLine
 10
27.5
 20
49.89865160274519
 30
0.0
 11
29.5
 21
49.89865160274519
 31
0.0
  0
LINE
  5
69
330
1E
100
AcDbEntity
  8
0
100
AcDbLine
 10
27.5
 20
49.89865160274519
 30
0.0
 11
27.5
 21
49.0534736507495
 31
0.0
  0
LINE
  5
6A
330
1E
100
AcDbEntity
  8
0
100
AcDbLine
 10
42.5
 20
49.0534736507495
 30
0.0
 11
42.5
 21
50.86611653600311
 31
0.0
  0
LINE
  5
6B
330
1E
100
AcDbEntity
  8
0
100
AcDbLine
 10
42.5
 20
49.0534736507495
 30
0.0
 11
44.5
 21
49.0534736507495
 31
0.0
  0
LINE
  5
6C
330
1E
100
AcDbEntity
  8
0
100
AcDbLine
 10
42.5
 20
49.0534736507495
 30
0.0
 11
42.5
 21
49.89865160274519
 31
0.0
  0
LINE
  5
6D
330
1E
100
AcDbEntity
  8
0
100
AcDbLine
 10
12.5
 20
50.86611653600311
 30
0.0
 11
12.5
 21
51.7112944879987
 31
0.0
  0
LINE
  5
6E
330
1E
100
AcDbEntity
  8
0
100
AcDbLine
 10
12.5
 20
50.86611653600311
 30
0.0
 11
12.5
 21
49.0534736507495
 31
0.0
  0
LINE
  5
6F
330
1E
100
AcDbEntity
  8
0
100
AcDbLine
 10
0.9999999999999889
 20
51.2887055120009
 30
0.0
 11
5.39999999999999
 21
64.47348156313329
 31
0.0
  0
LINE
  5
70
330
1E
100
AcDbEntity
  8
0
100
AcDbLine
 10
0.9999999999999889
 20
51.2887055120009
 30
0.0
 11
5.39999999999999
 21
38.10392946086849
 31
0.0
  0
LINE
  5
71
330
1E
100
AcDbEntity
  8
0
100
AcDbLine
 10
14.5
 20
51.7112944879987
 30
0.0
 11
14.5
 21
49.89865160274519
 31
0.0
  0
LINE
  5
72
330
1E
100
AcDbEntity
  8
0
100
AcDbLine
 10
12.5
 20
51.7112944879987
 30
0.0
 11
14.5
 21
51.7112944879987
 31
0.0
  0
LINE
  5
73
330
1E
100
AcDbEntity
  8
0
100
AcDbLine
 10
12.5
 20
51.7112944879987
 30
0.0
 11
12.5
 21
49.89865160274519
 31
0.0
  0
LINE
  5
74
330
1E
100
AcDbEntity
  8
0
100
AcDbLine
 10
12.5
 20
51.7112944879987
 30
0.0
 11
12.5
 21
50.86611653600311
 31
0.0
  0
LINE
  5
75
330
1E
100
AcDbEntity
  8
0
100
AcDbLine
 10
27.5
 20
50.86611653600311
 30
0.0
 11
27.5
 21
51.7112944879987
 31
0.0
  0
LINE
  5
76
330
1E
100
AcDbEntity
  8
0
100
AcDbLine
 10
27.5
 20
50.86611653600311
 30
0.0
 11
27.5
 21
49.0534736507495
 31
0.0
  0
LINE
  5
77
330
1E
100
AcDbEntity
  8
0
100
AcDbLine
 10
29.5
 20
51.7112944879987
 30
0.0
 11
29.5
 21
49.89865160274519
 31
0.0
  0
LINE
  5
78
330
1E
100
AcDbEntity
  8
0
100
AcDbLine
 10
1.999999999999989
 20
58.6884673175212
 30
0.0
 11
1.999999999999989
 21
59.445598495642
 31
0.0
  0
LINE
  5
79
330
1E
100
AcDbEntity
  8
0
100
AcDbLine
 10
1.999999999999989
 20
59.445598495642
 30
0.0
 11
1.999999999999989
 21
58.6884673175212
 31
0.0
  0
LINE
  5
7A
330
1E
100
AcDbEntity
  8
0
100
AcDbLine
 10
1.999999999999989
 20
59.445598495642
 30
0.0
 11
6.39999999999999
 21
72.54585675157478
 31
0.0
  0
LINE
  5
7B
330
1E
100
AcDbEntity
  8
0
100
AcDbLine
 10
-0.0000000000000111
 20
52.19502695462771
 30
0.0
 11
4.09999999999999
 21
65.50657969855939
 31
0.0
  0
LINE
  5
7C
330
1E
100
AcDbEntity
  8
0
100
AcDbLine
 10
-0.0000000000000111
 20
52.19502695462771
 30
0.0
 11
4.09999999999999
 21
38.883474210696
 31
0.0
  0
LINE
  5
7D
330
1E
100
AcDbEntity
  8
0
100
AcDbLine
 10
15.9893
 20
61.09903434038689
 30
0.0
 11
15.9893
 21
62.9116772256405
 31
0.0
  0
LINE
  5
7E
330
1E
100
AcDbEntity
  8
0
100
AcDbLine
 10
15.9893
 20
61.09903434038689
 30
0.0
 11
16.507
 21
61.91539172421951
 31
0.0
  0
LINE
  5
7F
330
1E
100
AcDbEntity
  8
0
100
AcDbLine
 10
15.9893
 20
61.09903434038689
 30
0.0
 11
17.92119999999999
 21
60.8802600275128
 31
0.0
  0
LINE
  5
80
330
1E
100
AcDbEntity
  8
0
100
AcDbLine
 10
3.99999999999999
 20
65.4002613392478
 30
0.0
 11
3.99999999999999
 21
66.6961700366563
 31
0.0
  0
LINE
  5
81
330
1E
100
AcDbEntity
  8
0
100
AcDbLine
 10
3.99999999999999
 20
69.41513436453671
 30
0.0
 11
8.29999999999999
 21
82.3040981324706
 31
0.0
  0
LINE
  5
82
330
1E
100
AcDbEntity
  8
0
100
AcDbLine
 10
3.99999999999999
 20
69.41513436453671
 30
0.0
 11
4.453548742179429
 21
68.0556522005965
 31
0.0
  0
LINE
  5
83
330
1E
100
AcDbEntity
  8
0
100
AcDbLine
 10
3.99999999999999
 20
66.6961700366563
 30
0.0
 11
3.99999999999999
 21
65.4002613392478
 31
0.0
  0
LINE
  5
84
330
1E
100
AcDbEntity
  8
0
100
AcDbLine
 10
3.99999999999999
 20
66.6961700366563
 30
0.0
 11
8.29999999999999
 21
79.5851338045902
 31
0.0
  0
LINE
  5
85
330
1E
100
AcDbEntity
  8
0
100
AcDbLine
 10
8.29999999999999
 20
82.3040981324706
 30
0.0
 11
19.9
 21
94.34788394840879
 31
0.0
  0
LINE
  5
86
330
1E
100
AcDbEntity
  8
0
100
AcDbLine
 10
8.29999999999999
 20
79.5851338045902
 30
0.0
 11
19.9
 21
91.62891962052841
 31
0.0
  0
LINE
  5
87
330
1E
100
AcDbEntity
  8
0
100
AcDbLine
 10
6.39999999999999
 20
72.54585675157478
 30
0.0
 11
18.0
 21
84.7164192603124
 31
0.0
  0
LINE
  5
88
330
1E
100
AcDbEntity
  8
0
100
AcDbLine
 10
4.09999999999999
 20
65.50657969855939
 30
0.0
 11
16.39999999999999
 21
77.9306955928957
 31
0.0
  0
LINE
  5
89
330
1E
100
AcDbEntity
  8
0
100
AcDbLine
 10
4.09999999999999
 20
65.50657969855939
 30
0.0
 11
16.39999999999999
 21
77.9306955928957
 31
0.0
  0
LINE
  5
8A
330
1E
100
AcDbEntity
  8
0
100
AcDbLine
 10
5.39999999999999
 20
64.47348156313329
 30
0.0
 11
17.3
 21
76.81307966227
 31
0.0
  0
LINE
  5
8B
330
1E
100
AcDbEntity
  8
0
100
AcDbLine
 10
16.39999999999999
 20
77.9306955928957
 30
0.0
 11
36.0
 21
88.74897337844021
 31
0.0
  0
LINE
  5
8C
330
1E
100
AcDbEntity
  8
0
100
AcDbLine
 10
16.39999999999999
 20
77.9306955928957
 30
0.0
 11
17.3
 21
78.62572254752359
 31
0.0
  0
LINE
  5
8D
330
1E
100
AcDbEntity
  8
0
100
AcDbLine
 10
15.9893
 20
62.9116772256405
 30
0.0
 11
16.507
 21
63.7280346094731
 31
0.0
  0
LINE
  5
8E
330
1E
100
AcDbEntity
  8
0
100
AcDbLine
 10
15.9893
 20
62.9116772256405
 30
0.0
 11
15.9893
 21
61.09903434038689
 31
0.0
  0
LINE
  5
8F
330
1E
100
AcDbEntity
  8
0
100
AcDbLine
 10
16.507
 20
61.91539172421951
 30
0.0
 11
16.507
 21
63.7280346094731
 31
0.0
  0
LINE
  5
90
330
1E
100
AcDbEntity
  8
0
100
AcDbLine
 10
16.507
 20
61.91539172421951
 30
0.0
 11
18.4388
 21
61.6966596702431
 31
0.0
  0
LINE
  5
91
330
1E
100
AcDbEntity
  8
0
100
AcDbLine
 10
30.4782
 20
61.2710600441241
 30
0.0
 11
30.9959
 21
62.08741742795671
 31
0.0
  0
LINE
  5
92
330
1E
100
AcDbEntity
  8
0
100
AcDbLine
 10
30.4782
 20
61.2710600441241
 30
0.0
 11
30.4782
 21
59.45841715887049
 31
0.0
  0
LINE
  5
93
330
1E
100
AcDbEntity
  8
0
100
AcDbLine
 10
30.4782
 20
59.45841715887049
 30
0.0
 11
30.4782
 21
61.2710600441241
 31
0.0
  0
LINE
  5
94
330
1E
100
AcDbEntity
  8
0
100
AcDbLine
 10
30.4782
 20
59.45841715887049
 30
0.0
 11
30.9959
 21
60.27477454270311
 31
0.0
  0
LINE
  5
95
330
1E
100
AcDbEntity
  8
0
100
AcDbLine
 10
30.4782
 20
59.45841715887049
 30
0.0
 11
32.4101
 21
59.23964284599651
 31
0.0
  0
LINE
  5
96
330
1E
100
AcDbEntity
  8
0
100
AcDbLine
 10
32.9277
 20
60.0560424887267
 30
0.0
 11
32.9277
 21
61.8686853739802
 31
0.0
  0
LINE
  5
97
330
1E
100
AcDbEntity
  8
0
100
AcDbLine
 10
32.4101
 20
59.23964284599651
 30
0.0
 11
32.9277
 21
60.0560424887267
 31
0.0
  0
LINE
  5
98
330
1E
100
AcDbEntity
  8
0
100
AcDbLine
 10
30.9959
 20
60.27477454270311
 30
0.0
 11
30.9959
 21
62.08741742795671
 31
0.0
  0
LINE
  5
99
330
1E
100
AcDbEntity
  8
0
100
AcDbLine
 10
30.9959
 20
60.27477454270311
 30
0.0
 11
32.9277
 21
60.0560424887267
 31
0.0
  0
LINE
  5
9A
330
1E
100
AcDbEntity
  8
0
100
AcDbLine
 10
32.9277
 20
61.8686853739802
 30
0.0
 11
32.9277
 21
60.0560424887267
 31
0.0
  0
LINE
  5
9B
330
1E
100
AcDbEntity
  8
0
100
AcDbLine
 10
30.9959
 20
62.08741742795671
 30
0.0
 11
32.9277
 21
61.8686853739802
 31
0.0
  0
LINE
  5
9C
330
1E
100
AcDbEntity
  8
0
100
AcDbLine
 10
30.9959
 20
62.08741742795671
 30
0.0
 11
30.9959
 21
60.27477454270311
 31
0.0
  0
LINE
  5
9D
330
1E
100
AcDbEntity
  8
0
100
AcDbLine
 10
18.4388
 20
61.6966596702431
 30
0.0
 11
18.4388
 21
63.50930255549659
 31
0.0
  0
LINE
  5
9E
330
1E
100
AcDbEntity
  8
0
100
AcDbLine
 10
17.92119999999999
 20
60.8802600275128
 30
0.0
 11
18.4388
 21
61.6966596702431
 31
0.0
  0
LINE
  5
9F
330
1E
100
AcDbEntity
  8
0
100
AcDbLine
 10
26.7372
 20
72.352494253414
 30
0.0
 11
26.7372
 21
74.16513713866759
 31
0.0
  0
LINE
  5
A0
330
1E
100
AcDbEntity
  8
0
100
AcDbLine
 10
26.7372
 20
72.352494253414
 30
0.0
 11
27.7372
 21
73.0844183598422
 31
0.0
  0
LINE
  5
A1
330
1E
100
AcDbEntity
  8
0
100
AcDbLine
 10
26.7372
 20
72.352494253414
 30
0.0
 11
28.4693
 21
71.9299052774162
 31
0.0
  0
LINE
  5
A2
330
1E
100
AcDbEntity
  8
0
100
AcDbLine
 10
19.9
 20
94.34788394840879
 30
0.0
 11
38.9
 21
104.743572757955
 31
0.0
  0
LINE
  5
A3
330
1E
100
AcDbEntity
  8
0
100
AcDbLine
 10
19.9
 20
94.34788394840879
 30
0.0
 11
21.6
 21
95.73793785766451
 31
0.0
  0
LINE
  5
A4
330
1E
100
AcDbEntity
  8
0
100
AcDbLine
 10
21.6
 20
95.73793785766451
 30
0.0
 11
40.2
 21
106.006849974412
 31
0.0
  0
LINE
  5
A6
330
1E
100
AcDbEntity
  8
0
100
AcDbLine
 10
19.9
 20
91.62891962052841
 30
0.0
 11
38.9
 21
102.0246084300749
 31
0.0
  0
LINE
  5
A8
330
1E
100
AcDbEntity
  8
0
100
AcDbLine
 10
18.0
 20
84.7164192603124
 30
0.0
 11
37.4
 21
95.4079203530575
 31
0.0
  0
LINE
  5
A9
330
1E
100
AcDbEntity
  8
0
100
AcDbLine
 10
17.3
 20
78.62572254752359
 30
0.0
 11
36.7
 21
89.3594825378685
 31
0.0
  0
LINE
  5
AA
330
1E
100
AcDbEntity
  8
0
100
AcDbLine
 10
17.3
 20
76.81307966227
 30
0.0
 11
36.7
 21
87.5468396526149
 31
0.0
  0
LINE
  5
AB
330
1E
100
AcDbEntity
  8
0
100
AcDbLine
 10
26.7372
 20
74.16513713866759
 30
0.0
 11
27.7372
 21
74.8970612450958
 31
0.0
  0
LINE
  5
AC
330
1E
100
AcDbEntity
  8
0
100
AcDbLine
 10
26.7372
 20
74.16513713866759
 30
0.0
 11
26.7372
 21
72.352494253414
 31
0.0
  0
LINE
  5
AD
330
1E
100
AcDbEntity
  8
0
100
AcDbLine
 10
27.7372
 20
73.0844183598422
 30
0.0
 11
27.7372
 21
74.8970612450958
 31
0.0
  0
LINE
  5
AE
330
1E
100
AcDbEntity
  8
0
100
AcDbLine
 10
27.7372
 20
73.0844183598422
 30
0.0
 11
29.4693
 21
72.6618293838444
 31
0.0
  0
LINE
  5
AF
330
1E
100
AcDbEntity
  8
0
100
AcDbLine
 10
39.7276
 20
69.1830769334303
 30
0.0
 11
39.7276
 21
70.99571981868379
 31
0.0
  0
LINE
  5
B0
330
1E
100
AcDbEntity
  8
0
100
AcDbLine
 10
39.7276
 20
69.1830769334303
 30
0.0
 11
40.7276
 21
69.91500103985851
 31
0.0
  0
LINE
  5
B1
330
1E
100
AcDbEntity
  8
0
100
AcDbLine
 10
39.7276
 20
69.1830769334303
 30
0.0
 11
41.4596
 21
68.76048795743239
 31
0.0
  0
LINE
  5
B2
330
1E
100
AcDbEntity
  8
0
100
AcDbLine
 10
39.7276
 20
70.99571981868379
 30
0.0
 11
40.7276
 21
71.72764392511209
 31
0.0
  0
LINE
  5
B3
330
1E
100
AcDbEntity
  8
0
100
AcDbLine
 10
39.7276
 20
70.99571981868379
 30
0.0
 11
39.7276
 21
69.1830769334303
 31
0.0
  0
LINE
  5
B4
330
1E
100
AcDbEntity
  8
0
100
AcDbLine
 10
40.7276
 20
69.91500103985851
 30
0.0
 11
40.7276
 21
71.72764392511209
 31
0.0
  0
LINE
  5
B5
330
1E
100
AcDbEntity
  8
0
100
AcDbLine
 10
40.7276
 20
69.91500103985851
 30
0.0
 11
42.4596
 21
69.49241206386069
 31
0.0
  0
LINE
  5
B6
330
1E
100
AcDbEntity
  8
0
100
AcDbLine
 10
42.4596
 20
69.49241206386069
 30
0.0
 11
42.4596
 21
71.30505494911429
 31
0.0
  0
LINE
  5
B7
330
1E
100
AcDbEntity
  8
0
100
AcDbLine
 10
41.4596
 20
68.76048795743239
 30
0.0
 11
42.4596
 21
69.49241206386069
 31
0.0
  0
LINE
  5
B8
330
1E
100
AcDbEntity
  8
0
100
AcDbLine
 10
42.4596
 20
71.30505494911429
 30
0.0
 11
42.4596
 21
69.49241206386069
 31
0.0
  0
LINE
  5
B9
330
1E
100
AcDbEntity
  8
0
100
AcDbLine
 10
40.7276
 20
71.72764392511209
 30
0.0
 11
42.4596
 21
71.30505494911429
 31
0.0
  0
LINE
  5
BA
330
1E
100
AcDbEntity
  8
0
100
AcDbLine
 10
40.7276
 20
71.72764392511209
 30
0.0
 11
40.7276
 21
69.91500103985851
 31
0.0
  0
LINE
  5
BB
330
1E
100
AcDbEntity
  8
0
100
AcDbLine
 10
29.4693
 20
72.6618293838444
 30
0.0
 11
29.4693
 21
74.474472269098
 31
0.0
  0
LINE
  5
BC
330
1E
100
AcDbEntity
  8
0
100
AcDbLine
 10
28.4693
 20
71.9299052774162
 30
0.0
 11
29.4693
 21
72.6618293838444
 31
0.0
  0
LINE
  5
BD
330
1E
100
AcDbEntity
  8
0
100
AcDbLine
 10
36.7
 20
89.3594825378685
 30
0.0
 11
62.1
 21
97.55770867222651
 31
0.0
  0
LINE
  5
BE
330
1E
100
AcDbEntity
  8
0
100
AcDbLine
 10
36.0
 20
88.74897337844021
 30
0.0
 11
61.6
 21
97.03171730799772
 31
0.0
  0
LINE
  5
BF
330
1E
100
AcDbEntity
  8
0
100
AcDbLine
 10
38.9
 20
104.743572757955
 30
0.0
 11
63.5
 21
112.772763301914
 31
0.0
  0
LINE
  5
C0
330
1E
100
AcDbEntity
  8
0
100
AcDbLine
 10
40.2
 20
106.006849974412
 30
0.0
 11
64.5
 21
113.8670049279719
 31
0.0
  0
LINE
  5
C2
330
1E
100
AcDbEntity
  8
0
100
AcDbLine
 10
38.9
 20
102.0246084300749
 30
0.0
 11
63.5
 21
110.053798974034
 31
0.0
  0
LINE
  5
C3
330
1E
100
AcDbEntity
  8
0
100
AcDbLine
 10
37.4
 20
95.4079203530575
 30
0.0
 11
62.7
 21
103.6061464874159
 31
0.0
  0
LINE
  5
C4
330
1E
100
AcDbEntity
  8
0
100
AcDbLine
 10
36.7
 20
87.5468396526149
 30
0.0
 11
62.1
 21
95.7450657869729
 31
0.0
  0
LINE
  5
C5
330
1E
100
AcDbEntity
  8
0
100
AcDbLine
 10
29.4693
 20
74.474472269098
 30
0.0
 11
29.4693
 21
72.6618293838444
 31
0.0
  0
LINE
  5
C6
330
1E
100
AcDbEntity
  8
0
100
AcDbLine
 10
27.7372
 20
74.8970612450958
 30
0.0
 11
29.4693
 21
74.474472269098
 31
0.0
  0
LINE
  5
C7
330
1E
100
AcDbEntity
  8
0
100
AcDbLine
 10
27.7372
 20
74.8970612450958
 30
0.0
 11
27.7372
 21
73.0844183598422
 31
0.0
  0
LINE
  5
C8
330
1E
100
AcDbEntity
  8
0
100
AcDbLine
 10
18.4388
 20
63.50930255549659
 30
0.0
 11
18.4388
 21
61.6966596702431
 31
0.0
  0
LINE
  5
C9
330
1E
100
AcDbEntity
  8
0
100
AcDbLine
 10
16.507
 20
63.7280346094731
 30
0.0
 11
18.4388
 21
63.50930255549659
 31
0.0
  0
LINE
  5
CA
330
1E
100
AcDbEntity
  8
0
100
AcDbLine
 10
16.507
 20
63.7280346094731
 30
0.0
 11
16.507
 21
61.91539172421951
 31
0.0
  0
LINE
  5
CB
330
1E
100
AcDbEntity
  8
0
100
AcDbLine
 10
27.5
 20
51.7112944879987
 30
0.0
 11
29.5
 21
51.7112944879987
 31
0.0
  0
LINE
  5
CC
330
1E
100
AcDbEntity
  8
0
100
AcDbLine
 10
27.5
 20
51.7112944879987
 30
0.0
 11
27.5
 21
49.89865160274519
 31
0.0
  0
LINE
  5
CD
330
1E
100
AcDbEntity
  8
0
100
AcDbLine
 10
27.5
 20
51.7112944879987
 30
0.0
 11
27.5
 21
50.86611653600311
 31
0.0
  0
LINE
  5
CE
330
1E
100
AcDbEntity
  8
0
100
AcDbLine
 10
42.5
 20
50.86611653600311
 30
0.0
 11
42.5
 21
51.7112944879987
 31
0.0
  0
LINE
  5
CF
330
1E
100
AcDbEntity
  8
0
100
AcDbLine
 10
42.5
 20
50.86611653600311
 30
0.0
 11
42.5
 21
49.0534736507495
 31
0.0
  0
LINE
  5
D0
330
1E
100
AcDbEntity
  8
0
100
AcDbLine
 10
42.5
 20
49.89865160274519
 30
0.0
 11
42.5
 21
51.7112944879987
 31
0.0
  0
LINE
  5
D1
330
1E
100
AcDbEntity
  8
0
100
AcDbLine
 10
42.5
 20
49.89865160274519
 30
0.0
 11
44.5
 21
49.89865160274519
 31
0.0
  0
LINE
  5
D2
330
1E
100
AcDbEntity
  8
0
100
AcDbLine
 10
42.5
 20
49.89865160274519
 30
0.0
 11
42.5
 21
49.0534736507495
 31
0.0
  0
LINE
  5
D3
330
1E
100
AcDbEntity
  8
0
100
AcDbLine
 10
44.0111
 20
18.717660186968
 30
0.0
 11
44.0111
 21
16.9050173017144
 31
0.0
  0
LINE
  5
D4
330
1E
100
AcDbEntity
  8
0
100
AcDbLine
 10
44.0111
 20
18.717660186968
 30
0.0
 11
45.4254
 21
19.3156235880049
 31
0.0
  0
LINE
  5
D5
330
1E
100
AcDbEntity
  8
0
100
AcDbLine
 10
44.0111
 20
16.9050173017144
 30
0.0
 11
44.0111
 21
18.717660186968
 31
0.0
  0
LINE
  5
D6
330
1E
100
AcDbEntity
  8
0
100
AcDbLine
 10
44.0111
 20
16.9050173017144
 30
0.0
 11
45.4254
 21
16.3074764896534
 31
0.0
  0
LINE
  5
D7
330
1E
100
AcDbEntity
  8
0
100
AcDbLine
 10
44.0111
 20
16.9050173017144
 30
0.0
 11
45.4254
 21
17.5029807027513
 31
0.0
  0
LINE
  5
D8
330
1E
100
AcDbEntity
  8
0
100
AcDbLine
 10
44.5
 20
49.0534736507495
 30
0.0
 11
44.5
 21
49.89865160274519
 31
0.0
  0
LINE
  5
D9
330
1E
100
AcDbEntity
  8
0
100
AcDbLine
 10
45.4254
 20
19.3156235880049
 30
0.0
 11
45.4254
 21
17.5029807027513
 31
0.0
  0
LINE
  5
DA
330
1E
100
AcDbEntity
  8
0
100
AcDbLine
 10
45.4254
 20
19.3156235880049
 30
0.0
 11
46.83959999999999
 21
18.717660186968
 31
0.0
  0
LINE
  5
DB
330
1E
100
AcDbEntity
  8
0
100
AcDbLine
 10
45.4254
 20
17.5029807027513
 30
0.0
 11
45.4254
 21
19.3156235880049
 31
0.0
  0
LINE
  5
DC
330
1E
100
AcDbEntity
  8
0
100
AcDbLine
 10
45.4254
 20
17.5029807027513
 30
0.0
 11
46.83959999999999
 21
16.9050173017144
 31
0.0
  0
LINE
  5
DD
330
1E
100
AcDbEntity
  8
0
100
AcDbLine
 10
45.4254
 20
16.3074764896534
 30
0.0
 11
46.83959999999999
 21
16.9050173017144
 31
0.0
  0
LINE
  5
DE
330
1E
100
AcDbEntity
  8
0
100
AcDbLine
 10
44.9671
 20
42.9467991258037
 30
0.0
 11
44.9671
 21
41.13415624055011
 31
0.0
  0
LINE
  5
DF
330
1E
100
AcDbEntity
  8
0
100
AcDbLine
 10
44.9671
 20
42.9467991258037
 30
0.0
 11
46.89899999999999
 21
43.16570021537059
 31
0.0
  0
LINE
  5
E0
330
1E
100
AcDbEntity
  8
0
100
AcDbLine
 10
44.9671
 20
41.13415624055011
 30
0.0
 11
45.4848
 21
40.31813692789829
 31
0.0
  0
LINE
  5
E1
330
1E
100
AcDbEntity
  8
0
100
AcDbLine
 10
44.9671
 20
41.13415624055011
 30
0.0
 11
44.9671
 21
42.9467991258037
 31
0.0
  0
LINE
  5
E2
330
1E
100
AcDbEntity
  8
0
100
AcDbLine
 10
44.9671
 20
41.13415624055011
 30
0.0
 11
46.89899999999999
 21
41.353057330117
 31
0.0
  0
LINE
  5
E3
330
1E
100
AcDbEntity
  8
0
100
AcDbLine
 10
46.83959999999999
 20
16.9050173017144
 30
0.0
 11
46.83959999999999
 21
18.717660186968
 31
0.0
  0
LINE
  5
E4
330
1E
100
AcDbEntity
  8
0
100
AcDbLine
 10
46.83959999999999
 20
18.717660186968
 30
0.0
 11
46.83959999999999
 21
16.9050173017144
 31
0.0
  0
LINE
  5
E5
330
1E
100
AcDbEntity
  8
0
100
AcDbLine
 10
52.718
 20
34.7511085253017
 30
0.0
 11
52.718
 21
32.9384656400482
 31
0.0
  0
LINE
  5
E6
330
1E
100
AcDbEntity
  8
0
100
AcDbLine
 10
52.718
 20
34.7511085253017
 30
0.0
 11
54.45
 21
35.1736975012996
 31
0.0
  0
LINE
  5
E7
330
1E
100
AcDbEntity
  8
0
100
AcDbLine
 10
52.718
 20
32.9384656400482
 30
0.0
 11
53.718
 21
32.20654153361989
 31
0.0
  0
LINE
  5
E8
330
1E
100
AcDbEntity
  8
0
100
AcDbLine
 10
52.718
 20
32.9384656400482
 30
0.0
 11
52.718
 21
34.7511085253017
 31
0.0
  0
LINE
  5
E9
330
1E
100
AcDbEntity
  8
0
100
AcDbLine
 10
52.718
 20
32.9384656400482
 30
0.0
 11
54.45
 21
33.36105461604599
 31
0.0
  0
LINE
  5
EA
330
1E
100
AcDbEntity
  8
0
100
AcDbLine
 10
56.032
 20
23.79760226743789
 30
0.0
 11
56.032
 21
21.98495938218429
 31
0.0
  0
LINE
  5
EB
330
1E
100
AcDbEntity
  8
0
100
AcDbLine
 10
56.032
 20
23.79760226743789
 30
0.0
 11
57.4462
 21
23.200061455377
 31
0.0
  0
LINE
  5
EC
330
1E
100
AcDbEntity
  8
0
100
AcDbLine
 10
56.032
 20
21.98495938218429
 30
0.0
 11
56.032
 21
23.79760226743789
 31
0.0
  0
LINE
  5
ED
330
1E
100
AcDbEntity
  8
0
100
AcDbLine
 10
56.032
 20
21.98495938218429
 30
0.0
 11
57.4462
 21
21.38741857012339
 31
0.0
  0
LINE
  5
EE
330
1E
100
AcDbEntity
  8
0
100
AcDbLine
 10
54.6177
 20
23.200061455377
 30
0.0
 11
54.6177
 21
21.38741857012339
 31
0.0
  0
LINE
  5
EF
330
1E
100
AcDbEntity
  8
0
100
AcDbLine
 10
54.6177
 20
23.200061455377
 30
0.0
 11
56.032
 21
23.79760226743789
 31
0.0
  0
LINE
  5
F0
330
1E
100
AcDbEntity
  8
0
100
AcDbLine
 10
54.6177
 20
21.38741857012339
 30
0.0
 11
54.6177
 21
23.200061455377
 31
0.0
  0
LINE
  5
F1
330
1E
100
AcDbEntity
  8
0
100
AcDbLine
 10
54.6177
 20
21.38741857012339
 30
0.0
 11
56.032
 21
20.78987775806239
 31
0.0
  0
LINE
  5
F2
330
1E
100
AcDbEntity
  8
0
100
AcDbLine
 10
54.6177
 20
21.38741857012339
 30
0.0
 11
56.032
 21
21.98495938218429
 31
0.0
  0
LINE
  5
F3
330
1E
100
AcDbEntity
  8
0
100
AcDbLine
 10
57.4462
 20
21.38741857012339
 30
0.0
 11
57.4462
 21
23.200061455377
 31
0.0
  0
LINE
  5
F4
330
1E
100
AcDbEntity
  8
0
100
AcDbLine
 10
57.4462
 20
23.200061455377
 30
0.0
 11
57.4462
 21
21.38741857012339
 31
0.0
  0
LINE
  5
F5
330
1E
100
AcDbEntity
  8
0
100
AcDbLine
 10
56.032
 20
20.78987775806239
 30
0.0
 11
57.4462
 21
21.38741857012339
 31
0.0
  0
LINE
  5
F6
330
1E
100
AcDbEntity
  8
0
100
AcDbLine
 10
55.45
 20
32.6291305096177
 30
0.0
 11
55.45
 21
34.4417733948713
 31
0.0
  0
LINE
  5
F7
330
1E
100
AcDbEntity
  8
0
100
AcDbLine
 10
54.45
 20
33.36105461604599
 30
0.0
 11
54.45
 21
35.1736975012996
 31
0.0
  0
LINE
  5
F8
330
1E
100
AcDbEntity
  8
0
100
AcDbLine
 10
54.45
 20
33.36105461604599
 30
0.0
 11
55.45
 21
32.6291305096177
 31
0.0
  0
LINE
  5
F9
330
1E
100
AcDbEntity
  8
0
100
AcDbLine
 10
54.45
 20
35.1736975012996
 30
0.0
 11
54.45
 21
33.36105461604599
 31
0.0
  0
LINE
  5
FA
330
1E
100
AcDbEntity
  8
0
100
AcDbLine
 10
54.45
 20
35.1736975012996
 30
0.0
 11
55.45
 21
34.4417733948713
 31
0.0
  0
LINE
  5
FB
330
1E
100
AcDbEntity
  8
0
100
AcDbLine
 10
55.45
 20
34.4417733948713
 30
0.0
 11
55.45
 21
32.6291305096177
 31
0.0
  0
LINE
  5
FC
330
1E
100
AcDbEntity
  8
0
100
AcDbLine
 10
53.718
 20
32.20654153361989
 30
0.0
 11
55.45
 21
32.6291305096177
 31
0.0
  0
LINE
  5
FD
330
1E
100
AcDbEntity
  8
0
100
AcDbLine
 10
47.4166
 20
40.5366154284892
 30
0.0
 11
47.4166
 21
42.34925831374279
 31
0.0
  0
LINE
  5
FE
330
1E
100
AcDbEntity
  8
0
100
AcDbLine
 10
46.89899999999999
 20
41.353057330117
 30
0.0
 11
46.89899999999999
 21
43.16570021537059
 31
0.0
  0
LINE
  5
FF
330
1E
100
AcDbEntity
  8
0
100
AcDbLine
 10
46.89899999999999
 20
41.353057330117
 30
0.0
 11
47.4166
 21
40.5366154284892
 31
0.0
  0
LINE
  5
100
330
1E
100
AcDbEntity
  8
0
100
AcDbLine
 10
46.89899999999999
 20
43.16570021537059
 30
0.0
 11
46.89899999999999
 21
41.353057330117
 31
0.0
  0
LINE
  5
101
330
1E
100
AcDbEntity
  8
0
100
AcDbLine
 10
46.89899999999999
 20
43.16570021537059
 30
0.0
 11
47.4166
 21
42.34925831374279
 31
0.0
  0
LINE
  5
102
330
1E
100
AcDbEntity
  8
0
100
AcDbLine
 10
47.4166
 20
42.34925831374279
 30
0.0
 11
47.4166
 21
40.5366154284892
 31
0.0
  0
LINE
  5
103
330
1E
100
AcDbEntity
  8
0
100
AcDbLine
 10
45.4848
 20
40.31813692789829
 30
0.0
 11
47.4166
 21
40.5366154284892
 31
0.0
  0
LINE
  5
104
330
1E
100
AcDbEntity
  8
0
100
AcDbLine
 10
57.5
 20
50.86611653600311
 30
0.0
 11
57.5
 21
51.7112944879987
 31
0.0
  0
LINE
  5
105
330
1E
100
AcDbEntity
  8
0
100
AcDbLine
 10
57.5
 20
50.86611653600311
 30
0.0
 11
57.5
 21
49.0534736507495
 31
0.0
  0
LINE
  5
106
330
1E
100
AcDbEntity
  8
0
100
AcDbLine
 10
57.5
 20
49.0534736507495
 30
0.0
 11
57.5
 21
50.86611653600311
 31
0.0
  0
LINE
  5
107
330
1E
100
AcDbEntity
  8
0
100
AcDbLine
 10
57.5
 20
49.0534736507495
 30
0.0
 11
59.5
 21
49.0534736507495
 31
0.0
  0
LINE
  5
108
330
1E
100
AcDbEntity
  8
0
100
AcDbLine
 10
57.5
 20
49.0534736507495
 30
0.0
 11
57.5
 21
49.89865160274519
 31
0.0
  0
LINE
  5
109
330
1E
100
AcDbEntity
  8
0
100
AcDbLine
 10
59.456
 20
44.5877121196033
 30
0.0
 11
59.456
 21
42.7750692343497
 31
0.0
  0
LINE
  5
10A
330
1E
100
AcDbEntity
  8
0
100
AcDbLine
 10
59.456
 20
44.5877121196033
 30
0.0
 11
61.3879
 21
44.8061906201942
 31
0.0
  0
LINE
  5
10B
330
1E
100
AcDbEntity
  8
0
100
AcDbLine
 10
59.456
 20
42.7750692343497
 30
0.0
 11
59.9736
 21
41.95862733272189
 31
0.0
  0
LINE
  5
10C
330
1E
100
AcDbEntity
  8
0
100
AcDbLine
 10
59.456
 20
42.7750692343497
 30
0.0
 11
59.456
 21
44.5877121196033
 31
0.0
  0
LINE
  5
10D
330
1E
100
AcDbEntity
  8
0
100
AcDbLine
 10
59.456
 20
42.7750692343497
 30
0.0
 11
61.3879
 21
42.9935477349406
 31
0.0
  0
LINE
  5
10E
330
1E
100
AcDbEntity
  8
0
100
AcDbLine
 10
59.5
 20
49.0534736507495
 30
0.0
 11
59.5
 21
49.89865160274519
 31
0.0
  0
LINE
  5
10F
330
1E
100
AcDbEntity
  8
0
100
AcDbLine
 10
62.1
 20
6.832345237028909
 30
0.0
 11
91.3
 21
1.803536422654699
 31
0.0
  0
LINE
  5
110
330
1E
100
AcDbEntity
  8
0
100
AcDbLine
 10
62.1
 20
6.832345237028909
 30
0.0
 11
91.3
 21
1.803536422654699
 31
0.0
  0
LINE
  5
111
330
1E
100
AcDbEntity
  8
0
100
AcDbLine
 10
65.22429999999999
 20
27.682462723786
 30
0.0
 11
65.22429999999999
 21
25.8698198385324
 31
0.0
  0
LINE
  5
112
330
1E
100
AcDbEntity
  8
0
100
AcDbLine
 10
65.22429999999999
 20
27.682462723786
 30
0.0
 11
66.63859999999999
 21
28.28000353584689
 31
0.0
  0
LINE
  5
113
330
1E
100
AcDbEntity
  8
0
100
AcDbLine
 10
65.22429999999999
 20
25.8698198385324
 30
0.0
 11
65.22429999999999
 21
27.682462723786
 31
0.0
  0
LINE
  5
114
330
1E
100
AcDbEntity
  8
0
100
AcDbLine
 10
65.22429999999999
 20
25.8698198385324
 30
0.0
 11
66.63859999999999
 21
25.27185643749549
 31
0.0
  0
LINE
  5
115
330
1E
100
AcDbEntity
  8
0
100
AcDbLine
 10
65.22429999999999
 20
25.8698198385324
 30
0.0
 11
66.63859999999999
 21
26.4673606505933
 31
0.0
  0
LINE
  5
116
330
1E
100
AcDbEntity
  8
0
100
AcDbLine
 10
65.7084
 20
37.9205258452855
 30
0.0
 11
65.7084
 21
36.1078829600319
 31
0.0
  0
LINE
  5
117
330
1E
100
AcDbEntity
  8
0
100
AcDbLine
 10
65.7084
 20
37.9205258452855
 30
0.0
 11
67.4404
 21
38.3431148212833
 31
0.0
  0
LINE
  5
118
330
1E
100
AcDbEntity
  8
0
100
AcDbLine
 10
65.7084
 20
36.1078829600319
 30
0.0
 11
66.7084
 21
35.3759588536036
 31
0.0
  0
LINE
  5
119
330
1E
100
AcDbEntity
  8
0
100
AcDbLine
 10
65.7084
 20
36.1078829600319
 30
0.0
 11
65.7084
 21
37.9205258452855
 31
0.0
  0
LINE
  5
11A
330
1E
100
AcDbEntity
  8
0
100
AcDbLine
 10
65.7084
 20
36.1078829600319
 30
0.0
 11
67.4404
 21
36.5304719360297
 31
0.0
  0
LINE
  5
11B
330
1E
100
AcDbEntity
  8
0
100
AcDbLine
 10
61.9055
 20
42.1771058333128
 30
0.0
 11
61.9055
 21
43.98974871856629
 31
0.0
  0
LINE
  5
11C
330
1E
100
AcDbEntity
  8
0
100
AcDbLine
 10
61.3879
 20
44.8061906201942
 30
0.0
 11
61.3879
 21
42.9935477349406
 31
0.0
  0
LINE
  5
11D
330
1E
100
AcDbEntity
  8
0
100
AcDbLine
 10
61.3879
 20
44.8061906201942
 30
0.0
 11
61.9055
 21
43.98974871856629
 31
0.0
  0
LINE
  5
11E
330
1E
100
AcDbEntity
  8
0
100
AcDbLine
 10
61.3879
 20
42.9935477349406
 30
0.0
 11
61.3879
 21
44.8061906201942
 31
0.0
  0
LINE
  5
11F
330
1E
100
AcDbEntity
  8
0
100
AcDbLine
 10
61.3879
 20
42.9935477349406
 30
0.0
 11
61.9055
 21
42.1771058333128
 31
0.0
  0
LINE
  5
120
330
1E
100
AcDbEntity
  8
0
100
AcDbLine
 10
61.9055
 20
43.98974871856629
 30
0.0
 11
61.9055
 21
42.1771058333128
 31
0.0
  0
LINE
  5
121
330
1E
100
AcDbEntity
  8
0
100
AcDbLine
 10
59.9736
 20
41.95862733272189
 30
0.0
 11
61.9055
 21
42.1771058333128
 31
0.0
  0
LINE
  5
122
330
1E
100
AcDbEntity
  8
0
100
AcDbLine
 10
66.63859999999999
 20
28.28000353584689
 30
0.0
 11
66.63859999999999
 21
26.4673606505933
 31
0.0
  0
LINE
  5
123
330
1E
100
AcDbEntity
  8
0
100
AcDbLine
 10
66.63859999999999
 20
28.28000353584689
 30
0.0
 11
68.0528
 21
27.682462723786
 31
0.0
  0
LINE
  5
124
330
1E
100
AcDbEntity
  8
0
100
AcDbLine
 10
66.63859999999999
 20
26.4673606505933
 30
0.0
 11
66.63859999999999
 21
28.28000353584689
 31
0.0
  0
LINE
  5
125
330
1E
100
AcDbEntity
  8
0
100
AcDbLine
 10
66.63859999999999
 20
26.4673606505933
 30
0.0
 11
68.0528
 21
25.8698198385324
 31
0.0
  0
LINE
  5
126
330
1E
100
AcDbEntity
  8
0
100
AcDbLine
 10
66.63859999999999
 20
25.27185643749549
 30
0.0
 11
68.0528
 21
25.8698198385324
 31
0.0
  0
LINE
  5
127
330
1E
100
AcDbEntity
  8
0
100
AcDbLine
 10
67.4404
 20
38.3431148212833
 30
0.0
 11
67.4404
 21
36.5304719360297
 31
0.0
  0
LINE
  5
128
330
1E
100
AcDbEntity
  8
0
100
AcDbLine
 10
67.4404
 20
38.3431148212833
 30
0.0
 11
68.44039999999999
 21
37.611190714855
 31
0.0
  0
LINE
  5
129
330
1E
100
AcDbEntity
  8
0
100
AcDbLine
 10
67.4404
 20
36.5304719360297
 30
0.0
 11
67.4404
 21
38.3431148212833
 31
0.0
  0
LINE
  5
12A
330
1E
100
AcDbEntity
  8
0
100
AcDbLine
 10
67.4404
 20
36.5304719360297
 30
0.0
 11
68.44039999999999
 21
35.79854782960149
 31
0.0
  0
LINE
  5
12B
330
1E
100
AcDbEntity
  8
0
100
AcDbLine
 10
66.7084
 20
35.3759588536036
 30
0.0
 11
68.44039999999999
 21
35.79854782960149
 31
0.0
  0
LINE
  5
12C
330
1E
100
AcDbEntity
  8
0
100
AcDbLine
 10
68.0528
 20
25.8698198385324
 30
0.0
 11
68.0528
 21
27.682462723786
 31
0.0
  0
LINE
  5
12D
330
1E
100
AcDbEntity
  8
0
100
AcDbLine
 10
68.0528
 20
27.682462723786
 30
0.0
 11
68.0528
 21
25.8698198385324
 31
0.0
  0
LINE
  5
12E
330
1E
100
AcDbEntity
  8
0
100
AcDbLine
 10
67.634
 20
11.97483048594649
 30
0.0
 11
67.634
 21
10.162187600693
 31
0.0
  0
LINE
  5
12F
330
1E
100
AcDbEntity
  8
0
100
AcDbLine
 10
67.634
 20
11.97483048594649
 30
0.0
 11
69.366
 21
11.55224150994869
 31
0.0
  0
LINE
  5
130
330
1E
100
AcDbEntity
  8
0
100
AcDbLine
 10
67.634
 20
10.162187600693
 30
0.0
 11
67.634
 21
11.97483048594649
 31
0.0
  0
LINE
  5
131
330
1E
100
AcDbEntity
  8
0
100
AcDbLine
 10
67.634
 20
10.162187600693
 30
0.0
 11
69.366
 21
9.739598624695117
 31
0.0
  0
LINE
  5
132
330
1E
100
AcDbEntity
  8
0
100
AcDbLine
 10
66.634
 20
11.2429063795183
 30
0.0
 11
66.634
 21
9.430263494264719
 31
0.0
  0
LINE
  5
133
330
1E
100
AcDbEntity
  8
0
100
AcDbLine
 10
66.634
 20
11.2429063795183
 30
0.0
 11
67.634
 21
11.97483048594649
 31
0.0
  0
LINE
  5
134
330
1E
100
AcDbEntity
  8
0
100
AcDbLine
 10
66.634
 20
9.430263494264719
 30
0.0
 11
66.634
 21
11.2429063795183
 31
0.0
  0
LINE
  5
135
330
1E
100
AcDbEntity
  8
0
100
AcDbLine
 10
66.634
 20
9.430263494264719
 30
0.0
 11
68.366
 21
9.00767451826689
 31
0.0
  0
LINE
  5
136
330
1E
100
AcDbEntity
  8
0
100
AcDbLine
 10
66.634
 20
9.430263494264719
 30
0.0
 11
67.634
 21
10.162187600693
 31
0.0
  0
LINE
  5
137
330
1E
100
AcDbEntity
  8
0
100
AcDbLine
 10
69.366
 20
9.739598624695117
 30
0.0
 11
69.366
 21
11.55224150994869
 31
0.0
  0
LINE
  5
138
330
1E
100
AcDbEntity
  8
0
100
AcDbLine
 10
68.44039999999999
 20
35.79854782960149
 30
0.0
 11
68.44039999999999
 21
37.611190714855
 31
0.0
  0
LINE
  5
139
330
1E
100
AcDbEntity
  8
0
100
AcDbLine
 10
68.44039999999999
 20
37.611190714855
 30
0.0
 11
68.44039999999999
 21
35.79854782960149
 31
0.0
  0
LINE
  5
13A
330
1E
100
AcDbEntity
  8
0
100
AcDbLine
 10
69.366
 20
11.55224150994869
 30
0.0
 11
69.366
 21
9.739598624695117
 31
0.0
  0
LINE
  5
13B
330
1E
100
AcDbEntity
  8
0
100
AcDbLine
 10
68.366
 20
9.00767451826689
 30
0.0
 11
69.366
 21
9.739598624695117
 31
0.0
  0
LINE
  5
13C
330
1E
100
AcDbEntity
  8
0
100
AcDbLine
 10
72.5
 20
50.86611653600311
 30
0.0
 11
72.5
 21
51.7112944879987
 31
0.0
  0
LINE
  5
13D
330
1E
100
AcDbEntity
  8
0
100
AcDbLine
 10
72.5
 20
50.86611653600311
 30
0.0
 11
72.5
 21
49.0534736507495
 31
0.0
  0
LINE
  5
13E
330
1E
100
AcDbEntity
  8
0
100
AcDbLine
 10
72.5
 20
49.0534736507495
 30
0.0
 11
72.5
 21
50.86611653600311
 31
0.0
  0
LINE
  5
13F
330
1E
100
AcDbEntity
  8
0
100
AcDbLine
 10
72.5
 20
49.0534736507495
 30
0.0
 11
74.5
 21
49.0534736507495
 31
0.0
  0
LINE
  5
140
330
1E
100
AcDbEntity
  8
0
100
AcDbLine
 10
72.5
 20
49.0534736507495
 30
0.0
 11
72.5
 21
49.89865160274519
 31
0.0
  0
LINE
  5
141
330
1E
100
AcDbEntity
  8
0
100
AcDbLine
 10
73.94490000000001
 20
46.22820252442689
 30
0.0
 11
73.94490000000001
 21
44.4155596391733
 31
0.0
  0
LINE
  5
142
330
1E
100
AcDbEntity
  8
0
100
AcDbLine
 10
73.94490000000001
 20
46.22820252442689
 30
0.0
 11
75.8767
 21
46.4471036139937
 31
0.0
  0
LINE
  5
143
330
1E
100
AcDbEntity
  8
0
100
AcDbLine
 10
73.94490000000001
 20
44.4155596391733
 30
0.0
 11
74.4625
 21
43.59911773754549
 31
0.0
  0
LINE
  5
144
330
1E
100
AcDbEntity
  8
0
100
AcDbLine
 10
73.94490000000001
 20
44.4155596391733
 30
0.0
 11
73.94490000000001
 21
46.22820252442689
 31
0.0
  0
LINE
  5
145
330
1E
100
AcDbEntity
  8
0
100
AcDbLine
 10
73.94490000000001
 20
44.4155596391733
 30
0.0
 11
75.8767
 21
44.6344607287402
 31
0.0
  0
LINE
  5
146
330
1E
100
AcDbEntity
  8
0
100
AcDbLine
 10
74.134
 20
16.7327597667061
 30
0.0
 11
74.134
 21
14.92011688145259
 31
0.0
  0
LINE
  5
147
330
1E
100
AcDbEntity
  8
0
100
AcDbLine
 10
74.134
 20
16.7327597667061
 30
0.0
 11
75.134
 21
17.4646838731344
 31
0.0
  0
LINE
  5
148
330
1E
100
AcDbEntity
  8
0
100
AcDbLine
 10
74.4625
 20
43.59911773754549
 30
0.0
 11
76.3944
 21
43.81801882711228
 31
0.0
  0
LINE
  5
149
330
1E
100
AcDbEntity
  8
0
100
AcDbLine
 10
74.134
 20
14.92011688145259
 30
0.0
 11
74.134
 21
16.7327597667061
 31
0.0
  0
LINE
  5
14A
330
1E
100
AcDbEntity
  8
0
100
AcDbLine
 10
74.134
 20
14.92011688145259
 30
0.0
 11
75.866
 21
14.4975279054547
 31
0.0
  0
LINE
  5
14B
330
1E
100
AcDbEntity
  8
0
100
AcDbLine
 10
74.134
 20
14.92011688145259
 30
0.0
 11
75.134
 21
15.65204098788079
 31
0.0
  0
LINE
  5
14C
330
1E
100
AcDbEntity
  8
0
100
AcDbLine
 10
74.5
 20
49.0534736507495
 30
0.0
 11
74.5
 21
49.89865160274519
 31
0.0
  0
LINE
  5
14D
330
1E
100
AcDbEntity
  8
0
100
AcDbLine
 10
75.134
 20
17.4646838731344
 30
0.0
 11
75.134
 21
15.65204098788079
 31
0.0
  0
LINE
  5
14E
330
1E
100
AcDbEntity
  8
0
100
AcDbLine
 10
75.134
 20
17.4646838731344
 30
0.0
 11
76.866
 21
17.0420948971366
 31
0.0
  0
LINE
  5
14F
330
1E
100
AcDbEntity
  8
0
100
AcDbLine
 10
75.134
 20
15.65204098788079
 30
0.0
 11
75.134
 21
17.4646838731344
 31
0.0
  0
LINE
  5
150
330
1E
100
AcDbEntity
  8
0
100
AcDbLine
 10
75.134
 20
15.65204098788079
 30
0.0
 11
76.866
 21
15.22945201188299
 31
0.0
  0
LINE
  5
151
330
1E
100
AcDbEntity
  8
0
100
AcDbLine
 10
76.866
 20
15.22945201188299
 30
0.0
 11
76.866
 21
17.0420948971366
 31
0.0
  0
LINE
  5
152
330
1E
100
AcDbEntity
  8
0
100
AcDbLine
 10
76.866
 20
17.0420948971366
 30
0.0
 11
76.866
 21
15.22945201188299
 31
0.0
  0
LINE
  5
153
330
1E
100
AcDbEntity
  8
0
100
AcDbLine
 10
75.866
 20
14.4975279054547
 30
0.0
 11
76.866
 21
15.22945201188299
 31
0.0
  0
LINE
  5
154
330
1E
100
AcDbEntity
  8
0
100
AcDbLine
 10
75.831
 20
32.164441403219
 30
0.0
 11
75.831
 21
30.3517985179654
 31
0.0
  0
LINE
  5
155
330
1E
100
AcDbEntity
  8
0
100
AcDbLine
 10
75.831
 20
32.164441403219
 30
0.0
 11
77.2452
 21
32.7619822152799
 31
0.0
  0
LINE
  5
156
330
1E
100
AcDbEntity
  8
0
100
AcDbLine
 10
75.831
 20
30.3517985179654
 30
0.0
 11
75.831
 21
32.164441403219
 31
0.0
  0
LINE
  5
157
330
1E
100
AcDbEntity
  8
0
100
AcDbLine
 10
75.831
 20
30.3517985179654
 30
0.0
 11
77.2452
 21
29.75425770590449
 31
0.0
  0
LINE
  5
158
330
1E
100
AcDbEntity
  8
0
100
AcDbLine
 10
75.831
 20
30.3517985179654
 30
0.0
 11
77.2452
 21
30.9493393300263
 31
0.0
  0
LINE
  5
159
330
1E
100
AcDbEntity
  8
0
100
AcDbLine
 10
77.2452
 20
32.7619822152799
 30
0.0
 11
77.2452
 21
30.9493393300263
 31
0.0
  0
LINE
  5
15A
330
1E
100
AcDbEntity
  8
0
100
AcDbLine
 10
77.2452
 20
32.7619822152799
 30
0.0
 11
78.65940000000001
 21
32.164441403219
 31
0.0
  0
LINE
  5
15B
330
1E
100
AcDbEntity
  8
0
100
AcDbLine
 10
77.2452
 20
30.9493393300263
 30
0.0
 11
77.2452
 21
32.7619822152799
 31
0.0
  0
LINE
  5
15C
330
1E
100
AcDbEntity
  8
0
100
AcDbLine
 10
77.2452
 20
30.9493393300263
 30
0.0
 11
78.65940000000001
 21
30.3517985179654
 31
0.0
  0
LINE
  5
15D
330
1E
100
AcDbEntity
  8
0
100
AcDbLine
 10
78.65940000000001
 20
30.3517985179654
 30
0.0
 11
78.65940000000001
 21
32.164441403219
 31
0.0
  0
LINE
  5
15E
330
1E
100
AcDbEntity
  8
0
100
AcDbLine
 10
78.65940000000001
 20
32.164441403219
 30
0.0
 11
78.65940000000001
 21
30.3517985179654
 31
0.0
  0
LINE
  5
15F
330
1E
100
AcDbEntity
  8
0
100
AcDbLine
 10
77.2452
 20
29.75425770590449
 30
0.0
 11
78.65940000000001
 21
30.3517985179654
 31
0.0
  0
LINE
  5
160
330
1E
100
AcDbEntity
  8
0
100
AcDbLine
 10
78.6987
 20
41.0899431652692
 30
0.0
 11
78.6987
 21
39.2773002800156
 31
0.0
  0
LINE
  5
161
330
1E
100
AcDbEntity
  8
0
100
AcDbLine
 10
78.6987
 20
41.0899431652692
 30
0.0
 11
80.43080000000001
 21
41.5125321412671
 31
0.0
  0
LINE
  5
162
330
1E
100
AcDbEntity
  8
0
100
AcDbLine
 10
78.6987
 20
39.2773002800156
 30
0.0
 11
79.6987
 21
38.5453761735874
 31
0.0
  0
LINE
  5
163
330
1E
100
AcDbEntity
  8
0
100
AcDbLine
 10
78.6987
 20
39.2773002800156
 30
0.0
 11
78.6987
 21
41.0899431652692
 31
0.0
  0
LINE
  5
164
330
1E
100
AcDbEntity
  8
0
100
AcDbLine
 10
78.6987
 20
39.2773002800156
 30
0.0
 11
80.43080000000001
 21
39.6998892560135
 31
0.0
  0
LINE
  5
165
330
1E
100
AcDbEntity
  8
0
100
AcDbLine
 10
81.43080000000001
 20
38.9679651495852
 30
0.0
 11
81.43080000000001
 21
40.78060803483879
 31
0.0
  0
LINE
  5
166
330
1E
100
AcDbEntity
  8
0
100
AcDbLine
 10
80.43080000000001
 20
39.6998892560135
 30
0.0
 11
80.43080000000001
 21
41.5125321412671
 31
0.0
  0
LINE
  5
167
330
1E
100
AcDbEntity
  8
0
100
AcDbLine
 10
80.43080000000001
 20
39.6998892560135
 30
0.0
 11
81.43080000000001
 21
38.9679651495852
 31
0.0
  0
LINE
  5
168
330
1E
100
AcDbEntity
  8
0
100
AcDbLine
 10
80.43080000000001
 20
41.5125321412671
 30
0.0
 11
80.43080000000001
 21
39.6998892560135
 31
0.0
  0
LINE
  5
169
330
1E
100
AcDbEntity
  8
0
100
AcDbLine
 10
80.43080000000001
 20
41.5125321412671
 30
0.0
 11
81.43080000000001
 21
40.78060803483879
 31
0.0
  0
LINE
  5
16A
330
1E
100
AcDbEntity
  8
0
100
AcDbLine
 10
81.43080000000001
 20
40.78060803483879
 30
0.0
 11
81.43080000000001
 21
38.9679651495852
 31
0.0
  0
LINE
  5
16B
330
1E
100
AcDbEntity
  8
0
100
AcDbLine
 10
79.6987
 20
38.5453761735874
 30
0.0
 11
81.43080000000001
 21
38.9679651495852
 31
0.0
  0
LINE
  5
16C
330
1E
100
AcDbEntity
  8
0
100
AcDbLine
 10
76.3944
 20
43.81801882711228
 30
0.0
 11
76.3944
 21
45.63066171236589
 31
0.0
  0
LINE
  5
16D
330
1E
100
AcDbEntity
  8
0
100
AcDbLine
 10
75.8767
 20
44.6344607287402
 30
0.0
 11
75.8767
 21
46.4471036139937
 31
0.0
  0
LINE
  5
16E
330
1E
100
AcDbEntity
  8
0
100
AcDbLine
 10
75.8767
 20
44.6344607287402
 30
0.0
 11
76.3944
 21
43.81801882711228
 31
0.0
  0
LINE
  5
16F
330
1E
100
AcDbEntity
  8
0
100
AcDbLine
 10
75.8767
 20
46.4471036139937
 30
0.0
 11
75.8767
 21
44.6344607287402
 31
0.0
  0
LINE
  5
170
330
1E
100
AcDbEntity
  8
0
100
AcDbLine
 10
75.8767
 20
46.4471036139937
 30
0.0
 11
76.3944
 21
45.63066171236589
 31
0.0
  0
LINE
  5
171
330
1E
100
AcDbEntity
  8
0
100
AcDbLine
 10
76.3944
 20
45.63066171236589
 30
0.0
 11
76.3944
 21
43.81801882711228
 31
0.0
  0
LINE
  5
172
330
1E
100
AcDbEntity
  8
0
100
AcDbLine
 10
82.634
 20
22.95411467134619
 30
0.0
 11
82.634
 21
21.1414717860926
 31
0.0
  0
LINE
  5
173
330
1E
100
AcDbEntity
  8
0
100
AcDbLine
 10
82.634
 20
22.95411467134619
 30
0.0
 11
84.366
 21
22.53152569534839
 31
0.0
  0
LINE
  5
174
330
1E
100
AcDbEntity
  8
0
100
AcDbLine
 10
82.634
 20
21.1414717860926
 30
0.0
 11
82.634
 21
22.95411467134619
 31
0.0
  0
LINE
  5
175
330
1E
100
AcDbEntity
  8
0
100
AcDbLine
 10
82.634
 20
21.1414717860926
 30
0.0
 11
84.366
 21
20.7188828100948
 31
0.0
  0
LINE
  5
176
330
1E
100
AcDbEntity
  8
0
100
AcDbLine
 10
81.63400000000001
 20
22.222190564918
 30
0.0
 11
81.63400000000001
 21
20.40954767966439
 31
0.0
  0
LINE
  5
177
330
1E
100
AcDbEntity
  8
0
100
AcDbLine
 10
81.63400000000001
 20
22.222190564918
 30
0.0
 11
82.634
 21
22.95411467134619
 31
0.0
  0
LINE
  5
178
330
1E
100
AcDbEntity
  8
0
100
AcDbLine
 10
81.63400000000001
 20
20.40954767966439
 30
0.0
 11
81.63400000000001
 21
22.222190564918
 31
0.0
  0
LINE
  5
179
330
1E
100
AcDbEntity
  8
0
100
AcDbLine
 10
81.63400000000001
 20
20.40954767966439
 30
0.0
 11
83.366
 21
19.9869587036666
 31
0.0
  0
LINE
  5
17A
330
1E
100
AcDbEntity
  8
0
100
AcDbLine
 10
81.63400000000001
 20
20.40954767966439
 30
0.0
 11
82.634
 21
21.1414717860926
 31
0.0
  0
LINE
  5
17B
330
1E
100
AcDbEntity
  8
0
100
AcDbLine
 10
84.366
 20
20.7188828100948
 30
0.0
 11
84.366
 21
22.53152569534839
 31
0.0
  0
LINE
  5
17C
330
1E
100
AcDbEntity
  8
0
100
AcDbLine
 10
86.4376
 20
36.646842671628
 30
0.0
 11
86.4376
 21
34.8341997863744
 31
0.0
  0
LINE
  5
17D
330
1E
100
AcDbEntity
  8
0
100
AcDbLine
 10
86.4376
 20
36.646842671628
 30
0.0
 11
87.8518
 21
37.2443834836889
 31
0.0
  0
LINE
  5
17E
330
1E
100
AcDbEntity
  8
0
100
AcDbLine
 10
86.4376
 20
34.8341997863744
 30
0.0
 11
86.4376
 21
36.646842671628
 31
0.0
  0
LINE
  5
17F
330
1E
100
AcDbEntity
  8
0
100
AcDbLine
 10
86.4376
 20
34.8341997863744
 30
0.0
 11
87.8518
 21
34.2366589743135
 31
0.0
  0
LINE
  5
180
330
1E
100
AcDbEntity
  8
0
100
AcDbLine
 10
86.4376
 20
34.8341997863744
 30
0.0
 11
87.8518
 21
35.43174059843539
 31
0.0
  0
LINE
  5
181
330
1E
100
AcDbEntity
  8
0
100
AcDbLine
 10
84.366
 20
22.53152569534839
 30
0.0
 11
84.366
 21
20.7188828100948
 31
0.0
  0
LINE
  5
182
330
1E
100
AcDbEntity
  8
0
100
AcDbLine
 10
83.366
 20
19.9869587036666
 30
0.0
 11
84.366
 21
20.7188828100948
 31
0.0
  0
LINE
  5
183
330
1E
100
AcDbEntity
  8
0
100
AcDbLine
 10
87.5
 20
50.86611653600311
 30
0.0
 11
87.5
 21
51.7112944879987
 31
0.0
  0
LINE
  5
184
330
1E
100
AcDbEntity
  8
0
100
AcDbLine
 10
87.5
 20
50.86611653600311
 30
0.0
 11
87.5
 21
49.0534736507495
 31
0.0
  0
LINE
  5
185
330
1E
100
AcDbEntity
  8
0
100
AcDbLine
 10
87.5
 20
49.0534736507495
 30
0.0
 11
87.5
 21
50.86611653600311
 31
0.0
  0
LINE
  5
186
330
1E
100
AcDbEntity
  8
0
100
AcDbLine
 10
87.5
 20
49.0534736507495
 30
0.0
 11
89.50000000000001
 21
49.0534736507495
 31
0.0
  0
LINE
  5
187
330
1E
100
AcDbEntity
  8
0
100
AcDbLine
 10
87.5
 20
49.0534736507495
 30
0.0
 11
87.5
 21
49.89865160274519
 31
0.0
  0
LINE
  5
188
330
1E
100
AcDbEntity
  8
0
100
AcDbLine
 10
87.8518
 20
37.2443834836889
 30
0.0
 11
87.8518
 21
35.43174059843539
 31
0.0
  0
LINE
  5
189
330
1E
100
AcDbEntity
  8
0
100
AcDbLine
 10
87.8518
 20
37.2443834836889
 30
0.0
 11
89.266
 21
36.646842671628
 31
0.0
  0
LINE
  5
18A
330
1E
100
AcDbEntity
  8
0
100
AcDbLine
 10
87.8518
 20
35.43174059843539
 30
0.0
 11
87.8518
 21
37.2443834836889
 31
0.0
  0
LINE
  5
18B
330
1E
100
AcDbEntity
  8
0
100
AcDbLine
 10
87.8518
 20
35.43174059843539
 30
0.0
 11
89.266
 21
34.8341997863744
 31
0.0
  0
LINE
  5
18C
330
1E
100
AcDbEntity
  8
0
100
AcDbLine
 10
87.8518
 20
34.2366589743135
 30
0.0
 11
89.266
 21
34.8341997863744
 31
0.0
  0
LINE
  5
18D
330
1E
100
AcDbEntity
  8
0
100
AcDbLine
 10
88.43380000000001
 20
47.86869292925049
 30
0.0
 11
88.43380000000001
 21
46.0560500439969
 31
0.0
  0
LINE
  5
18E
330
1E
100
AcDbEntity
  8
0
100
AcDbLine
 10
88.43380000000001
 20
47.86869292925049
 30
0.0
 11
90.36559999999999
 21
48.08759401881729
 31
0.0
  0
LINE
  5
18F
330
1E
100
AcDbEntity
  8
0
100
AcDbLine
 10
88.43380000000001
 20
46.0560500439969
 30
0.0
 11
88.95140000000001
 21
45.2396081423691
 31
0.0
  0
LINE
  5
190
330
1E
100
AcDbEntity
  8
0
100
AcDbLine
 10
88.43380000000001
 20
46.0560500439969
 30
0.0
 11
88.43380000000001
 21
47.86869292925049
 31
0.0
  0
LINE
  5
191
330
1E
100
AcDbEntity
  8
0
100
AcDbLine
 10
88.43380000000001
 20
46.0560500439969
 30
0.0
 11
90.36559999999999
 21
46.2749511335637
 31
0.0
  0
LINE
  5
192
330
1E
100
AcDbEntity
  8
0
100
AcDbLine
 10
88.95140000000001
 20
45.2396081423691
 30
0.0
 11
90.8833
 21
45.45850923193589
 31
0.0
  0
LINE
  5
193
330
1E
100
AcDbEntity
  8
0
100
AcDbLine
 10
89.13400000000001
 20
27.7116213631298
 30
0.0
 11
89.13400000000001
 21
25.8989784778762
 31
0.0
  0
LINE
  5
194
330
1E
100
AcDbEntity
  8
0
100
AcDbLine
 10
89.13400000000001
 20
27.7116213631298
 30
0.0
 11
90.134
 21
28.44354546955809
 31
0.0
  0
LINE
  5
195
330
1E
100
AcDbEntity
  8
0
100
AcDbLine
 10
89.266
 20
34.8341997863744
 30
0.0
 11
89.266
 21
36.646842671628
 31
0.0
  0
LINE
  5
196
330
1E
100
AcDbEntity
  8
0
100
AcDbLine
 10
89.266
 20
36.646842671628
 30
0.0
 11
89.266
 21
34.8341997863744
 31
0.0
  0
LINE
  5
197
330
1E
100
AcDbEntity
  8
0
100
AcDbLine
 10
89.13400000000001
 20
25.8989784778762
 30
0.0
 11
89.13400000000001
 21
27.7116213631298
 31
0.0
  0
LINE
  5
198
330
1E
100
AcDbEntity
  8
0
100
AcDbLine
 10
89.13400000000001
 20
25.8989784778762
 30
0.0
 11
90.866
 21
25.4763895018784
 31
0.0
  0
LINE
  5
199
330
1E
100
AcDbEntity
  8
0
100
AcDbLine
 10
89.13400000000001
 20
25.8989784778762
 30
0.0
 11
90.134
 21
26.6309025843045
 31
0.0
  0
LINE
  5
19A
330
1E
100
AcDbEntity
  8
0
100
AcDbLine
 10
89.50000000000001
 20
49.0534736507495
 30
0.0
 11
89.50000000000001
 21
49.89865160274519
 31
0.0
  0
LINE
  5
19B
330
1E
100
AcDbEntity
  8
0
100
AcDbLine
 10
90.134
 20
28.44354546955809
 30
0.0
 11
90.134
 21
26.6309025843045
 31
0.0
  0
LINE
  5
19C
330
1E
100
AcDbEntity
  8
0
100
AcDbLine
 10
90.134
 20
28.44354546955809
 30
0.0
 11
91.866
 21
28.0209564935602
 31
0.0
  0
LINE
  5
19D
330
1E
100
AcDbEntity
  8
0
100
AcDbLine
 10
90.134
 20
26.6309025843045
 30
0.0
 11
90.134
 21
28.44354546955809
 31
0.0
  0
LINE
  5
19E
330
1E
100
AcDbEntity
  8
0
100
AcDbLine
 10
90.134
 20
26.6309025843045
 30
0.0
 11
91.866
 21
26.2083136083067
 31
0.0
  0
LINE
  5
19F
330
1E
100
AcDbEntity
  8
0
100
AcDbLine
 10
91.3
 20
1.803536422654699
 30
0.0
 11
122.5
 21
-0.0558550717357635
 31
0.0
  0
LINE
  5
1A0
330
1E
100
AcDbEntity
  8
0
100
AcDbLine
 10
93.58159999999999
 20
7.313674080690439
 30
0.0
 11
93.58159999999999
 21
5.50103119543686
 31
0.0
  0
LINE
  5
1A1
330
1E
100
AcDbEntity
  8
0
100
AcDbLine
 10
93.58159999999999
 20
7.313674080690439
 30
0.0
 11
95.51349999999999
 21
7.09477299112357
 31
0.0
  0
LINE
  5
1A2
330
1E
100
AcDbEntity
  8
0
100
AcDbLine
 10
93.58159999999999
 20
5.50103119543686
 30
0.0
 11
93.58159999999999
 21
7.313674080690439
 31
0.0
  0
LINE
  5
1A3
330
1E
100
AcDbEntity
  8
0
100
AcDbLine
 10
93.58159999999999
 20
5.50103119543686
 30
0.0
 11
95.51349999999999
 21
5.282130105869999
 31
0.0
  0
LINE
  5
1A4
330
1E
100
AcDbEntity
  8
0
100
AcDbLine
 10
93.064
 20
6.497232179062629
 30
0.0
 11
93.064
 21
4.684589293809049
 31
0.0
  0
LINE
  5
1A5
330
1E
100
AcDbEntity
  8
0
100
AcDbLine
 10
93.064
 20
6.497232179062629
 30
0.0
 11
93.58159999999999
 21
7.313674080690439
 31
0.0
  0
LINE
  5
1A6
330
1E
100
AcDbEntity
  8
0
100
AcDbLine
 10
93.064
 20
4.684589293809049
 30
0.0
 11
93.064
 21
6.497232179062629
 31
0.0
  0
LINE
  5
1A7
330
1E
100
AcDbEntity
  8
0
100
AcDbLine
 10
93.064
 20
4.684589293809049
 30
0.0
 11
94.99579999999999
 21
4.465688204242179
 31
0.0
  0
LINE
  5
1A8
330
1E
100
AcDbEntity
  8
0
100
AcDbLine
 10
93.064
 20
4.684589293809049
 30
0.0
 11
93.58159999999999
 21
5.50103119543686
 31
0.0
  0
LINE
  5
1A9
330
1E
100
AcDbEntity
  8
0
100
AcDbLine
 10
95.51349999999999
 20
5.282130105869999
 30
0.0
 11
95.51349999999999
 21
7.09477299112357
 31
0.0
  0
LINE
  5
1AA
330
1E
100
AcDbEntity
  8
0
100
AcDbLine
 10
95.51349999999999
 20
7.09477299112357
 30
0.0
 11
95.51349999999999
 21
5.282130105869999
 31
0.0
  0
LINE
  5
1AB
330
1E
100
AcDbEntity
  8
0
100
AcDbLine
 10
94.99579999999999
 20
4.465688204242179
 30
0.0
 11
95.51349999999999
 21
5.282130105869999
 31
0.0
  0
LINE
  5
1AC
330
1E
100
AcDbEntity
  8
0
100
AcDbLine
 10
97.46389999999999
 20
13.43656575392299
 30
0.0
 11
97.46389999999999
 21
11.6239228686695
 31
0.0
  0
LINE
  5
1AD
330
1E
100
AcDbEntity
  8
0
100
AcDbLine
 10
97.46389999999999
 20
13.43656575392299
 30
0.0
 11
99.39579999999999
 21
13.21766466435619
 31
0.0
  0
LINE
  5
1AE
330
1E
100
AcDbEntity
  8
0
100
AcDbLine
 10
97.46389999999999
 20
11.6239228686695
 30
0.0
 11
97.46389999999999
 21
13.43656575392299
 31
0.0
  0
LINE
  5
1AF
330
1E
100
AcDbEntity
  8
0
100
AcDbLine
 10
97.46389999999999
 20
11.6239228686695
 30
0.0
 11
99.39579999999999
 21
11.40502177910259
 31
0.0
  0
LINE
  5
1B0
330
1E
100
AcDbEntity
  8
0
100
AcDbLine
 10
96.9463
 20
12.62012385229519
 30
0.0
 11
96.9463
 21
10.8074809670417
 31
0.0
  0
LINE
  5
1B1
330
1E
100
AcDbEntity
  8
0
100
AcDbLine
 10
96.9463
 20
12.62012385229519
 30
0.0
 11
97.46389999999999
 21
13.43656575392299
 31
0.0
  0
LINE
  5
1B2
330
1E
100
AcDbEntity
  8
0
100
AcDbLine
 10
96.9463
 20
10.8074809670417
 30
0.0
 11
96.9463
 21
12.62012385229519
 31
0.0
  0
LINE
  5
1B3
330
1E
100
AcDbEntity
  8
0
100
AcDbLine
 10
96.9463
 20
10.8074809670417
 30
0.0
 11
98.87810000000001
 21
10.58857987747479
 31
0.0
  0
LINE
  5
1B4
330
1E
100
AcDbEntity
  8
0
100
AcDbLine
 10
96.9463
 20
10.8074809670417
 30
0.0
 11
97.46389999999999
 21
11.6239228686695
 31
0.0
  0
LINE
  5
1B5
330
1E
100
AcDbEntity
  8
0
100
AcDbLine
 10
91.866
 20
26.2083136083067
 30
0.0
 11
91.866
 21
28.0209564935602
 31
0.0
  0
LINE
  5
1B6
330
1E
100
AcDbEntity
  8
0
100
AcDbLine
 10
91.866
 20
28.0209564935602
 30
0.0
 11
91.866
 21
26.2083136083067
 31
0.0
  0
LINE
  5
1B7
330
1E
100
AcDbEntity
  8
0
100
AcDbLine
 10
90.866
 20
25.4763895018784
 30
0.0
 11
91.866
 21
26.2083136083067
 31
0.0
  0
LINE
  5
1B8
330
1E
100
AcDbEntity
  8
0
100
AcDbLine
 10
94.4212
 20
42.137382469569
 30
0.0
 11
94.4212
 21
43.9500253548225
 31
0.0
  0
LINE
  5
1B9
330
1E
100
AcDbEntity
  8
0
100
AcDbLine
 10
90.8833
 20
45.45850923193589
 30
0.0
 11
90.8833
 21
47.2711521171895
 31
0.0
  0
LINE
  5
1BA
330
1E
100
AcDbEntity
  8
0
100
AcDbLine
 10
90.36559999999999
 20
46.2749511335637
 30
0.0
 11
90.36559999999999
 21
48.08759401881729
 31
0.0
  0
LINE
  5
1BB
330
1E
100
AcDbEntity
  8
0
100
AcDbLine
 10
90.36559999999999
 20
46.2749511335637
 30
0.0
 11
90.8833
 21
45.45850923193589
 31
0.0
  0
LINE
  5
1BC
330
1E
100
AcDbEntity
  8
0
100
AcDbLine
 10
90.36559999999999
 20
48.08759401881729
 30
0.0
 11
90.36559999999999
 21
46.2749511335637
 31
0.0
  0
LINE
  5
1BD
330
1E
100
AcDbEntity
  8
0
100
AcDbLine
 10
90.36559999999999
 20
48.08759401881729
 30
0.0
 11
90.8833
 21
47.2711521171895
 31
0.0
  0
LINE
  5
1BE
330
1E
100
AcDbEntity
  8
0
100
AcDbLine
 10
90.8833
 20
47.2711521171895
 30
0.0
 11
90.8833
 21
45.45850923193589
 31
0.0
  0
LINE
  5
1BF
330
1E
100
AcDbEntity
  8
0
100
AcDbLine
 10
93.42119999999999
 20
44.6819494612508
 30
0.0
 11
93.42119999999999
 21
42.86930657599721
 31
0.0
  0
LINE
  5
1C0
330
1E
100
AcDbEntity
  8
0
100
AcDbLine
 10
93.42119999999999
 20
44.6819494612508
 30
0.0
 11
94.4212
 21
43.9500253548225
 31
0.0
  0
LINE
  5
1C1
330
1E
100
AcDbEntity
  8
0
100
AcDbLine
 10
93.42119999999999
 20
42.86930657599721
 30
0.0
 11
93.42119999999999
 21
44.6819494612508
 31
0.0
  0
LINE
  5
1C2
330
1E
100
AcDbEntity
  8
0
100
AcDbLine
 10
93.42119999999999
 20
42.86930657599721
 30
0.0
 11
94.4212
 21
42.137382469569
 31
0.0
  0
LINE
  5
1C3
330
1E
100
AcDbEntity
  8
0
100
AcDbLine
 10
91.6891
 20
44.259360485253
 30
0.0
 11
91.6891
 21
42.4467175999994
 31
0.0
  0
LINE
  5
1C4
330
1E
100
AcDbEntity
  8
0
100
AcDbLine
 10
91.6891
 20
44.259360485253
 30
0.0
 11
93.42119999999999
 21
44.6819494612508
 31
0.0
  0
LINE
  5
1C5
330
1E
100
AcDbEntity
  8
0
100
AcDbLine
 10
91.6891
 20
42.4467175999994
 30
0.0
 11
92.68909999999999
 21
41.7147934935711
 31
0.0
  0
LINE
  5
1C6
330
1E
100
AcDbEntity
  8
0
100
AcDbLine
 10
91.6891
 20
42.4467175999994
 30
0.0
 11
91.6891
 21
44.259360485253
 31
0.0
  0
LINE
  5
1C7
330
1E
100
AcDbEntity
  8
0
100
AcDbLine
 10
91.6891
 20
42.4467175999994
 30
0.0
 11
93.42119999999999
 21
42.86930657599721
 31
0.0
  0
LINE
  5
1C8
330
1E
100
AcDbEntity
  8
0
100
AcDbLine
 10
94.4212
 20
43.9500253548225
 30
0.0
 11
94.4212
 21
42.137382469569
 31
0.0
  0
LINE
  5
1C9
330
1E
100
AcDbEntity
  8
0
100
AcDbLine
 10
92.68909999999999
 20
41.7147934935711
 30
0.0
 11
94.4212
 21
42.137382469569
 31
0.0
  0
LINE
  5
1CA
330
1E
100
AcDbEntity
  8
0
100
AcDbLine
 10
97.0442
 20
41.128821351061
 30
0.0
 11
97.0442
 21
39.31617846580739
 31
0.0
  0
LINE
  5
1CB
330
1E
100
AcDbEntity
  8
0
100
AcDbLine
 10
97.0442
 20
41.128821351061
 30
0.0
 11
98.4584
 21
41.7267847520979
 31
0.0
  0
LINE
  5
1CC
330
1E
100
AcDbEntity
  8
0
100
AcDbLine
 10
97.0442
 20
39.31617846580739
 30
0.0
 11
97.0442
 21
41.128821351061
 31
0.0
  0
LINE
  5
1CD
330
1E
100
AcDbEntity
  8
0
100
AcDbLine
 10
97.0442
 20
39.31617846580739
 30
0.0
 11
98.4584
 21
38.7186376537465
 31
0.0
  0
LINE
  5
1CE
330
1E
100
AcDbEntity
  8
0
100
AcDbLine
 10
97.0442
 20
39.31617846580739
 30
0.0
 11
98.4584
 21
39.91414186684439
 31
0.0
  0
LINE
  5
1CF
330
1E
100
AcDbEntity
  8
0
100
AcDbLine
 10
97.634
 20
33.93339885674589
 30
0.0
 11
97.634
 21
32.1207559714923
 31
0.0
  0
LINE
  5
1D0
330
1E
100
AcDbEntity
  8
0
100
AcDbLine
 10
97.634
 20
33.93339885674589
 30
0.0
 11
99.366
 21
33.5108098807481
 31
0.0
  0
LINE
  5
1D1
330
1E
100
AcDbEntity
  8
0
100
AcDbLine
 10
97.634
 20
32.1207559714923
 30
0.0
 11
97.634
 21
33.93339885674589
 31
0.0
  0
LINE
  5
1D2
330
1E
100
AcDbEntity
  8
0
100
AcDbLine
 10
97.634
 20
32.1207559714923
 30
0.0
 11
99.366
 21
31.6981669954945
 31
0.0
  0
LINE
  5
1D3
330
1E
100
AcDbEntity
  8
0
100
AcDbLine
 10
96.63400000000001
 20
33.2014747503177
 30
0.0
 11
96.63400000000001
 21
31.3888318650641
 31
0.0
  0
LINE
  5
1D4
330
1E
100
AcDbEntity
  8
0
100
AcDbLine
 10
96.63400000000001
 20
33.2014747503177
 30
0.0
 11
97.634
 21
33.93339885674589
 31
0.0
  0
LINE
  5
1D5
330
1E
100
AcDbEntity
  8
0
100
AcDbLine
 10
96.63400000000001
 20
31.3888318650641
 30
0.0
 11
96.63400000000001
 21
33.2014747503177
 31
0.0
  0
LINE
  5
1D6
330
1E
100
AcDbEntity
  8
0
100
AcDbLine
 10
96.63400000000001
 20
31.3888318650641
 30
0.0
 11
98.366
 21
30.9662428890663
 31
0.0
  0
LINE
  5
1D7
330
1E
100
AcDbEntity
  8
0
100
AcDbLine
 10
96.63400000000001
 20
31.3888318650641
 30
0.0
 11
97.634
 21
32.1207559714923
 31
0.0
  0
LINE
  5
1D8
330
1E
100
AcDbEntity
  8
0
100
AcDbLine
 10
98.87810000000001
 20
10.58857987747479
 30
0.0
 11
99.39579999999999
 21
11.40502177910259
 31
0.0
  0
LINE
  5
1D9
330
1E
100
AcDbEntity
  8
0
100
AcDbLine
 10
99.39579999999999
 20
11.40502177910259
 30
0.0
 11
99.39579999999999
 21
13.21766466435619
 31
0.0
  0
LINE
  5
1DA
330
1E
100
AcDbEntity
  8
0
100
AcDbLine
 10
99.39579999999999
 20
13.21766466435619
 30
0.0
 11
99.39579999999999
 21
11.40502177910259
 31
0.0
  0
LINE
  5
1DB
330
1E
100
AcDbEntity
  8
0
100
AcDbLine
 10
101.346
 20
19.5594574271556
 30
0.0
 11
101.346
 21
17.7468145419021
 31
0.0
  0
LINE
  5
1DC
330
1E
100
AcDbEntity
  8
0
100
AcDbLine
 10
101.346
 20
19.5594574271556
 30
0.0
 11
103.278
 21
19.3405563375888
 31
0.0
  0
LINE
  5
1DD
330
1E
100
AcDbEntity
  8
0
100
AcDbLine
 10
101.346
 20
17.7468145419021
 30
0.0
 11
101.346
 21
19.5594574271556
 31
0.0
  0
LINE
  5
1DE
330
1E
100
AcDbEntity
  8
0
100
AcDbLine
 10
101.346
 20
17.7468145419021
 30
0.0
 11
103.278
 21
17.5279134523352
 31
0.0
  0
LINE
  5
1DF
330
1E
100
AcDbEntity
  8
0
100
AcDbLine
 10
100.8289999999999
 20
18.7430155255278
 30
0.0
 11
100.8289999999999
 21
16.9303726402743
 31
0.0
  0
LINE
  5
1E0
330
1E
100
AcDbEntity
  8
0
100
AcDbLine
 10
100.8289999999999
 20
18.7430155255278
 30
0.0
 11
101.346
 21
19.5594574271556
 31
0.0
  0
LINE
  5
1E1
330
1E
100
AcDbEntity
  8
0
100
AcDbLine
 10
100.8289999999999
 20
16.9303726402743
 30
0.0
 11
100.8289999999999
 21
18.7430155255278
 31
0.0
  0
LINE
  5
1E2
330
1E
100
AcDbEntity
  8
0
100
AcDbLine
 10
100.8289999999999
 20
16.9303726402743
 30
0.0
 11
102.76
 21
16.7114715507074
 31
0.0
  0
LINE
  5
1E3
330
1E
100
AcDbEntity
  8
0
100
AcDbLine
 10
100.8289999999999
 20
16.9303726402743
 30
0.0
 11
101.346
 21
17.7468145419021
 31
0.0
  0
LINE
  5
1E4
330
1E
100
AcDbEntity
  8
0
100
AcDbLine
 10
99.366
 20
31.6981669954945
 30
0.0
 11
99.366
 21
33.5108098807481
 31
0.0
  0
LINE
  5
1E5
330
1E
100
AcDbEntity
  8
0
100
AcDbLine
 10
98.4584
 20
41.7267847520979
 30
0.0
 11
98.4584
 21
39.91414186684439
 31
0.0
  0
LINE
  5
1E6
330
1E
100
AcDbEntity
  8
0
100
AcDbLine
 10
98.4584
 20
41.7267847520979
 30
0.0
 11
99.8726
 21
41.128821351061
 31
0.0
  0
LINE
  5
1E7
330
1E
100
AcDbEntity
  8
0
100
AcDbLine
 10
98.4584
 20
39.91414186684439
 30
0.0
 11
98.4584
 21
41.7267847520979
 31
0.0
  0
LINE
  5
1E8
330
1E
100
AcDbEntity
  8
0
100
AcDbLine
 10
98.4584
 20
39.91414186684439
 30
0.0
 11
99.8726
 21
39.31617846580739
 31
0.0
  0
LINE
  5
1E9
330
1E
100
AcDbEntity
  8
0
100
AcDbLine
 10
99.8726
 20
39.31617846580739
 30
0.0
 11
99.8726
 21
41.128821351061
 31
0.0
  0
LINE
  5
1EA
330
1E
100
AcDbEntity
  8
0
100
AcDbLine
 10
99.8726
 20
41.128821351061
 30
0.0
 11
99.8726
 21
39.31617846580739
 31
0.0
  0
LINE
  5
1EB
330
1E
100
AcDbEntity
  8
0
100
AcDbLine
 10
98.4584
 20
38.7186376537465
 30
0.0
 11
99.8726
 21
39.31617846580739
 31
0.0
  0
LINE
  5
1EC
330
1E
100
AcDbEntity
  8
0
100
AcDbLine
 10
99.366
 20
33.5108098807481
 30
0.0
 11
99.366
 21
31.6981669954945
 31
0.0
  0
LINE
  5
1ED
330
1E
100
AcDbEntity
  8
0
100
AcDbLine
 10
98.366
 20
30.9662428890663
 30
0.0
 11
99.366
 21
31.6981669954945
 31
0.0
  0
LINE
  5
1EE
330
1E
100
AcDbEntity
  8
0
100
AcDbLine
 10
102.4999999999999
 20
50.86611653600311
 30
0.0
 11
102.4999999999999
 21
51.7112944879987
 31
0.0
  0
LINE
  5
1EF
330
1E
100
AcDbEntity
  8
0
100
AcDbLine
 10
102.4999999999999
 20
50.86611653600311
 30
0.0
 11
102.4999999999999
 21
49.0534736507495
 31
0.0
  0
LINE
  5
1F0
330
1E
100
AcDbEntity
  8
0
100
AcDbLine
 10
102.4999999999999
 20
49.0534736507495
 30
0.0
 11
102.4999999999999
 21
50.86611653600311
 31
0.0
  0
LINE
  5
1F1
330
1E
100
AcDbEntity
  8
0
100
AcDbLine
 10
102.4999999999999
 20
49.0534736507495
 30
0.0
 11
104.4999999999999
 21
49.0534736507495
 31
0.0
  0
LINE
  5
1F2
330
1E
100
AcDbEntity
  8
0
100
AcDbLine
 10
102.4999999999999
 20
49.0534736507495
 30
0.0
 11
102.4999999999999
 21
49.89865160274519
 31
0.0
  0
LINE
  5
1F3
330
1E
100
AcDbEntity
  8
0
100
AcDbLine
 10
103.278
 20
17.5279134523352
 30
0.0
 11
103.278
 21
19.3405563375888
 31
0.0
  0
LINE
  5
1F4
330
1E
100
AcDbEntity
  8
0
100
AcDbLine
 10
103.278
 20
19.3405563375888
 30
0.0
 11
103.278
 21
17.5279134523352
 31
0.0
  0
LINE
  5
1F5
330
1E
100
AcDbEntity
  8
0
100
AcDbLine
 10
102.76
 20
16.7114715507074
 30
0.0
 11
103.278
 21
17.5279134523352
 31
0.0
  0
LINE
  5
1F6
330
1E
100
AcDbEntity
  8
0
100
AcDbLine
 10
102.9229999999999
 20
49.0534736507495
 30
0.0
 11
102.9229999999999
 21
47.6969630377965
 31
0.0
  0
LINE
  5
1F7
330
1E
100
AcDbEntity
  8
0
100
AcDbLine
 10
102.9229999999999
 20
47.6969630377965
 30
0.0
 11
103.4399999999999
 21
46.8805211361686
 31
0.0
  0
LINE
  5
1F8
330
1E
100
AcDbEntity
  8
0
100
AcDbLine
 10
102.9229999999999
 20
47.6969630377965
 30
0.0
 11
102.9229999999999
 21
49.0534736507495
 31
0.0
  0
LINE
  5
1F9
330
1E
100
AcDbEntity
  8
0
100
AcDbLine
 10
102.9229999999999
 20
47.6969630377965
 30
0.0
 11
104.855
 21
47.9154415383873
 31
0.0
  0
LINE
  5
1FA
330
1E
100
AcDbEntity
  8
0
100
AcDbLine
 10
103.4399999999999
 20
46.8805211361686
 30
0.0
 11
105.372
 21
47.0989996367595
 31
0.0
  0
LINE
  5
1FB
330
1E
100
AcDbEntity
  8
0
100
AcDbLine
 10
104.1339999999999
 20
38.6909055485295
 30
0.0
 11
104.1339999999999
 21
36.8782626632759
 31
0.0
  0
LINE
  5
1FC
330
1E
100
AcDbEntity
  8
0
100
AcDbLine
 10
104.1339999999999
 20
38.6909055485295
 30
0.0
 11
105.1339999999999
 21
39.42282965495779
 31
0.0
  0
LINE
  5
1FD
330
1E
100
AcDbEntity
  8
0
100
AcDbLine
 10
104.1339999999999
 20
36.8782626632759
 30
0.0
 11
104.1339999999999
 21
38.6909055485295
 31
0.0
  0
LINE
  5
1FE
330
1E
100
AcDbEntity
  8
0
100
AcDbLine
 10
104.1339999999999
 20
36.8782626632759
 30
0.0
 11
105.8659999999999
 21
36.4556736872781
 31
0.0
  0
LINE
  5
1FF
330
1E
100
AcDbEntity
  8
0
100
AcDbLine
 10
104.1339999999999
 20
36.8782626632759
 30
0.0
 11
105.1339999999999
 21
37.61018676970421
 31
0.0
  0
LINE
  5
200
330
1E
100
AcDbEntity
  8
0
100
AcDbLine
 10
104.4999999999999
 20
49.6879395645779
 30
0.0
 11
104.855
 21
49.7280844236409
 31
0.0
  0
LINE
  5
201
330
1E
100
AcDbEntity
  8
0
100
AcDbLine
 10
104.4999999999999
 20
49.0534736507495
 30
0.0
 11
104.4999999999999
 21
49.89865160274519
 31
0.0
  0
LINE
  5
202
330
1E
100
AcDbEntity
  8
0
100
AcDbLine
 10
105.2279999999999
 20
25.6819265114122
 30
0.0
 11
105.2279999999999
 21
23.8692836261587
 31
0.0
  0
LINE
  5
203
330
1E
100
AcDbEntity
  8
0
100
AcDbLine
 10
105.2279999999999
 20
25.6819265114122
 30
0.0
 11
107.1599999999999
 21
25.4634480108214
 31
0.0
  0
LINE
  5
204
330
1E
100
AcDbEntity
  8
0
100
AcDbLine
 10
105.2279999999999
 20
23.8692836261587
 30
0.0
 11
105.2279999999999
 21
25.6819265114122
 31
0.0
  0
LINE
  5
205
330
1E
100
AcDbEntity
  8
0
100
AcDbLine
 10
105.2279999999999
 20
23.8692836261587
 30
0.0
 11
107.1599999999999
 21
23.65080512556779
 31
0.0
  0
LINE
  5
206
330
1E
100
AcDbEntity
  8
0
100
AcDbLine
 10
104.7109999999999
 20
24.8659071987604
 30
0.0
 11
104.7109999999999
 21
23.0532643135068
 31
0.0
  0
LINE
  5
207
330
1E
100
AcDbEntity
  8
0
100
AcDbLine
 10
104.7109999999999
 20
24.8659071987604
 30
0.0
 11
105.2279999999999
 21
25.6819265114122
 31
0.0
  0
LINE
  5
208
330
1E
100
AcDbEntity
  8
0
100
AcDbLine
 10
104.7109999999999
 20
23.0532643135068
 30
0.0
 11
104.7109999999999
 21
24.8659071987604
 31
0.0
  0
LINE
  5
209
330
1E
100
AcDbEntity
  8
0
100
AcDbLine
 10
104.7109999999999
 20
23.0532643135068
 30
0.0
 11
106.6429999999999
 21
22.83436322394
 31
0.0
  0
LINE
  5
20A
330
1E
100
AcDbEntity
  8
0
100
AcDbLine
 10
104.7109999999999
 20
23.0532643135068
 30
0.0
 11
105.2279999999999
 21
23.8692836261587
 31
0.0
  0
LINE
  5
20B
330
1E
100
AcDbEntity
  8
0
100
AcDbLine
 10
107.1599999999999
 20
23.65080512556779
 30
0.0
 11
107.1599999999999
 21
25.4634480108214
 31
0.0
  0
LINE
  5
20C
330
1E
100
AcDbEntity
  8
0
100
AcDbLine
 10
107.1599999999999
 20
25.4634480108214
 30
0.0
 11
107.1599999999999
 21
23.65080512556779
 31
0.0
  0
LINE
  5
20D
330
1E
100
AcDbEntity
  8
0
100
AcDbLine
 10
106.6429999999999
 20
22.83436322394
 30
0.0
 11
107.1599999999999
 21
23.65080512556779
 31
0.0
  0
LINE
  5
20E
330
1E
100
AcDbEntity
  8
0
100
AcDbLine
 10
109.111
 20
31.8048181846448
 30
0.0
 11
109.111
 21
29.9921752993913
 31
0.0
  0
LINE
  5
20F
330
1E
100
AcDbEntity
  8
0
100
AcDbLine
 10
109.111
 20
31.8048181846448
 30
0.0
 11
111.043
 21
31.58633968405399
 31
0.0
  0
LINE
  5
210
330
1E
100
AcDbEntity
  8
0
100
AcDbLine
 10
109.111
 20
29.9921752993913
 30
0.0
 11
109.111
 21
31.8048181846448
 31
0.0
  0
LINE
  5
211
330
1E
100
AcDbEntity
  8
0
100
AcDbLine
 10
109.111
 20
29.9921752993913
 30
0.0
 11
111.043
 21
29.77369679880039
 31
0.0
  0
LINE
  5
212
330
1E
100
AcDbEntity
  8
0
100
AcDbLine
 10
108.5929999999999
 20
30.98879887199299
 30
0.0
 11
108.5929999999999
 21
29.17615598673939
 31
0.0
  0
LINE
  5
213
330
1E
100
AcDbEntity
  8
0
100
AcDbLine
 10
108.5929999999999
 20
30.98879887199299
 30
0.0
 11
109.111
 21
31.8048181846448
 31
0.0
  0
LINE
  5
214
330
1E
100
AcDbEntity
  8
0
100
AcDbLine
 10
108.5929999999999
 20
29.17615598673939
 30
0.0
 11
108.5929999999999
 21
30.98879887199299
 31
0.0
  0
LINE
  5
215
330
1E
100
AcDbEntity
  8
0
100
AcDbLine
 10
108.5929999999999
 20
29.17615598673939
 30
0.0
 11
110.525
 21
28.9572548971726
 31
0.0
  0
LINE
  5
216
330
1E
100
AcDbEntity
  8
0
100
AcDbLine
 10
108.5929999999999
 20
29.17615598673939
 30
0.0
 11
109.111
 21
29.9921752993913
 31
0.0
  0
LINE
  5
217
330
1E
100
AcDbEntity
  8
0
100
AcDbLine
 10
111.043
 20
29.77369679880039
 30
0.0
 11
111.043
 21
31.58633968405399
 31
0.0
  0
LINE
  5
218
330
1E
100
AcDbEntity
  8
0
100
AcDbLine
 10
111.043
 20
31.58633968405399
 30
0.0
 11
111.043
 21
29.77369679880039
 31
0.0
  0
LINE
  5
219
330
1E
100
AcDbEntity
  8
0
100
AcDbLine
 10
110.525
 20
28.9572548971726
 30
0.0
 11
111.043
 21
29.77369679880039
 31
0.0
  0
LINE
  5
21A
330
1E
100
AcDbEntity
  8
0
100
AcDbLine
 10
112.4749999999999
 20
35.2986250709961
 30
0.0
 11
112.4749999999999
 21
37.11126795624959
 31
0.0
  0
LINE
  5
21B
330
1E
100
AcDbEntity
  8
0
100
AcDbLine
 10
112.4749999999999
 20
35.2986250709961
 30
0.0
 11
114.407
 21
35.08014657040519
 31
0.0
  0
LINE
  5
21C
330
1E
100
AcDbEntity
  8
0
100
AcDbLine
 10
112.4749999999999
 20
35.2986250709961
 30
0.0
 11
112.9929999999999
 21
36.11506697262389
 31
0.0
  0
LINE
  5
21D
330
1E
100
AcDbEntity
  8
0
100
AcDbLine
 10
121.5
 20
3.8364532189814
 30
0.0
 11
121.5
 21
5.64909610423498
 31
0.0
  0
LINE
  5
21E
330
1E
100
AcDbEntity
  8
0
100
AcDbLine
 10
121.5
 20
3.8364532189814
 30
0.0
 11
121.5
 21
2.99127526698574
 31
0.0
  0
LINE
  5
21F
330
1E
100
AcDbEntity
  8
0
100
AcDbLine
 10
121.5
 20
3.8364532189814
 30
0.0
 11
123.5
 21
3.8364532189814
 31
0.0
  0
LINE
  5
220
330
1E
100
AcDbEntity
  8
0
100
AcDbLine
 10
121.5
 20
5.64909610423498
 30
0.0
 11
121.5
 21
4.803918152239309
 31
0.0
  0
LINE
  5
221
330
1E
100
AcDbEntity
  8
0
100
AcDbLine
 10
121.5
 20
5.64909610423498
 30
0.0
 11
121.5
 21
3.8364532189814
 31
0.0
  0
LINE
  5
222
330
1E
100
AcDbEntity
  8
0
100
AcDbLine
 10
121.5
 20
5.64909610423498
 30
0.0
 11
123.5
 21
5.64909610423498
 31
0.0
  0
LINE
  5
223
330
1E
100
AcDbEntity
  8
0
100
AcDbLine
 10
121.5
 20
4.803918152239309
 30
0.0
 11
121.5
 21
2.99127526698574
 31
0.0
  0
LINE
  5
224
330
1E
100
AcDbEntity
  8
0
100
AcDbLine
 10
121.5
 20
4.803918152239309
 30
0.0
 11
121.5
 21
5.64909610423498
 31
0.0
  0
LINE
  5
225
330
1E
100
AcDbEntity
  8
0
100
AcDbLine
 10
121.5
 20
2.99127526698574
 30
0.0
 11
121.5
 21
4.803918152239309
 31
0.0
  0
LINE
  5
226
330
1E
100
AcDbEntity
  8
0
100
AcDbLine
 10
121.5
 20
2.99127526698574
 30
0.0
 11
123.5
 21
2.99127526698574
 31
0.0
  0
LINE
  5
227
330
1E
100
AcDbEntity
  8
0
100
AcDbLine
 10
121.5
 20
2.99127526698574
 30
0.0
 11
121.5
 21
3.8364532189814
 31
0.0
  0
LINE
  5
228
330
1E
100
AcDbEntity
  8
0
100
AcDbLine
 10
121.5
 20
10.1752878589489
 30
0.0
 11
121.5
 21
11.98793074420249
 31
0.0
  0
LINE
  5
229
330
1E
100
AcDbEntity
  8
0
100
AcDbLine
 10
121.5
 20
10.1752878589489
 30
0.0
 11
121.5
 21
9.330109906953229
 31
0.0
  0
LINE
  5
22A
330
1E
100
AcDbEntity
  8
0
100
AcDbLine
 10
121.5
 20
10.1752878589489
 30
0.0
 11
123.5
 21
10.1752878589489
 31
0.0
  0
LINE
  5
22B
330
1E
100
AcDbEntity
  8
0
100
AcDbLine
 10
121.5
 20
11.98793074420249
 30
0.0
 11
121.5
 21
11.1427527922068
 31
0.0
  0
LINE
  5
22C
330
1E
100
AcDbEntity
  8
0
100
AcDbLine
 10
121.5
 20
11.98793074420249
 30
0.0
 11
121.5
 21
10.1752878589489
 31
0.0
  0
LINE
  5
22D
330
1E
100
AcDbEntity
  8
0
100
AcDbLine
 10
121.5
 20
11.98793074420249
 30
0.0
 11
123.5
 21
11.98793074420249
 31
0.0
  0
LINE
  5
22E
330
1E
100
AcDbEntity
  8
0
100
AcDbLine
 10
121.5
 20
11.1427527922068
 30
0.0
 11
121.5
 21
9.330109906953229
 31
0.0
  0
LINE
  5
22F
330
1E
100
AcDbEntity
  8
0
100
AcDbLine
 10
121.5
 20
11.1427527922068
 30
0.0
 11
121.5
 21
11.98793074420249
 31
0.0
  0
LINE
  5
230
330
1E
100
AcDbEntity
  8
0
100
AcDbLine
 10
121.5
 20
9.330109906953229
 30
0.0
 11
121.5
 21
11.1427527922068
 31
0.0
  0
LINE
  5
231
330
1E
100
AcDbEntity
  8
0
100
AcDbLine
 10
121.5
 20
9.330109906953229
 30
0.0
 11
123.5
 21
9.330109906953229
 31
0.0
  0
LINE
  5
232
330
1E
100
AcDbEntity
  8
0
100
AcDbLine
 10
121.5
 20
9.330109906953229
 30
0.0
 11
121.5
 21
10.1752878589489
 31
0.0
  0
LINE
  5
233
330
1E
100
AcDbEntity
  8
0
100
AcDbLine
 10
121.5
 20
16.5141224989164
 30
0.0
 11
121.5
 21
18.32676538417
 31
0.0
  0
LINE
  5
234
330
1E
100
AcDbEntity
  8
0
100
AcDbLine
 10
121.5
 20
16.5141224989164
 30
0.0
 11
121.5
 21
15.6689445469207
 31
0.0
  0
LINE
  5
235
330
1E
100
AcDbEntity
  8
0
100
AcDbLine
 10
121.5
 20
16.5141224989164
 30
0.0
 11
123.5
 21
16.5141224989164
 31
0.0
  0
LINE
  5
236
330
1E
100
AcDbEntity
  8
0
100
AcDbLine
 10
121.5
 20
18.32676538417
 30
0.0
 11
121.5
 21
17.4815874321743
 31
0.0
  0
LINE
  5
237
330
1E
100
AcDbEntity
  8
0
100
AcDbLine
 10
121.5
 20
18.32676538417
 30
0.0
 11
121.5
 21
16.5141224989164
 31
0.0
  0
LINE
  5
238
330
1E
100
AcDbEntity
  8
0
100
AcDbLine
 10
121.5
 20
18.32676538417
 30
0.0
 11
123.5
 21
18.32676538417
 31
0.0
  0
LINE
  5
239
330
1E
100
AcDbEntity
  8
0
100
AcDbLine
 10
121.5
 20
17.4815874321743
 30
0.0
 11
121.5
 21
15.6689445469207
 31
0.0
  0
LINE
  5
23A
330
1E
100
AcDbEntity
  8
0
100
AcDbLine
 10
121.5
 20
17.4815874321743
 30
0.0
 11
121.5
 21
18.32676538417
 31
0.0
  0
LINE
  5
23B
330
1E
100
AcDbEntity
  8
0
100
AcDbLine
 10
121.5
 20
15.6689445469207
 30
0.0
 11
121.5
 21
17.4815874321743
 31
0.0
  0
LINE
  5
23C
330
1E
100
AcDbEntity
  8
0
100
AcDbLine
 10
121.5
 20
15.6689445469207
 30
0.0
 11
123.5
 21
15.6689445469207
 31
0.0
  0
LINE
  5
23D
330
1E
100
AcDbEntity
  8
0
100
AcDbLine
 10
121.5
 20
15.6689445469207
 30
0.0
 11
121.5
 21
16.5141224989164
 31
0.0
  0
LINE
  5
23E
330
1E
100
AcDbEntity
  8
0
100
AcDbLine
 10
121.5
 20
22.8529571388839
 30
0.0
 11
121.5
 21
24.66560002413739
 31
0.0
  0
LINE
  5
23F
330
1E
100
AcDbEntity
  8
0
100
AcDbLine
 10
121.5
 20
22.8529571388839
 30
0.0
 11
121.5
 21
22.0077791868882
 31
0.0
  0
LINE
  5
240
330
1E
100
AcDbEntity
  8
0
100
AcDbLine
 10
121.5
 20
22.8529571388839
 30
0.0
 11
123.5
 21
22.8529571388839
 31
0.0
  0
LINE
  5
241
330
1E
100
AcDbEntity
  8
0
100
AcDbLine
 10
121.5
 20
24.66560002413739
 30
0.0
 11
121.5
 21
23.82042207214179
 31
0.0
  0
LINE
  5
242
330
1E
100
AcDbEntity
  8
0
100
AcDbLine
 10
121.5
 20
24.66560002413739
 30
0.0
 11
121.5
 21
22.8529571388839
 31
0.0
  0
LINE
  5
243
330
1E
100
AcDbEntity
  8
0
100
AcDbLine
 10
121.5
 20
24.66560002413739
 30
0.0
 11
123.5
 21
24.66560002413739
 31
0.0
  0
LINE
  5
244
330
1E
100
AcDbEntity
  8
0
100
AcDbLine
 10
121.5
 20
23.82042207214179
 30
0.0
 11
121.5
 21
22.0077791868882
 31
0.0
  0
LINE
  5
245
330
1E
100
AcDbEntity
  8
0
100
AcDbLine
 10
121.5
 20
23.82042207214179
 30
0.0
 11
121.5
 21
24.66560002413739
 31
0.0
  0
LINE
  5
246
330
1E
100
AcDbEntity
  8
0
100
AcDbLine
 10
121.5
 20
22.0077791868882
 30
0.0
 11
121.5
 21
23.82042207214179
 31
0.0
  0
LINE
  5
247
330
1E
100
AcDbEntity
  8
0
100
AcDbLine
 10
121.5
 20
22.0077791868882
 30
0.0
 11
123.5
 21
22.0077791868882
 31
0.0
  0
LINE
  5
248
330
1E
100
AcDbEntity
  8
0
100
AcDbLine
 10
121.5
 20
22.0077791868882
 30
0.0
 11
121.5
 21
22.8529571388839
 31
0.0
  0
LINE
  5
249
330
1E
100
AcDbEntity
  8
0
100
AcDbLine
 10
121.5
 20
29.1917917788514
 30
0.0
 11
121.5
 21
31.0044346641049
 31
0.0
  0
LINE
  5
24A
330
1E
100
AcDbEntity
  8
0
100
AcDbLine
 10
121.5
 20
29.1917917788514
 30
0.0
 11
121.5
 21
28.34661382685569
 31
0.0
  0
LINE
  5
24B
330
1E
100
AcDbEntity
  8
0
100
AcDbLine
 10
121.5
 20
29.1917917788514
 30
0.0
 11
123.5
 21
29.1917917788514
 31
0.0
  0
LINE
  5
24C
330
1E
100
AcDbEntity
  8
0
100
AcDbLine
 10
122.5
 20
-0.0558550717357635
 30
0.0
 11
153.6999999999999
 21
1.803536422654699
 31
0.0
  0
LINE
  5
24D
330
1E
100
AcDbEntity
  8
0
100
AcDbLine
 10
123.5
 20
2.99127526698574
 30
0.0
 11
123.5
 21
3.8364532189814
 31
0.0
  0
LINE
  5
24E
330
1E
100
AcDbEntity
  8
0
100
AcDbLine
 10
123.5
 20
5.64909610423498
 30
0.0
 11
123.5
 21
3.8364532189814
 31
0.0
  0
LINE
  5
24F
330
1E
100
AcDbEntity
  8
0
100
AcDbLine
 10
123.5
 20
3.8364532189814
 30
0.0
 11
123.5
 21
2.99127526698574
 31
0.0
  0
LINE
  5
250
330
1E
100
AcDbEntity
  8
0
100
AcDbLine
 10
123.5
 20
3.8364532189814
 30
0.0
 11
123.5
 21
5.64909610423498
 31
0.0
  0
LINE
  5
251
330
1E
100
AcDbEntity
  8
0
100
AcDbLine
 10
123.5
 20
9.330109906953229
 30
0.0
 11
123.5
 21
10.1752878589489
 31
0.0
  0
LINE
  5
252
330
1E
100
AcDbEntity
  8
0
100
AcDbLine
 10
123.5
 20
11.98793074420249
 30
0.0
 11
123.5
 21
10.1752878589489
 31
0.0
  0
LINE
  5
253
330
1E
100
AcDbEntity
  8
0
100
AcDbLine
 10
123.5
 20
10.1752878589489
 30
0.0
 11
123.5
 21
9.330109906953229
 31
0.0
  0
LINE
  5
254
330
1E
100
AcDbEntity
  8
0
100
AcDbLine
 10
123.5
 20
10.1752878589489
 30
0.0
 11
123.5
 21
11.98793074420249
 31
0.0
  0
LINE
  5
255
330
1E
100
AcDbEntity
  8
0
100
AcDbLine
 10
123.5
 20
15.6689445469207
 30
0.0
 11
123.5
 21
16.5141224989164
 31
0.0
  0
LINE
  5
256
330
1E
100
AcDbEntity
  8
0
100
AcDbLine
 10
123.5
 20
18.32676538417
 30
0.0
 11
123.5
 21
16.5141224989164
 31
0.0
  0
LINE
  5
257
330
1E
100
AcDbEntity
  8
0
100
AcDbLine
 10
123.5
 20
16.5141224989164
 30
0.0
 11
123.5
 21
15.6689445469207
 31
0.0
  0
LINE
  5
258
330
1E
100
AcDbEntity
  8
0
100
AcDbLine
 10
123.5
 20
16.5141224989164
 30
0.0
 11
123.5
 21
18.32676538417
 31
0.0
  0
LINE
  5
259
330
1E
100
AcDbEntity
  8
0
100
AcDbLine
 10
123.5
 20
22.0077791868882
 30
0.0
 11
123.5
 21
22.8529571388839
 31
0.0
  0
LINE
  5
25A
330
1E
100
AcDbEntity
  8
0
100
AcDbLine
 10
123.5
 20
24.66560002413739
 30
0.0
 11
123.5
 21
22.8529571388839
 31
0.0
  0
LINE
  5
25B
330
1E
100
AcDbEntity
  8
0
100
AcDbLine
 10
123.5
 20
22.8529571388839
 30
0.0
 11
123.5
 21
22.0077791868882
 31
0.0
  0
LINE
  5
25C
330
1E
100
AcDbEntity
  8
0
100
AcDbLine
 10
123.5
 20
22.8529571388839
 30
0.0
 11
123.5
 21
24.66560002413739
 31
0.0
  0
LINE
  5
25D
330
1E
100
AcDbEntity
  8
0
100
AcDbLine
 10
123.5
 20
28.34661382685569
 30
0.0
 11
123.5
 21
29.1917917788514
 31
0.0
  0
LINE
  5
25E
330
1E
100
AcDbEntity
  8
0
100
AcDbLine
 10
121.5
 20
28.34661382685569
 30
0.0
 11
121.5
 21
30.1592567121093
 31
0.0
  0
LINE
  5
25F
330
1E
100
AcDbEntity
  8
0
100
AcDbLine
 10
121.5
 20
28.34661382685569
 30
0.0
 11
123.5
 21
28.34661382685569
 31
0.0
  0
LINE
  5
260
330
1E
100
AcDbEntity
  8
0
100
AcDbLine
 10
121.5
 20
28.34661382685569
 30
0.0
 11
121.5
 21
29.1917917788514
 31
0.0
  0
LINE
  5
261
330
1E
100
AcDbEntity
  8
0
100
AcDbLine
 10
121.5
 20
31.0044346641049
 30
0.0
 11
121.5
 21
30.1592567121093
 31
0.0
  0
LINE
  5
262
330
1E
100
AcDbEntity
  8
0
100
AcDbLine
 10
121.5
 20
31.0044346641049
 30
0.0
 11
121.5
 21
29.1917917788514
 31
0.0
  0
LINE
  5
263
330
1E
100
AcDbEntity
  8
0
100
AcDbLine
 10
121.5
 20
31.0044346641049
 30
0.0
 11
123.5
 21
31.0044346641049
 31
0.0
  0
LINE
  5
264
330
1E
100
AcDbEntity
  8
0
100
AcDbLine
 10
121.5
 20
30.1592567121093
 30
0.0
 11
121.5
 21
28.34661382685569
 31
0.0
  0
LINE
  5
265
330
1E
100
AcDbEntity
  8
0
100
AcDbLine
 10
121.5
 20
30.1592567121093
 30
0.0
 11
121.5
 21
31.0044346641049
 31
0.0
  0
LINE
  5
266
330
1E
100
AcDbEntity
  8
0
100
AcDbLine
 10
123.5
 20
31.0044346641049
 30
0.0
 11
123.5
 21
29.1917917788514
 31
0.0
  0
LINE
  5
267
330
1E
100
AcDbEntity
  8
0
100
AcDbLine
 10
123.5
 20
29.1917917788514
 30
0.0
 11
123.5
 21
28.34661382685569
 31
0.0
  0
LINE
  5
268
330
1E
100
AcDbEntity
  8
0
100
AcDbLine
 10
123.5
 20
29.1917917788514
 30
0.0
 11
123.5
 21
31.0044346641049
 31
0.0
  0
LINE
  5
269
330
1E
100
AcDbEntity
  8
0
100
AcDbLine
 10
123.5
 20
34.6854484668232
 30
0.0
 11
123.5
 21
35.53062641881879
 31
0.0
  0
LINE
  5
26A
330
1E
100
AcDbEntity
  8
0
100
AcDbLine
 10
121.5
 20
35.53062641881879
 30
0.0
 11
121.5
 21
37.3432693040724
 31
0.0
  0
LINE
  5
26B
330
1E
100
AcDbEntity
  8
0
100
AcDbLine
 10
121.5
 20
35.53062641881879
 30
0.0
 11
121.5
 21
34.6854484668232
 31
0.0
  0
LINE
  5
26C
330
1E
100
AcDbEntity
  8
0
100
AcDbLine
 10
121.5
 20
35.53062641881879
 30
0.0
 11
123.5
 21
35.53062641881879
 31
0.0
  0
LINE
  5
26D
330
1E
100
AcDbEntity
  8
0
100
AcDbLine
 10
121.5
 20
34.6854484668232
 30
0.0
 11
121.5
 21
36.4980913520768
 31
0.0
  0
LINE
  5
26E
330
1E
100
AcDbEntity
  8
0
100
AcDbLine
 10
121.5
 20
34.6854484668232
 30
0.0
 11
123.5
 21
34.6854484668232
 31
0.0
  0
LINE
  5
26F
330
1E
100
AcDbEntity
  8
0
100
AcDbLine
 10
121.5
 20
34.6854484668232
 30
0.0
 11
121.5
 21
35.53062641881879
 31
0.0
  0
LINE
  5
270
330
1E
100
AcDbEntity
  8
0
100
AcDbLine
 10
123.5
 20
35.53062641881879
 30
0.0
 11
123.5
 21
34.6854484668232
 31
0.0
  0
LINE
  5
271
330
1E
100
AcDbEntity
  8
0
100
AcDbLine
 10
123.5
 20
35.53062641881879
 30
0.0
 11
123.5
 21
37.3432693040724
 31
0.0
  0
LINE
  5
272
330
1E
100
AcDbEntity
  8
0
100
AcDbLine
 10
114.925
 20
35.896588472033
 30
0.0
 11
114.925
 21
37.7092313572866
 31
0.0
  0
LINE
  5
273
330
1E
100
AcDbEntity
  8
0
100
AcDbLine
 10
114.407
 20
35.08014657040519
 30
0.0
 11
114.925
 21
35.896588472033
 31
0.0
  0
LINE
  5
274
330
1E
100
AcDbEntity
  8
0
100
AcDbLine
 10
112.9929999999999
 20
36.11506697262389
 30
0.0
 11
112.9929999999999
 21
37.92770985787739
 31
0.0
  0
LINE
  5
275
330
1E
100
AcDbEntity
  8
0
100
AcDbLine
 10
112.9929999999999
 20
36.11506697262389
 30
0.0
 11
114.925
 21
35.896588472033
 31
0.0
  0
LINE
  5
276
330
1E
100
AcDbEntity
  8
0
100
AcDbLine
 10
130.0749999999999
 20
35.896588472033
 30
0.0
 11
130.5929999999999
 21
35.08014657040519
 31
0.0
  0
LINE
  5
277
330
1E
100
AcDbEntity
  8
0
100
AcDbLine
 10
130.0749999999999
 20
35.896588472033
 30
0.0
 11
130.0749999999999
 21
37.7092313572866
 31
0.0
  0
LINE
  5
278
330
1E
100
AcDbEntity
  8
0
100
AcDbLine
 10
130.0749999999999
 20
35.896588472033
 30
0.0
 11
132.007
 21
36.11506697262389
 31
0.0
  0
LINE
  5
279
330
1E
100
AcDbEntity
  8
0
100
AcDbLine
 10
130.5929999999999
 20
35.08014657040519
 30
0.0
 11
132.525
 21
35.2986250709961
 31
0.0
  0
LINE
  5
27A
330
1E
100
AcDbEntity
  8
0
100
AcDbLine
 10
105.1339999999999
 20
37.61018676970421
 30
0.0
 11
105.1339999999999
 21
39.42282965495779
 31
0.0
  0
LINE
  5
27B
330
1E
100
AcDbEntity
  8
0
100
AcDbLine
 10
105.1339999999999
 20
37.61018676970421
 30
0.0
 11
106.8659999999999
 21
37.18759779370639
 31
0.0
  0
LINE
  5
27C
330
1E
100
AcDbEntity
  8
0
100
AcDbLine
 10
121.5
 20
36.4980913520768
 30
0.0
 11
121.5
 21
34.6854484668232
 31
0.0
  0
LINE
  5
27D
330
1E
100
AcDbEntity
  8
0
100
AcDbLine
 10
121.5
 20
36.4980913520768
 30
0.0
 11
121.5
 21
37.3432693040724
 31
0.0
  0
LINE
  5
27E
330
1E
100
AcDbEntity
  8
0
100
AcDbLine
 10
112.4749999999999
 20
37.11126795624959
 30
0.0
 11
112.4749999999999
 21
35.2986250709961
 31
0.0
  0
LINE
  5
27F
330
1E
100
AcDbEntity
  8
0
100
AcDbLine
 10
112.4749999999999
 20
37.11126795624959
 30
0.0
 11
112.9929999999999
 21
37.92770985787739
 31
0.0
  0
LINE
  5
280
330
1E
100
AcDbEntity
  8
0
100
AcDbLine
 10
121.5
 20
37.3432693040724
 30
0.0
 11
121.5
 21
36.4980913520768
 31
0.0
  0
LINE
  5
281
330
1E
100
AcDbEntity
  8
0
100
AcDbLine
 10
121.5
 20
37.3432693040724
 30
0.0
 11
121.5
 21
35.53062641881879
 31
0.0
  0
LINE
  5
282
330
1E
100
AcDbEntity
  8
0
100
AcDbLine
 10
121.5
 20
37.3432693040724
 30
0.0
 11
123.5
 21
37.3432693040724
 31
0.0
  0
LINE
  5
283
330
1E
100
AcDbEntity
  8
0
100
AcDbLine
 10
123.5
 20
37.3432693040724
 30
0.0
 11
123.5
 21
35.53062641881879
 31
0.0
  0
LINE
  5
284
330
1E
100
AcDbEntity
  8
0
100
AcDbLine
 10
114.925
 20
37.7092313572866
 30
0.0
 11
114.925
 21
35.896588472033
 31
0.0
  0
LINE
  5
285
330
1E
100
AcDbEntity
  8
0
100
AcDbLine
 10
106.8659999999999
 20
37.18759779370639
 30
0.0
 11
106.8659999999999
 21
39.00024067895989
 31
0.0
  0
LINE
  5
286
330
1E
100
AcDbEntity
  8
0
100
AcDbLine
 10
105.8659999999999
 20
36.4556736872781
 30
0.0
 11
106.8659999999999
 21
37.18759779370639
 31
0.0
  0
LINE
  5
287
330
1E
100
AcDbEntity
  8
0
100
AcDbLine
 10
112.9929999999999
 20
37.92770985787739
 30
0.0
 11
112.9929999999999
 21
36.11506697262389
 31
0.0
  0
LINE
  5
288
330
1E
100
AcDbEntity
  8
0
100
AcDbLine
 10
112.9929999999999
 20
37.92770985787739
 30
0.0
 11
114.925
 21
37.7092313572866
 31
0.0
  0
LINE
  5
289
330
1E
100
AcDbEntity
  8
0
100
AcDbLine
 10
106.8659999999999
 20
39.00024067895989
 30
0.0
 11
106.8659999999999
 21
37.18759779370639
 31
0.0
  0
LINE
  5
28A
330
1E
100
AcDbEntity
  8
0
100
AcDbLine
 10
130.0749999999999
 20
37.7092313572866
 30
0.0
 11
130.0749999999999
 21
35.896588472033
 31
0.0
  0
LINE
  5
28B
330
1E
100
AcDbEntity
  8
0
100
AcDbLine
 10
130.0749999999999
 20
37.7092313572866
 30
0.0
 11
132.007
 21
37.92770985787739
 31
0.0
  0
LINE
  5
28C
330
1E
100
AcDbEntity
  8
0
100
AcDbLine
 10
132.525
 20
37.11126795624959
 30
0.0
 11
132.525
 21
35.2986250709961
 31
0.0
  0
LINE
  5
28D
330
1E
100
AcDbEntity
  8
0
100
AcDbLine
 10
132.007
 20
37.92770985787739
 30
0.0
 11
132.007
 21
36.11506697262389
 31
0.0
  0
LINE
  5
28E
330
1E
100
AcDbEntity
  8
0
100
AcDbLine
 10
132.007
 20
37.92770985787739
 30
0.0
 11
132.525
 21
37.11126795624959
 31
0.0
  0
LINE
  5
28F
330
1E
100
AcDbEntity
  8
0
100
AcDbLine
 10
132.007
 20
36.11506697262389
 30
0.0
 11
132.525
 21
35.2986250709961
 31
0.0
  0
LINE
  5
290
330
1E
100
AcDbEntity
  8
0
100
AcDbLine
 10
132.007
 20
36.11506697262389
 30
0.0
 11
132.007
 21
37.92770985787739
 31
0.0
  0
LINE
  5
291
330
1E
100
AcDbEntity
  8
0
100
AcDbLine
 10
137.84
 20
25.4634480108214
 30
0.0
 11
137.84
 21
23.65080512556779
 31
0.0
  0
LINE
  5
292
330
1E
100
AcDbEntity
  8
0
100
AcDbLine
 10
137.84
 20
25.4634480108214
 30
0.0
 11
139.772
 21
25.6819265114122
 31
0.0
  0
LINE
  5
293
330
1E
100
AcDbEntity
  8
0
100
AcDbLine
 10
137.84
 20
23.65080512556779
 30
0.0
 11
138.3569999999999
 21
22.83436322394
 31
0.0
  0
LINE
  5
294
330
1E
100
AcDbEntity
  8
0
100
AcDbLine
 10
137.84
 20
23.65080512556779
 30
0.0
 11
137.84
 21
25.4634480108214
 31
0.0
  0
LINE
  5
295
330
1E
100
AcDbEntity
  8
0
100
AcDbLine
 10
137.84
 20
23.65080512556779
 30
0.0
 11
139.772
 21
23.8692836261587
 31
0.0
  0
LINE
  5
296
330
1E
100
AcDbEntity
  8
0
100
AcDbLine
 10
134.4749999999999
 20
28.9572548971726
 30
0.0
 11
136.407
 21
29.17615598673939
 31
0.0
  0
LINE
  5
297
330
1E
100
AcDbEntity
  8
0
100
AcDbLine
 10
133.9569999999999
 20
31.58633968405399
 30
0.0
 11
133.9569999999999
 21
29.77369679880039
 31
0.0
  0
LINE
  5
298
330
1E
100
AcDbEntity
  8
0
100
AcDbLine
 10
133.9569999999999
 20
31.58633968405399
 30
0.0
 11
135.889
 21
31.8048181846448
 31
0.0
  0
LINE
  5
299
330
1E
100
AcDbEntity
  8
0
100
AcDbLine
 10
133.9569999999999
 20
29.77369679880039
 30
0.0
 11
134.4749999999999
 21
28.9572548971726
 31
0.0
  0
LINE
  5
29A
330
1E
100
AcDbEntity
  8
0
100
AcDbLine
 10
133.9569999999999
 20
29.77369679880039
 30
0.0
 11
133.9569999999999
 21
31.58633968405399
 31
0.0
  0
LINE
  5
29B
330
1E
100
AcDbEntity
  8
0
100
AcDbLine
 10
133.9569999999999
 20
29.77369679880039
 30
0.0
 11
135.889
 21
29.9921752993913
 31
0.0
  0
LINE
  5
29C
330
1E
100
AcDbEntity
  8
0
100
AcDbLine
 10
135.889
 20
31.8048181846448
 30
0.0
 11
135.889
 21
29.9921752993913
 31
0.0
  0
LINE
  5
29D
330
1E
100
AcDbEntity
  8
0
100
AcDbLine
 10
135.889
 20
31.8048181846448
 30
0.0
 11
136.407
 21
30.98879887199299
 31
0.0
  0
LINE
  5
29E
330
1E
100
AcDbEntity
  8
0
100
AcDbLine
 10
136.407
 20
30.98879887199299
 30
0.0
 11
136.407
 21
29.17615598673939
 31
0.0
  0
LINE
  5
29F
330
1E
100
AcDbEntity
  8
0
100
AcDbLine
 10
135.889
 20
29.9921752993913
 30
0.0
 11
136.407
 21
29.17615598673939
 31
0.0
  0
LINE
  5
2A0
330
1E
100
AcDbEntity
  8
0
100
AcDbLine
 10
135.889
 20
29.9921752993913
 30
0.0
 11
135.889
 21
31.8048181846448
 31
0.0
  0
LINE
  5
2A1
330
1E
100
AcDbEntity
  8
0
100
AcDbLine
 10
136.407
 20
29.17615598673939
 30
0.0
 11
136.407
 21
30.98879887199299
 31
0.0
  0
LINE
  5
2A2
330
1E
100
AcDbEntity
  8
0
100
AcDbLine
 10
132.525
 20
35.2986250709961
 30
0.0
 11
132.525
 21
37.11126795624959
 31
0.0
  0
LINE
  5
2A3
330
1E
100
AcDbEntity
  8
0
100
AcDbLine
 10
116.3579999999999
 20
41.4215167442286
 30
0.0
 11
116.3579999999999
 21
43.2341596294822
 31
0.0
  0
LINE
  5
2A4
330
1E
100
AcDbEntity
  8
0
100
AcDbLine
 10
116.3579999999999
 20
41.4215167442286
 30
0.0
 11
118.29
 21
41.20303824363779
 31
0.0
  0
LINE
  5
2A5
330
1E
100
AcDbEntity
  8
0
100
AcDbLine
 10
116.3579999999999
 20
41.4215167442286
 30
0.0
 11
116.8749999999999
 21
42.2379586458564
 31
0.0
  0
LINE
  5
2A6
330
1E
100
AcDbEntity
  8
0
100
AcDbLine
 10
121.5
 20
41.8694610587863
 30
0.0
 11
121.5
 21
43.68210394403989
 31
0.0
  0
LINE
  5
2A7
330
1E
100
AcDbEntity
  8
0
100
AcDbLine
 10
121.5
 20
41.8694610587863
 30
0.0
 11
121.5
 21
41.0242831067907
 31
0.0
  0
LINE
  5
2A8
330
1E
100
AcDbEntity
  8
0
100
AcDbLine
 10
121.5
 20
41.8694610587863
 30
0.0
 11
123.5
 21
41.8694610587863
 31
0.0
  0
LINE
  5
2A9
330
1E
100
AcDbEntity
  8
0
100
AcDbLine
 10
123.5
 20
41.0242831067907
 30
0.0
 11
123.5
 21
41.8694610587863
 31
0.0
  0
LINE
  5
2AA
330
1E
100
AcDbEntity
  8
0
100
AcDbLine
 10
121.5
 20
41.0242831067907
 30
0.0
 11
121.5
 21
42.83692599204429
 31
0.0
  0
LINE
  5
2AB
330
1E
100
AcDbEntity
  8
0
100
AcDbLine
 10
121.5
 20
41.0242831067907
 30
0.0
 11
123.5
 21
41.0242831067907
 31
0.0
  0
LINE
  5
2AC
330
1E
100
AcDbEntity
  8
0
100
AcDbLine
 10
121.5
 20
41.0242831067907
 30
0.0
 11
121.5
 21
41.8694610587863
 31
0.0
  0
LINE
  5
2AD
330
1E
100
AcDbEntity
  8
0
100
AcDbLine
 10
123.5
 20
41.8694610587863
 30
0.0
 11
123.5
 21
41.0242831067907
 31
0.0
  0
LINE
  5
2AE
330
1E
100
AcDbEntity
  8
0
100
AcDbLine
 10
123.5
 20
41.8694610587863
 30
0.0
 11
123.5
 21
43.68210394403989
 31
0.0
  0
LINE
  5
2AF
330
1E
100
AcDbEntity
  8
0
100
AcDbLine
 10
118.29
 20
41.20303824363779
 30
0.0
 11
118.8069999999999
 21
42.0194801452656
 31
0.0
  0
LINE
  5
2B0
330
1E
100
AcDbEntity
  8
0
100
AcDbLine
 10
118.8069999999999
 20
42.0194801452656
 30
0.0
 11
118.8069999999999
 21
43.83212303051911
 31
0.0
  0
LINE
  5
2B1
330
1E
100
AcDbEntity
  8
0
100
AcDbLine
 10
113.366
 20
41.9451044854899
 30
0.0
 11
114.366
 21
42.6774511808942
 31
0.0
  0
LINE
  5
2B2
330
1E
100
AcDbEntity
  8
0
100
AcDbLine
 10
105.1339999999999
 20
39.42282965495779
 30
0.0
 11
105.1339999999999
 21
37.61018676970421
 31
0.0
  0
LINE
  5
2B3
330
1E
100
AcDbEntity
  8
0
100
AcDbLine
 10
105.1339999999999
 20
39.42282965495779
 30
0.0
 11
106.8659999999999
 21
39.00024067895989
 31
0.0
  0
LINE
  5
2B4
330
1E
100
AcDbEntity
  8
0
100
AcDbLine
 10
116.8749999999999
 20
42.2379586458564
 30
0.0
 11
116.8749999999999
 21
44.05060153111
 31
0.0
  0
LINE
  5
2B5
330
1E
100
AcDbEntity
  8
0
100
AcDbLine
 10
116.8749999999999
 20
42.2379586458564
 30
0.0
 11
118.8069999999999
 21
42.0194801452656
 31
0.0
  0
LINE
  5
2B6
330
1E
100
AcDbEntity
  8
0
100
AcDbLine
 10
126.1929999999999
 20
42.0194801452656
 30
0.0
 11
126.7099999999999
 21
41.20303824363779
 31
0.0
  0
LINE
  5
2B7
330
1E
100
AcDbEntity
  8
0
100
AcDbLine
 10
126.1929999999999
 20
42.0194801452656
 30
0.0
 11
126.1929999999999
 21
43.83212303051911
 31
0.0
  0
LINE
  5
2B8
330
1E
100
AcDbEntity
  8
0
100
AcDbLine
 10
126.1929999999999
 20
42.0194801452656
 30
0.0
 11
128.125
 21
42.2379586458564
 31
0.0
  0
LINE
  5
2B9
330
1E
100
AcDbEntity
  8
0
100
AcDbLine
 10
126.7099999999999
 20
41.20303824363779
 30
0.0
 11
128.6419999999999
 21
41.4215167442286
 31
0.0
  0
LINE
  5
2BA
330
1E
100
AcDbEntity
  8
0
100
AcDbLine
 10
114.366
 20
42.6774511808942
 30
0.0
 11
114.366
 21
44.4900940661478
 31
0.0
  0
LINE
  5
2BB
330
1E
100
AcDbEntity
  8
0
100
AcDbLine
 10
111.634
 20
42.36769346148779
 30
0.0
 11
111.634
 21
44.1803363467414
 31
0.0
  0
LINE
  5
2BC
330
1E
100
AcDbEntity
  8
0
100
AcDbLine
 10
111.634
 20
42.36769346148779
 30
0.0
 11
113.366
 21
41.9451044854899
 31
0.0
  0
LINE
  5
2BD
330
1E
100
AcDbEntity
  8
0
100
AcDbLine
 10
111.634
 20
42.36769346148779
 30
0.0
 11
112.634
 21
43.10004015689201
 31
0.0
  0
LINE
  5
2BE
330
1E
100
AcDbEntity
  8
0
100
AcDbLine
 10
128.125
 20
42.2379586458564
 30
0.0
 11
128.6419999999999
 21
41.4215167442286
 31
0.0
  0
LINE
  5
2BF
330
1E
100
AcDbEntity
  8
0
100
AcDbLine
 10
128.125
 20
42.2379586458564
 30
0.0
 11
128.125
 21
44.05060153111
 31
0.0
  0
LINE
  5
2C0
330
1E
100
AcDbEntity
  8
0
100
AcDbLine
 10
128.6419999999999
 20
41.4215167442286
 30
0.0
 11
128.6419999999999
 21
43.2341596294822
 31
0.0
  0
LINE
  5
2C1
330
1E
100
AcDbEntity
  8
0
100
AcDbLine
 10
121.5
 20
42.83692599204429
 30
0.0
 11
121.5
 21
41.0242831067907
 31
0.0
  0
LINE
  5
2C2
330
1E
100
AcDbEntity
  8
0
100
AcDbLine
 10
121.5
 20
42.83692599204429
 30
0.0
 11
121.5
 21
43.68210394403989
 31
0.0
  0
LINE
  5
2C3
330
1E
100
AcDbEntity
  8
0
100
AcDbLine
 10
112.634
 20
43.10004015689201
 30
0.0
 11
112.634
 21
44.9126830421456
 31
0.0
  0
LINE
  5
2C4
330
1E
100
AcDbEntity
  8
0
100
AcDbLine
 10
112.634
 20
43.10004015689201
 30
0.0
 11
114.366
 21
42.6774511808942
 31
0.0
  0
LINE
  5
2C5
330
1E
100
AcDbEntity
  8
0
100
AcDbLine
 10
130.6339999999999
 20
42.6774511808942
 30
0.0
 11
131.6339999999999
 21
41.9451044854899
 31
0.0
  0
LINE
  5
2C6
330
1E
100
AcDbEntity
  8
0
100
AcDbLine
 10
130.6339999999999
 20
42.6774511808942
 30
0.0
 11
130.6339999999999
 21
44.4900940661478
 31
0.0
  0
LINE
  5
2C7
330
1E
100
AcDbEntity
  8
0
100
AcDbLine
 10
130.6339999999999
 20
42.6774511808942
 30
0.0
 11
132.366
 21
43.10004015689201
 31
0.0
  0
LINE
  5
2C8
330
1E
100
AcDbEntity
  8
0
100
AcDbLine
 10
131.6339999999999
 20
41.9451044854899
 30
0.0
 11
133.366
 21
42.36769346148779
 31
0.0
  0
LINE
  5
2C9
330
1E
100
AcDbEntity
  8
0
100
AcDbLine
 10
109.0649999999999
 20
43.2010389221555
 30
0.0
 11
110.4789999999999
 21
43.79857973421639
 31
0.0
  0
LINE
  5
2CA
330
1E
100
AcDbEntity
  8
0
100
AcDbLine
 10
110.4789999999999
 20
43.79857973421639
 30
0.0
 11
110.4789999999999
 21
45.61122261947001
 31
0.0
  0
LINE
  5
2CB
330
1E
100
AcDbEntity
  8
0
100
AcDbLine
 10
107.651
 20
43.79857973421639
 30
0.0
 11
107.651
 21
45.61122261947001
 31
0.0
  0
LINE
  5
2CC
330
1E
100
AcDbEntity
  8
0
100
AcDbLine
 10
107.651
 20
43.79857973421639
 30
0.0
 11
109.0649999999999
 21
43.2010389221555
 31
0.0
  0
LINE
  5
2CD
330
1E
100
AcDbEntity
  8
0
100
AcDbLine
 10
107.651
 20
43.79857973421639
 30
0.0
 11
109.0649999999999
 21
44.3961205462774
 31
0.0
  0
LINE
  5
2CE
330
1E
100
AcDbEntity
  8
0
100
AcDbLine
 10
116.3579999999999
 20
43.2341596294822
 30
0.0
 11
116.3579999999999
 21
41.4215167442286
 31
0.0
  0
LINE
  5
2CF
330
1E
100
AcDbEntity
  8
0
100
AcDbLine
 10
116.3579999999999
 20
43.2341596294822
 30
0.0
 11
116.8749999999999
 21
44.05060153111
 31
0.0
  0
LINE
  5
2D0
330
1E
100
AcDbEntity
  8
0
100
AcDbLine
 10
121.5
 20
43.68210394403989
 30
0.0
 11
121.5
 21
42.83692599204429
 31
0.0
  0
LINE
  5
2D1
330
1E
100
AcDbEntity
  8
0
100
AcDbLine
 10
121.5
 20
43.68210394403989
 30
0.0
 11
121.5
 21
41.8694610587863
 31
0.0
  0
LINE
  5
2D2
330
1E
100
AcDbEntity
  8
0
100
AcDbLine
 10
121.5
 20
43.68210394403989
 30
0.0
 11
123.5
 21
43.68210394403989
 31
0.0
  0
LINE
  5
2D3
330
1E
100
AcDbEntity
  8
0
100
AcDbLine
 10
123.5
 20
43.68210394403989
 30
0.0
 11
123.5
 21
41.8694610587863
 31
0.0
  0
LINE
  5
2D4
330
1E
100
AcDbEntity
  8
0
100
AcDbLine
 10
118.8069999999999
 20
43.83212303051911
 30
0.0
 11
118.8069999999999
 21
42.0194801452656
 31
0.0
  0
LINE
  5
2D5
330
1E
100
AcDbEntity
  8
0
100
AcDbLine
 10
109.0649999999999
 20
44.3961205462774
 30
0.0
 11
109.0649999999999
 21
46.20876343153089
 31
0.0
  0
LINE
  5
2D6
330
1E
100
AcDbEntity
  8
0
100
AcDbLine
 10
109.0649999999999
 20
44.3961205462774
 30
0.0
 11
110.4789999999999
 21
43.79857973421639
 31
0.0
  0
LINE
  5
2D7
330
1E
100
AcDbEntity
  8
0
100
AcDbLine
 10
111.634
 20
44.1803363467414
 30
0.0
 11
111.634
 21
42.36769346148779
 31
0.0
  0
LINE
  5
2D8
330
1E
100
AcDbEntity
  8
0
100
AcDbLine
 10
111.634
 20
44.1803363467414
 30
0.0
 11
112.634
 21
44.9126830421456
 31
0.0
  0
LINE
  5
2D9
330
1E
100
AcDbEntity
  8
0
100
AcDbLine
 10
116.8749999999999
 20
44.05060153111
 30
0.0
 11
116.8749999999999
 21
42.2379586458564
 31
0.0
  0
LINE
  5
2DA
330
1E
100
AcDbEntity
  8
0
100
AcDbLine
 10
116.8749999999999
 20
44.05060153111
 30
0.0
 11
118.8069999999999
 21
43.83212303051911
 31
0.0
  0
LINE
  5
2DB
330
1E
100
AcDbEntity
  8
0
100
AcDbLine
 10
114.366
 20
44.4900940661478
 30
0.0
 11
114.366
 21
42.6774511808942
 31
0.0
  0
LINE
  5
2DC
330
1E
100
AcDbEntity
  8
0
100
AcDbLine
 10
126.1929999999999
 20
43.83212303051911
 30
0.0
 11
126.1929999999999
 21
42.0194801452656
 31
0.0
  0
LINE
  5
2DD
330
1E
100
AcDbEntity
  8
0
100
AcDbLine
 10
126.1929999999999
 20
43.83212303051911
 30
0.0
 11
128.125
 21
44.05060153111
 31
0.0
  0
LINE
  5
2DE
330
1E
100
AcDbEntity
  8
0
100
AcDbLine
 10
128.6419999999999
 20
43.2341596294822
 30
0.0
 11
128.6419999999999
 21
41.4215167442286
 31
0.0
  0
LINE
  5
2DF
330
1E
100
AcDbEntity
  8
0
100
AcDbLine
 10
128.125
 20
44.05060153111
 30
0.0
 11
128.125
 21
42.2379586458564
 31
0.0
  0
LINE
  5
2E0
330
1E
100
AcDbEntity
  8
0
100
AcDbLine
 10
128.125
 20
44.05060153111
 30
0.0
 11
128.6419999999999
 21
43.2341596294822
 31
0.0
  0
LINE
  5
2E1
330
1E
100
AcDbEntity
  8
0
100
AcDbLine
 10
107.412
 20
45.3067997895527
 30
0.0
 11
107.412
 21
47.1194426748063
 31
0.0
  0
LINE
  5
2E2
330
1E
100
AcDbEntity
  8
0
100
AcDbLine
 10
105.679
 20
44.88421081355489
 30
0.0
 11
107.412
 21
45.3067997895527
 31
0.0
  0
LINE
  5
2E3
330
1E
100
AcDbEntity
  8
0
100
AcDbLine
 10
112.634
 20
44.9126830421456
 30
0.0
 11
112.634
 21
43.10004015689201
 31
0.0
  0
LINE
  5
2E4
330
1E
100
AcDbEntity
  8
0
100
AcDbLine
 10
112.634
 20
44.9126830421456
 30
0.0
 11
114.366
 21
44.4900940661478
 31
0.0
  0
LINE
  5
2E5
330
1E
100
AcDbEntity
  8
0
100
AcDbLine
 10
130.6339999999999
 20
44.4900940661478
 30
0.0
 11
130.6339999999999
 21
42.6774511808942
 31
0.0
  0
LINE
  5
2E6
330
1E
100
AcDbEntity
  8
0
100
AcDbLine
 10
130.6339999999999
 20
44.4900940661478
 30
0.0
 11
132.366
 21
44.9126830421456
 31
0.0
  0
LINE
  5
2E7
330
1E
100
AcDbEntity
  8
0
100
AcDbLine
 10
133.366
 20
44.1803363467414
 30
0.0
 11
133.366
 21
42.36769346148779
 31
0.0
  0
LINE
  5
2E8
330
1E
100
AcDbEntity
  8
0
100
AcDbLine
 10
132.366
 20
44.9126830421456
 30
0.0
 11
132.366
 21
43.10004015689201
 31
0.0
  0
LINE
  5
2E9
330
1E
100
AcDbEntity
  8
0
100
AcDbLine
 10
132.366
 20
44.9126830421456
 30
0.0
 11
133.366
 21
44.1803363467414
 31
0.0
  0
LINE
  5
2EA
330
1E
100
AcDbEntity
  8
0
100
AcDbLine
 10
132.366
 20
43.10004015689201
 30
0.0
 11
133.366
 21
42.36769346148779
 31
0.0
  0
LINE
  5
2EB
330
1E
100
AcDbEntity
  8
0
100
AcDbLine
 10
132.366
 20
43.10004015689201
 30
0.0
 11
132.366
 21
44.9126830421456
 31
0.0
  0
LINE
  5
2EC
330
1E
100
AcDbEntity
  8
0
100
AcDbLine
 10
134.521
 20
43.79857973421639
 30
0.0
 11
134.521
 21
45.61122261947001
 31
0.0
  0
LINE
  5
2ED
330
1E
100
AcDbEntity
  8
0
100
AcDbLine
 10
134.521
 20
43.79857973421639
 30
0.0
 11
135.935
 21
43.2010389221555
 31
0.0
  0
LINE
  5
2EE
330
1E
100
AcDbEntity
  8
0
100
AcDbLine
 10
134.521
 20
43.79857973421639
 30
0.0
 11
135.935
 21
44.3961205462774
 31
0.0
  0
LINE
  5
2EF
330
1E
100
AcDbEntity
  8
0
100
AcDbLine
 10
135.935
 20
43.2010389221555
 30
0.0
 11
137.3489999999999
 21
43.79857973421639
 31
0.0
  0
LINE
  5
2F0
330
1E
100
AcDbEntity
  8
0
100
AcDbLine
 10
137.3489999999999
 20
43.79857973421639
 30
0.0
 11
137.3489999999999
 21
45.61122261947001
 31
0.0
  0
LINE
  5
2F1
330
1E
100
AcDbEntity
  8
0
100
AcDbLine
 10
135.935
 20
44.3961205462774
 30
0.0
 11
137.3489999999999
 21
43.79857973421639
 31
0.0
  0
LINE
  5
2F2
330
1E
100
AcDbEntity
  8
0
100
AcDbLine
 10
135.935
 20
44.3961205462774
 30
0.0
 11
135.935
 21
46.20876343153089
 31
0.0
  0
LINE
  5
2F3
330
1E
100
AcDbEntity
  8
0
100
AcDbLine
 10
133.366
 20
42.36769346148779
 30
0.0
 11
133.366
 21
44.1803363467414
 31
0.0
  0
LINE
  5
2F4
330
1E
100
AcDbEntity
  8
0
100
AcDbLine
 10
138.1339999999999
 20
39.00024067895989
 30
0.0
 11
138.1339999999999
 21
37.18759779370639
 31
0.0
  0
LINE
  5
2F5
330
1E
100
AcDbEntity
  8
0
100
AcDbLine
 10
138.1339999999999
 20
39.00024067895989
 30
0.0
 11
139.866
 21
39.42282965495779
 31
0.0
  0
LINE
  5
2F6
330
1E
100
AcDbEntity
  8
0
100
AcDbLine
 10
138.3569999999999
 20
22.83436322394
 30
0.0
 11
140.289
 21
23.0532643135068
 31
0.0
  0
LINE
  5
2F7
330
1E
100
AcDbEntity
  8
0
100
AcDbLine
 10
138.1339999999999
 20
37.18759779370639
 30
0.0
 11
139.1339999999999
 21
36.4556736872781
 31
0.0
  0
LINE
  5
2F8
330
1E
100
AcDbEntity
  8
0
100
AcDbLine
 10
138.1339999999999
 20
37.18759779370639
 30
0.0
 11
138.1339999999999
 21
39.00024067895989
 31
0.0
  0
LINE
  5
2F9
330
1E
100
AcDbEntity
  8
0
100
AcDbLine
 10
138.1339999999999
 20
37.18759779370639
 30
0.0
 11
139.866
 21
37.61018676970421
 31
0.0
  0
LINE
  5
2FA
330
1E
100
AcDbEntity
  8
0
100
AcDbLine
 10
107.651
 20
45.61122261947001
 30
0.0
 11
107.651
 21
43.79857973421639
 31
0.0
  0
LINE
  5
2FB
330
1E
100
AcDbEntity
  8
0
100
AcDbLine
 10
107.651
 20
45.61122261947001
 30
0.0
 11
109.0649999999999
 21
46.20876343153089
 31
0.0
  0
LINE
  5
2FC
330
1E
100
AcDbEntity
  8
0
100
AcDbLine
 10
110.4789999999999
 20
45.61122261947001
 30
0.0
 11
110.4789999999999
 21
43.79857973421639
 31
0.0
  0
LINE
  5
2FD
330
1E
100
AcDbEntity
  8
0
100
AcDbLine
 10
109.0649999999999
 20
46.20876343153089
 30
0.0
 11
109.0649999999999
 21
44.3961205462774
 31
0.0
  0
LINE
  5
2FE
330
1E
100
AcDbEntity
  8
0
100
AcDbLine
 10
109.0649999999999
 20
46.20876343153089
 30
0.0
 11
110.4789999999999
 21
45.61122261947001
 31
0.0
  0
LINE
  5
2FF
330
1E
100
AcDbEntity
  8
0
100
AcDbLine
 10
106.412
 20
46.038723895981
 30
0.0
 11
106.412
 21
47.8513667812345
 31
0.0
  0
LINE
  5
300
330
1E
100
AcDbEntity
  8
0
100
AcDbLine
 10
106.412
 20
46.038723895981
 30
0.0
 11
107.412
 21
45.3067997895527
 31
0.0
  0
LINE
  5
301
330
1E
100
AcDbEntity
  8
0
100
AcDbLine
 10
104.679
 20
45.6161349199831
 30
0.0
 11
105.679
 21
44.88421081355489
 31
0.0
  0
LINE
  5
302
330
1E
100
AcDbEntity
  8
0
100
AcDbLine
 10
104.679
 20
45.6161349199831
 30
0.0
 11
104.679
 21
47.0206323485041
 31
0.0
  0
LINE
  5
303
330
1E
100
AcDbEntity
  8
0
100
AcDbLine
 10
104.679
 20
45.6161349199831
 30
0.0
 11
106.412
 21
46.038723895981
 31
0.0
  0
LINE
  5
304
330
1E
100
AcDbEntity
  8
0
100
AcDbLine
 10
134.521
 20
45.61122261947001
 30
0.0
 11
134.521
 21
43.79857973421639
 31
0.0
  0
LINE
  5
305
330
1E
100
AcDbEntity
  8
0
100
AcDbLine
 10
134.521
 20
45.61122261947001
 30
0.0
 11
135.935
 21
46.20876343153089
 31
0.0
  0
LINE
  5
306
330
1E
100
AcDbEntity
  8
0
100
AcDbLine
 10
137.3489999999999
 20
45.61122261947001
 30
0.0
 11
137.3489999999999
 21
43.79857973421639
 31
0.0
  0
LINE
  5
307
330
1E
100
AcDbEntity
  8
0
100
AcDbLine
 10
135.935
 20
46.20876343153089
 30
0.0
 11
135.935
 21
44.3961205462774
 31
0.0
  0
LINE
  5
308
330
1E
100
AcDbEntity
  8
0
100
AcDbLine
 10
135.935
 20
46.20876343153089
 30
0.0
 11
137.3489999999999
 21
45.61122261947001
 31
0.0
  0
LINE
  5
309
330
1E
100
AcDbEntity
  8
0
100
AcDbLine
 10
137.5879999999999
 20
45.3067997895527
 30
0.0
 11
137.5879999999999
 21
47.1194426748063
 31
0.0
  0
LINE
  5
30A
330
1E
100
AcDbEntity
  8
0
100
AcDbLine
 10
137.5879999999999
 20
45.3067997895527
 30
0.0
 11
139.321
 21
44.88421081355489
 31
0.0
  0
LINE
  5
30B
330
1E
100
AcDbEntity
  8
0
100
AcDbLine
 10
137.5879999999999
 20
45.3067997895527
 30
0.0
 11
138.588
 21
46.038723895981
 31
0.0
  0
LINE
  5
30C
330
1E
100
AcDbEntity
  8
0
100
AcDbLine
 10
139.1339999999999
 20
36.4556736872781
 30
0.0
 11
140.866
 21
36.8782626632759
 31
0.0
  0
LINE
  5
30D
330
1E
100
AcDbEntity
  8
0
100
AcDbLine
 10
140.289
 20
24.8659071987604
 30
0.0
 11
140.289
 21
23.0532643135068
 31
0.0
  0
LINE
  5
30E
330
1E
100
AcDbEntity
  8
0
100
AcDbLine
 10
139.772
 20
25.6819265114122
 30
0.0
 11
139.772
 21
23.8692836261587
 31
0.0
  0
LINE
  5
30F
330
1E
100
AcDbEntity
  8
0
100
AcDbLine
 10
139.772
 20
25.6819265114122
 30
0.0
 11
140.289
 21
24.8659071987604
 31
0.0
  0
LINE
  5
310
330
1E
100
AcDbEntity
  8
0
100
AcDbLine
 10
139.772
 20
23.8692836261587
 30
0.0
 11
140.289
 21
23.0532643135068
 31
0.0
  0
LINE
  5
311
330
1E
100
AcDbEntity
  8
0
100
AcDbLine
 10
139.772
 20
23.8692836261587
 30
0.0
 11
139.772
 21
25.6819265114122
 31
0.0
  0
LINE
  5
312
330
1E
100
AcDbEntity
  8
0
100
AcDbLine
 10
141.722
 20
19.3405563375888
 30
0.0
 11
141.722
 21
17.5279134523352
 31
0.0
  0
LINE
  5
313
330
1E
100
AcDbEntity
  8
0
100
AcDbLine
 10
141.722
 20
19.3405563375888
 30
0.0
 11
143.6539999999999
 21
19.5594574271556
 31
0.0
  0
LINE
  5
314
330
1E
100
AcDbEntity
  8
0
100
AcDbLine
 10
141.722
 20
17.5279134523352
 30
0.0
 11
142.24
 21
16.7114715507074
 31
0.0
  0
LINE
  5
315
330
1E
100
AcDbEntity
  8
0
100
AcDbLine
 10
141.722
 20
17.5279134523352
 30
0.0
 11
141.722
 21
19.3405563375888
 31
0.0
  0
LINE
  5
316
330
1E
100
AcDbEntity
  8
0
100
AcDbLine
 10
141.722
 20
17.5279134523352
 30
0.0
 11
143.6539999999999
 21
17.7468145419021
 31
0.0
  0
LINE
  5
317
330
1E
100
AcDbEntity
  8
0
100
AcDbLine
 10
140.289
 20
23.0532643135068
 30
0.0
 11
140.289
 21
24.8659071987604
 31
0.0
  0
LINE
  5
318
330
1E
100
AcDbEntity
  8
0
100
AcDbLine
 10
139.866
 20
39.42282965495779
 30
0.0
 11
139.866
 21
37.61018676970421
 31
0.0
  0
LINE
  5
319
330
1E
100
AcDbEntity
  8
0
100
AcDbLine
 10
139.866
 20
39.42282965495779
 30
0.0
 11
140.866
 21
38.6909055485295
 31
0.0
  0
LINE
  5
31A
330
1E
100
AcDbEntity
  8
0
100
AcDbLine
 10
140.866
 20
38.6909055485295
 30
0.0
 11
140.866
 21
36.8782626632759
 31
0.0
  0
LINE
  5
31B
330
1E
100
AcDbEntity
  8
0
100
AcDbLine
 10
139.866
 20
37.61018676970421
 30
0.0
 11
140.866
 21
36.8782626632759
 31
0.0
  0
LINE
  5
31C
330
1E
100
AcDbEntity
  8
0
100
AcDbLine
 10
139.866
 20
37.61018676970421
 30
0.0
 11
139.866
 21
39.42282965495779
 31
0.0
  0
LINE
  5
31D
330
1E
100
AcDbEntity
  8
0
100
AcDbLine
 10
140.866
 20
36.8782626632759
 30
0.0
 11
140.866
 21
38.6909055485295
 31
0.0
  0
LINE
  5
31E
330
1E
100
AcDbEntity
  8
0
100
AcDbLine
 10
139.321
 20
44.88421081355489
 30
0.0
 11
140.321
 21
45.6161349199831
 31
0.0
  0
LINE
  5
31F
330
1E
100
AcDbEntity
  8
0
100
AcDbLine
 10
140.321
 20
45.6161349199831
 30
0.0
 11
140.321
 21
47.0206323485041
 31
0.0
  0
LINE
  5
320
330
1E
100
AcDbEntity
  8
0
100
AcDbLine
 10
138.588
 20
46.038723895981
 30
0.0
 11
140.321
 21
45.6161349199831
 31
0.0
  0
LINE
  5
321
330
1E
100
AcDbEntity
  8
0
100
AcDbLine
 10
138.588
 20
46.038723895981
 30
0.0
 11
138.588
 21
47.8513667812345
 31
0.0
  0
LINE
  5
322
330
1E
100
AcDbEntity
  8
0
100
AcDbLine
 10
105.372
 20
47.0989996367595
 30
0.0
 11
105.372
 21
48.9116425220131
 31
0.0
  0
LINE
  5
323
330
1E
100
AcDbEntity
  8
0
100
AcDbLine
 10
104.679
 20
47.0206323485041
 30
0.0
 11
104.679
 21
45.6161349199831
 31
0.0
  0
LINE
  5
324
330
1E
100
AcDbEntity
  8
0
100
AcDbLine
 10
106.412
 20
47.8513667812345
 30
0.0
 11
106.412
 21
46.038723895981
 31
0.0
  0
LINE
  5
325
330
1E
100
AcDbEntity
  8
0
100
AcDbLine
 10
106.412
 20
47.8513667812345
 30
0.0
 11
107.412
 21
47.1194426748063
 31
0.0
  0
LINE
  5
326
330
1E
100
AcDbEntity
  8
0
100
AcDbLine
 10
105.372
 20
47.59776462599059
 30
0.0
 11
106.412
 21
47.8513667812345
 31
0.0
  0
LINE
  5
327
330
1E
100
AcDbEntity
  8
0
100
AcDbLine
 10
107.412
 20
47.1194426748063
 30
0.0
 11
107.412
 21
45.3067997895527
 31
0.0
  0
LINE
  5
328
330
1E
100
AcDbEntity
  8
0
100
AcDbLine
 10
137.5879999999999
 20
47.1194426748063
 30
0.0
 11
137.5879999999999
 21
45.3067997895527
 31
0.0
  0
LINE
  5
329
330
1E
100
AcDbEntity
  8
0
100
AcDbLine
 10
137.5879999999999
 20
47.1194426748063
 30
0.0
 11
138.588
 21
47.8513667812345
 31
0.0
  0
LINE
  5
32A
330
1E
100
AcDbEntity
  8
0
100
AcDbLine
 10
104.855
 20
47.9154415383873
 30
0.0
 11
104.855
 21
49.7280844236409
 31
0.0
  0
LINE
  5
32B
330
1E
100
AcDbEntity
  8
0
100
AcDbLine
 10
104.855
 20
47.9154415383873
 30
0.0
 11
105.372
 21
47.0989996367595
 31
0.0
  0
LINE
  5
32C
330
1E
100
AcDbEntity
  8
0
100
AcDbLine
 10
138.588
 20
47.8513667812345
 30
0.0
 11
138.588
 21
46.038723895981
 31
0.0
  0
LINE
  5
32D
330
1E
100
AcDbEntity
  8
0
100
AcDbLine
 10
138.588
 20
47.8513667812345
 30
0.0
 11
139.6279999999999
 21
47.59776462599059
 31
0.0
  0
LINE
  5
32E
330
1E
100
AcDbEntity
  8
0
100
AcDbLine
 10
140.321
 20
47.0206323485041
 30
0.0
 11
140.321
 21
45.6161349199831
 31
0.0
  0
LINE
  5
32F
330
1E
100
AcDbEntity
  8
0
100
AcDbLine
 10
139.6279999999999
 20
47.0989996367595
 30
0.0
 11
139.6279999999999
 21
48.9116425220131
 31
0.0
  0
LINE
  5
330
330
1E
100
AcDbEntity
  8
0
100
AcDbLine
 10
139.6279999999999
 20
47.0989996367595
 30
0.0
 11
141.5599999999999
 21
46.8805211361686
 31
0.0
  0
LINE
  5
331
330
1E
100
AcDbEntity
  8
0
100
AcDbLine
 10
139.6279999999999
 20
47.0989996367595
 30
0.0
 11
140.145
 21
47.9154415383873
 31
0.0
  0
LINE
  5
332
330
1E
100
AcDbEntity
  8
0
100
AcDbLine
 10
141.5599999999999
 20
46.8805211361686
 30
0.0
 11
142.077
 21
47.6969630377965
 31
0.0
  0
LINE
  5
333
330
1E
100
AcDbEntity
  8
0
100
AcDbLine
 10
142.24
 20
16.7114715507074
 30
0.0
 11
144.171
 21
16.9303726402743
 31
0.0
  0
LINE
  5
334
330
1E
100
AcDbEntity
  8
0
100
AcDbLine
 10
142.077
 20
47.6969630377965
 30
0.0
 11
142.077
 21
49.0534736507495
 31
0.0
  0
LINE
  5
335
330
1E
100
AcDbEntity
  8
0
100
AcDbLine
 10
105.372
 20
48.9116425220131
 30
0.0
 11
105.372
 21
47.0989996367595
 31
0.0
  0
LINE
  5
336
330
1E
100
AcDbEntity
  8
0
100
AcDbLine
 10
139.6279999999999
 20
48.9116425220131
 30
0.0
 11
139.6279999999999
 21
47.0989996367595
 31
0.0
  0
LINE
  5
337
330
1E
100
AcDbEntity
  8
0
100
AcDbLine
 10
139.6279999999999
 20
48.9116425220131
 30
0.0
 11
140.145
 21
49.7280844236409
 31
0.0
  0
LINE
  5
338
330
1E
100
AcDbEntity
  8
0
100
AcDbLine
 10
142.077
 20
49.0534736507495
 30
0.0
 11
142.077
 21
47.6969630377965
 31
0.0
  0
LINE
  5
339
330
1E
100
AcDbEntity
  8
0
100
AcDbLine
 10
140.145
 20
47.9154415383873
 30
0.0
 11
142.077
 21
47.6969630377965
 31
0.0
  0
LINE
  5
33A
330
1E
100
AcDbEntity
  8
0
100
AcDbLine
 10
140.145
 20
47.9154415383873
 30
0.0
 11
140.145
 21
49.7280844236409
 31
0.0
  0
LINE
  5
33B
330
1E
100
AcDbEntity
  8
0
100
AcDbLine
 10
144.171
 20
18.7430155255278
 30
0.0
 11
144.171
 21
16.9303726402743
 31
0.0
  0
LINE
  5
33C
330
1E
100
AcDbEntity
  8
0
100
AcDbLine
 10
143.6539999999999
 20
19.5594574271556
 30
0.0
 11
143.6539999999999
 21
17.7468145419021
 31
0.0
  0
LINE
  5
33D
330
1E
100
AcDbEntity
  8
0
100
AcDbLine
 10
143.6539999999999
 20
19.5594574271556
 30
0.0
 11
144.171
 21
18.7430155255278
 31
0.0
  0
LINE
  5
33E
330
1E
100
AcDbEntity
  8
0
100
AcDbLine
 10
143.6539999999999
 20
17.7468145419021
 30
0.0
 11
144.171
 21
16.9303726402743
 31
0.0
  0
LINE
  5
33F
330
1E
100
AcDbEntity
  8
0
100
AcDbLine
 10
143.6539999999999
 20
17.7468145419021
 30
0.0
 11
143.6539999999999
 21
19.5594574271556
 31
0.0
  0
LINE
  5
340
330
1E
100
AcDbEntity
  8
0
100
AcDbLine
 10
145.6039999999999
 20
13.21766466435619
 30
0.0
 11
145.6039999999999
 21
11.40502177910259
 31
0.0
  0
LINE
  5
341
330
1E
100
AcDbEntity
  8
0
100
AcDbLine
 10
145.6039999999999
 20
13.21766466435619
 30
0.0
 11
147.536
 21
13.43656575392299
 31
0.0
  0
LINE
  5
342
330
1E
100
AcDbEntity
  8
0
100
AcDbLine
 10
145.6039999999999
 20
11.40502177910259
 30
0.0
 11
146.122
 21
10.58857987747479
 31
0.0
  0
LINE
  5
343
330
1E
100
AcDbEntity
  8
0
100
AcDbLine
 10
145.6039999999999
 20
11.40502177910259
 30
0.0
 11
145.6039999999999
 21
13.21766466435619
 31
0.0
  0
LINE
  5
344
330
1E
100
AcDbEntity
  8
0
100
AcDbLine
 10
145.6039999999999
 20
11.40502177910259
 30
0.0
 11
147.536
 21
11.6239228686695
 31
0.0
  0
LINE
  5
345
330
1E
100
AcDbEntity
  8
0
100
AcDbLine
 10
144.171
 20
16.9303726402743
 30
0.0
 11
144.171
 21
18.7430155255278
 31
0.0
  0
LINE
  5
346
330
1E
100
AcDbEntity
  8
0
100
AcDbLine
 10
145.6339999999999
 20
33.5108098807481
 30
0.0
 11
145.6339999999999
 21
31.6981669954945
 31
0.0
  0
LINE
  5
347
330
1E
100
AcDbEntity
  8
0
100
AcDbLine
 10
145.6339999999999
 20
33.5108098807481
 30
0.0
 11
147.366
 21
33.93339885674589
 31
0.0
  0
LINE
  5
348
330
1E
100
AcDbEntity
  8
0
100
AcDbLine
 10
146.122
 20
10.58857987747479
 30
0.0
 11
148.0539999999999
 21
10.8074809670417
 31
0.0
  0
LINE
  5
349
330
1E
100
AcDbEntity
  8
0
100
AcDbLine
 10
145.6339999999999
 20
31.6981669954945
 30
0.0
 11
146.6339999999999
 21
30.9662428890663
 31
0.0
  0
LINE
  5
34A
330
1E
100
AcDbEntity
  8
0
100
AcDbLine
 10
145.6339999999999
 20
31.6981669954945
 30
0.0
 11
145.6339999999999
 21
33.5108098807481
 31
0.0
  0
LINE
  5
34B
330
1E
100
AcDbEntity
  8
0
100
AcDbLine
 10
145.6339999999999
 20
31.6981669954945
 30
0.0
 11
147.366
 21
32.1207559714923
 31
0.0
  0
LINE
  5
34C
330
1E
100
AcDbEntity
  8
0
100
AcDbLine
 10
145.127
 20
41.128821351061
 30
0.0
 11
145.127
 21
39.31617846580739
 31
0.0
  0
LINE
  5
34D
330
1E
100
AcDbEntity
  8
0
100
AcDbLine
 10
145.127
 20
41.128821351061
 30
0.0
 11
146.5419999999999
 21
41.7267847520979
 31
0.0
  0
LINE
  5
34E
330
1E
100
AcDbEntity
  8
0
100
AcDbLine
 10
145.127
 20
39.31617846580739
 30
0.0
 11
145.127
 21
41.128821351061
 31
0.0
  0
LINE
  5
34F
330
1E
100
AcDbEntity
  8
0
100
AcDbLine
 10
145.127
 20
39.31617846580739
 30
0.0
 11
146.5419999999999
 21
38.7186376537465
 31
0.0
  0
LINE
  5
350
330
1E
100
AcDbEntity
  8
0
100
AcDbLine
 10
145.127
 20
39.31617846580739
 30
0.0
 11
146.5419999999999
 21
39.91414186684439
 31
0.0
  0
LINE
  5
351
330
1E
100
AcDbEntity
  8
0
100
AcDbLine
 10
146.5419999999999
 20
38.7186376537465
 30
0.0
 11
147.956
 21
39.31617846580739
 31
0.0
  0
LINE
  5
352
330
1E
100
AcDbEntity
  8
0
100
AcDbLine
 10
146.5419999999999
 20
41.7267847520979
 30
0.0
 11
146.5419999999999
 21
39.91414186684439
 31
0.0
  0
LINE
  5
353
330
1E
100
AcDbEntity
  8
0
100
AcDbLine
 10
146.5419999999999
 20
41.7267847520979
 30
0.0
 11
147.956
 21
41.128821351061
 31
0.0
  0
LINE
  5
354
330
1E
100
AcDbEntity
  8
0
100
AcDbLine
 10
147.536
 20
13.43656575392299
 30
0.0
 11
147.536
 21
11.6239228686695
 31
0.0
  0
LINE
  5
355
330
1E
100
AcDbEntity
  8
0
100
AcDbLine
 10
147.536
 20
13.43656575392299
 30
0.0
 11
148.0539999999999
 21
12.62012385229519
 31
0.0
  0
LINE
  5
356
330
1E
100
AcDbEntity
  8
0
100
AcDbLine
 10
148.0539999999999
 20
12.62012385229519
 30
0.0
 11
148.0539999999999
 21
10.8074809670417
 31
0.0
  0
LINE
  5
357
330
1E
100
AcDbEntity
  8
0
100
AcDbLine
 10
147.536
 20
11.6239228686695
 30
0.0
 11
148.0539999999999
 21
10.8074809670417
 31
0.0
  0
LINE
  5
358
330
1E
100
AcDbEntity
  8
0
100
AcDbLine
 10
147.536
 20
11.6239228686695
 30
0.0
 11
147.536
 21
13.43656575392299
 31
0.0
  0
LINE
  5
359
330
1E
100
AcDbEntity
  8
0
100
AcDbLine
 10
148.0539999999999
 20
10.8074809670417
 30
0.0
 11
148.0539999999999
 21
12.62012385229519
 31
0.0
  0
LINE
  5
35A
330
1E
100
AcDbEntity
  8
0
100
AcDbLine
 10
146.6339999999999
 20
30.9662428890663
 30
0.0
 11
148.366
 21
31.3888318650641
 31
0.0
  0
LINE
  5
35B
330
1E
100
AcDbEntity
  8
0
100
AcDbLine
 10
148.366
 20
33.2014747503177
 30
0.0
 11
148.366
 21
31.3888318650641
 31
0.0
  0
LINE
  5
35C
330
1E
100
AcDbEntity
  8
0
100
AcDbLine
 10
147.366
 20
33.93339885674589
 30
0.0
 11
147.366
 21
32.1207559714923
 31
0.0
  0
LINE
  5
35D
330
1E
100
AcDbEntity
  8
0
100
AcDbLine
 10
147.366
 20
33.93339885674589
 30
0.0
 11
148.366
 21
33.2014747503177
 31
0.0
  0
LINE
  5
35E
330
1E
100
AcDbEntity
  8
0
100
AcDbLine
 10
147.366
 20
32.1207559714923
 30
0.0
 11
148.366
 21
31.3888318650641
 31
0.0
  0
LINE
  5
35F
330
1E
100
AcDbEntity
  8
0
100
AcDbLine
 10
147.366
 20
32.1207559714923
 30
0.0
 11
147.366
 21
33.93339885674589
 31
0.0
  0
LINE
  5
360
330
1E
100
AcDbEntity
  8
0
100
AcDbLine
 10
149.4869999999999
 20
7.09477299112357
 30
0.0
 11
149.4869999999999
 21
5.282130105869999
 31
0.0
  0
LINE
  5
361
330
1E
100
AcDbEntity
  8
0
100
AcDbLine
 10
149.4869999999999
 20
7.09477299112357
 30
0.0
 11
151.418
 21
7.313674080690439
 31
0.0
  0
LINE
  5
362
330
1E
100
AcDbEntity
  8
0
100
AcDbLine
 10
149.4869999999999
 20
5.282130105869999
 30
0.0
 11
150.004
 21
4.465688204242179
 31
0.0
  0
LINE
  5
363
330
1E
100
AcDbEntity
  8
0
100
AcDbLine
 10
149.4869999999999
 20
5.282130105869999
 30
0.0
 11
149.4869999999999
 21
7.09477299112357
 31
0.0
  0
LINE
  5
364
330
1E
100
AcDbEntity
  8
0
100
AcDbLine
 10
149.4869999999999
 20
5.282130105869999
 30
0.0
 11
151.418
 21
5.50103119543686
 31
0.0
  0
LINE
  5
365
330
1E
100
AcDbEntity
  8
0
100
AcDbLine
 10
150.004
 20
4.465688204242179
 30
0.0
 11
151.9359999999999
 21
4.684589293809049
 31
0.0
  0
LINE
  5
366
330
1E
100
AcDbEntity
  8
0
100
AcDbLine
 10
148.366
 20
31.3888318650641
 30
0.0
 11
148.366
 21
33.2014747503177
 31
0.0
  0
LINE
  5
367
330
1E
100
AcDbEntity
  8
0
100
AcDbLine
 10
147.956
 20
41.128821351061
 30
0.0
 11
147.956
 21
39.31617846580739
 31
0.0
  0
LINE
  5
368
330
1E
100
AcDbEntity
  8
0
100
AcDbLine
 10
147.956
 20
39.31617846580739
 30
0.0
 11
147.956
 21
41.128821351061
 31
0.0
  0
LINE
  5
369
330
1E
100
AcDbEntity
  8
0
100
AcDbLine
 10
146.5419999999999
 20
39.91414186684439
 30
0.0
 11
147.956
 21
39.31617846580739
 31
0.0
  0
LINE
  5
36A
330
1E
100
AcDbEntity
  8
0
100
AcDbLine
 10
146.5419999999999
 20
39.91414186684439
 30
0.0
 11
146.5419999999999
 21
41.7267847520979
 31
0.0
  0
LINE
  5
36B
330
1E
100
AcDbEntity
  8
0
100
AcDbLine
 10
150.579
 20
43.9500253548225
 30
0.0
 11
150.579
 21
42.137382469569
 31
0.0
  0
LINE
  5
36C
330
1E
100
AcDbEntity
  8
0
100
AcDbLine
 10
150.579
 20
43.9500253548225
 30
0.0
 11
151.579
 21
44.6819494612508
 31
0.0
  0
LINE
  5
36D
330
1E
100
AcDbEntity
  8
0
100
AcDbLine
 10
151.418
 20
7.313674080690439
 30
0.0
 11
151.418
 21
5.50103119543686
 31
0.0
  0
LINE
  5
36E
330
1E
100
AcDbEntity
  8
0
100
AcDbLine
 10
151.418
 20
7.313674080690439
 30
0.0
 11
151.9359999999999
 21
6.497232179062629
 31
0.0
  0
LINE
  5
36F
330
1E
100
AcDbEntity
  8
0
100
AcDbLine
 10
151.418
 20
5.50103119543686
 30
0.0
 11
151.9359999999999
 21
4.684589293809049
 31
0.0
  0
LINE
  5
370
330
1E
100
AcDbEntity
  8
0
100
AcDbLine
 10
151.418
 20
5.50103119543686
 30
0.0
 11
151.418
 21
7.313674080690439
 31
0.0
  0
LINE
  5
371
330
1E
100
AcDbEntity
  8
0
100
AcDbLine
 10
150.579
 20
42.137382469569
 30
0.0
 11
150.579
 21
43.9500253548225
 31
0.0
  0
LINE
  5
372
330
1E
100
AcDbEntity
  8
0
100
AcDbLine
 10
150.579
 20
42.137382469569
 30
0.0
 11
152.311
 21
41.7147934935711
 31
0.0
  0
LINE
  5
373
330
1E
100
AcDbEntity
  8
0
100
AcDbLine
 10
150.579
 20
42.137382469569
 30
0.0
 11
151.579
 21
42.86930657599721
 31
0.0
  0
LINE
  5
374
330
1E
100
AcDbEntity
  8
0
100
AcDbLine
 10
151.579
 20
44.6819494612508
 30
0.0
 11
151.579
 21
42.86930657599721
 31
0.0
  0
LINE
  5
375
330
1E
100
AcDbEntity
  8
0
100
AcDbLine
 10
151.579
 20
44.6819494612508
 30
0.0
 11
153.311
 21
44.259360485253
 31
0.0
  0
LINE
  5
376
330
1E
100
AcDbEntity
  8
0
100
AcDbLine
 10
151.9359999999999
 20
6.497232179062629
 30
0.0
 11
151.9359999999999
 21
4.684589293809049
 31
0.0
  0
LINE
  5
377
330
1E
100
AcDbEntity
  8
0
100
AcDbLine
 10
151.9359999999999
 20
4.684589293809049
 30
0.0
 11
151.9359999999999
 21
6.497232179062629
 31
0.0
  0
LINE
  5
378
330
1E
100
AcDbEntity
  8
0
100
AcDbLine
 10
153.6999999999999
 20
1.803536422654699
 30
0.0
 11
182.9
 21
6.832345237028909
 31
0.0
  0
LINE
  5
379
330
1E
100
AcDbEntity
  8
0
100
AcDbLine
 10
153.6999999999999
 20
1.803536422654699
 30
0.0
 11
182.9
 21
6.832345237028909
 31
0.0
  0
LINE
  5
37A
330
1E
100
AcDbEntity
  8
0
100
AcDbLine
 10
153.1339999999999
 20
26.2083136083067
 30
0.0
 11
154.1339999999999
 21
25.4763895018784
 31
0.0
  0
LINE
  5
37B
330
1E
100
AcDbEntity
  8
0
100
AcDbLine
 10
153.1339999999999
 20
26.2083136083067
 30
0.0
 11
153.1339999999999
 21
28.0209564935602
 31
0.0
  0
LINE
  5
37C
330
1E
100
AcDbEntity
  8
0
100
AcDbLine
 10
153.1339999999999
 20
26.2083136083067
 30
0.0
 11
154.866
 21
26.6309025843045
 31
0.0
  0
LINE
  5
37D
330
1E
100
AcDbEntity
  8
0
100
AcDbLine
 10
154.1339999999999
 20
25.4763895018784
 30
0.0
 11
155.866
 21
25.8989784778762
 31
0.0
  0
LINE
  5
37E
330
1E
100
AcDbEntity
  8
0
100
AcDbLine
 10
153.1339999999999
 20
28.0209564935602
 30
0.0
 11
153.1339999999999
 21
26.2083136083067
 31
0.0
  0
LINE
  5
37F
330
1E
100
AcDbEntity
  8
0
100
AcDbLine
 10
153.1339999999999
 20
28.0209564935602
 30
0.0
 11
154.866
 21
28.44354546955809
 31
0.0
  0
LINE
  5
380
330
1E
100
AcDbEntity
  8
0
100
AcDbLine
 10
155.866
 20
27.7116213631298
 30
0.0
 11
155.866
 21
25.8989784778762
 31
0.0
  0
LINE
  5
381
330
1E
100
AcDbEntity
  8
0
100
AcDbLine
 10
154.866
 20
28.44354546955809
 30
0.0
 11
154.866
 21
26.6309025843045
 31
0.0
  0
LINE
  5
382
330
1E
100
AcDbEntity
  8
0
100
AcDbLine
 10
154.866
 20
28.44354546955809
 30
0.0
 11
155.866
 21
27.7116213631298
 31
0.0
  0
LINE
  5
383
330
1E
100
AcDbEntity
  8
0
100
AcDbLine
 10
154.866
 20
26.6309025843045
 30
0.0
 11
155.866
 21
25.8989784778762
 31
0.0
  0
LINE
  5
384
330
1E
100
AcDbEntity
  8
0
100
AcDbLine
 10
154.866
 20
26.6309025843045
 30
0.0
 11
154.866
 21
28.44354546955809
 31
0.0
  0
LINE
  5
385
330
1E
100
AcDbEntity
  8
0
100
AcDbLine
 10
155.866
 20
25.8989784778762
 30
0.0
 11
155.866
 21
27.7116213631298
 31
0.0
  0
LINE
  5
386
330
1E
100
AcDbEntity
  8
0
100
AcDbLine
 10
155.734
 20
36.646842671628
 30
0.0
 11
155.734
 21
34.8341997863744
 31
0.0
  0
LINE
  5
387
330
1E
100
AcDbEntity
  8
0
100
AcDbLine
 10
155.734
 20
36.646842671628
 30
0.0
 11
157.148
 21
37.2443834836889
 31
0.0
  0
LINE
  5
388
330
1E
100
AcDbEntity
  8
0
100
AcDbLine
 10
155.734
 20
34.8341997863744
 30
0.0
 11
155.734
 21
36.646842671628
 31
0.0
  0
LINE
  5
389
330
1E
100
AcDbEntity
  8
0
100
AcDbLine
 10
155.734
 20
34.8341997863744
 30
0.0
 11
157.148
 21
34.2366589743135
 31
0.0
  0
LINE
  5
38A
330
1E
100
AcDbEntity
  8
0
100
AcDbLine
 10
155.734
 20
34.8341997863744
 30
0.0
 11
157.148
 21
35.43174059843539
 31
0.0
  0
LINE
  5
38B
330
1E
100
AcDbEntity
  8
0
100
AcDbLine
 10
152.311
 20
41.7147934935711
 30
0.0
 11
153.311
 21
42.4467175999994
 31
0.0
  0
LINE
  5
38C
330
1E
100
AcDbEntity
  8
0
100
AcDbLine
 10
153.311
 20
44.259360485253
 30
0.0
 11
153.311
 21
42.4467175999994
 31
0.0
  0
LINE
  5
38D
330
1E
100
AcDbEntity
  8
0
100
AcDbLine
 10
153.311
 20
42.4467175999994
 30
0.0
 11
153.311
 21
44.259360485253
 31
0.0
  0
LINE
  5
38E
330
1E
100
AcDbEntity
  8
0
100
AcDbLine
 10
151.579
 20
42.86930657599721
 30
0.0
 11
153.311
 21
42.4467175999994
 31
0.0
  0
LINE
  5
38F
330
1E
100
AcDbEntity
  8
0
100
AcDbLine
 10
151.579
 20
42.86930657599721
 30
0.0
 11
151.579
 21
44.6819494612508
 31
0.0
  0
LINE
  5
390
330
1E
100
AcDbEntity
  8
0
100
AcDbLine
 10
154.117
 20
45.45850923193589
 30
0.0
 11
154.117
 21
47.2711521171895
 31
0.0
  0
LINE
  5
391
330
1E
100
AcDbEntity
  8
0
100
AcDbLine
 10
154.117
 20
45.45850923193589
 30
0.0
 11
156.049
 21
45.2396081423691
 31
0.0
  0
LINE
  5
392
330
1E
100
AcDbEntity
  8
0
100
AcDbLine
 10
154.117
 20
45.45850923193589
 30
0.0
 11
154.6339999999999
 21
46.2749511335637
 31
0.0
  0
LINE
  5
393
330
1E
100
AcDbEntity
  8
0
100
AcDbLine
 10
156.049
 20
45.2396081423691
 30
0.0
 11
156.566
 21
46.0560500439969
 31
0.0
  0
LINE
  5
394
330
1E
100
AcDbEntity
  8
0
100
AcDbLine
 10
157.148
 20
34.2366589743135
 30
0.0
 11
158.562
 21
34.8341997863744
 31
0.0
  0
LINE
  5
395
330
1E
100
AcDbEntity
  8
0
100
AcDbLine
 10
157.148
 20
37.2443834836889
 30
0.0
 11
157.148
 21
35.43174059843539
 31
0.0
  0
LINE
  5
396
330
1E
100
AcDbEntity
  8
0
100
AcDbLine
 10
157.148
 20
37.2443834836889
 30
0.0
 11
158.562
 21
36.646842671628
 31
0.0
  0
LINE
  5
397
330
1E
100
AcDbEntity
  8
0
100
AcDbLine
 10
157.148
 20
35.43174059843539
 30
0.0
 11
158.562
 21
34.8341997863744
 31
0.0
  0
LINE
  5
398
330
1E
100
AcDbEntity
  8
0
100
AcDbLine
 10
157.148
 20
35.43174059843539
 30
0.0
 11
157.148
 21
37.2443834836889
 31
0.0
  0
LINE
  5
399
330
1E
100
AcDbEntity
  8
0
100
AcDbLine
 10
156.566
 20
46.0560500439969
 30
0.0
 11
156.566
 21
47.86869292925049
 31
0.0
  0
LINE
  5
39A
330
1E
100
AcDbEntity
  8
0
100
AcDbLine
 10
154.117
 20
47.2711521171895
 30
0.0
 11
154.117
 21
45.45850923193589
 31
0.0
  0
LINE
  5
39B
330
1E
100
AcDbEntity
  8
0
100
AcDbLine
 10
154.117
 20
47.2711521171895
 30
0.0
 11
154.6339999999999
 21
48.08759401881729
 31
0.0
  0
LINE
  5
39C
330
1E
100
AcDbEntity
  8
0
100
AcDbLine
 10
156.566
 20
47.86869292925049
 30
0.0
 11
156.566
 21
46.0560500439969
 31
0.0
  0
LINE
  5
39D
330
1E
100
AcDbEntity
  8
0
100
AcDbLine
 10
154.6339999999999
 20
48.08759401881729
 30
0.0
 11
154.6339999999999
 21
46.2749511335637
 31
0.0
  0
LINE
  5
39E
330
1E
100
AcDbEntity
  8
0
100
AcDbLine
 10
154.6339999999999
 20
48.08759401881729
 30
0.0
 11
156.566
 21
47.86869292925049
 31
0.0
  0
LINE
  5
39F
330
1E
100
AcDbEntity
  8
0
100
AcDbLine
 10
154.6339999999999
 20
46.2749511335637
 30
0.0
 11
156.566
 21
46.0560500439969
 31
0.0
  0
LINE
  5
3A0
330
1E
100
AcDbEntity
  8
0
100
AcDbLine
 10
154.6339999999999
 20
46.2749511335637
 30
0.0
 11
154.6339999999999
 21
48.08759401881729
 31
0.0
  0
LINE
  5
3A1
330
1E
100
AcDbEntity
  8
0
100
AcDbLine
 10
158.562
 20
36.646842671628
 30
0.0
 11
158.562
 21
34.8341997863744
 31
0.0
  0
LINE
  5
3A2
330
1E
100
AcDbEntity
  8
0
100
AcDbLine
 10
161.6339999999999
 20
19.9869587036666
 30
0.0
 11
163.366
 21
20.40954767966439
 31
0.0
  0
LINE
  5
3A3
330
1E
100
AcDbEntity
  8
0
100
AcDbLine
 10
160.6339999999999
 20
22.53152569534839
 30
0.0
 11
160.6339999999999
 21
20.7188828100948
 31
0.0
  0
LINE
  5
3A4
330
1E
100
AcDbEntity
  8
0
100
AcDbLine
 10
160.6339999999999
 20
22.53152569534839
 30
0.0
 11
162.366
 21
22.95411467134619
 31
0.0
  0
LINE
  5
3A5
330
1E
100
AcDbEntity
  8
0
100
AcDbLine
 10
160.6339999999999
 20
20.7188828100948
 30
0.0
 11
161.6339999999999
 21
19.9869587036666
 31
0.0
  0
LINE
  5
3A6
330
1E
100
AcDbEntity
  8
0
100
AcDbLine
 10
160.6339999999999
 20
20.7188828100948
 30
0.0
 11
160.6339999999999
 21
22.53152569534839
 31
0.0
  0
LINE
  5
3A7
330
1E
100
AcDbEntity
  8
0
100
AcDbLine
 10
160.6339999999999
 20
20.7188828100948
 30
0.0
 11
162.366
 21
21.1414717860926
 31
0.0
  0
LINE
  5
3A8
330
1E
100
AcDbEntity
  8
0
100
AcDbLine
 10
162.366
 20
22.95411467134619
 30
0.0
 11
162.366
 21
21.1414717860926
 31
0.0
  0
LINE
  5
3A9
330
1E
100
AcDbEntity
  8
0
100
AcDbLine
 10
162.366
 20
22.95411467134619
 30
0.0
 11
163.366
 21
22.222190564918
 31
0.0
  0
LINE
  5
3AA
330
1E
100
AcDbEntity
  8
0
100
AcDbLine
 10
163.366
 20
22.222190564918
 30
0.0
 11
163.366
 21
20.40954767966439
 31
0.0
  0
LINE
  5
3AB
330
1E
100
AcDbEntity
  8
0
100
AcDbLine
 10
162.366
 20
21.1414717860926
 30
0.0
 11
163.366
 21
20.40954767966439
 31
0.0
  0
LINE
  5
3AC
330
1E
100
AcDbEntity
  8
0
100
AcDbLine
 10
162.366
 20
21.1414717860926
 30
0.0
 11
162.366
 21
22.95411467134619
 31
0.0
  0
LINE
  5
3AD
330
1E
100
AcDbEntity
  8
0
100
AcDbLine
 10
163.366
 20
20.40954767966439
 30
0.0
 11
163.366
 21
22.222190564918
 31
0.0
  0
LINE
  5
3AE
330
1E
100
AcDbEntity
  8
0
100
AcDbLine
 10
158.562
 20
34.8341997863744
 30
0.0
 11
158.562
 21
36.646842671628
 31
0.0
  0
LINE
  5
3AF
330
1E
100
AcDbEntity
  8
0
100
AcDbLine
 10
163.5689999999999
 20
40.78060803483879
 30
0.0
 11
163.5689999999999
 21
38.9679651495852
 31
0.0
  0
LINE
  5
3B0
330
1E
100
AcDbEntity
  8
0
100
AcDbLine
 10
163.5689999999999
 20
40.78060803483879
 30
0.0
 11
164.569
 21
41.5125321412671
 31
0.0
  0
LINE
  5
3B1
330
1E
100
AcDbEntity
  8
0
100
AcDbLine
 10
163.5689999999999
 20
38.9679651495852
 30
0.0
 11
163.5689999999999
 21
40.78060803483879
 31
0.0
  0
LINE
  5
3B2
330
1E
100
AcDbEntity
  8
0
100
AcDbLine
 10
163.5689999999999
 20
38.9679651495852
 30
0.0
 11
165.3009999999999
 21
38.5453761735874
 31
0.0
  0
LINE
  5
3B3
330
1E
100
AcDbEntity
  8
0
100
AcDbLine
 10
163.5689999999999
 20
38.9679651495852
 30
0.0
 11
164.569
 21
39.6998892560135
 31
0.0
  0
LINE
  5
3B4
330
1E
100
AcDbEntity
  8
0
100
AcDbLine
 10
164.569
 20
41.5125321412671
 30
0.0
 11
164.569
 21
39.6998892560135
 31
0.0
  0
LINE
  5
3B5
330
1E
100
AcDbEntity
  8
0
100
AcDbLine
 10
164.569
 20
41.5125321412671
 30
0.0
 11
166.3009999999999
 21
41.0899431652692
 31
0.0
  0
LINE
  5
3B6
330
1E
100
AcDbEntity
  8
0
100
AcDbLine
 10
168.134
 20
17.0420948971366
 30
0.0
 11
168.134
 21
15.22945201188299
 31
0.0
  0
LINE
  5
3B7
330
1E
100
AcDbEntity
  8
0
100
AcDbLine
 10
168.134
 20
17.0420948971366
 30
0.0
 11
169.8659999999999
 21
17.4646838731344
 31
0.0
  0
LINE
  5
3B8
330
1E
100
AcDbEntity
  8
0
100
AcDbLine
 10
168.134
 20
15.22945201188299
 30
0.0
 11
169.134
 21
14.4975279054547
 31
0.0
  0
LINE
  5
3B9
330
1E
100
AcDbEntity
  8
0
100
AcDbLine
 10
168.134
 20
15.22945201188299
 30
0.0
 11
168.134
 21
17.0420948971366
 31
0.0
  0
LINE
  5
3BA
330
1E
100
AcDbEntity
  8
0
100
AcDbLine
 10
168.134
 20
15.22945201188299
 30
0.0
 11
169.8659999999999
 21
15.65204098788079
 31
0.0
  0
LINE
  5
3BB
330
1E
100
AcDbEntity
  8
0
100
AcDbLine
 10
169.134
 20
14.4975279054547
 30
0.0
 11
170.8659999999999
 21
14.92011688145259
 31
0.0
  0
LINE
  5
3BC
330
1E
100
AcDbEntity
  8
0
100
AcDbLine
 10
166.3409999999999
 20
30.3517985179654
 30
0.0
 11
166.3409999999999
 21
32.164441403219
 31
0.0
  0
LINE
  5
3BD
330
1E
100
AcDbEntity
  8
0
100
AcDbLine
 10
166.3409999999999
 20
30.3517985179654
 30
0.0
 11
167.755
 21
29.75425770590449
 31
0.0
  0
LINE
  5
3BE
330
1E
100
AcDbEntity
  8
0
100
AcDbLine
 10
166.3409999999999
 20
30.3517985179654
 30
0.0
 11
167.755
 21
30.9493393300263
 31
0.0
  0
LINE
  5
3BF
330
1E
100
AcDbEntity
  8
0
100
AcDbLine
 10
167.755
 20
29.75425770590449
 30
0.0
 11
169.169
 21
30.3517985179654
 31
0.0
  0
LINE
  5
3C0
330
1E
100
AcDbEntity
  8
0
100
AcDbLine
 10
169.8659999999999
 20
17.4646838731344
 30
0.0
 11
169.8659999999999
 21
15.65204098788079
 31
0.0
  0
LINE
  5
3C1
330
1E
100
AcDbEntity
  8
0
100
AcDbLine
 10
169.8659999999999
 20
17.4646838731344
 30
0.0
 11
170.8659999999999
 21
16.7327597667061
 31
0.0
  0
LINE
  5
3C2
330
1E
100
AcDbEntity
  8
0
100
AcDbLine
 10
170.8659999999999
 20
16.7327597667061
 30
0.0
 11
170.8659999999999
 21
14.92011688145259
 31
0.0
  0
LINE
  5
3C3
330
1E
100
AcDbEntity
  8
0
100
AcDbLine
 10
169.8659999999999
 20
15.65204098788079
 30
0.0
 11
170.8659999999999
 21
14.92011688145259
 31
0.0
  0
LINE
  5
3C4
330
1E
100
AcDbEntity
  8
0
100
AcDbLine
 10
169.8659999999999
 20
15.65204098788079
 30
0.0
 11
169.8659999999999
 21
17.4646838731344
 31
0.0
  0
LINE
  5
3C5
330
1E
100
AcDbEntity
  8
0
100
AcDbLine
 10
170.8659999999999
 20
14.92011688145259
 30
0.0
 11
170.8659999999999
 21
16.7327597667061
 31
0.0
  0
LINE
  5
3C6
330
1E
100
AcDbEntity
  8
0
100
AcDbLine
 10
169.169
 20
30.3517985179654
 30
0.0
 11
169.169
 21
32.164441403219
 31
0.0
  0
LINE
  5
3C7
330
1E
100
AcDbEntity
  8
0
100
AcDbLine
 10
166.3409999999999
 20
32.164441403219
 30
0.0
 11
166.3409999999999
 21
30.3517985179654
 31
0.0
  0
LINE
  5
3C8
330
1E
100
AcDbEntity
  8
0
100
AcDbLine
 10
166.3409999999999
 20
32.164441403219
 30
0.0
 11
167.755
 21
32.7619822152799
 31
0.0
  0
LINE
  5
3C9
330
1E
100
AcDbEntity
  8
0
100
AcDbLine
 10
169.169
 20
32.164441403219
 30
0.0
 11
169.169
 21
30.3517985179654
 31
0.0
  0
LINE
  5
3CA
330
1E
100
AcDbEntity
  8
0
100
AcDbLine
 10
167.755
 20
32.7619822152799
 30
0.0
 11
167.755
 21
30.9493393300263
 31
0.0
  0
LINE
  5
3CB
330
1E
100
AcDbEntity
  8
0
100
AcDbLine
 10
167.755
 20
32.7619822152799
 30
0.0
 11
169.169
 21
32.164441403219
 31
0.0
  0
LINE
  5
3CC
330
1E
100
AcDbEntity
  8
0
100
AcDbLine
 10
167.755
 20
30.9493393300263
 30
0.0
 11
169.169
 21
30.3517985179654
 31
0.0
  0
LINE
  5
3CD
330
1E
100
AcDbEntity
  8
0
100
AcDbLine
 10
167.755
 20
30.9493393300263
 30
0.0
 11
167.755
 21
32.7619822152799
 31
0.0
  0
LINE
  5
3CE
330
1E
100
AcDbEntity
  8
0
100
AcDbLine
 10
165.3009999999999
 20
38.5453761735874
 30
0.0
 11
166.3009999999999
 21
39.2773002800156
 31
0.0
  0
LINE
  5
3CF
330
1E
100
AcDbEntity
  8
0
100
AcDbLine
 10
166.3009999999999
 20
41.0899431652692
 30
0.0
 11
166.3009999999999
 21
39.2773002800156
 31
0.0
  0
LINE
  5
3D0
330
1E
100
AcDbEntity
  8
0
100
AcDbLine
 10
166.3009999999999
 20
39.2773002800156
 30
0.0
 11
166.3009999999999
 21
41.0899431652692
 31
0.0
  0
LINE
  5
3D1
330
1E
100
AcDbEntity
  8
0
100
AcDbLine
 10
164.569
 20
39.6998892560135
 30
0.0
 11
166.3009999999999
 21
39.2773002800156
 31
0.0
  0
LINE
  5
3D2
330
1E
100
AcDbEntity
  8
0
100
AcDbLine
 10
164.569
 20
39.6998892560135
 30
0.0
 11
164.569
 21
41.5125321412671
 31
0.0
  0
LINE
  5
3D3
330
1E
100
AcDbEntity
  8
0
100
AcDbLine
 10
168.6059999999999
 20
43.81801882711228
 30
0.0
 11
168.6059999999999
 21
45.63066171236589
 31
0.0
  0
LINE
  5
3D4
330
1E
100
AcDbEntity
  8
0
100
AcDbLine
 10
168.6059999999999
 20
43.81801882711228
 30
0.0
 11
170.537
 21
43.59911773754549
 31
0.0
  0
LINE
  5
3D5
330
1E
100
AcDbEntity
  8
0
100
AcDbLine
 10
168.6059999999999
 20
43.81801882711228
 30
0.0
 11
169.123
 21
44.6344607287402
 31
0.0
  0
LINE
  5
3D6
330
1E
100
AcDbEntity
  8
0
100
AcDbLine
 10
170.537
 20
43.59911773754549
 30
0.0
 11
171.055
 21
44.4155596391733
 31
0.0
  0
LINE
  5
3D7
330
1E
100
AcDbEntity
  8
0
100
AcDbLine
 10
171.055
 20
44.4155596391733
 30
0.0
 11
171.055
 21
46.22820252442689
 31
0.0
  0
LINE
  5
3D8
330
1E
100
AcDbEntity
  8
0
100
AcDbLine
 10
168.6059999999999
 20
45.63066171236589
 30
0.0
 11
168.6059999999999
 21
43.81801882711228
 31
0.0
  0
LINE
  5
3D9
330
1E
100
AcDbEntity
  8
0
100
AcDbLine
 10
168.6059999999999
 20
45.63066171236589
 30
0.0
 11
169.123
 21
46.4471036139937
 31
0.0
  0
LINE
  5
3DA
330
1E
100
AcDbEntity
  8
0
100
AcDbLine
 10
171.055
 20
46.22820252442689
 30
0.0
 11
171.055
 21
44.4155596391733
 31
0.0
  0
LINE
  5
3DB
330
1E
100
AcDbEntity
  8
0
100
AcDbLine
 10
169.123
 20
46.4471036139937
 30
0.0
 11
169.123
 21
44.6344607287402
 31
0.0
  0
LINE
  5
3DC
330
1E
100
AcDbEntity
  8
0
100
AcDbLine
 10
169.123
 20
46.4471036139937
 30
0.0
 11
171.055
 21
46.22820252442689
 31
0.0
  0
LINE
  5
3DD
330
1E
100
AcDbEntity
  8
0
100
AcDbLine
 10
169.123
 20
44.6344607287402
 30
0.0
 11
171.055
 21
44.4155596391733
 31
0.0
  0
LINE
  5
3DE
330
1E
100
AcDbEntity
  8
0
100
AcDbLine
 10
169.123
 20
44.6344607287402
 30
0.0
 11
169.123
 21
46.4471036139937
 31
0.0
  0
LINE
  5
3DF
330
1E
100
AcDbEntity
  8
0
100
AcDbLine
 10
175.634
 20
11.55224150994869
 30
0.0
 11
175.634
 21
9.739598624695117
 31
0.0
  0
LINE
  5
3E0
330
1E
100
AcDbEntity
  8
0
100
AcDbLine
 10
175.634
 20
11.55224150994869
 30
0.0
 11
177.3659999999999
 21
11.97483048594649
 31
0.0
  0
LINE
  5
3E1
330
1E
100
AcDbEntity
  8
0
100
AcDbLine
 10
175.634
 20
9.739598624695117
 30
0.0
 11
176.634
 21
9.00767451826689
 31
0.0
  0
LINE
  5
3E2
330
1E
100
AcDbEntity
  8
0
100
AcDbLine
 10
175.634
 20
9.739598624695117
 30
0.0
 11
175.634
 21
11.55224150994869
 31
0.0
  0
LINE
  5
3E3
330
1E
100
AcDbEntity
  8
0
100
AcDbLine
 10
175.634
 20
9.739598624695117
 30
0.0
 11
177.3659999999999
 21
10.162187600693
 31
0.0
  0
LINE
  5
3E4
330
1E
100
AcDbEntity
  8
0
100
AcDbLine
 10
176.56
 20
37.611190714855
 30
0.0
 11
176.56
 21
35.79854782960149
 31
0.0
  0
LINE
  5
3E5
330
1E
100
AcDbEntity
  8
0
100
AcDbLine
 10
176.56
 20
37.611190714855
 30
0.0
 11
177.56
 21
38.3431148212833
 31
0.0
  0
LINE
  5
3E6
330
1E
100
AcDbEntity
  8
0
100
AcDbLine
 10
176.634
 20
9.00767451826689
 30
0.0
 11
178.3659999999999
 21
9.430263494264719
 31
0.0
  0
LINE
  5
3E7
330
1E
100
AcDbEntity
  8
0
100
AcDbLine
 10
177.3659999999999
 20
11.97483048594649
 30
0.0
 11
177.3659999999999
 21
10.162187600693
 31
0.0
  0
LINE
  5
3E8
330
1E
100
AcDbEntity
  8
0
100
AcDbLine
 10
177.3659999999999
 20
11.97483048594649
 30
0.0
 11
178.3659999999999
 21
11.2429063795183
 31
0.0
  0
LINE
  5
3E9
330
1E
100
AcDbEntity
  8
0
100
AcDbLine
 10
177.3659999999999
 20
10.162187600693
 30
0.0
 11
178.3659999999999
 21
9.430263494264719
 31
0.0
  0
LINE
  5
3EA
330
1E
100
AcDbEntity
  8
0
100
AcDbLine
 10
177.3659999999999
 20
10.162187600693
 30
0.0
 11
177.3659999999999
 21
11.97483048594649
 31
0.0
  0
LINE
  5
3EB
330
1E
100
AcDbEntity
  8
0
100
AcDbLine
 10
176.947
 20
27.682462723786
 30
0.0
 11
176.947
 21
25.8698198385324
 31
0.0
  0
LINE
  5
3EC
330
1E
100
AcDbEntity
  8
0
100
AcDbLine
 10
176.947
 20
27.682462723786
 30
0.0
 11
178.3609999999999
 21
28.28000353584689
 31
0.0
  0
LINE
  5
3ED
330
1E
100
AcDbEntity
  8
0
100
AcDbLine
 10
176.947
 20
25.8698198385324
 30
0.0
 11
176.947
 21
27.682462723786
 31
0.0
  0
LINE
  5
3EE
330
1E
100
AcDbEntity
  8
0
100
AcDbLine
 10
176.947
 20
25.8698198385324
 30
0.0
 11
178.3609999999999
 21
25.27185643749549
 31
0.0
  0
LINE
  5
3EF
330
1E
100
AcDbEntity
  8
0
100
AcDbLine
 10
176.947
 20
25.8698198385324
 30
0.0
 11
178.3609999999999
 21
26.4673606505933
 31
0.0
  0
LINE
  5
3F0
330
1E
100
AcDbEntity
  8
0
100
AcDbLine
 10
176.56
 20
35.79854782960149
 30
0.0
 11
176.56
 21
37.611190714855
 31
0.0
  0
LINE
  5
3F1
330
1E
100
AcDbEntity
  8
0
100
AcDbLine
 10
176.56
 20
35.79854782960149
 30
0.0
 11
178.292
 21
35.3759588536036
 31
0.0
  0
LINE
  5
3F2
330
1E
100
AcDbEntity
  8
0
100
AcDbLine
 10
176.56
 20
35.79854782960149
 30
0.0
 11
177.56
 21
36.5304719360297
 31
0.0
  0
LINE
  5
3F3
330
1E
100
AcDbEntity
  8
0
100
AcDbLine
 10
177.56
 20
38.3431148212833
 30
0.0
 11
177.56
 21
36.5304719360297
 31
0.0
  0
LINE
  5
3F4
330
1E
100
AcDbEntity
  8
0
100
AcDbLine
 10
177.56
 20
38.3431148212833
 30
0.0
 11
179.292
 21
37.9205258452855
 31
0.0
  0
LINE
  5
3F5
330
1E
100
AcDbEntity
  8
0
100
AcDbLine
 10
178.3659999999999
 20
11.2429063795183
 30
0.0
 11
178.3659999999999
 21
9.430263494264719
 31
0.0
  0
LINE
  5
3F6
330
1E
100
AcDbEntity
  8
0
100
AcDbLine
 10
178.3659999999999
 20
9.430263494264719
 30
0.0
 11
178.3659999999999
 21
11.2429063795183
 31
0.0
  0
LINE
  5
3F7
330
1E
100
AcDbEntity
  8
0
100
AcDbLine
 10
178.3609999999999
 20
25.27185643749549
 30
0.0
 11
179.7759999999999
 21
25.8698198385324
 31
0.0
  0
LINE
  5
3F8
330
1E
100
AcDbEntity
  8
0
100
AcDbLine
 10
182.9
 20
6.832345237028909
 30
0.0
 11
208.3
 21
15.0305713713869
 31
0.0
  0
LINE
  5
3F9
330
1E
100
AcDbEntity
  8
0
100
AcDbLine
 10
179.7759999999999
 20
25.8698198385324
 30
0.0
 11
179.7759999999999
 21
27.682462723786
 31
0.0
  0
LINE
  5
3FA
330
1E
100
AcDbEntity
  8
0
100
AcDbLine
 10
179.7759999999999
 20
27.682462723786
 30
0.0
 11
179.7759999999999
 21
25.8698198385324
 31
0.0
  0
LINE
  5
3FB
330
1E
100
AcDbEntity
  8
0
100
AcDbLine
 10
178.3609999999999
 20
28.28000353584689
 30
0.0
 11
178.3609999999999
 21
26.4673606505933
 31
0.0
  0
LINE
  5
3FC
330
1E
100
AcDbEntity
  8
0
100
AcDbLine
 10
178.3609999999999
 20
28.28000353584689
 30
0.0
 11
179.7759999999999
 21
27.682462723786
 31
0.0
  0
LINE
  5
3FD
330
1E
100
AcDbEntity
  8
0
100
AcDbLine
 10
178.3609999999999
 20
26.4673606505933
 30
0.0
 11
179.7759999999999
 21
25.8698198385324
 31
0.0
  0
LINE
  5
3FE
330
1E
100
AcDbEntity
  8
0
100
AcDbLine
 10
178.3609999999999
 20
26.4673606505933
 30
0.0
 11
178.3609999999999
 21
28.28000353584689
 31
0.0
  0
LINE
  5
3FF
330
1E
100
AcDbEntity
  8
0
100
AcDbLine
 10
178.292
 20
35.3759588536036
 30
0.0
 11
179.292
 21
36.1078829600319
 31
0.0
  0
LINE
  5
400
330
1E
100
AcDbEntity
  8
0
100
AcDbLine
 10
179.292
 20
37.9205258452855
 30
0.0
 11
179.292
 21
36.1078829600319
 31
0.0
  0
LINE
  5
401
330
1E
100
AcDbEntity
  8
0
100
AcDbLine
 10
179.292
 20
36.1078829600319
 30
0.0
 11
179.292
 21
37.9205258452855
 31
0.0
  0
LINE
  5
402
330
1E
100
AcDbEntity
  8
0
100
AcDbLine
 10
177.56
 20
36.5304719360297
 30
0.0
 11
179.292
 21
36.1078829600319
 31
0.0
  0
LINE
  5
403
330
1E
100
AcDbEntity
  8
0
100
AcDbLine
 10
177.56
 20
36.5304719360297
 30
0.0
 11
177.56
 21
38.3431148212833
 31
0.0
  0
LINE
  5
404
330
1E
100
AcDbEntity
  8
0
100
AcDbLine
 10
183.0949999999999
 20
42.1771058333128
 30
0.0
 11
183.0949999999999
 21
43.98974871856629
 31
0.0
  0
LINE
  5
405
330
1E
100
AcDbEntity
  8
0
100
AcDbLine
 10
183.0949999999999
 20
42.1771058333128
 30
0.0
 11
185.0259999999999
 21
41.95862733272189
 31
0.0
  0
LINE
  5
406
330
1E
100
AcDbEntity
  8
0
100
AcDbLine
 10
183.0949999999999
 20
42.1771058333128
 30
0.0
 11
183.612
 21
42.9935477349406
 31
0.0
  0
LINE
  5
407
330
1E
100
AcDbEntity
  8
0
100
AcDbLine
 10
185.0259999999999
 20
41.95862733272189
 30
0.0
 11
185.544
 21
42.7750692343497
 31
0.0
  0
LINE
  5
408
330
1E
100
AcDbEntity
  8
0
100
AcDbLine
 10
185.544
 20
42.7750692343497
 30
0.0
 11
185.544
 21
44.5877121196033
 31
0.0
  0
LINE
  5
409
330
1E
100
AcDbEntity
  8
0
100
AcDbLine
 10
183.0949999999999
 20
43.98974871856629
 30
0.0
 11
183.0949999999999
 21
42.1771058333128
 31
0.0
  0
LINE
  5
40A
330
1E
100
AcDbEntity
  8
0
100
AcDbLine
 10
183.0949999999999
 20
43.98974871856629
 30
0.0
 11
183.612
 21
44.8061906201942
 31
0.0
  0
LINE
  5
40B
330
1E
100
AcDbEntity
  8
0
100
AcDbLine
 10
185.544
 20
44.5877121196033
 30
0.0
 11
185.544
 21
42.7750692343497
 31
0.0
  0
LINE
  5
40C
330
1E
100
AcDbEntity
  8
0
100
AcDbLine
 10
183.612
 20
44.8061906201942
 30
0.0
 11
183.612
 21
42.9935477349406
 31
0.0
  0
LINE
  5
40D
330
1E
100
AcDbEntity
  8
0
100
AcDbLine
 10
183.612
 20
44.8061906201942
 30
0.0
 11
185.544
 21
44.5877121196033
 31
0.0
  0
LINE
  5
40E
330
1E
100
AcDbEntity
  8
0
100
AcDbLine
 10
183.612
 20
42.9935477349406
 30
0.0
 11
185.544
 21
42.7750692343497
 31
0.0
  0
LINE
  5
40F
330
1E
100
AcDbEntity
  8
0
100
AcDbLine
 10
183.612
 20
42.9935477349406
 30
0.0
 11
183.612
 21
44.8061906201942
 31
0.0
  0
LINE
  5
410
330
1E
100
AcDbEntity
  8
0
100
AcDbLine
 10
172.5
 20
49.0534736507495
 30
0.0
 11
172.5
 21
49.89865160274519
 31
0.0
  0
LINE
  5
411
330
1E
100
AcDbEntity
  8
0
100
AcDbLine
 10
170.5
 20
49.0534736507495
 30
0.0
 11
170.5
 21
50.86611653600311
 31
0.0
  0
LINE
  5
412
330
1E
100
AcDbEntity
  8
0
100
AcDbLine
 10
170.5
 20
49.0534736507495
 30
0.0
 11
172.5
 21
49.0534736507495
 31
0.0
  0
LINE
  5
413
330
1E
100
AcDbEntity
  8
0
100
AcDbLine
 10
170.5
 20
49.0534736507495
 30
0.0
 11
170.5
 21
49.89865160274519
 31
0.0
  0
LINE
  5
414
330
1E
100
AcDbEntity
  8
0
100
AcDbLine
 10
157.5
 20
49.0534736507495
 30
0.0
 11
157.5
 21
49.89865160274519
 31
0.0
  0
LINE
  5
415
330
1E
100
AcDbEntity
  8
0
100
AcDbLine
 10
155.4999999999999
 20
49.0534736507495
 30
0.0
 11
155.4999999999999
 21
50.86611653600311
 31
0.0
  0
LINE
  5
416
330
1E
100
AcDbEntity
  8
0
100
AcDbLine
 10
155.4999999999999
 20
49.0534736507495
 30
0.0
 11
157.5
 21
49.0534736507495
 31
0.0
  0
LINE
  5
417
330
1E
100
AcDbEntity
  8
0
100
AcDbLine
 10
155.4999999999999
 20
49.0534736507495
 30
0.0
 11
155.4999999999999
 21
49.89865160274519
 31
0.0
  0
LINE
  5
418
330
1E
100
AcDbEntity
  8
0
100
AcDbLine
 10
142.5
 20
49.0534736507495
 30
0.0
 11
142.5
 21
49.89865160274519
 31
0.0
  0
LINE
  5
419
330
1E
100
AcDbEntity
  8
0
100
AcDbLine
 10
140.5
 20
49.0534736507495
 30
0.0
 11
140.5
 21
50.86611653600311
 31
0.0
  0
LINE
  5
41A
330
1E
100
AcDbEntity
  8
0
100
AcDbLine
 10
140.5
 20
49.0534736507495
 30
0.0
 11
142.5
 21
49.0534736507495
 31
0.0
  0
LINE
  5
41B
330
1E
100
AcDbEntity
  8
0
100
AcDbLine
 10
140.5
 20
49.0534736507495
 30
0.0
 11
140.5
 21
49.89865160274519
 31
0.0
  0
LINE
  5
41C
330
1E
100
AcDbEntity
  8
0
100
AcDbLine
 10
187.5
 20
49.0534736507495
 30
0.0
 11
187.5
 21
49.89865160274519
 31
0.0
  0
LINE
  5
41D
330
1E
100
AcDbEntity
  8
0
100
AcDbLine
 10
104.855
 20
49.7280844236409
 30
0.0
 11
104.855
 21
47.9154415383873
 31
0.0
  0
LINE
  5
41E
330
1E
100
AcDbEntity
  8
0
100
AcDbLine
 10
104.855
 20
49.7280844236409
 30
0.0
 11
105.372
 21
48.9116425220131
 31
0.0
  0
LINE
  5
41F
330
1E
100
AcDbEntity
  8
0
100
AcDbLine
 10
140.145
 20
49.7280844236409
 30
0.0
 11
140.145
 21
47.9154415383873
 31
0.0
  0
LINE
  5
420
330
1E
100
AcDbEntity
  8
0
100
AcDbLine
 10
140.145
 20
49.7280844236409
 30
0.0
 11
140.5
 21
49.6879395645779
 31
0.0
  0
LINE
  5
421
330
1E
100
AcDbEntity
  8
0
100
AcDbLine
 10
172.5
 20
49.89865160274519
 30
0.0
 11
172.5
 21
51.7112944879987
 31
0.0
  0
LINE
  5
422
330
1E
100
AcDbEntity
  8
0
100
AcDbLine
 10
172.5
 20
49.89865160274519
 30
0.0
 11
172.5
 21
49.0534736507495
 31
0.0
  0
LINE
  5
423
330
1E
100
AcDbEntity
  8
0
100
AcDbLine
 10
170.5
 20
49.89865160274519
 30
0.0
 11
172.5
 21
49.89865160274519
 31
0.0
  0
LINE
  5
424
330
1E
100
AcDbEntity
  8
0
100
AcDbLine
 10
170.5
 20
49.89865160274519
 30
0.0
 11
170.5
 21
49.0534736507495
 31
0.0
  0
LINE
  5
425
330
1E
100
AcDbEntity
  8
0
100
AcDbLine
 10
170.5
 20
49.89865160274519
 30
0.0
 11
170.5
 21
51.7112944879987
 31
0.0
  0
LINE
  5
426
330
1E
100
AcDbEntity
  8
0
100
AcDbLine
 10
157.5
 20
49.89865160274519
 30
0.0
 11
157.5
 21
51.7112944879987
 31
0.0
  0
LINE
  5
427
330
1E
100
AcDbEntity
  8
0
100
AcDbLine
 10
157.5
 20
49.89865160274519
 30
0.0
 11
157.5
 21
49.0534736507495
 31
0.0
  0
LINE
  5
428
330
1E
100
AcDbEntity
  8
0
100
AcDbLine
 10
155.4999999999999
 20
49.89865160274519
 30
0.0
 11
157.5
 21
49.89865160274519
 31
0.0
  0
LINE
  5
429
330
1E
100
AcDbEntity
  8
0
100
AcDbLine
 10
155.4999999999999
 20
49.89865160274519
 30
0.0
 11
155.4999999999999
 21
49.0534736507495
 31
0.0
  0
LINE
  5
42A
330
1E
100
AcDbEntity
  8
0
100
AcDbLine
 10
155.4999999999999
 20
49.89865160274519
 30
0.0
 11
155.4999999999999
 21
51.7112944879987
 31
0.0
  0
LINE
  5
42B
330
1E
100
AcDbEntity
  8
0
100
AcDbLine
 10
142.5
 20
49.89865160274519
 30
0.0
 11
142.5
 21
51.7112944879987
 31
0.0
  0
LINE
  5
42C
330
1E
100
AcDbEntity
  8
0
100
AcDbLine
 10
142.5
 20
49.89865160274519
 30
0.0
 11
142.5
 21
49.0534736507495
 31
0.0
  0
LINE
  5
42D
330
1E
100
AcDbEntity
  8
0
100
AcDbLine
 10
140.5
 20
49.89865160274519
 30
0.0
 11
142.5
 21
49.89865160274519
 31
0.0
  0
LINE
  5
42E
330
1E
100
AcDbEntity
  8
0
100
AcDbLine
 10
140.5
 20
49.89865160274519
 30
0.0
 11
140.5
 21
49.0534736507495
 31
0.0
  0
LINE
  5
42F
330
1E
100
AcDbEntity
  8
0
100
AcDbLine
 10
140.5
 20
49.89865160274519
 30
0.0
 11
140.5
 21
51.07682857417029
 31
0.0
  0
LINE
  5
430
330
1E
100
AcDbEntity
  8
0
100
AcDbLine
 10
185.5
 20
49.0534736507495
 30
0.0
 11
185.5
 21
50.86611653600311
 31
0.0
  0
LINE
  5
431
330
1E
100
AcDbEntity
  8
0
100
AcDbLine
 10
185.5
 20
49.0534736507495
 30
0.0
 11
187.5
 21
49.0534736507495
 31
0.0
  0
LINE
  5
432
330
1E
100
AcDbEntity
  8
0
100
AcDbLine
 10
185.5
 20
49.0534736507495
 30
0.0
 11
185.5
 21
49.89865160274519
 31
0.0
  0
LINE
  5
433
330
1E
100
AcDbEntity
  8
0
100
AcDbLine
 10
187.5539999999999
 20
23.200061455377
 30
0.0
 11
187.5539999999999
 21
21.38741857012339
 31
0.0
  0
LINE
  5
434
330
1E
100
AcDbEntity
  8
0
100
AcDbLine
 10
187.5539999999999
 20
23.200061455377
 30
0.0
 11
188.968
 21
23.79760226743789
 31
0.0
  0
LINE
  5
435
330
1E
100
AcDbEntity
  8
0
100
AcDbLine
 10
187.5539999999999
 20
21.38741857012339
 30
0.0
 11
187.5539999999999
 21
23.200061455377
 31
0.0
  0
LINE
  5
436
330
1E
100
AcDbEntity
  8
0
100
AcDbLine
 10
187.5539999999999
 20
21.38741857012339
 30
0.0
 11
188.968
 21
20.78987775806239
 31
0.0
  0
LINE
  5
437
330
1E
100
AcDbEntity
  8
0
100
AcDbLine
 10
187.5539999999999
 20
21.38741857012339
 30
0.0
 11
188.968
 21
21.98495938218429
 31
0.0
  0
LINE
  5
438
330
1E
100
AcDbEntity
  8
0
100
AcDbLine
 10
188.968
 20
20.78987775806239
 30
0.0
 11
190.3819999999999
 21
21.38741857012339
 31
0.0
  0
LINE
  5
439
330
1E
100
AcDbEntity
  8
0
100
AcDbLine
 10
188.968
 20
23.79760226743789
 30
0.0
 11
188.968
 21
21.98495938218429
 31
0.0
  0
LINE
  5
43A
330
1E
100
AcDbEntity
  8
0
100
AcDbLine
 10
188.968
 20
23.79760226743789
 30
0.0
 11
190.3819999999999
 21
23.200061455377
 31
0.0
  0
LINE
  5
43B
330
1E
100
AcDbEntity
  8
0
100
AcDbLine
 10
188.968
 20
21.98495938218429
 30
0.0
 11
190.3819999999999
 21
21.38741857012339
 31
0.0
  0
LINE
  5
43C
330
1E
100
AcDbEntity
  8
0
100
AcDbLine
 10
188.968
 20
21.98495938218429
 30
0.0
 11
188.968
 21
23.79760226743789
 31
0.0
  0
LINE
  5
43D
330
1E
100
AcDbEntity
  8
0
100
AcDbLine
 10
189.55
 20
34.4417733948713
 30
0.0
 11
189.55
 21
32.6291305096177
 31
0.0
  0
LINE
  5
43E
330
1E
100
AcDbEntity
  8
0
100
AcDbLine
 10
189.55
 20
34.4417733948713
 30
0.0
 11
190.55
 21
35.1736975012996
 31
0.0
  0
LINE
  5
43F
330
1E
100
AcDbEntity
  8
0
100
AcDbLine
 10
190.3819999999999
 20
23.200061455377
 30
0.0
 11
190.3819999999999
 21
21.38741857012339
 31
0.0
  0
LINE
  5
440
330
1E
100
AcDbEntity
  8
0
100
AcDbLine
 10
190.3819999999999
 20
21.38741857012339
 30
0.0
 11
190.3819999999999
 21
23.200061455377
 31
0.0
  0
LINE
  5
441
330
1E
100
AcDbEntity
  8
0
100
AcDbLine
 10
189.55
 20
32.6291305096177
 30
0.0
 11
189.55
 21
34.4417733948713
 31
0.0
  0
LINE
  5
442
330
1E
100
AcDbEntity
  8
0
100
AcDbLine
 10
189.55
 20
32.6291305096177
 30
0.0
 11
191.282
 21
32.20654153361989
 31
0.0
  0
LINE
  5
443
330
1E
100
AcDbEntity
  8
0
100
AcDbLine
 10
189.55
 20
32.6291305096177
 30
0.0
 11
190.55
 21
33.36105461604599
 31
0.0
  0
LINE
  5
444
330
1E
100
AcDbEntity
  8
0
100
AcDbLine
 10
190.55
 20
35.1736975012996
 30
0.0
 11
190.55
 21
33.36105461604599
 31
0.0
  0
LINE
  5
445
330
1E
100
AcDbEntity
  8
0
100
AcDbLine
 10
190.55
 20
35.1736975012996
 30
0.0
 11
192.282
 21
34.7511085253017
 31
0.0
  0
LINE
  5
446
330
1E
100
AcDbEntity
  8
0
100
AcDbLine
 10
198.16
 20
16.9050173017144
 30
0.0
 11
198.16
 21
18.717660186968
 31
0.0
  0
LINE
  5
447
330
1E
100
AcDbEntity
  8
0
100
AcDbLine
 10
198.16
 20
16.9050173017144
 30
0.0
 11
199.5749999999999
 21
16.3074764896534
 31
0.0
  0
LINE
  5
448
330
1E
100
AcDbEntity
  8
0
100
AcDbLine
 10
198.16
 20
16.9050173017144
 30
0.0
 11
199.5749999999999
 21
17.5029807027513
 31
0.0
  0
LINE
  5
449
330
1E
100
AcDbEntity
  8
0
100
AcDbLine
 10
199.5749999999999
 20
16.3074764896534
 30
0.0
 11
200.9889999999999
 21
16.9050173017144
 31
0.0
  0
LINE
  5
44A
330
1E
100
AcDbEntity
  8
0
100
AcDbLine
 10
198.16
 20
18.717660186968
 30
0.0
 11
198.16
 21
16.9050173017144
 31
0.0
  0
LINE
  5
44B
330
1E
100
AcDbEntity
  8
0
100
AcDbLine
 10
198.16
 20
18.717660186968
 30
0.0
 11
199.5749999999999
 21
19.3156235880049
 31
0.0
  0
LINE
  5
44C
330
1E
100
AcDbEntity
  8
0
100
AcDbLine
 10
199.5749999999999
 20
19.3156235880049
 30
0.0
 11
199.5749999999999
 21
17.5029807027513
 31
0.0
  0
LINE
  5
44D
330
1E
100
AcDbEntity
  8
0
100
AcDbLine
 10
199.5749999999999
 20
19.3156235880049
 30
0.0
 11
200.9889999999999
 21
18.717660186968
 31
0.0
  0
LINE
  5
44E
330
1E
100
AcDbEntity
  8
0
100
AcDbLine
 10
199.5749999999999
 20
17.5029807027513
 30
0.0
 11
200.9889999999999
 21
16.9050173017144
 31
0.0
  0
LINE
  5
44F
330
1E
100
AcDbEntity
  8
0
100
AcDbLine
 10
199.5749999999999
 20
17.5029807027513
 30
0.0
 11
199.5749999999999
 21
19.3156235880049
 31
0.0
  0
LINE
  5
450
330
1E
100
AcDbEntity
  8
0
100
AcDbLine
 10
191.282
 20
32.20654153361989
 30
0.0
 11
192.282
 21
32.9384656400482
 31
0.0
  0
LINE
  5
451
330
1E
100
AcDbEntity
  8
0
100
AcDbLine
 10
192.282
 20
34.7511085253017
 30
0.0
 11
192.282
 21
32.9384656400482
 31
0.0
  0
LINE
  5
452
330
1E
100
AcDbEntity
  8
0
100
AcDbLine
 10
192.282
 20
32.9384656400482
 30
0.0
 11
192.282
 21
34.7511085253017
 31
0.0
  0
LINE
  5
453
330
1E
100
AcDbEntity
  8
0
100
AcDbLine
 10
190.55
 20
33.36105461604599
 30
0.0
 11
192.282
 21
32.9384656400482
 31
0.0
  0
LINE
  5
454
330
1E
100
AcDbEntity
  8
0
100
AcDbLine
 10
190.55
 20
33.36105461604599
 30
0.0
 11
190.55
 21
35.1736975012996
 31
0.0
  0
LINE
  5
455
330
1E
100
AcDbEntity
  8
0
100
AcDbLine
 10
197.583
 20
40.5366154284892
 30
0.0
 11
197.583
 21
42.34925831374279
 31
0.0
  0
LINE
  5
456
330
1E
100
AcDbEntity
  8
0
100
AcDbLine
 10
197.583
 20
40.5366154284892
 30
0.0
 11
199.5149999999999
 21
40.31813692789829
 31
0.0
  0
LINE
  5
457
330
1E
100
AcDbEntity
  8
0
100
AcDbLine
 10
197.583
 20
40.5366154284892
 30
0.0
 11
198.1009999999999
 21
41.353057330117
 31
0.0
  0
LINE
  5
458
330
1E
100
AcDbEntity
  8
0
100
AcDbLine
 10
199.5149999999999
 20
40.31813692789829
 30
0.0
 11
200.0329999999999
 21
41.13415624055011
 31
0.0
  0
LINE
  5
459
330
1E
100
AcDbEntity
  8
0
100
AcDbLine
 10
200.9889999999999
 20
18.717660186968
 30
0.0
 11
200.9889999999999
 21
16.9050173017144
 31
0.0
  0
LINE
  5
45A
330
1E
100
AcDbEntity
  8
0
100
AcDbLine
 10
200.9889999999999
 20
16.9050173017144
 30
0.0
 11
200.9889999999999
 21
18.717660186968
 31
0.0
  0
LINE
  5
45B
330
1E
100
AcDbEntity
  8
0
100
AcDbLine
 10
200.0329999999999
 20
41.13415624055011
 30
0.0
 11
200.0329999999999
 21
42.9467991258037
 31
0.0
  0
LINE
  5
45C
330
1E
100
AcDbEntity
  8
0
100
AcDbLine
 10
197.583
 20
42.34925831374279
 30
0.0
 11
197.583
 21
40.5366154284892
 31
0.0
  0
LINE
  5
45D
330
1E
100
AcDbEntity
  8
0
100
AcDbLine
 10
197.583
 20
42.34925831374279
 30
0.0
 11
198.1009999999999
 21
43.16570021537059
 31
0.0
  0
LINE
  5
45E
330
1E
100
AcDbEntity
  8
0
100
AcDbLine
 10
200.0329999999999
 20
42.9467991258037
 30
0.0
 11
200.0329999999999
 21
41.13415624055011
 31
0.0
  0
LINE
  5
45F
330
1E
100
AcDbEntity
  8
0
100
AcDbLine
 10
198.1009999999999
 20
43.16570021537059
 30
0.0
 11
198.1009999999999
 21
41.353057330117
 31
0.0
  0
LINE
  5
460
330
1E
100
AcDbEntity
  8
0
100
AcDbLine
 10
198.1009999999999
 20
43.16570021537059
 30
0.0
 11
200.0329999999999
 21
42.9467991258037
 31
0.0
  0
LINE
  5
461
330
1E
100
AcDbEntity
  8
0
100
AcDbLine
 10
198.1009999999999
 20
41.353057330117
 30
0.0
 11
200.0329999999999
 21
41.13415624055011
 31
0.0
  0
LINE
  5
462
330
1E
100
AcDbEntity
  8
0
100
AcDbLine
 10
198.1009999999999
 20
41.353057330117
 30
0.0
 11
198.1009999999999
 21
43.16570021537059
 31
0.0
  0
LINE
  5
463
330
1E
100
AcDbEntity
  8
0
100
AcDbLine
 10
202.4999999999999
 20
49.0534736507495
 30
0.0
 11
202.4999999999999
 21
49.89865160274519
 31
0.0
  0
LINE
  5
464
330
1E
100
AcDbEntity
  8
0
100
AcDbLine
 10
200.4999999999999
 20
49.0534736507495
 30
0.0
 11
200.4999999999999
 21
50.86611653600311
 31
0.0
  0
LINE
  5
465
330
1E
100
AcDbEntity
  8
0
100
AcDbLine
 10
200.4999999999999
 20
49.0534736507495
 30
0.0
 11
202.4999999999999
 21
49.0534736507495
 31
0.0
  0
LINE
  5
466
330
1E
100
AcDbEntity
  8
0
100
AcDbLine
 10
200.4999999999999
 20
49.0534736507495
 30
0.0
 11
200.4999999999999
 21
49.89865160274519
 31
0.0
  0
LINE
  5
467
330
1E
100
AcDbEntity
  8
0
100
AcDbLine
 10
202.5399999999999
 20
31.2723560748876
 30
0.0
 11
202.5399999999999
 21
29.45971318963399
 31
0.0
  0
LINE
  5
468
330
1E
100
AcDbEntity
  8
0
100
AcDbLine
 10
202.5399999999999
 20
31.2723560748876
 30
0.0
 11
203.54
 21
32.0042801813158
 31
0.0
  0
LINE
  5
469
330
1E
100
AcDbEntity
  8
0
100
AcDbLine
 10
202.5399999999999
 20
29.45971318963399
 30
0.0
 11
202.5399999999999
 21
31.2723560748876
 31
0.0
  0
LINE
  5
46A
330
1E
100
AcDbEntity
  8
0
100
AcDbLine
 10
202.5399999999999
 20
29.45971318963399
 30
0.0
 11
204.272
 21
29.0371242136361
 31
0.0
  0
LINE
  5
46B
330
1E
100
AcDbEntity
  8
0
100
AcDbLine
 10
202.5399999999999
 20
29.45971318963399
 30
0.0
 11
203.54
 21
30.19163729606219
 31
0.0
  0
LINE
  5
46C
330
1E
100
AcDbEntity
  8
0
100
AcDbLine
 10
203.54
 20
32.0042801813158
 30
0.0
 11
203.54
 21
30.19163729606219
 31
0.0
  0
LINE
  5
46D
330
1E
100
AcDbEntity
  8
0
100
AcDbLine
 10
203.54
 20
32.0042801813158
 30
0.0
 11
205.272
 21
31.581691205318
 31
0.0
  0
LINE
  5
46E
330
1E
100
AcDbEntity
  8
0
100
AcDbLine
 10
208.3
 20
15.0305713713869
 30
0.0
 11
227.7
 21
25.7643313617318
 31
0.0
  0
LINE
  5
46F
330
1E
100
AcDbEntity
  8
0
100
AcDbLine
 10
204.272
 20
29.0371242136361
 30
0.0
 11
205.272
 21
29.76904832006439
 31
0.0
  0
LINE
  5
470
330
1E
100
AcDbEntity
  8
0
100
AcDbLine
 10
205.272
 20
31.581691205318
 30
0.0
 11
205.272
 21
29.76904832006439
 31
0.0
  0
LINE
  5
471
330
1E
100
AcDbEntity
  8
0
100
AcDbLine
 10
205.272
 20
29.76904832006439
 30
0.0
 11
205.272
 21
31.581691205318
 31
0.0
  0
LINE
  5
472
330
1E
100
AcDbEntity
  8
0
100
AcDbLine
 10
203.54
 20
30.19163729606219
 30
0.0
 11
205.272
 21
29.76904832006439
 31
0.0
  0
LINE
  5
473
330
1E
100
AcDbEntity
  8
0
100
AcDbLine
 10
203.54
 20
30.19163729606219
 30
0.0
 11
203.54
 21
32.0042801813158
 31
0.0
  0
LINE
  5
474
330
1E
100
AcDbEntity
  8
0
100
AcDbLine
 10
212.0719999999999
 20
38.8961250236656
 30
0.0
 11
212.0719999999999
 21
40.7087679089192
 31
0.0
  0
LINE
  5
475
330
1E
100
AcDbEntity
  8
0
100
AcDbLine
 10
212.0719999999999
 20
38.8961250236656
 30
0.0
 11
214.004
 21
38.6772239340987
 31
0.0
  0
LINE
  5
476
330
1E
100
AcDbEntity
  8
0
100
AcDbLine
 10
212.0719999999999
 20
38.8961250236656
 30
0.0
 11
212.59
 21
39.71256692529339
 31
0.0
  0
LINE
  5
477
330
1E
100
AcDbEntity
  8
0
100
AcDbLine
 10
214.004
 20
38.6772239340987
 30
0.0
 11
214.522
 21
39.49366583572649
 31
0.0
  0
LINE
  5
478
330
1E
100
AcDbEntity
  8
0
100
AcDbLine
 10
215.5309999999999
 20
26.29029586965019
 30
0.0
 11
215.5309999999999
 21
28.1029387549038
 31
0.0
  0
LINE
  5
479
330
1E
100
AcDbEntity
  8
0
100
AcDbLine
 10
215.5309999999999
 20
26.29029586965019
 30
0.0
 11
217.263
 21
25.8677068936524
 31
0.0
  0
LINE
  5
47A
330
1E
100
AcDbEntity
  8
0
100
AcDbLine
 10
215.5309999999999
 20
26.29029586965019
 30
0.0
 11
216.5309999999999
 21
27.0222199760785
 31
0.0
  0
LINE
  5
47B
330
1E
100
AcDbEntity
  8
0
100
AcDbLine
 10
217.263
 20
25.8677068936524
 30
0.0
 11
218.263
 21
26.5996310000807
 31
0.0
  0
LINE
  5
47C
330
1E
100
AcDbEntity
  8
0
100
AcDbLine
 10
215.5309999999999
 20
28.1029387549038
 30
0.0
 11
215.5309999999999
 21
26.29029586965019
 31
0.0
  0
LINE
  5
47D
330
1E
100
AcDbEntity
  8
0
100
AcDbLine
 10
215.5309999999999
 20
28.1029387549038
 30
0.0
 11
216.5309999999999
 21
28.8348628613321
 31
0.0
  0
LINE
  5
47E
330
1E
100
AcDbEntity
  8
0
100
AcDbLine
 10
216.5309999999999
 20
28.8348628613321
 30
0.0
 11
216.5309999999999
 21
27.0222199760785
 31
0.0
  0
LINE
  5
47F
330
1E
100
AcDbEntity
  8
0
100
AcDbLine
 10
216.5309999999999
 20
28.8348628613321
 30
0.0
 11
218.263
 21
28.4122738853342
 31
0.0
  0
LINE
  5
480
330
1E
100
AcDbEntity
  8
0
100
AcDbLine
 10
216.5309999999999
 20
27.0222199760785
 30
0.0
 11
218.263
 21
26.5996310000807
 31
0.0
  0
LINE
  5
481
330
1E
100
AcDbEntity
  8
0
100
AcDbLine
 10
216.5309999999999
 20
27.0222199760785
 30
0.0
 11
216.5309999999999
 21
28.8348628613321
 31
0.0
  0
LINE
  5
482
330
1E
100
AcDbEntity
  8
0
100
AcDbLine
 10
214.522
 20
39.49366583572649
 30
0.0
 11
214.522
 21
41.30630872098009
 31
0.0
  0
LINE
  5
483
330
1E
100
AcDbEntity
  8
0
100
AcDbLine
 10
212.0719999999999
 20
40.7087679089192
 30
0.0
 11
212.0719999999999
 21
38.8961250236656
 31
0.0
  0
LINE
  5
484
330
1E
100
AcDbEntity
  8
0
100
AcDbLine
 10
212.0719999999999
 20
40.7087679089192
 30
0.0
 11
212.59
 21
41.52520981054699
 31
0.0
  0
LINE
  5
485
330
1E
100
AcDbEntity
  8
0
100
AcDbLine
 10
214.522
 20
41.30630872098009
 30
0.0
 11
214.522
 21
39.49366583572649
 31
0.0
  0
LINE
  5
486
330
1E
100
AcDbEntity
  8
0
100
AcDbLine
 10
212.59
 20
41.52520981054699
 30
0.0
 11
212.59
 21
39.71256692529339
 31
0.0
  0
LINE
  5
487
330
1E
100
AcDbEntity
  8
0
100
AcDbLine
 10
212.59
 20
41.52520981054699
 30
0.0
 11
214.522
 21
41.30630872098009
 31
0.0
  0
LINE
  5
488
330
1E
100
AcDbEntity
  8
0
100
AcDbLine
 10
212.59
 20
39.71256692529339
 30
0.0
 11
214.522
 21
39.49366583572649
 31
0.0
  0
LINE
  5
489
330
1E
100
AcDbEntity
  8
0
100
AcDbLine
 10
212.59
 20
39.71256692529339
 30
0.0
 11
212.59
 21
41.52520981054699
 31
0.0
  0
LINE
  5
48A
330
1E
100
AcDbEntity
  8
0
100
AcDbLine
 10
218.263
 20
28.4122738853342
 30
0.0
 11
218.263
 21
26.5996310000807
 31
0.0
  0
LINE
  5
48B
330
1E
100
AcDbEntity
  8
0
100
AcDbLine
 10
228.6
 20
26.4593583163597
 30
0.0
 11
240.9
 21
38.883474210696
 31
0.0
  0
LINE
  5
48C
330
1E
100
AcDbEntity
  8
0
100
AcDbLine
 10
227.7
 20
25.7643313617318
 30
0.0
 11
239.5999999999999
 21
38.10392946086849
 31
0.0
  0
LINE
  5
48D
330
1E
100
AcDbEntity
  8
0
100
AcDbLine
 10
227.7
 20
25.7643313617318
 30
0.0
 11
228.6
 21
26.4593583163597
 31
0.0
  0
LINE
  5
48E
330
1E
100
AcDbEntity
  8
0
100
AcDbLine
 10
218.263
 20
26.5996310000807
 30
0.0
 11
218.263
 21
28.4122738853342
 31
0.0
  0
LINE
  5
48F
330
1E
100
AcDbEntity
  8
0
100
AcDbLine
 10
226.5609999999999
 20
37.255634618842
 30
0.0
 11
226.5609999999999
 21
39.0682775040956
 31
0.0
  0
LINE
  5
490
330
1E
100
AcDbEntity
  8
0
100
AcDbLine
 10
226.5609999999999
 20
37.255634618842
 30
0.0
 11
228.493
 21
37.0367335292751
 31
0.0
  0
LINE
  5
491
330
1E
100
AcDbEntity
  8
0
100
AcDbLine
 10
226.5609999999999
 20
37.255634618842
 30
0.0
 11
227.079
 21
38.0716539314938
 31
0.0
  0
LINE
  5
492
330
1E
100
AcDbEntity
  8
0
100
AcDbLine
 10
228.493
 20
37.0367335292751
 30
0.0
 11
229.0109999999999
 21
37.8531754309029
 31
0.0
  0
LINE
  5
493
330
1E
100
AcDbEntity
  8
0
100
AcDbLine
 10
229.0109999999999
 20
37.8531754309029
 30
0.0
 11
229.0109999999999
 21
39.6658183161565
 31
0.0
  0
LINE
  5
494
330
1E
100
AcDbEntity
  8
0
100
AcDbLine
 10
226.5609999999999
 20
39.0682775040956
 30
0.0
 11
226.5609999999999
 21
37.255634618842
 31
0.0
  0
LINE
  5
495
330
1E
100
AcDbEntity
  8
0
100
AcDbLine
 10
226.5609999999999
 20
39.0682775040956
 30
0.0
 11
227.079
 21
39.8842968167474
 31
0.0
  0
LINE
  5
496
330
1E
100
AcDbEntity
  8
0
100
AcDbLine
 10
229.0109999999999
 20
39.6658183161565
 30
0.0
 11
229.0109999999999
 21
37.8531754309029
 31
0.0
  0
LINE
  5
497
330
1E
100
AcDbEntity
  8
0
100
AcDbLine
 10
227.079
 20
39.8842968167474
 30
0.0
 11
227.079
 21
38.0716539314938
 31
0.0
  0
LINE
  5
498
330
1E
100
AcDbEntity
  8
0
100
AcDbLine
 10
227.079
 20
39.8842968167474
 30
0.0
 11
229.0109999999999
 21
39.6658183161565
 31
0.0
  0
LINE
  5
499
330
1E
100
AcDbEntity
  8
0
100
AcDbLine
 10
227.079
 20
38.0716539314938
 30
0.0
 11
229.0109999999999
 21
37.8531754309029
 31
0.0
  0
LINE
  5
49A
330
1E
100
AcDbEntity
  8
0
100
AcDbLine
 10
227.079
 20
38.0716539314938
 30
0.0
 11
227.079
 21
39.8842968167474
 31
0.0
  0
LINE
  5
49B
330
1E
100
AcDbEntity
  8
0
100
AcDbLine
 10
217.5
 20
49.0534736507495
 30
0.0
 11
217.5
 21
49.89865160274519
 31
0.0
  0
LINE
  5
49C
330
1E
100
AcDbEntity
  8
0
100
AcDbLine
 10
215.5
 20
49.0534736507495
 30
0.0
 11
215.5
 21
50.86611653600311
 31
0.0
  0
LINE
  5
49D
330
1E
100
AcDbEntity
  8
0
100
AcDbLine
 10
215.5
 20
49.0534736507495
 30
0.0
 11
217.5
 21
49.0534736507495
 31
0.0
  0
LINE
  5
49E
330
1E
100
AcDbEntity
  8
0
100
AcDbLine
 10
215.5
 20
49.0534736507495
 30
0.0
 11
215.5
 21
49.89865160274519
 31
0.0
  0
LINE
  5
49F
330
1E
100
AcDbEntity
  8
0
100
AcDbLine
 10
232.5
 20
49.0534736507495
 30
0.0
 11
232.5
 21
49.89865160274519
 31
0.0
  0
LINE
  5
4A0
330
1E
100
AcDbEntity
  8
0
100
AcDbLine
 10
217.5
 20
49.89865160274519
 30
0.0
 11
217.5
 21
51.7112944879987
 31
0.0
  0
LINE
  5
4A1
330
1E
100
AcDbEntity
  8
0
100
AcDbLine
 10
217.5
 20
49.89865160274519
 30
0.0
 11
217.5
 21
49.0534736507495
 31
0.0
  0
LINE
  5
4A2
330
1E
100
AcDbEntity
  8
0
100
AcDbLine
 10
215.5
 20
49.89865160274519
 30
0.0
 11
217.5
 21
49.89865160274519
 31
0.0
  0
LINE
  5
4A3
330
1E
100
AcDbEntity
  8
0
100
AcDbLine
 10
215.5
 20
49.89865160274519
 30
0.0
 11
215.5
 21
49.0534736507495
 31
0.0
  0
LINE
  5
4A4
330
1E
100
AcDbEntity
  8
0
100
AcDbLine
 10
215.5
 20
49.89865160274519
 30
0.0
 11
215.5
 21
51.7112944879987
 31
0.0
  0
LINE
  5
4A5
330
1E
100
AcDbEntity
  8
0
100
AcDbLine
 10
230.5
 20
49.0534736507495
 30
0.0
 11
230.5
 21
50.86611653600311
 31
0.0
  0
LINE
  5
4A6
330
1E
100
AcDbEntity
  8
0
100
AcDbLine
 10
230.5
 20
49.0534736507495
 30
0.0
 11
232.5
 21
49.0534736507495
 31
0.0
  0
LINE
  5
4A7
330
1E
100
AcDbEntity
  8
0
100
AcDbLine
 10
230.5
 20
49.0534736507495
 30
0.0
 11
230.5
 21
49.89865160274519
 31
0.0
  0
LINE
  5
4A8
330
1E
100
AcDbEntity
  8
0
100
AcDbLine
 10
240.9
 20
38.883474210696
 30
0.0
 11
245.0
 21
52.19502695462771
 31
0.0
  0
LINE
  5
4A9
330
1E
100
AcDbEntity
  8
0
100
AcDbLine
 10
239.5999999999999
 20
38.10392946086849
 30
0.0
 11
244.0
 21
51.2887055120009
 31
0.0
  0
LINE
  5
4AA
330
1E
100
AcDbEntity
  8
0
100
AcDbLine
 10
232.5
 20
49.89865160274519
 30
0.0
 11
232.5
 21
51.7112944879987
 31
0.0
  0
LINE
  5
4AB
330
1E
100
AcDbEntity
  8
0
100
AcDbLine
 10
232.5
 20
49.89865160274519
 30
0.0
 11
232.5
 21
49.0534736507495
 31
0.0
  0
LINE
  5
4AC
330
1E
100
AcDbEntity
  8
0
100
AcDbLine
 10
230.5
 20
49.89865160274519
 30
0.0
 11
232.5
 21
49.89865160274519
 31
0.0
  0
LINE
  5
4AD
330
1E
100
AcDbEntity
  8
0
100
AcDbLine
 10
230.5
 20
49.89865160274519
 30
0.0
 11
230.5
 21
49.0534736507495
 31
0.0
  0
LINE
  5
4AE
330
1E
100
AcDbEntity
  8
0
100
AcDbLine
 10
230.5
 20
49.89865160274519
 30
0.0
 11
230.5
 21
51.7112944879987
 31
0.0
  0
LINE
  5
4AF
330
1E
100
AcDbEntity
  8
0
100
AcDbLine
 10
202.4999999999999
 20
49.89865160274519
 30
0.0
 11
202.4999999999999
 21
51.7112944879987
 31
0.0
  0
LINE
  5
4B0
330
1E
100
AcDbEntity
  8
0
100
AcDbLine
 10
202.4999999999999
 20
49.89865160274519
 30
0.0
 11
202.4999999999999
 21
49.0534736507495
 31
0.0
  0
LINE
  5
4B1
330
1E
100
AcDbEntity
  8
0
100
AcDbLine
 10
200.4999999999999
 20
49.89865160274519
 30
0.0
 11
202.4999999999999
 21
49.89865160274519
 31
0.0
  0
LINE
  5
4B2
330
1E
100
AcDbEntity
  8
0
100
AcDbLine
 10
200.4999999999999
 20
49.89865160274519
 30
0.0
 11
200.4999999999999
 21
49.0534736507495
 31
0.0
  0
LINE
  5
4B3
330
1E
100
AcDbEntity
  8
0
100
AcDbLine
 10
200.4999999999999
 20
49.89865160274519
 30
0.0
 11
200.4999999999999
 21
51.7112944879987
 31
0.0
  0
LINE
  5
4B4
330
1E
100
AcDbEntity
  8
0
100
AcDbLine
 10
187.5
 20
49.89865160274519
 30
0.0
 11
187.5
 21
51.7112944879987
 31
0.0
  0
LINE
  5
4B5
330
1E
100
AcDbEntity
  8
0
100
AcDbLine
 10
187.5
 20
49.89865160274519
 30
0.0
 11
187.5
 21
49.0534736507495
 31
0.0
  0
LINE
  5
4B6
330
1E
100
AcDbEntity
  8
0
100
AcDbLine
 10
170.5
 20
50.86611653600311
 30
0.0
 11
170.5
 21
49.0534736507495
 31
0.0
  0
LINE
  5
4B7
330
1E
100
AcDbEntity
  8
0
100
AcDbLine
 10
170.5
 20
50.86611653600311
 30
0.0
 11
170.5
 21
51.7112944879987
 31
0.0
  0
LINE
  5
4B8
330
1E
100
AcDbEntity
  8
0
100
AcDbLine
 10
155.4999999999999
 20
50.86611653600311
 30
0.0
 11
155.4999999999999
 21
49.0534736507495
 31
0.0
  0
LINE
  5
4B9
330
1E
100
AcDbEntity
  8
0
100
AcDbLine
 10
155.4999999999999
 20
50.86611653600311
 30
0.0
 11
155.4999999999999
 21
51.7112944879987
 31
0.0
  0
LINE
  5
4BA
330
1E
100
AcDbEntity
  8
0
100
AcDbLine
 10
140.145
 20
51.0366837151073
 30
0.0
 11
142.077
 21
51.25516221569821
 31
0.0
  0
LINE
  5
4BB
330
1E
100
AcDbEntity
  8
0
100
AcDbLine
 10
104.855
 20
51.0366837151073
 30
0.0
 11
105.372
 21
51.8531256167351
 31
0.0
  0
LINE
  5
4BC
330
1E
100
AcDbEntity
  8
0
100
AcDbLine
 10
140.5
 20
50.86611653600311
 30
0.0
 11
140.5
 21
49.0534736507495
 31
0.0
  0
LINE
  5
4BD
330
1E
100
AcDbEntity
  8
0
100
AcDbLine
 10
140.5
 20
50.86611653600311
 30
0.0
 11
140.5
 21
51.07682857417029
 31
0.0
  0
LINE
  5
4BE
330
1E
100
AcDbEntity
  8
0
100
AcDbLine
 10
215.5
 20
50.86611653600311
 30
0.0
 11
215.5
 21
49.0534736507495
 31
0.0
  0
LINE
  5
4BF
330
1E
100
AcDbEntity
  8
0
100
AcDbLine
 10
215.5
 20
50.86611653600311
 30
0.0
 11
215.5
 21
51.7112944879987
 31
0.0
  0
LINE
  5
4C0
330
1E
100
AcDbEntity
  8
0
100
AcDbLine
 10
230.5
 20
50.86611653600311
 30
0.0
 11
230.5
 21
49.0534736507495
 31
0.0
  0
LINE
  5
4C1
330
1E
100
AcDbEntity
  8
0
100
AcDbLine
 10
230.5
 20
50.86611653600311
 30
0.0
 11
230.5
 21
51.7112944879987
 31
0.0
  0
LINE
  5
4C2
330
1E
100
AcDbEntity
  8
0
100
AcDbLine
 10
200.4999999999999
 20
50.86611653600311
 30
0.0
 11
200.4999999999999
 21
49.0534736507495
 31
0.0
  0
LINE
  5
4C3
330
1E
100
AcDbEntity
  8
0
100
AcDbLine
 10
200.4999999999999
 20
50.86611653600311
 30
0.0
 11
200.4999999999999
 21
51.7112944879987
 31
0.0
  0
LINE
  5
4C4
330
1E
100
AcDbEntity
  8
0
100
AcDbLine
 10
185.5
 20
50.86611653600311
 30
0.0
 11
185.5
 21
49.0534736507495
 31
0.0
  0
LINE
  5
4C5
330
1E
100
AcDbEntity
  8
0
100
AcDbLine
 10
185.5
 20
50.86611653600311
 30
0.0
 11
185.5
 21
51.7112944879987
 31
0.0
  0
LINE
  5
4C6
330
1E
100
AcDbEntity
  8
0
100
AcDbLine
 10
185.5
 20
49.89865160274519
 30
0.0
 11
187.5
 21
49.89865160274519
 31
0.0
  0
LINE
  5
4C7
330
1E
100
AcDbEntity
  8
0
100
AcDbLine
 10
185.5
 20
49.89865160274519
 30
0.0
 11
185.5
 21
49.0534736507495
 31
0.0
  0
LINE
  5
4C8
330
1E
100
AcDbEntity
  8
0
100
AcDbLine
 10
185.5
 20
49.89865160274519
 30
0.0
 11
185.5
 21
51.7112944879987
 31
0.0
  0
LINE
  5
4C9
330
1E
100
AcDbEntity
  8
0
100
AcDbLine
 10
104.4999999999999
 20
49.89865160274519
 30
0.0
 11
104.4999999999999
 21
49.0534736507495
 31
0.0
  0
LINE
  5
4CA
330
1E
100
AcDbEntity
  8
0
100
AcDbLine
 10
104.4999999999999
 20
49.89865160274519
 30
0.0
 11
104.4999999999999
 21
51.07682857417029
 31
0.0
  0
LINE
  5
4CB
330
1E
100
AcDbEntity
  8
0
100
AcDbLine
 10
142.077
 20
51.25516221569821
 30
0.0
 11
142.077
 21
53.0678051009518
 31
0.0
  0
LINE
  5
4CC
330
1E
100
AcDbEntity
  8
0
100
AcDbLine
 10
102.9229999999999
 20
51.25516221569821
 30
0.0
 11
102.9229999999999
 21
53.0678051009518
 31
0.0
  0
LINE
  5
4CD
330
1E
100
AcDbEntity
  8
0
100
AcDbLine
 10
102.9229999999999
 20
51.25516221569821
 30
0.0
 11
103.4399999999999
 21
52.071604117326
 31
0.0
  0
LINE
  5
4CE
330
1E
100
AcDbEntity
  8
0
100
AcDbLine
 10
102.9229999999999
 20
51.25516221569821
 30
0.0
 11
104.855
 21
51.0366837151073
 31
0.0
  0
LINE
  5
4CF
330
1E
100
AcDbEntity
  8
0
100
AcDbLine
 10
172.5
 20
51.7112944879987
 30
0.0
 11
172.5
 21
49.89865160274519
 31
0.0
  0
LINE
  5
4D0
330
1E
100
AcDbEntity
  8
0
100
AcDbLine
 10
170.5
 20
51.7112944879987
 30
0.0
 11
170.5
 21
49.89865160274519
 31
0.0
  0
LINE
  5
4D1
330
1E
100
AcDbEntity
  8
0
100
AcDbLine
 10
170.5
 20
51.7112944879987
 30
0.0
 11
172.5
 21
51.7112944879987
 31
0.0
  0
LINE
  5
4D2
330
1E
100
AcDbEntity
  8
0
100
AcDbLine
 10
170.5
 20
51.7112944879987
 30
0.0
 11
170.5
 21
50.86611653600311
 31
0.0
  0
LINE
  5
4D3
330
1E
100
AcDbEntity
  8
0
100
AcDbLine
 10
157.5
 20
51.7112944879987
 30
0.0
 11
157.5
 21
49.89865160274519
 31
0.0
  0
LINE
  5
4D4
330
1E
100
AcDbEntity
  8
0
100
AcDbLine
 10
155.4999999999999
 20
51.7112944879987
 30
0.0
 11
155.4999999999999
 21
49.89865160274519
 31
0.0
  0
LINE
  5
4D5
330
1E
100
AcDbEntity
  8
0
100
AcDbLine
 10
155.4999999999999
 20
51.7112944879987
 30
0.0
 11
157.5
 21
51.7112944879987
 31
0.0
  0
LINE
  5
4D6
330
1E
100
AcDbEntity
  8
0
100
AcDbLine
 10
155.4999999999999
 20
51.7112944879987
 30
0.0
 11
155.4999999999999
 21
50.86611653600311
 31
0.0
  0
LINE
  5
4D7
330
1E
100
AcDbEntity
  8
0
100
AcDbLine
 10
142.5
 20
51.7112944879987
 30
0.0
 11
142.5
 21
49.89865160274519
 31
0.0
  0
LINE
  5
4D8
330
1E
100
AcDbEntity
  8
0
100
AcDbLine
 10
142.077
 20
51.7112944879987
 30
0.0
 11
142.5
 21
51.7112944879987
 31
0.0
  0
LINE
  5
4D9
330
1E
100
AcDbEntity
  8
0
100
AcDbLine
 10
140.5
 20
51.07682857417029
 30
0.0
 11
140.5
 21
49.89865160274519
 31
0.0
  0
LINE
  5
4DA
330
1E
100
AcDbEntity
  8
0
100
AcDbLine
 10
140.5
 20
51.07682857417029
 30
0.0
 11
140.5
 21
50.86611653600311
 31
0.0
  0
LINE
  5
4DB
330
1E
100
AcDbEntity
  8
0
100
AcDbLine
 10
217.5
 20
51.7112944879987
 30
0.0
 11
217.5
 21
49.89865160274519
 31
0.0
  0
LINE
  5
4DC
330
1E
100
AcDbEntity
  8
0
100
AcDbLine
 10
215.5
 20
51.7112944879987
 30
0.0
 11
215.5
 21
49.89865160274519
 31
0.0
  0
LINE
  5
4DD
330
1E
100
AcDbEntity
  8
0
100
AcDbLine
 10
215.5
 20
51.7112944879987
 30
0.0
 11
217.5
 21
51.7112944879987
 31
0.0
  0
LINE
  5
4DE
330
1E
100
AcDbEntity
  8
0
100
AcDbLine
 10
215.5
 20
51.7112944879987
 30
0.0
 11
215.5
 21
50.86611653600311
 31
0.0
  0
LINE
  5
4DF
330
1E
100
AcDbEntity
  8
0
100
AcDbLine
 10
232.5
 20
51.7112944879987
 30
0.0
 11
232.5
 21
49.89865160274519
 31
0.0
  0
LINE
  5
4E0
330
1E
100
AcDbEntity
  8
0
100
AcDbLine
 10
230.5
 20
51.7112944879987
 30
0.0
 11
230.5
 21
49.89865160274519
 31
0.0
  0
LINE
  5
4E1
330
1E
100
AcDbEntity
  8
0
100
AcDbLine
 10
230.5
 20
51.7112944879987
 30
0.0
 11
232.5
 21
51.7112944879987
 31
0.0
  0
LINE
  5
4E2
330
1E
100
AcDbEntity
  8
0
100
AcDbLine
 10
230.5
 20
51.7112944879987
 30
0.0
 11
230.5
 21
50.86611653600311
 31
0.0
  0
LINE
  5
4E3
330
1E
100
AcDbEntity
  8
0
100
AcDbLine
 10
202.4999999999999
 20
51.7112944879987
 30
0.0
 11
202.4999999999999
 21
49.89865160274519
 31
0.0
  0
LINE
  5
4E4
330
1E
100
AcDbEntity
  8
0
100
AcDbLine
 10
200.4999999999999
 20
51.7112944879987
 30
0.0
 11
200.4999999999999
 21
49.89865160274519
 31
0.0
  0
LINE
  5
4E5
330
1E
100
AcDbEntity
  8
0
100
AcDbLine
 10
200.4999999999999
 20
51.7112944879987
 30
0.0
 11
202.4999999999999
 21
51.7112944879987
 31
0.0
  0
LINE
  5
4E6
330
1E
100
AcDbEntity
  8
0
100
AcDbLine
 10
200.4999999999999
 20
51.7112944879987
 30
0.0
 11
200.4999999999999
 21
50.86611653600311
 31
0.0
  0
LINE
  5
4E7
330
1E
100
AcDbEntity
  8
0
100
AcDbLine
 10
187.5
 20
51.7112944879987
 30
0.0
 11
187.5
 21
49.89865160274519
 31
0.0
  0
LINE
  5
4E8
330
1E
100
AcDbEntity
  8
0
100
AcDbLine
 10
185.5
 20
51.7112944879987
 30
0.0
 11
185.5
 21
49.89865160274519
 31
0.0
  0
LINE
  5
4E9
330
1E
100
AcDbEntity
  8
0
100
AcDbLine
 10
185.5
 20
51.7112944879987
 30
0.0
 11
187.5
 21
51.7112944879987
 31
0.0
  0
LINE
  5
4EA
330
1E
100
AcDbEntity
  8
0
100
AcDbLine
 10
185.5
 20
51.7112944879987
 30
0.0
 11
185.5
 21
50.86611653600311
 31
0.0
  0
LINE
  5
4EB
330
1E
100
AcDbEntity
  8
0
100
AcDbLine
 10
104.4999999999999
 20
51.07682857417029
 30
0.0
 11
104.4999999999999
 21
49.89865160274519
 31
0.0
  0
LINE
  5
4EC
330
1E
100
AcDbEntity
  8
0
100
AcDbLine
 10
102.4999999999999
 20
49.89865160274519
 30
0.0
 11
102.4999999999999
 21
51.7112944879987
 31
0.0
  0
LINE
  5
4ED
330
1E
100
AcDbEntity
  8
0
100
AcDbLine
 10
102.4999999999999
 20
49.89865160274519
 30
0.0
 11
104.4999999999999
 21
49.89865160274519
 31
0.0
  0
LINE
  5
4EE
330
1E
100
AcDbEntity
  8
0
100
AcDbLine
 10
102.4999999999999
 20
49.89865160274519
 30
0.0
 11
102.4999999999999
 21
49.0534736507495
 31
0.0
  0
LINE
  5
4EF
330
1E
100
AcDbEntity
  8
0
100
AcDbLine
 10
102.4999999999999
 20
51.7112944879987
 30
0.0
 11
102.9229999999999
 21
51.7112944879987
 31
0.0
  0
LINE
  5
4F0
330
1E
100
AcDbEntity
  8
0
100
AcDbLine
 10
102.4999999999999
 20
51.7112944879987
 30
0.0
 11
102.4999999999999
 21
49.89865160274519
 31
0.0
  0
LINE
  5
4F1
330
1E
100
AcDbEntity
  8
0
100
AcDbLine
 10
102.4999999999999
 20
51.7112944879987
 30
0.0
 11
102.4999999999999
 21
50.86611653600311
 31
0.0
  0
LINE
  5
4F2
330
1E
100
AcDbEntity
  8
0
100
AcDbLine
 10
89.50000000000001
 20
49.89865160274519
 30
0.0
 11
89.50000000000001
 21
49.0534736507495
 31
0.0
  0
LINE
  5
4F3
330
1E
100
AcDbEntity
  8
0
100
AcDbLine
 10
89.50000000000001
 20
49.89865160274519
 30
0.0
 11
89.50000000000001
 21
51.7112944879987
 31
0.0
  0
LINE
  5
4F4
330
1E
100
AcDbEntity
  8
0
100
AcDbLine
 10
89.50000000000001
 20
51.7112944879987
 30
0.0
 11
89.50000000000001
 21
49.89865160274519
 31
0.0
  0
LINE
  5
4F5
330
1E
100
AcDbEntity
  8
0
100
AcDbLine
 10
87.5
 20
49.89865160274519
 30
0.0
 11
87.5
 21
51.7112944879987
 31
0.0
  0
LINE
  5
4F6
330
1E
100
AcDbEntity
  8
0
100
AcDbLine
 10
87.5
 20
49.89865160274519
 30
0.0
 11
89.50000000000001
 21
49.89865160274519
 31
0.0
  0
LINE
  5
4F7
330
1E
100
AcDbEntity
  8
0
100
AcDbLine
 10
87.5
 20
49.89865160274519
 30
0.0
 11
87.5
 21
49.0534736507495
 31
0.0
  0
LINE
  5
4F8
330
1E
100
AcDbEntity
  8
0
100
AcDbLine
 10
87.5
 20
51.7112944879987
 30
0.0
 11
89.50000000000001
 21
51.7112944879987
 31
0.0
  0
LINE
  5
4F9
330
1E
100
AcDbEntity
  8
0
100
AcDbLine
 10
87.5
 20
51.7112944879987
 30
0.0
 11
87.5
 21
49.89865160274519
 31
0.0
  0
LINE
  5
4FA
330
1E
100
AcDbEntity
  8
0
100
AcDbLine
 10
87.5
 20
51.7112944879987
 30
0.0
 11
87.5
 21
50.86611653600311
 31
0.0
  0
LINE
  5
4FB
330
1E
100
AcDbEntity
  8
0
100
AcDbLine
 10
74.5
 20
49.89865160274519
 30
0.0
 11
74.5
 21
49.0534736507495
 31
0.0
  0
LINE
  5
4FC
330
1E
100
AcDbEntity
  8
0
100
AcDbLine
 10
74.5
 20
49.89865160274519
 30
0.0
 11
74.5
 21
51.7112944879987
 31
0.0
  0
LINE
  5
4FD
330
1E
100
AcDbEntity
  8
0
100
AcDbLine
 10
74.5
 20
51.7112944879987
 30
0.0
 11
74.5
 21
49.89865160274519
 31
0.0
  0
LINE
  5
4FE
330
1E
100
AcDbEntity
  8
0
100
AcDbLine
 10
72.5
 20
49.89865160274519
 30
0.0
 11
72.5
 21
51.7112944879987
 31
0.0
  0
LINE
  5
4FF
330
1E
100
AcDbEntity
  8
0
100
AcDbLine
 10
72.5
 20
49.89865160274519
 30
0.0
 11
74.5
 21
49.89865160274519
 31
0.0
  0
LINE
  5
500
330
1E
100
AcDbEntity
  8
0
100
AcDbLine
 10
72.5
 20
49.89865160274519
 30
0.0
 11
72.5
 21
49.0534736507495
 31
0.0
  0
LINE
  5
501
330
1E
100
AcDbEntity
  8
0
100
AcDbLine
 10
72.5
 20
51.7112944879987
 30
0.0
 11
74.5
 21
51.7112944879987
 31
0.0
  0
LINE
  5
502
330
1E
100
AcDbEntity
  8
0
100
AcDbLine
 10
72.5
 20
51.7112944879987
 30
0.0
 11
72.5
 21
49.89865160274519
 31
0.0
  0
LINE
  5
503
330
1E
100
AcDbEntity
  8
0
100
AcDbLine
 10
72.5
 20
51.7112944879987
 30
0.0
 11
72.5
 21
50.86611653600311
 31
0.0
  0
LINE
  5
504
330
1E
100
AcDbEntity
  8
0
100
AcDbLine
 10
59.5
 20
49.89865160274519
 30
0.0
 11
59.5
 21
49.0534736507495
 31
0.0
  0
LINE
  5
505
330
1E
100
AcDbEntity
  8
0
100
AcDbLine
 10
59.5
 20
49.89865160274519
 30
0.0
 11
59.5
 21
51.7112944879987
 31
0.0
  0
LINE
  5
506
330
1E
100
AcDbEntity
  8
0
100
AcDbLine
 10
59.5
 20
51.7112944879987
 30
0.0
 11
59.5
 21
49.89865160274519
 31
0.0
  0
LINE
  5
507
330
1E
100
AcDbEntity
  8
0
100
AcDbLine
 10
57.5
 20
49.89865160274519
 30
0.0
 11
57.5
 21
51.7112944879987
 31
0.0
  0
LINE
  5
508
330
1E
100
AcDbEntity
  8
0
100
AcDbLine
 10
57.5
 20
49.89865160274519
 30
0.0
 11
59.5
 21
49.89865160274519
 31
0.0
  0
LINE
  5
509
330
1E
100
AcDbEntity
  8
0
100
AcDbLine
 10
57.5
 20
49.89865160274519
 30
0.0
 11
57.5
 21
49.0534736507495
 31
0.0
  0
LINE
  5
50A
330
1E
100
AcDbEntity
  8
0
100
AcDbLine
 10
57.5
 20
51.7112944879987
 30
0.0
 11
59.5
 21
51.7112944879987
 31
0.0
  0
LINE
  5
50B
330
1E
100
AcDbEntity
  8
0
100
AcDbLine
 10
57.5
 20
51.7112944879987
 30
0.0
 11
57.5
 21
49.89865160274519
 31
0.0
  0
LINE
  5
50C
330
1E
100
AcDbEntity
  8
0
100
AcDbLine
 10
57.5
 20
51.7112944879987
 30
0.0
 11
57.5
 21
50.86611653600311
 31
0.0
  0
LINE
  5
50D
330
1E
100
AcDbEntity
  8
0
100
AcDbLine
 10
44.5
 20
49.89865160274519
 30
0.0
 11
44.5
 21
49.0534736507495
 31
0.0
  0
LINE
  5
50E
330
1E
100
AcDbEntity
  8
0
100
AcDbLine
 10
44.5
 20
49.89865160274519
 30
0.0
 11
44.5
 21
51.7112944879987
 31
0.0
  0
LINE
  5
50F
330
1E
100
AcDbEntity
  8
0
100
AcDbLine
 10
44.9671
 20
57.81796901294449
 30
0.0
 11
44.9671
 21
59.6306118981981
 31
0.0
  0
LINE
  5
510
330
1E
100
AcDbEntity
  8
0
100
AcDbLine
 10
44.9671
 20
57.81796901294449
 30
0.0
 11
45.4848
 21
58.6339883255964
 31
0.0
  0
LINE
  5
511
330
1E
100
AcDbEntity
  8
0
100
AcDbLine
 10
44.9671
 20
57.81796901294449
 30
0.0
 11
46.89899999999999
 21
57.5990679233777
 31
0.0
  0
LINE
  5
512
330
1E
100
AcDbEntity
  8
0
100
AcDbLine
 10
44.0111
 20
82.04693891618992
 30
0.0
 11
44.0111
 21
83.85958180144349
 31
0.0
  0
LINE
  5
513
330
1E
100
AcDbEntity
  8
0
100
AcDbLine
 10
44.0111
 20
82.04693891618992
 30
0.0
 11
45.4254
 21
82.6446065049436
 31
0.0
  0
LINE
  5
514
330
1E
100
AcDbEntity
  8
0
100
AcDbLine
 10
44.0111
 20
82.04693891618992
 30
0.0
 11
45.4254
 21
81.44931358633369
 31
0.0
  0
LINE
  5
515
330
1E
100
AcDbEntity
  8
0
100
AcDbLine
 10
44.0111
 20
83.85958180144349
 30
0.0
 11
45.4254
 21
84.4572493901972
 31
0.0
  0
LINE
  5
516
330
1E
100
AcDbEntity
  8
0
100
AcDbLine
 10
44.0111
 20
83.85958180144349
 30
0.0
 11
44.0111
 21
82.04693891618992
 31
0.0
  0
LINE
  5
517
330
1E
100
AcDbEntity
  8
0
100
AcDbLine
 10
45.4254
 20
81.44931358633369
 30
0.0
 11
46.83959999999999
 21
82.04693891618992
 31
0.0
  0
LINE
  5
518
330
1E
100
AcDbEntity
  8
0
100
AcDbLine
 10
45.4254
 20
82.6446065049436
 30
0.0
 11
45.4254
 21
84.4572493901972
 31
0.0
  0
LINE
  5
519
330
1E
100
AcDbEntity
  8
0
100
AcDbLine
 10
45.4254
 20
82.6446065049436
 30
0.0
 11
46.83959999999999
 21
82.04693891618992
 31
0.0
  0
LINE
  5
51A
330
1E
100
AcDbEntity
  8
0
100
AcDbLine
 10
45.4254
 20
84.4572493901972
 30
0.0
 11
46.83959999999999
 21
83.85958180144349
 31
0.0
  0
LINE
  5
51B
330
1E
100
AcDbEntity
  8
0
100
AcDbLine
 10
45.4254
 20
84.4572493901972
 30
0.0
 11
45.4254
 21
82.6446065049436
 31
0.0
  0
LINE
  5
51C
330
1E
100
AcDbEntity
  8
0
100
AcDbLine
 10
44.9671
 20
59.6306118981981
 30
0.0
 11
45.4848
 21
60.44663121084989
 31
0.0
  0
LINE
  5
51D
330
1E
100
AcDbEntity
  8
0
100
AcDbLine
 10
44.9671
 20
59.6306118981981
 30
0.0
 11
44.9671
 21
57.81796901294449
 31
0.0
  0
LINE
  5
51E
330
1E
100
AcDbEntity
  8
0
100
AcDbLine
 10
45.4848
 20
58.6339883255964
 30
0.0
 11
45.4848
 21
60.44663121084989
 31
0.0
  0
LINE
  5
51F
330
1E
100
AcDbEntity
  8
0
100
AcDbLine
 10
45.4848
 20
58.6339883255964
 30
0.0
 11
47.4166
 21
58.4155098250055
 31
0.0
  0
LINE
  5
520
330
1E
100
AcDbEntity
  8
0
100
AcDbLine
 10
59.456
 20
57.9896989043985
 30
0.0
 11
59.9736
 21
58.80614080602629
 31
0.0
  0
LINE
  5
521
330
1E
100
AcDbEntity
  8
0
100
AcDbLine
 10
59.456
 20
57.9896989043985
 30
0.0
 11
59.456
 21
56.17705601914501
 31
0.0
  0
LINE
  5
522
330
1E
100
AcDbEntity
  8
0
100
AcDbLine
 10
59.456
 20
56.17705601914501
 30
0.0
 11
59.456
 21
57.9896989043985
 31
0.0
  0
LINE
  5
523
330
1E
100
AcDbEntity
  8
0
100
AcDbLine
 10
59.456
 20
56.17705601914501
 30
0.0
 11
59.9736
 21
56.9934979207728
 31
0.0
  0
LINE
  5
524
330
1E
100
AcDbEntity
  8
0
100
AcDbLine
 10
59.456
 20
56.17705601914501
 30
0.0
 11
61.3879
 21
55.95857751855411
 31
0.0
  0
LINE
  5
525
330
1E
100
AcDbEntity
  8
0
100
AcDbLine
 10
73.94490000000001
 20
54.5365656143214
 30
0.0
 11
73.94490000000001
 21
56.349208499575
 31
0.0
  0
LINE
  5
526
330
1E
100
AcDbEntity
  8
0
100
AcDbLine
 10
73.94490000000001
 20
54.5365656143214
 30
0.0
 11
74.4625
 21
55.3530075159492
 31
0.0
  0
LINE
  5
527
330
1E
100
AcDbEntity
  8
0
100
AcDbLine
 10
73.94490000000001
 20
54.5365656143214
 30
0.0
 11
75.8767
 21
54.3176645247545
 31
0.0
  0
LINE
  5
528
330
1E
100
AcDbEntity
  8
0
100
AcDbLine
 10
88.43380000000001
 20
52.89607520949779
 30
0.0
 11
88.43380000000001
 21
54.7087180947514
 31
0.0
  0
LINE
  5
529
330
1E
100
AcDbEntity
  8
0
100
AcDbLine
 10
88.43380000000001
 20
52.89607520949779
 30
0.0
 11
88.95140000000001
 21
53.71251711112559
 31
0.0
  0
LINE
  5
52A
330
1E
100
AcDbEntity
  8
0
100
AcDbLine
 10
88.43380000000001
 20
52.89607520949779
 30
0.0
 11
90.36559999999999
 21
52.67717411993089
 31
0.0
  0
LINE
  5
52B
330
1E
100
AcDbEntity
  8
0
100
AcDbLine
 10
139.6279999999999
 20
51.8531256167351
 30
0.0
 11
139.6279999999999
 21
53.16700351275759
 31
0.0
  0
LINE
  5
52C
330
1E
100
AcDbEntity
  8
0
100
AcDbLine
 10
139.6279999999999
 20
51.8531256167351
 30
0.0
 11
141.5599999999999
 21
52.071604117326
 31
0.0
  0
LINE
  5
52D
330
1E
100
AcDbEntity
  8
0
100
AcDbLine
 10
139.6279999999999
 20
51.8531256167351
 30
0.0
 11
140.145
 21
51.0366837151073
 31
0.0
  0
LINE
  5
52E
330
1E
100
AcDbEntity
  8
0
100
AcDbLine
 10
154.6339999999999
 20
52.67717411993089
 30
0.0
 11
156.566
 21
52.89607520949779
 31
0.0
  0
LINE
  5
52F
330
1E
100
AcDbEntity
  8
0
100
AcDbLine
 10
141.5599999999999
 20
52.071604117326
 30
0.0
 11
142.077
 21
51.25516221569821
 31
0.0
  0
LINE
  5
530
330
1E
100
AcDbEntity
  8
0
100
AcDbLine
 10
141.5599999999999
 20
52.071604117326
 30
0.0
 11
141.5599999999999
 21
53.8842470025796
 31
0.0
  0
LINE
  5
531
330
1E
100
AcDbEntity
  8
0
100
AcDbLine
 10
105.372
 20
51.8531256167351
 30
0.0
 11
105.372
 21
53.16700351275759
 31
0.0
  0
LINE
  5
532
330
1E
100
AcDbEntity
  8
0
100
AcDbLine
 10
103.4399999999999
 20
52.071604117326
 30
0.0
 11
103.4399999999999
 21
53.8842470025796
 31
0.0
  0
LINE
  5
533
330
1E
100
AcDbEntity
  8
0
100
AcDbLine
 10
103.4399999999999
 20
52.071604117326
 30
0.0
 11
105.372
 21
51.8531256167351
 31
0.0
  0
LINE
  5
534
330
1E
100
AcDbEntity
  8
0
100
AcDbLine
 10
104.679
 20
53.33599033351149
 30
0.0
 11
104.679
 21
55.14863321876511
 31
0.0
  0
LINE
  5
535
330
1E
100
AcDbEntity
  8
0
100
AcDbLine
 10
104.679
 20
53.33599033351149
 30
0.0
 11
105.679
 21
54.06791443993979
 31
0.0
  0
LINE
  5
536
330
1E
100
AcDbEntity
  8
0
100
AcDbLine
 10
104.679
 20
53.33599033351149
 30
0.0
 11
106.412
 21
52.9134013575137
 31
0.0
  0
LINE
  5
537
330
1E
100
AcDbEntity
  8
0
100
AcDbLine
 10
102.9229999999999
 20
53.0678051009518
 30
0.0
 11
103.4399999999999
 21
53.8842470025796
 31
0.0
  0
LINE
  5
538
330
1E
100
AcDbEntity
  8
0
100
AcDbLine
 10
102.9229999999999
 20
53.0678051009518
 30
0.0
 11
102.9229999999999
 21
51.25516221569821
 31
0.0
  0
LINE
  5
539
330
1E
100
AcDbEntity
  8
0
100
AcDbLine
 10
156.566
 20
52.89607520949779
 30
0.0
 11
156.566
 21
54.7087180947514
 31
0.0
  0
LINE
  5
53A
330
1E
100
AcDbEntity
  8
0
100
AcDbLine
 10
138.588
 20
52.9134013575137
 30
0.0
 11
140.321
 21
53.33599033351149
 31
0.0
  0
LINE
  5
53B
330
1E
100
AcDbEntity
  8
0
100
AcDbLine
 10
139.6279999999999
 20
53.16700351275759
 30
0.0
 11
139.6279999999999
 21
51.8531256167351
 31
0.0
  0
LINE
  5
53C
330
1E
100
AcDbEntity
  8
0
100
AcDbLine
 10
142.077
 20
53.0678051009518
 30
0.0
 11
142.077
 21
51.25516221569821
 31
0.0
  0
LINE
  5
53D
330
1E
100
AcDbEntity
  8
0
100
AcDbLine
 10
154.117
 20
53.4936160215587
 30
0.0
 11
154.117
 21
55.30625890681229
 31
0.0
  0
LINE
  5
53E
330
1E
100
AcDbEntity
  8
0
100
AcDbLine
 10
154.117
 20
53.4936160215587
 30
0.0
 11
156.049
 21
53.71251711112559
 31
0.0
  0
LINE
  5
53F
330
1E
100
AcDbEntity
  8
0
100
AcDbLine
 10
154.117
 20
53.4936160215587
 30
0.0
 11
154.6339999999999
 21
52.67717411993089
 31
0.0
  0
LINE
  5
540
330
1E
100
AcDbEntity
  8
0
100
AcDbLine
 10
156.049
 20
53.71251711112559
 30
0.0
 11
156.566
 21
52.89607520949779
 31
0.0
  0
LINE
  5
541
330
1E
100
AcDbEntity
  8
0
100
AcDbLine
 10
156.049
 20
53.71251711112559
 30
0.0
 11
156.049
 21
55.5251599963792
 31
0.0
  0
LINE
  5
542
330
1E
100
AcDbEntity
  8
0
100
AcDbLine
 10
140.321
 20
53.7441357902441
 30
0.0
 11
141.5599999999999
 21
53.8842470025796
 31
0.0
  0
LINE
  5
543
330
1E
100
AcDbEntity
  8
0
100
AcDbLine
 10
141.5599999999999
 20
53.8842470025796
 30
0.0
 11
142.077
 21
53.0678051009518
 31
0.0
  0
LINE
  5
544
330
1E
100
AcDbEntity
  8
0
100
AcDbLine
 10
141.5599999999999
 20
53.8842470025796
 30
0.0
 11
141.5599999999999
 21
52.071604117326
 31
0.0
  0
LINE
  5
545
330
1E
100
AcDbEntity
  8
0
100
AcDbLine
 10
137.5879999999999
 20
53.6453254639419
 30
0.0
 11
137.5879999999999
 21
55.45796834919549
 31
0.0
  0
LINE
  5
546
330
1E
100
AcDbEntity
  8
0
100
AcDbLine
 10
137.5879999999999
 20
53.6453254639419
 30
0.0
 11
139.321
 21
54.06791443993979
 31
0.0
  0
LINE
  5
547
330
1E
100
AcDbEntity
  8
0
100
AcDbLine
 10
137.5879999999999
 20
53.6453254639419
 30
0.0
 11
138.588
 21
52.9134013575137
 31
0.0
  0
LINE
  5
548
330
1E
100
AcDbEntity
  8
0
100
AcDbLine
 10
140.321
 20
53.33599033351149
 30
0.0
 11
140.321
 21
55.14863321876511
 31
0.0
  0
LINE
  5
549
330
1E
100
AcDbEntity
  8
0
100
AcDbLine
 10
107.412
 20
53.6453254639419
 30
0.0
 11
107.412
 21
55.45796834919549
 31
0.0
  0
LINE
  5
54A
330
1E
100
AcDbEntity
  8
0
100
AcDbLine
 10
106.412
 20
52.9134013575137
 30
0.0
 11
107.412
 21
53.6453254639419
 31
0.0
  0
LINE
  5
54B
330
1E
100
AcDbEntity
  8
0
100
AcDbLine
 10
105.372
 20
53.16700351275759
 30
0.0
 11
105.372
 21
51.8531256167351
 31
0.0
  0
LINE
  5
54C
330
1E
100
AcDbEntity
  8
0
100
AcDbLine
 10
139.321
 20
54.06791443993979
 30
0.0
 11
140.321
 21
53.33599033351149
 31
0.0
  0
LINE
  5
54D
330
1E
100
AcDbEntity
  8
0
100
AcDbLine
 10
139.321
 20
54.06791443993979
 30
0.0
 11
139.321
 21
55.8805573251934
 31
0.0
  0
LINE
  5
54E
330
1E
100
AcDbEntity
  8
0
100
AcDbLine
 10
169.123
 20
54.3176645247545
 30
0.0
 11
171.055
 21
54.5365656143214
 31
0.0
  0
LINE
  5
54F
330
1E
100
AcDbEntity
  8
0
100
AcDbLine
 10
105.679
 20
54.06791443993979
 30
0.0
 11
105.679
 21
55.8805573251934
 31
0.0
  0
LINE
  5
550
330
1E
100
AcDbEntity
  8
0
100
AcDbLine
 10
105.679
 20
54.06791443993979
 30
0.0
 11
107.412
 21
53.6453254639419
 31
0.0
  0
LINE
  5
551
330
1E
100
AcDbEntity
  8
0
100
AcDbLine
 10
103.4399999999999
 20
53.8842470025796
 30
0.0
 11
104.679
 21
53.7441357902441
 31
0.0
  0
LINE
  5
552
330
1E
100
AcDbEntity
  8
0
100
AcDbLine
 10
103.4399999999999
 20
53.8842470025796
 30
0.0
 11
103.4399999999999
 21
52.071604117326
 31
0.0
  0
LINE
  5
553
330
1E
100
AcDbEntity
  8
0
100
AcDbLine
 10
90.8833
 20
53.4936160215587
 30
0.0
 11
90.8833
 21
55.30625890681229
 31
0.0
  0
LINE
  5
554
330
1E
100
AcDbEntity
  8
0
100
AcDbLine
 10
90.36559999999999
 20
52.67717411993089
 30
0.0
 11
90.8833
 21
53.4936160215587
 31
0.0
  0
LINE
  5
555
330
1E
100
AcDbEntity
  8
0
100
AcDbLine
 10
88.95140000000001
 20
53.71251711112559
 30
0.0
 11
88.95140000000001
 21
55.5251599963792
 31
0.0
  0
LINE
  5
556
330
1E
100
AcDbEntity
  8
0
100
AcDbLine
 10
88.95140000000001
 20
53.71251711112559
 30
0.0
 11
90.8833
 21
53.4936160215587
 31
0.0
  0
LINE
  5
557
330
1E
100
AcDbEntity
  8
0
100
AcDbLine
 10
88.43380000000001
 20
54.7087180947514
 30
0.0
 11
88.95140000000001
 21
55.5251599963792
 31
0.0
  0
LINE
  5
558
330
1E
100
AcDbEntity
  8
0
100
AcDbLine
 10
88.43380000000001
 20
54.7087180947514
 30
0.0
 11
88.43380000000001
 21
52.89607520949779
 31
0.0
  0
LINE
  5
559
330
1E
100
AcDbEntity
  8
0
100
AcDbLine
 10
134.521
 20
55.15354551927821
 30
0.0
 11
134.521
 21
56.96618840453179
 31
0.0
  0
LINE
  5
55A
330
1E
100
AcDbEntity
  8
0
100
AcDbLine
 10
134.521
 20
55.15354551927821
 30
0.0
 11
135.935
 21
55.75108633133921
 31
0.0
  0
LINE
  5
55B
330
1E
100
AcDbEntity
  8
0
100
AcDbLine
 10
134.521
 20
55.15354551927821
 30
0.0
 11
135.935
 21
54.55600470721729
 31
0.0
  0
LINE
  5
55C
330
1E
100
AcDbEntity
  8
0
100
AcDbLine
 10
156.566
 20
54.7087180947514
 30
0.0
 11
156.566
 21
52.89607520949779
 31
0.0
  0
LINE
  5
55D
330
1E
100
AcDbEntity
  8
0
100
AcDbLine
 10
140.321
 20
55.14863321876511
 30
0.0
 11
140.321
 21
53.33599033351149
 31
0.0
  0
LINE
  5
55E
330
1E
100
AcDbEntity
  8
0
100
AcDbLine
 10
168.6059999999999
 20
55.1341064263823
 30
0.0
 11
168.6059999999999
 21
56.94674931163589
 31
0.0
  0
LINE
  5
55F
330
1E
100
AcDbEntity
  8
0
100
AcDbLine
 10
168.6059999999999
 20
55.1341064263823
 30
0.0
 11
170.537
 21
55.3530075159492
 31
0.0
  0
LINE
  5
560
330
1E
100
AcDbEntity
  8
0
100
AcDbLine
 10
168.6059999999999
 20
55.1341064263823
 30
0.0
 11
169.123
 21
54.3176645247545
 31
0.0
  0
LINE
  5
561
330
1E
100
AcDbEntity
  8
0
100
AcDbLine
 10
171.055
 20
54.5365656143214
 30
0.0
 11
171.055
 21
56.349208499575
 31
0.0
  0
LINE
  5
562
330
1E
100
AcDbEntity
  8
0
100
AcDbLine
 10
137.3489999999999
 20
55.15354551927821
 30
0.0
 11
137.3489999999999
 21
56.96618840453179
 31
0.0
  0
LINE
  5
563
330
1E
100
AcDbEntity
  8
0
100
AcDbLine
 10
135.935
 20
54.55600470721729
 30
0.0
 11
137.3489999999999
 21
55.15354551927821
 31
0.0
  0
LINE
  5
564
330
1E
100
AcDbEntity
  8
0
100
AcDbLine
 10
110.4789999999999
 20
55.15354551927821
 30
0.0
 11
110.4789999999999
 21
56.96618840453179
 31
0.0
  0
LINE
  5
565
330
1E
100
AcDbEntity
  8
0
100
AcDbLine
 10
109.0649999999999
 20
54.55600470721729
 30
0.0
 11
110.4789999999999
 21
55.15354551927821
 31
0.0
  0
LINE
  5
566
330
1E
100
AcDbEntity
  8
0
100
AcDbLine
 10
154.117
 20
55.30625890681229
 30
0.0
 11
156.049
 21
55.5251599963792
 31
0.0
  0
LINE
  5
567
330
1E
100
AcDbEntity
  8
0
100
AcDbLine
 10
154.117
 20
55.30625890681229
 30
0.0
 11
154.117
 21
53.4936160215587
 31
0.0
  0
LINE
  5
568
330
1E
100
AcDbEntity
  8
0
100
AcDbLine
 10
137.5879999999999
 20
55.45796834919549
 30
0.0
 11
139.321
 21
55.8805573251934
 31
0.0
  0
LINE
  5
569
330
1E
100
AcDbEntity
  8
0
100
AcDbLine
 10
137.5879999999999
 20
55.45796834919549
 30
0.0
 11
137.5879999999999
 21
53.6453254639419
 31
0.0
  0
LINE
  5
56A
330
1E
100
AcDbEntity
  8
0
100
AcDbLine
 10
170.537
 20
55.3530075159492
 30
0.0
 11
171.055
 21
54.5365656143214
 31
0.0
  0
LINE
  5
56B
330
1E
100
AcDbEntity
  8
0
100
AcDbLine
 10
170.537
 20
55.3530075159492
 30
0.0
 11
170.537
 21
57.16565040120279
 31
0.0
  0
LINE
  5
56C
330
1E
100
AcDbEntity
  8
0
100
AcDbLine
 10
107.651
 20
55.15354551927821
 30
0.0
 11
107.651
 21
56.96618840453179
 31
0.0
  0
LINE
  5
56D
330
1E
100
AcDbEntity
  8
0
100
AcDbLine
 10
107.651
 20
55.15354551927821
 30
0.0
 11
109.0649999999999
 21
55.75108633133921
 31
0.0
  0
LINE
  5
56E
330
1E
100
AcDbEntity
  8
0
100
AcDbLine
 10
107.651
 20
55.15354551927821
 30
0.0
 11
109.0649999999999
 21
54.55600470721729
 31
0.0
  0
LINE
  5
56F
330
1E
100
AcDbEntity
  8
0
100
AcDbLine
 10
104.679
 20
55.14863321876511
 30
0.0
 11
105.679
 21
55.8805573251934
 31
0.0
  0
LINE
  5
570
330
1E
100
AcDbEntity
  8
0
100
AcDbLine
 10
104.679
 20
55.14863321876511
 30
0.0
 11
104.679
 21
53.33599033351149
 31
0.0
  0
LINE
  5
571
330
1E
100
AcDbEntity
  8
0
100
AcDbLine
 10
156.049
 20
55.5251599963792
 30
0.0
 11
156.566
 21
54.7087180947514
 31
0.0
  0
LINE
  5
572
330
1E
100
AcDbEntity
  8
0
100
AcDbLine
 10
156.049
 20
55.5251599963792
 30
0.0
 11
156.049
 21
53.71251711112559
 31
0.0
  0
LINE
  5
573
330
1E
100
AcDbEntity
  8
0
100
AcDbLine
 10
107.412
 20
55.45796834919549
 30
0.0
 11
107.412
 21
53.6453254639419
 31
0.0
  0
LINE
  5
574
330
1E
100
AcDbEntity
  8
0
100
AcDbLine
 10
90.8833
 20
55.30625890681229
 30
0.0
 11
90.8833
 21
53.4936160215587
 31
0.0
  0
LINE
  5
575
330
1E
100
AcDbEntity
  8
0
100
AcDbLine
 10
135.935
 20
55.75108633133921
 30
0.0
 11
135.935
 21
57.5637292165927
 31
0.0
  0
LINE
  5
576
330
1E
100
AcDbEntity
  8
0
100
AcDbLine
 10
135.935
 20
55.75108633133921
 30
0.0
 11
137.3489999999999
 21
55.15354551927821
 31
0.0
  0
LINE
  5
577
330
1E
100
AcDbEntity
  8
0
100
AcDbLine
 10
132.366
 20
55.8520850966026
 30
0.0
 11
133.366
 21
56.5844317920069
 31
0.0
  0
LINE
  5
578
330
1E
100
AcDbEntity
  8
0
100
AcDbLine
 10
109.0649999999999
 20
55.75108633133921
 30
0.0
 11
109.0649999999999
 21
57.5637292165927
 31
0.0
  0
LINE
  5
579
330
1E
100
AcDbEntity
  8
0
100
AcDbLine
 10
109.0649999999999
 20
55.75108633133921
 30
0.0
 11
110.4789999999999
 21
55.15354551927821
 31
0.0
  0
LINE
  5
57A
330
1E
100
AcDbEntity
  8
0
100
AcDbLine
 10
183.612
 20
55.95857751855411
 30
0.0
 11
185.544
 21
56.17705601914501
 31
0.0
  0
LINE
  5
57B
330
1E
100
AcDbEntity
  8
0
100
AcDbLine
 10
139.321
 20
55.8805573251934
 30
0.0
 11
140.321
 21
55.14863321876511
 31
0.0
  0
LINE
  5
57C
330
1E
100
AcDbEntity
  8
0
100
AcDbLine
 10
139.321
 20
55.8805573251934
 30
0.0
 11
139.321
 21
54.06791443993979
 31
0.0
  0
LINE
  5
57D
330
1E
100
AcDbEntity
  8
0
100
AcDbLine
 10
112.634
 20
55.8520850966026
 30
0.0
 11
114.366
 21
56.27467407260049
 31
0.0
  0
LINE
  5
57E
330
1E
100
AcDbEntity
  8
0
100
AcDbLine
 10
105.679
 20
55.8805573251934
 30
0.0
 11
107.412
 21
55.45796834919549
 31
0.0
  0
LINE
  5
57F
330
1E
100
AcDbEntity
  8
0
100
AcDbLine
 10
105.679
 20
55.8805573251934
 30
0.0
 11
105.679
 21
54.06791443993979
 31
0.0
  0
LINE
  5
580
330
1E
100
AcDbEntity
  8
0
100
AcDbLine
 10
88.95140000000001
 20
55.5251599963792
 30
0.0
 11
90.8833
 21
55.30625890681229
 31
0.0
  0
LINE
  5
581
330
1E
100
AcDbEntity
  8
0
100
AcDbLine
 10
88.95140000000001
 20
55.5251599963792
 30
0.0
 11
88.95140000000001
 21
53.71251711112559
 31
0.0
  0
LINE
  5
582
330
1E
100
AcDbEntity
  8
0
100
AcDbLine
 10
76.3944
 20
55.1341064263823
 30
0.0
 11
76.3944
 21
56.94674931163589
 31
0.0
  0
LINE
  5
583
330
1E
100
AcDbEntity
  8
0
100
AcDbLine
 10
75.8767
 20
54.3176645247545
 30
0.0
 11
76.3944
 21
55.1341064263823
 31
0.0
  0
LINE
  5
584
330
1E
100
AcDbEntity
  8
0
100
AcDbLine
 10
74.4625
 20
55.3530075159492
 30
0.0
 11
74.4625
 21
57.16565040120279
 31
0.0
  0
LINE
  5
585
330
1E
100
AcDbEntity
  8
0
100
AcDbLine
 10
74.4625
 20
55.3530075159492
 30
0.0
 11
76.3944
 21
55.1341064263823
 31
0.0
  0
LINE
  5
586
330
1E
100
AcDbEntity
  8
0
100
AcDbLine
 10
73.94490000000001
 20
56.349208499575
 30
0.0
 11
74.4625
 21
57.16565040120279
 31
0.0
  0
LINE
  5
587
330
1E
100
AcDbEntity
  8
0
100
AcDbLine
 10
73.94490000000001
 20
56.349208499575
 30
0.0
 11
73.94490000000001
 21
54.5365656143214
 31
0.0
  0
LINE
  5
588
330
1E
100
AcDbEntity
  8
0
100
AcDbLine
 10
185.544
 20
56.17705601914501
 30
0.0
 11
185.544
 21
57.9896989043985
 31
0.0
  0
LINE
  5
589
330
1E
100
AcDbEntity
  8
0
100
AcDbLine
 10
151.579
 20
56.0828186774975
 30
0.0
 11
153.311
 21
56.50540765349528
 31
0.0
  0
LINE
  5
58A
330
1E
100
AcDbEntity
  8
0
100
AcDbLine
 10
130.6339999999999
 20
56.27467407260049
 30
0.0
 11
130.6339999999999
 21
58.087316957854
 31
0.0
  0
LINE
  5
58B
330
1E
100
AcDbEntity
  8
0
100
AcDbLine
 10
130.6339999999999
 20
56.27467407260049
 30
0.0
 11
131.6339999999999
 21
57.0070207680047
 31
0.0
  0
LINE
  5
58C
330
1E
100
AcDbEntity
  8
0
100
AcDbLine
 10
130.6339999999999
 20
56.27467407260049
 30
0.0
 11
132.366
 21
55.8520850966026
 31
0.0
  0
LINE
  5
58D
330
1E
100
AcDbEntity
  8
0
100
AcDbLine
 10
171.055
 20
56.349208499575
 30
0.0
 11
171.055
 21
54.5365656143214
 31
0.0
  0
LINE
  5
58E
330
1E
100
AcDbEntity
  8
0
100
AcDbLine
 10
153.311
 20
56.50540765349528
 30
0.0
 11
153.311
 21
58.31805053874889
 31
0.0
  0
LINE
  5
58F
330
1E
100
AcDbEntity
  8
0
100
AcDbLine
 10
114.366
 20
56.27467407260049
 30
0.0
 11
114.366
 21
58.087316957854
 31
0.0
  0
LINE
  5
590
330
1E
100
AcDbEntity
  8
0
100
AcDbLine
 10
93.42119999999999
 20
56.0828186774975
 30
0.0
 11
94.4212
 21
56.8147427839257
 31
0.0
  0
LINE
  5
591
330
1E
100
AcDbEntity
  8
0
100
AcDbLine
 10
133.366
 20
56.5844317920069
 30
0.0
 11
133.366
 21
58.39707467726039
 31
0.0
  0
LINE
  5
592
330
1E
100
AcDbEntity
  8
0
100
AcDbLine
 10
128.125
 20
56.71416660763821
 30
0.0
 11
128.6419999999999
 21
57.530608509266
 31
0.0
  0
LINE
  5
593
330
1E
100
AcDbEntity
  8
0
100
AcDbLine
 10
111.634
 20
56.5844317920069
 30
0.0
 11
111.634
 21
58.39707467726039
 31
0.0
  0
LINE
  5
594
330
1E
100
AcDbEntity
  8
0
100
AcDbLine
 10
111.634
 20
56.5844317920069
 30
0.0
 11
113.366
 21
57.0070207680047
 31
0.0
  0
LINE
  5
595
330
1E
100
AcDbEntity
  8
0
100
AcDbLine
 10
111.634
 20
56.5844317920069
 30
0.0
 11
112.634
 21
55.8520850966026
 31
0.0
  0
LINE
  5
596
330
1E
100
AcDbEntity
  8
0
100
AcDbLine
 10
107.651
 20
56.96618840453179
 30
0.0
 11
109.0649999999999
 21
57.5637292165927
 31
0.0
  0
LINE
  5
597
330
1E
100
AcDbEntity
  8
0
100
AcDbLine
 10
107.651
 20
56.96618840453179
 30
0.0
 11
107.651
 21
55.15354551927821
 31
0.0
  0
LINE
  5
598
330
1E
100
AcDbEntity
  8
0
100
AcDbLine
 10
110.4789999999999
 20
56.96618840453179
 30
0.0
 11
110.4789999999999
 21
55.15354551927821
 31
0.0
  0
LINE
  5
599
330
1E
100
AcDbEntity
  8
0
100
AcDbLine
 10
113.366
 20
57.0070207680047
 30
0.0
 11
114.366
 21
56.27467407260049
 31
0.0
  0
LINE
  5
59A
330
1E
100
AcDbEntity
  8
0
100
AcDbLine
 10
113.366
 20
57.0070207680047
 30
0.0
 11
113.366
 21
58.8196636532583
 31
0.0
  0
LINE
  5
59B
330
1E
100
AcDbEntity
  8
0
100
AcDbLine
 10
183.0949999999999
 20
56.77501942018189
 30
0.0
 11
183.0949999999999
 21
58.58766230543549
 31
0.0
  0
LINE
  5
59C
330
1E
100
AcDbEntity
  8
0
100
AcDbLine
 10
183.0949999999999
 20
56.77501942018189
 30
0.0
 11
185.0259999999999
 21
56.9934979207728
 31
0.0
  0
LINE
  5
59D
330
1E
100
AcDbEntity
  8
0
100
AcDbLine
 10
183.0949999999999
 20
56.77501942018189
 30
0.0
 11
183.612
 21
55.95857751855411
 31
0.0
  0
LINE
  5
59E
330
1E
100
AcDbEntity
  8
0
100
AcDbLine
 10
150.579
 20
56.8147427839257
 30
0.0
 11
150.579
 21
58.62738566917929
 31
0.0
  0
LINE
  5
59F
330
1E
100
AcDbEntity
  8
0
100
AcDbLine
 10
150.579
 20
56.8147427839257
 30
0.0
 11
152.311
 21
57.2373317599235
 31
0.0
  0
LINE
  5
5A0
330
1E
100
AcDbEntity
  8
0
100
AcDbLine
 10
150.579
 20
56.8147427839257
 30
0.0
 11
151.579
 21
56.0828186774975
 31
0.0
  0
LINE
  5
5A1
330
1E
100
AcDbEntity
  8
0
100
AcDbLine
 10
121.5
 20
57.0826641947083
 30
0.0
 11
121.5
 21
58.8953070799619
 31
0.0
  0
LINE
  5
5A2
330
1E
100
AcDbEntity
  8
0
100
AcDbLine
 10
121.5
 20
57.0826641947083
 30
0.0
 11
121.5
 21
57.92784214670399
 31
0.0
  0
LINE
  5
5A3
330
1E
100
AcDbEntity
  8
0
100
AcDbLine
 10
121.5
 20
57.0826641947083
 30
0.0
 11
123.5
 21
57.0826641947083
 31
0.0
  0
LINE
  5
5A4
330
1E
100
AcDbEntity
  8
0
100
AcDbLine
 10
134.521
 20
56.96618840453179
 30
0.0
 11
135.935
 21
57.5637292165927
 31
0.0
  0
LINE
  5
5A5
330
1E
100
AcDbEntity
  8
0
100
AcDbLine
 10
134.521
 20
56.96618840453179
 30
0.0
 11
134.521
 21
55.15354551927821
 31
0.0
  0
LINE
  5
5A6
330
1E
100
AcDbEntity
  8
0
100
AcDbLine
 10
185.0259999999999
 20
56.9934979207728
 30
0.0
 11
185.544
 21
56.17705601914501
 31
0.0
  0
LINE
  5
5A7
330
1E
100
AcDbEntity
  8
0
100
AcDbLine
 10
185.0259999999999
 20
56.9934979207728
 30
0.0
 11
185.0259999999999
 21
58.80614080602629
 31
0.0
  0
LINE
  5
5A8
330
1E
100
AcDbEntity
  8
0
100
AcDbLine
 10
168.6059999999999
 20
56.94674931163589
 30
0.0
 11
170.537
 21
57.16565040120279
 31
0.0
  0
LINE
  5
5A9
330
1E
100
AcDbEntity
  8
0
100
AcDbLine
 10
168.6059999999999
 20
56.94674931163589
 30
0.0
 11
168.6059999999999
 21
55.1341064263823
 31
0.0
  0
LINE
  5
5AA
330
1E
100
AcDbEntity
  8
0
100
AcDbLine
 10
137.3489999999999
 20
56.96618840453179
 30
0.0
 11
137.3489999999999
 21
55.15354551927821
 31
0.0
  0
LINE
  5
5AB
330
1E
100
AcDbEntity
  8
0
100
AcDbLine
 10
170.537
 20
57.16565040120279
 30
0.0
 11
171.055
 21
56.349208499575
 31
0.0
  0
LINE
  5
5AC
330
1E
100
AcDbEntity
  8
0
100
AcDbLine
 10
170.537
 20
57.16565040120279
 30
0.0
 11
170.537
 21
55.3530075159492
 31
0.0
  0
LINE
  5
5AD
330
1E
100
AcDbEntity
  8
0
100
AcDbLine
 10
131.6339999999999
 20
57.0070207680047
 30
0.0
 11
131.6339999999999
 21
58.8196636532583
 31
0.0
  0
LINE
  5
5AE
330
1E
100
AcDbEntity
  8
0
100
AcDbLine
 10
131.6339999999999
 20
57.0070207680047
 30
0.0
 11
133.366
 21
56.5844317920069
 31
0.0
  0
LINE
  5
5AF
330
1E
100
AcDbEntity
  8
0
100
AcDbLine
 10
123.5
 20
57.0826641947083
 30
0.0
 11
123.5
 21
57.92784214670399
 31
0.0
  0
LINE
  5
5B0
330
1E
100
AcDbEntity
  8
0
100
AcDbLine
 10
126.1929999999999
 20
56.9326451082291
 30
0.0
 11
126.1929999999999
 21
58.7452879934827
 31
0.0
  0
LINE
  5
5B1
330
1E
100
AcDbEntity
  8
0
100
AcDbLine
 10
126.1929999999999
 20
56.9326451082291
 30
0.0
 11
126.7099999999999
 21
57.7490870098569
 31
0.0
  0
LINE
  5
5B2
330
1E
100
AcDbEntity
  8
0
100
AcDbLine
 10
126.1929999999999
 20
56.9326451082291
 30
0.0
 11
128.125
 21
56.71416660763821
 31
0.0
  0
LINE
  5
5B3
330
1E
100
AcDbEntity
  8
0
100
AcDbLine
 10
118.8069999999999
 20
56.9326451082291
 30
0.0
 11
118.8069999999999
 21
58.7452879934827
 31
0.0
  0
LINE
  5
5B4
330
1E
100
AcDbEntity
  8
0
100
AcDbLine
 10
116.8749999999999
 20
56.71416660763821
 30
0.0
 11
118.8069999999999
 21
56.9326451082291
 31
0.0
  0
LINE
  5
5B5
330
1E
100
AcDbEntity
  8
0
100
AcDbLine
 10
94.4212
 20
56.8147427839257
 30
0.0
 11
94.4212
 21
58.62738566917929
 31
0.0
  0
LINE
  5
5B6
330
1E
100
AcDbEntity
  8
0
100
AcDbLine
 10
91.6891
 20
56.50540765349528
 30
0.0
 11
91.6891
 21
58.31805053874889
 31
0.0
  0
LINE
  5
5B7
330
1E
100
AcDbEntity
  8
0
100
AcDbLine
 10
91.6891
 20
56.50540765349528
 30
0.0
 11
92.68909999999999
 21
57.2373317599235
 31
0.0
  0
LINE
  5
5B8
330
1E
100
AcDbEntity
  8
0
100
AcDbLine
 10
91.6891
 20
56.50540765349528
 30
0.0
 11
93.42119999999999
 21
56.0828186774975
 31
0.0
  0
LINE
  5
5B9
330
1E
100
AcDbEntity
  8
0
100
AcDbLine
 10
76.3944
 20
56.94674931163589
 30
0.0
 11
76.3944
 21
55.1341064263823
 31
0.0
  0
LINE
  5
5BA
330
1E
100
AcDbEntity
  8
0
100
AcDbLine
 10
91.6891
 20
58.31805053874889
 30
0.0
 11
92.68909999999999
 21
59.04997464517709
 31
0.0
  0
LINE
  5
5BB
330
1E
100
AcDbEntity
  8
0
100
AcDbLine
 10
91.6891
 20
58.31805053874889
 30
0.0
 11
91.6891
 21
56.50540765349528
 31
0.0
  0
LINE
  5
5BC
330
1E
100
AcDbEntity
  8
0
100
AcDbLine
 10
109.0649999999999
 20
57.5637292165927
 30
0.0
 11
110.4789999999999
 21
56.96618840453179
 31
0.0
  0
LINE
  5
5BD
330
1E
100
AcDbEntity
  8
0
100
AcDbLine
 10
109.0649999999999
 20
57.5637292165927
 30
0.0
 11
109.0649999999999
 21
55.75108633133921
 31
0.0
  0
LINE
  5
5BE
330
1E
100
AcDbEntity
  8
0
100
AcDbLine
 10
152.311
 20
57.2373317599235
 30
0.0
 11
153.311
 21
56.50540765349528
 31
0.0
  0
LINE
  5
5BF
330
1E
100
AcDbEntity
  8
0
100
AcDbLine
 10
152.311
 20
57.2373317599235
 30
0.0
 11
152.311
 21
59.04997464517709
 31
0.0
  0
LINE
  5
5C0
330
1E
100
AcDbEntity
  8
0
100
AcDbLine
 10
198.1009999999999
 20
57.5990679233777
 30
0.0
 11
200.0329999999999
 21
57.81796901294449
 31
0.0
  0
LINE
  5
5C1
330
1E
100
AcDbEntity
  8
0
100
AcDbLine
 10
135.935
 20
57.5637292165927
 30
0.0
 11
137.3489999999999
 21
56.96618840453179
 31
0.0
  0
LINE
  5
5C2
330
1E
100
AcDbEntity
  8
0
100
AcDbLine
 10
135.935
 20
57.5637292165927
 30
0.0
 11
135.935
 21
55.75108633133921
 31
0.0
  0
LINE
  5
5C3
330
1E
100
AcDbEntity
  8
0
100
AcDbLine
 10
126.7099999999999
 20
57.7490870098569
 30
0.0
 11
126.7099999999999
 21
59.5617298951105
 31
0.0
  0
LINE
  5
5C4
330
1E
100
AcDbEntity
  8
0
100
AcDbLine
 10
126.7099999999999
 20
57.7490870098569
 30
0.0
 11
128.6419999999999
 21
57.530608509266
 31
0.0
  0
LINE
  5
5C5
330
1E
100
AcDbEntity
  8
0
100
AcDbLine
 10
128.6419999999999
 20
57.530608509266
 30
0.0
 11
128.6419999999999
 21
59.3432513945196
 31
0.0
  0
LINE
  5
5C6
330
1E
100
AcDbEntity
  8
0
100
AcDbLine
 10
116.3579999999999
 20
57.530608509266
 30
0.0
 11
116.3579999999999
 21
59.3432513945196
 31
0.0
  0
LINE
  5
5C7
330
1E
100
AcDbEntity
  8
0
100
AcDbLine
 10
116.3579999999999
 20
57.530608509266
 30
0.0
 11
118.29
 21
57.7490870098569
 31
0.0
  0
LINE
  5
5C8
330
1E
100
AcDbEntity
  8
0
100
AcDbLine
 10
116.3579999999999
 20
57.530608509266
 30
0.0
 11
116.8749999999999
 21
56.71416660763821
 31
0.0
  0
LINE
  5
5C9
330
1E
100
AcDbEntity
  8
0
100
AcDbLine
 10
111.634
 20
58.39707467726039
 30
0.0
 11
113.366
 21
58.8196636532583
 31
0.0
  0
LINE
  5
5CA
330
1E
100
AcDbEntity
  8
0
100
AcDbLine
 10
111.634
 20
58.39707467726039
 30
0.0
 11
111.634
 21
56.5844317920069
 31
0.0
  0
LINE
  5
5CB
330
1E
100
AcDbEntity
  8
0
100
AcDbLine
 10
200.0329999999999
 20
57.81796901294449
 30
0.0
 11
200.0329999999999
 21
59.6306118981981
 31
0.0
  0
LINE
  5
5CC
330
1E
100
AcDbEntity
  8
0
100
AcDbLine
 10
121.5
 20
57.92784214670399
 30
0.0
 11
121.5
 21
59.7404850319576
 31
0.0
  0
LINE
  5
5CD
330
1E
100
AcDbEntity
  8
0
100
AcDbLine
 10
121.5
 20
57.92784214670399
 30
0.0
 11
123.5
 21
57.92784214670399
 31
0.0
  0
LINE
  5
5CE
330
1E
100
AcDbEntity
  8
0
100
AcDbLine
 10
121.5
 20
57.92784214670399
 30
0.0
 11
121.5
 21
57.0826641947083
 31
0.0
  0
LINE
  5
5CF
330
1E
100
AcDbEntity
  8
0
100
AcDbLine
 10
130.6339999999999
 20
58.087316957854
 30
0.0
 11
131.6339999999999
 21
58.8196636532583
 31
0.0
  0
LINE
  5
5D0
330
1E
100
AcDbEntity
  8
0
100
AcDbLine
 10
130.6339999999999
 20
58.087316957854
 30
0.0
 11
130.6339999999999
 21
56.27467407260049
 31
0.0
  0
LINE
  5
5D1
330
1E
100
AcDbEntity
  8
0
100
AcDbLine
 10
185.544
 20
57.9896989043985
 30
0.0
 11
185.544
 21
56.17705601914501
 31
0.0
  0
LINE
  5
5D2
330
1E
100
AcDbEntity
  8
0
100
AcDbLine
 10
197.583
 20
58.4155098250055
 30
0.0
 11
197.583
 21
60.2281527102591
 31
0.0
  0
LINE
  5
5D3
330
1E
100
AcDbEntity
  8
0
100
AcDbLine
 10
197.583
 20
58.4155098250055
 30
0.0
 11
199.5149999999999
 21
58.6339883255964
 31
0.0
  0
LINE
  5
5D4
330
1E
100
AcDbEntity
  8
0
100
AcDbLine
 10
197.583
 20
58.4155098250055
 30
0.0
 11
198.1009999999999
 21
57.5990679233777
 31
0.0
  0
LINE
  5
5D5
330
1E
100
AcDbEntity
  8
0
100
AcDbLine
 10
153.311
 20
58.31805053874889
 30
0.0
 11
153.311
 21
56.50540765349528
 31
0.0
  0
LINE
  5
5D6
330
1E
100
AcDbEntity
  8
0
100
AcDbLine
 10
133.366
 20
58.39707467726039
 30
0.0
 11
133.366
 21
56.5844317920069
 31
0.0
  0
LINE
  5
5D7
330
1E
100
AcDbEntity
  8
0
100
AcDbLine
 10
123.5
 20
57.92784214670399
 30
0.0
 11
123.5
 21
59.7404850319576
 31
0.0
  0
LINE
  5
5D8
330
1E
100
AcDbEntity
  8
0
100
AcDbLine
 10
123.5
 20
57.92784214670399
 30
0.0
 11
123.5
 21
57.0826641947083
 31
0.0
  0
LINE
  5
5D9
330
1E
100
AcDbEntity
  8
0
100
AcDbLine
 10
114.366
 20
58.087316957854
 30
0.0
 11
114.366
 21
56.27467407260049
 31
0.0
  0
LINE
  5
5DA
330
1E
100
AcDbEntity
  8
0
100
AcDbLine
 10
118.29
 20
57.7490870098569
 30
0.0
 11
118.8069999999999
 21
56.9326451082291
 31
0.0
  0
LINE
  5
5DB
330
1E
100
AcDbEntity
  8
0
100
AcDbLine
 10
118.29
 20
57.7490870098569
 30
0.0
 11
118.29
 21
59.5617298951105
 31
0.0
  0
LINE
  5
5DC
330
1E
100
AcDbEntity
  8
0
100
AcDbLine
 10
92.68909999999999
 20
57.2373317599235
 30
0.0
 11
92.68909999999999
 21
59.04997464517709
 31
0.0
  0
LINE
  5
5DD
330
1E
100
AcDbEntity
  8
0
100
AcDbLine
 10
92.68909999999999
 20
57.2373317599235
 30
0.0
 11
94.4212
 21
56.8147427839257
 31
0.0
  0
LINE
  5
5DE
330
1E
100
AcDbEntity
  8
0
100
AcDbLine
 10
74.4625
 20
57.16565040120279
 30
0.0
 11
76.3944
 21
56.94674931163589
 31
0.0
  0
LINE
  5
5DF
330
1E
100
AcDbEntity
  8
0
100
AcDbLine
 10
74.4625
 20
57.16565040120279
 30
0.0
 11
74.4625
 21
55.3530075159492
 31
0.0
  0
LINE
  5
5E0
330
1E
100
AcDbEntity
  8
0
100
AcDbLine
 10
61.9055
 20
56.77501942018189
 30
0.0
 11
61.9055
 21
58.58766230543549
 31
0.0
  0
LINE
  5
5E1
330
1E
100
AcDbEntity
  8
0
100
AcDbLine
 10
61.3879
 20
55.95857751855411
 30
0.0
 11
61.9055
 21
56.77501942018189
 31
0.0
  0
LINE
  5
5E2
330
1E
100
AcDbEntity
  8
0
100
AcDbLine
 10
59.9736
 20
56.9934979207728
 30
0.0
 11
59.9736
 21
58.80614080602629
 31
0.0
  0
LINE
  5
5E3
330
1E
100
AcDbEntity
  8
0
100
AcDbLine
 10
59.9736
 20
56.9934979207728
 30
0.0
 11
61.9055
 21
56.77501942018189
 31
0.0
  0
LINE
  5
5E4
330
1E
100
AcDbEntity
  8
0
100
AcDbLine
 10
183.0949999999999
 20
58.58766230543549
 30
0.0
 11
185.0259999999999
 21
58.80614080602629
 31
0.0
  0
LINE
  5
5E5
330
1E
100
AcDbEntity
  8
0
100
AcDbLine
 10
183.0949999999999
 20
58.58766230543549
 30
0.0
 11
183.0949999999999
 21
56.77501942018189
 31
0.0
  0
LINE
  5
5E6
330
1E
100
AcDbEntity
  8
0
100
AcDbLine
 10
80.43080000000001
 20
59.2522359974812
 30
0.0
 11
81.43080000000001
 21
59.9841601039094
 31
0.0
  0
LINE
  5
5E7
330
1E
100
AcDbEntity
  8
0
100
AcDbLine
 10
81.43080000000001
 20
59.9841601039094
 30
0.0
 11
81.43080000000001
 21
61.79680298916299
 31
0.0
  0
LINE
  5
5E8
330
1E
100
AcDbEntity
  8
0
100
AcDbLine
 10
78.6987
 20
59.67482497347901
 30
0.0
 11
78.6987
 21
61.4874678587326
 31
0.0
  0
LINE
  5
5E9
330
1E
100
AcDbEntity
  8
0
100
AcDbLine
 10
78.6987
 20
59.67482497347901
 30
0.0
 11
79.6987
 21
60.40674907990729
 31
0.0
  0
LINE
  5
5EA
330
1E
100
AcDbEntity
  8
0
100
AcDbLine
 10
78.6987
 20
59.67482497347901
 30
0.0
 11
80.43080000000001
 21
59.2522359974812
 31
0.0
  0
LINE
  5
5EB
330
1E
100
AcDbEntity
  8
0
100
AcDbLine
 10
150.579
 20
58.62738566917929
 30
0.0
 11
152.311
 21
59.04997464517709
 31
0.0
  0
LINE
  5
5EC
330
1E
100
AcDbEntity
  8
0
100
AcDbLine
 10
150.579
 20
58.62738566917929
 30
0.0
 11
150.579
 21
56.8147427839257
 31
0.0
  0
LINE
  5
5ED
330
1E
100
AcDbEntity
  8
0
100
AcDbLine
 10
113.366
 20
58.8196636532583
 30
0.0
 11
114.366
 21
58.087316957854
 31
0.0
  0
LINE
  5
5EE
330
1E
100
AcDbEntity
  8
0
100
AcDbLine
 10
113.366
 20
58.8196636532583
 30
0.0
 11
113.366
 21
57.0070207680047
 31
0.0
  0
LINE
  5
5EF
330
1E
100
AcDbEntity
  8
0
100
AcDbLine
 10
98.4584
 20
59.0381524222407
 30
0.0
 11
99.8726
 21
59.63577775209679
 31
0.0
  0
LINE
  5
5F0
330
1E
100
AcDbEntity
  8
0
100
AcDbLine
 10
116.3579999999999
 20
59.3432513945196
 30
0.0
 11
118.29
 21
59.5617298951105
 31
0.0
  0
LINE
  5
5F1
330
1E
100
AcDbEntity
  8
0
100
AcDbLine
 10
116.3579999999999
 20
59.3432513945196
 30
0.0
 11
116.3579999999999
 21
57.530608509266
 31
0.0
  0
LINE
  5
5F2
330
1E
100
AcDbEntity
  8
0
100
AcDbLine
 10
99.8726
 20
59.63577775209679
 30
0.0
 11
99.8726
 21
61.4484206373504
 31
0.0
  0
LINE
  5
5F3
330
1E
100
AcDbEntity
  8
0
100
AcDbLine
 10
97.0442
 20
59.63577775209679
 30
0.0
 11
97.0442
 21
61.4484206373504
 31
0.0
  0
LINE
  5
5F4
330
1E
100
AcDbEntity
  8
0
100
AcDbLine
 10
97.0442
 20
59.63577775209679
 30
0.0
 11
98.4584
 21
60.233403081953
 31
0.0
  0
LINE
  5
5F5
330
1E
100
AcDbEntity
  8
0
100
AcDbLine
 10
97.0442
 20
59.63577775209679
 30
0.0
 11
98.4584
 21
59.0381524222407
 31
0.0
  0
LINE
  5
5F6
330
1E
100
AcDbEntity
  8
0
100
AcDbLine
 10
118.29
 20
59.5617298951105
 30
0.0
 11
118.8069999999999
 21
58.7452879934827
 31
0.0
  0
LINE
  5
5F7
330
1E
100
AcDbEntity
  8
0
100
AcDbLine
 10
118.29
 20
59.5617298951105
 30
0.0
 11
118.29
 21
57.7490870098569
 31
0.0
  0
LINE
  5
5F8
330
1E
100
AcDbEntity
  8
0
100
AcDbLine
 10
121.5
 20
58.8953070799619
 30
0.0
 11
121.5
 21
59.7404850319576
 31
0.0
  0
LINE
  5
5F9
330
1E
100
AcDbEntity
  8
0
100
AcDbLine
 10
121.5
 20
58.8953070799619
 30
0.0
 11
121.5
 21
57.0826641947083
 31
0.0
  0
LINE
  5
5FA
330
1E
100
AcDbEntity
  8
0
100
AcDbLine
 10
126.1929999999999
 20
58.7452879934827
 30
0.0
 11
126.7099999999999
 21
59.5617298951105
 31
0.0
  0
LINE
  5
5FB
330
1E
100
AcDbEntity
  8
0
100
AcDbLine
 10
126.1929999999999
 20
58.7452879934827
 30
0.0
 11
126.1929999999999
 21
56.9326451082291
 31
0.0
  0
LINE
  5
5FC
330
1E
100
AcDbEntity
  8
0
100
AcDbLine
 10
185.0259999999999
 20
58.80614080602629
 30
0.0
 11
185.544
 21
57.9896989043985
 31
0.0
  0
LINE
  5
5FD
330
1E
100
AcDbEntity
  8
0
100
AcDbLine
 10
185.0259999999999
 20
58.80614080602629
 30
0.0
 11
185.0259999999999
 21
56.9934979207728
 31
0.0
  0
LINE
  5
5FE
330
1E
100
AcDbEntity
  8
0
100
AcDbLine
 10
243.0
 20
58.6884673175212
 30
0.0
 11
243.0
 21
59.445598495642
 31
0.0
  0
LINE
  5
5FF
330
1E
100
AcDbEntity
  8
0
100
AcDbLine
 10
199.5149999999999
 20
58.6339883255964
 30
0.0
 11
200.0329999999999
 21
57.81796901294449
 31
0.0
  0
LINE
  5
600
330
1E
100
AcDbEntity
  8
0
100
AcDbLine
 10
199.5149999999999
 20
58.6339883255964
 30
0.0
 11
199.5149999999999
 21
60.44663121084989
 31
0.0
  0
LINE
  5
601
330
1E
100
AcDbEntity
  8
0
100
AcDbLine
 10
146.5419999999999
 20
59.0381524222407
 30
0.0
 11
147.956
 21
59.63577775209679
 31
0.0
  0
LINE
  5
602
330
1E
100
AcDbEntity
  8
0
100
AcDbLine
 10
212.59
 20
59.23964284599651
 30
0.0
 11
214.522
 21
59.45841715887049
 31
0.0
  0
LINE
  5
603
330
1E
100
AcDbEntity
  8
0
100
AcDbLine
 10
243.0
 20
59.445598495642
 30
0.0
 11
243.0
 21
58.6884673175212
 31
0.0
  0
LINE
  5
604
330
1E
100
AcDbEntity
  8
0
100
AcDbLine
 10
214.522
 20
59.45841715887049
 30
0.0
 11
214.522
 21
61.2710600441241
 31
0.0
  0
LINE
  5
605
330
1E
100
AcDbEntity
  8
0
100
AcDbLine
 10
164.569
 20
59.2522359974812
 30
0.0
 11
166.3009999999999
 21
59.67482497347901
 31
0.0
  0
LINE
  5
606
330
1E
100
AcDbEntity
  8
0
100
AcDbLine
 10
152.311
 20
59.04997464517709
 30
0.0
 11
153.311
 21
58.31805053874889
 31
0.0
  0
LINE
  5
607
330
1E
100
AcDbEntity
  8
0
100
AcDbLine
 10
152.311
 20
59.04997464517709
 30
0.0
 11
152.311
 21
57.2373317599235
 31
0.0
  0
LINE
  5
608
330
1E
100
AcDbEntity
  8
0
100
AcDbLine
 10
131.6339999999999
 20
58.8196636532583
 30
0.0
 11
133.366
 21
58.39707467726039
 31
0.0
  0
LINE
  5
609
330
1E
100
AcDbEntity
  8
0
100
AcDbLine
 10
131.6339999999999
 20
58.8196636532583
 30
0.0
 11
131.6339999999999
 21
57.0070207680047
 31
0.0
  0
LINE
  5
60A
330
1E
100
AcDbEntity
  8
0
100
AcDbLine
 10
128.6419999999999
 20
59.3432513945196
 30
0.0
 11
128.6419999999999
 21
57.530608509266
 31
0.0
  0
LINE
  5
60B
330
1E
100
AcDbEntity
  8
0
100
AcDbLine
 10
145.127
 20
59.63577775209679
 30
0.0
 11
145.127
 21
61.4484206373504
 31
0.0
  0
LINE
  5
60C
330
1E
100
AcDbEntity
  8
0
100
AcDbLine
 10
145.127
 20
59.63577775209679
 30
0.0
 11
146.5419999999999
 21
60.233403081953
 31
0.0
  0
LINE
  5
60D
330
1E
100
AcDbEntity
  8
0
100
AcDbLine
 10
145.127
 20
59.63577775209679
 30
0.0
 11
146.5419999999999
 21
59.0381524222407
 31
0.0
  0
LINE
  5
60E
330
1E
100
AcDbEntity
  8
0
100
AcDbLine
 10
200.0329999999999
 20
59.6306118981981
 30
0.0
 11
200.0329999999999
 21
57.81796901294449
 31
0.0
  0
LINE
  5
60F
330
1E
100
AcDbEntity
  8
0
100
AcDbLine
 10
166.3009999999999
 20
59.67482497347901
 30
0.0
 11
166.3009999999999
 21
61.4874678587326
 31
0.0
  0
LINE
  5
610
330
1E
100
AcDbEntity
  8
0
100
AcDbLine
 10
147.956
 20
59.63577775209679
 30
0.0
 11
147.956
 21
61.4484206373504
 31
0.0
  0
LINE
  5
611
330
1E
100
AcDbEntity
  8
0
100
AcDbLine
 10
212.0719999999999
 20
60.0560424887267
 30
0.0
 11
212.0719999999999
 21
61.8686853739802
 31
0.0
  0
LINE
  5
612
330
1E
100
AcDbEntity
  8
0
100
AcDbLine
 10
212.0719999999999
 20
60.0560424887267
 30
0.0
 11
214.004
 21
60.27477454270311
 31
0.0
  0
LINE
  5
613
330
1E
100
AcDbEntity
  8
0
100
AcDbLine
 10
212.0719999999999
 20
60.0560424887267
 30
0.0
 11
212.59
 21
59.23964284599651
 31
0.0
  0
LINE
  5
614
330
1E
100
AcDbEntity
  8
0
100
AcDbLine
 10
197.583
 20
60.2281527102591
 30
0.0
 11
199.5149999999999
 21
60.44663121084989
 31
0.0
  0
LINE
  5
615
330
1E
100
AcDbEntity
  8
0
100
AcDbLine
 10
197.583
 20
60.2281527102591
 30
0.0
 11
197.583
 21
58.4155098250055
 31
0.0
  0
LINE
  5
616
330
1E
100
AcDbEntity
  8
0
100
AcDbLine
 10
163.5689999999999
 20
59.9841601039094
 30
0.0
 11
163.5689999999999
 21
61.79680298916299
 31
0.0
  0
LINE
  5
617
330
1E
100
AcDbEntity
  8
0
100
AcDbLine
 10
163.5689999999999
 20
59.9841601039094
 30
0.0
 11
165.3009999999999
 21
60.40674907990729
 31
0.0
  0
LINE
  5
618
330
1E
100
AcDbEntity
  8
0
100
AcDbLine
 10
163.5689999999999
 20
59.9841601039094
 30
0.0
 11
164.569
 21
59.2522359974812
 31
0.0
  0
LINE
  5
619
330
1E
100
AcDbEntity
  8
0
100
AcDbLine
 10
123.5
 20
59.7404850319576
 30
0.0
 11
123.5
 21
57.92784214670399
 31
0.0
  0
LINE
  5
61A
330
1E
100
AcDbEntity
  8
0
100
AcDbLine
 10
121.5
 20
59.7404850319576
 30
0.0
 11
123.5
 21
59.7404850319576
 31
0.0
  0
LINE
  5
61B
330
1E
100
AcDbEntity
  8
0
100
AcDbLine
 10
121.5
 20
59.7404850319576
 30
0.0
 11
121.5
 21
57.92784214670399
 31
0.0
  0
LINE
  5
61C
330
1E
100
AcDbEntity
  8
0
100
AcDbLine
 10
121.5
 20
59.7404850319576
 30
0.0
 11
121.5
 21
58.8953070799619
 31
0.0
  0
LINE
  5
61D
330
1E
100
AcDbEntity
  8
0
100
AcDbLine
 10
126.7099999999999
 20
59.5617298951105
 30
0.0
 11
128.6419999999999
 21
59.3432513945196
 31
0.0
  0
LINE
  5
61E
330
1E
100
AcDbEntity
  8
0
100
AcDbLine
 10
126.7099999999999
 20
59.5617298951105
 30
0.0
 11
126.7099999999999
 21
57.7490870098569
 31
0.0
  0
LINE
  5
61F
330
1E
100
AcDbEntity
  8
0
100
AcDbLine
 10
118.8069999999999
 20
58.7452879934827
 30
0.0
 11
118.8069999999999
 21
56.9326451082291
 31
0.0
  0
LINE
  5
620
330
1E
100
AcDbEntity
  8
0
100
AcDbLine
 10
94.4212
 20
58.62738566917929
 30
0.0
 11
94.4212
 21
56.8147427839257
 31
0.0
  0
LINE
  5
621
330
1E
100
AcDbEntity
  8
0
100
AcDbLine
 10
92.68909999999999
 20
59.04997464517709
 30
0.0
 11
94.4212
 21
58.62738566917929
 31
0.0
  0
LINE
  5
622
330
1E
100
AcDbEntity
  8
0
100
AcDbLine
 10
92.68909999999999
 20
59.04997464517709
 30
0.0
 11
92.68909999999999
 21
57.2373317599235
 31
0.0
  0
LINE
  5
623
330
1E
100
AcDbEntity
  8
0
100
AcDbLine
 10
61.9055
 20
58.58766230543549
 30
0.0
 11
61.9055
 21
56.77501942018189
 31
0.0
  0
LINE
  5
624
330
1E
100
AcDbEntity
  8
0
100
AcDbLine
 10
59.9736
 20
58.80614080602629
 30
0.0
 11
61.9055
 21
58.58766230543549
 31
0.0
  0
LINE
  5
625
330
1E
100
AcDbEntity
  8
0
100
AcDbLine
 10
59.9736
 20
58.80614080602629
 30
0.0
 11
59.9736
 21
56.9934979207728
 31
0.0
  0
LINE
  5
626
330
1E
100
AcDbEntity
  8
0
100
AcDbLine
 10
47.4166
 20
58.4155098250055
 30
0.0
 11
47.4166
 21
60.2281527102591
 31
0.0
  0
LINE
  5
627
330
1E
100
AcDbEntity
  8
0
100
AcDbLine
 10
46.89899999999999
 20
57.5990679233777
 30
0.0
 11
47.4166
 21
58.4155098250055
 31
0.0
  0
LINE
  5
628
330
1E
100
AcDbEntity
  8
0
100
AcDbLine
 10
52.718
 20
66.01365961344651
 30
0.0
 11
52.718
 21
67.8263024987001
 31
0.0
  0
LINE
  5
629
330
1E
100
AcDbEntity
  8
0
100
AcDbLine
 10
52.718
 20
66.01365961344651
 30
0.0
 11
53.718
 21
66.7455837198748
 31
0.0
  0
LINE
  5
62A
330
1E
100
AcDbEntity
  8
0
100
AcDbLine
 10
52.718
 20
66.01365961344651
 30
0.0
 11
54.45
 21
65.59107063744869
 31
0.0
  0
LINE
  5
62B
330
1E
100
AcDbEntity
  8
0
100
AcDbLine
 10
46.83959999999999
 20
82.04693891618992
 30
0.0
 11
46.83959999999999
 21
83.85958180144349
 31
0.0
  0
LINE
  5
62C
330
1E
100
AcDbEntity
  8
0
100
AcDbLine
 10
46.83959999999999
 20
83.85958180144349
 30
0.0
 11
46.83959999999999
 21
82.04693891618992
 31
0.0
  0
LINE
  5
62D
330
1E
100
AcDbEntity
  8
0
100
AcDbLine
 10
52.718
 20
67.8263024987001
 30
0.0
 11
53.718
 21
68.5582266051283
 31
0.0
  0
LINE
  5
62E
330
1E
100
AcDbEntity
  8
0
100
AcDbLine
 10
52.718
 20
67.8263024987001
 30
0.0
 11
52.718
 21
66.01365961344651
 31
0.0
  0
LINE
  5
62F
330
1E
100
AcDbEntity
  8
0
100
AcDbLine
 10
53.718
 20
66.7455837198748
 30
0.0
 11
53.718
 21
68.5582266051283
 31
0.0
  0
LINE
  5
630
330
1E
100
AcDbEntity
  8
0
100
AcDbLine
 10
53.718
 20
66.7455837198748
 30
0.0
 11
55.45
 21
66.32299474387689
 31
0.0
  0
LINE
  5
631
330
1E
100
AcDbEntity
  8
0
100
AcDbLine
 10
65.7084
 20
62.8442422934628
 30
0.0
 11
65.7084
 21
64.6568851787163
 31
0.0
  0
LINE
  5
632
330
1E
100
AcDbEntity
  8
0
100
AcDbLine
 10
65.7084
 20
62.8442422934628
 30
0.0
 11
66.7084
 21
63.576166399891
 31
0.0
  0
LINE
  5
633
330
1E
100
AcDbEntity
  8
0
100
AcDbLine
 10
65.7084
 20
62.8442422934628
 30
0.0
 11
67.4404
 21
62.42165331746489
 31
0.0
  0
LINE
  5
634
330
1E
100
AcDbEntity
  8
0
100
AcDbLine
 10
65.7084
 20
64.6568851787163
 30
0.0
 11
66.7084
 21
65.3888092851446
 31
0.0
  0
LINE
  5
635
330
1E
100
AcDbEntity
  8
0
100
AcDbLine
 10
65.7084
 20
64.6568851787163
 30
0.0
 11
65.7084
 21
62.8442422934628
 31
0.0
  0
LINE
  5
636
330
1E
100
AcDbEntity
  8
0
100
AcDbLine
 10
66.7084
 20
63.576166399891
 30
0.0
 11
66.7084
 21
65.3888092851446
 31
0.0
  0
LINE
  5
637
330
1E
100
AcDbEntity
  8
0
100
AcDbLine
 10
66.7084
 20
63.576166399891
 30
0.0
 11
68.44039999999999
 21
63.1535774238932
 31
0.0
  0
LINE
  5
638
330
1E
100
AcDbEntity
  8
0
100
AcDbLine
 10
78.6987
 20
61.4874678587326
 30
0.0
 11
79.6987
 21
62.21939196516079
 31
0.0
  0
LINE
  5
639
330
1E
100
AcDbEntity
  8
0
100
AcDbLine
 10
78.6987
 20
61.4874678587326
 30
0.0
 11
78.6987
 21
59.67482497347901
 31
0.0
  0
LINE
  5
63A
330
1E
100
AcDbEntity
  8
0
100
AcDbLine
 10
79.6987
 20
60.40674907990729
 30
0.0
 11
79.6987
 21
62.21939196516079
 31
0.0
  0
LINE
  5
63B
330
1E
100
AcDbEntity
  8
0
100
AcDbLine
 10
79.6987
 20
60.40674907990729
 30
0.0
 11
81.43080000000001
 21
59.9841601039094
 31
0.0
  0
LINE
  5
63C
330
1E
100
AcDbEntity
  8
0
100
AcDbLine
 10
97.0442
 20
61.4484206373504
 30
0.0
 11
98.4584
 21
62.04604596720649
 31
0.0
  0
LINE
  5
63D
330
1E
100
AcDbEntity
  8
0
100
AcDbLine
 10
97.0442
 20
61.4484206373504
 30
0.0
 11
97.0442
 21
59.63577775209679
 31
0.0
  0
LINE
  5
63E
330
1E
100
AcDbEntity
  8
0
100
AcDbLine
 10
99.8726
 20
61.4484206373504
 30
0.0
 11
99.8726
 21
59.63577775209679
 31
0.0
  0
LINE
  5
63F
330
1E
100
AcDbEntity
  8
0
100
AcDbLine
 10
98.4584
 20
60.233403081953
 30
0.0
 11
98.4584
 21
62.04604596720649
 31
0.0
  0
LINE
  5
640
330
1E
100
AcDbEntity
  8
0
100
AcDbLine
 10
98.4584
 20
60.233403081953
 30
0.0
 11
99.8726
 21
59.63577775209679
 31
0.0
  0
LINE
  5
641
330
1E
100
AcDbEntity
  8
0
100
AcDbLine
 10
138.1339999999999
 20
61.7644429419931
 30
0.0
 11
138.1339999999999
 21
63.5770858272467
 31
0.0
  0
LINE
  5
642
330
1E
100
AcDbEntity
  8
0
100
AcDbLine
 10
138.1339999999999
 20
61.7644429419931
 30
0.0
 11
139.1339999999999
 21
62.4964093073189
 31
0.0
  0
LINE
  5
643
330
1E
100
AcDbEntity
  8
0
100
AcDbLine
 10
138.1339999999999
 20
61.7644429419931
 30
0.0
 11
139.866
 21
61.34185396599529
 31
0.0
  0
LINE
  5
644
330
1E
100
AcDbEntity
  8
0
100
AcDbLine
 10
145.127
 20
61.4484206373504
 30
0.0
 11
146.5419999999999
 21
62.04604596720649
 31
0.0
  0
LINE
  5
645
330
1E
100
AcDbEntity
  8
0
100
AcDbLine
 10
145.127
 20
61.4484206373504
 30
0.0
 11
145.127
 21
59.63577775209679
 31
0.0
  0
LINE
  5
646
330
1E
100
AcDbEntity
  8
0
100
AcDbLine
 10
214.004
 20
60.27477454270311
 30
0.0
 11
214.522
 21
59.45841715887049
 31
0.0
  0
LINE
  5
647
330
1E
100
AcDbEntity
  8
0
100
AcDbLine
 10
214.004
 20
60.27477454270311
 30
0.0
 11
214.004
 21
62.08741742795671
 31
0.0
  0
LINE
  5
648
330
1E
100
AcDbEntity
  8
0
100
AcDbLine
 10
226.5609999999999
 20
61.6966596702431
 30
0.0
 11
226.5609999999999
 21
63.50930255549659
 31
0.0
  0
LINE
  5
649
330
1E
100
AcDbEntity
  8
0
100
AcDbLine
 10
226.5609999999999
 20
61.6966596702431
 30
0.0
 11
228.493
 21
61.91539172421951
 31
0.0
  0
LINE
  5
64A
330
1E
100
AcDbEntity
  8
0
100
AcDbLine
 10
226.5609999999999
 20
61.6966596702431
 30
0.0
 11
227.079
 21
60.8802600275128
 31
0.0
  0
LINE
  5
64B
330
1E
100
AcDbEntity
  8
0
100
AcDbLine
 10
229.0109999999999
 20
61.09903434038689
 30
0.0
 11
229.0109999999999
 21
62.9116772256405
 31
0.0
  0
LINE
  5
64C
330
1E
100
AcDbEntity
  8
0
100
AcDbLine
 10
227.079
 20
60.8802600275128
 30
0.0
 11
229.0109999999999
 21
61.09903434038689
 31
0.0
  0
LINE
  5
64D
330
1E
100
AcDbEntity
  8
0
100
AcDbLine
 10
214.522
 20
61.2710600441241
 30
0.0
 11
214.522
 21
59.45841715887049
 31
0.0
  0
LINE
  5
64E
330
1E
100
AcDbEntity
  8
0
100
AcDbLine
 10
199.5149999999999
 20
60.44663121084989
 30
0.0
 11
200.0329999999999
 21
59.6306118981981
 31
0.0
  0
LINE
  5
64F
330
1E
100
AcDbEntity
  8
0
100
AcDbLine
 10
199.5149999999999
 20
60.44663121084989
 30
0.0
 11
199.5149999999999
 21
58.6339883255964
 31
0.0
  0
LINE
  5
650
330
1E
100
AcDbEntity
  8
0
100
AcDbLine
 10
166.3009999999999
 20
61.4874678587326
 30
0.0
 11
166.3009999999999
 21
59.67482497347901
 31
0.0
  0
LINE
  5
651
330
1E
100
AcDbEntity
  8
0
100
AcDbLine
 10
165.3009999999999
 20
60.40674907990729
 30
0.0
 11
166.3009999999999
 21
59.67482497347901
 31
0.0
  0
LINE
  5
652
330
1E
100
AcDbEntity
  8
0
100
AcDbLine
 10
165.3009999999999
 20
60.40674907990729
 30
0.0
 11
165.3009999999999
 21
62.21939196516079
 31
0.0
  0
LINE
  5
653
330
1E
100
AcDbEntity
  8
0
100
AcDbLine
 10
147.956
 20
61.4484206373504
 30
0.0
 11
147.956
 21
59.63577775209679
 31
0.0
  0
LINE
  5
654
330
1E
100
AcDbEntity
  8
0
100
AcDbLine
 10
146.5419999999999
 20
60.233403081953
 30
0.0
 11
146.5419999999999
 21
62.04604596720649
 31
0.0
  0
LINE
  5
655
330
1E
100
AcDbEntity
  8
0
100
AcDbLine
 10
146.5419999999999
 20
60.233403081953
 30
0.0
 11
147.956
 21
59.63577775209679
 31
0.0
  0
LINE
  5
656
330
1E
100
AcDbEntity
  8
0
100
AcDbLine
 10
139.866
 20
61.34185396599529
 30
0.0
 11
140.866
 21
62.07382033132111
 31
0.0
  0
LINE
  5
657
330
1E
100
AcDbEntity
  8
0
100
AcDbLine
 10
163.5689999999999
 20
61.79680298916299
 30
0.0
 11
165.3009999999999
 21
62.21939196516079
 31
0.0
  0
LINE
  5
658
330
1E
100
AcDbEntity
  8
0
100
AcDbLine
 10
163.5689999999999
 20
61.79680298916299
 30
0.0
 11
163.5689999999999
 21
59.9841601039094
 31
0.0
  0
LINE
  5
659
330
1E
100
AcDbEntity
  8
0
100
AcDbLine
 10
106.8659999999999
 20
61.7644429419931
 30
0.0
 11
106.8659999999999
 21
63.5770858272467
 31
0.0
  0
LINE
  5
65A
330
1E
100
AcDbEntity
  8
0
100
AcDbLine
 10
105.1339999999999
 20
61.34185396599529
 30
0.0
 11
106.8659999999999
 21
61.7644429419931
 31
0.0
  0
LINE
  5
65B
330
1E
100
AcDbEntity
  8
0
100
AcDbLine
 10
98.4584
 20
62.04604596720649
 30
0.0
 11
99.8726
 21
61.4484206373504
 31
0.0
  0
LINE
  5
65C
330
1E
100
AcDbEntity
  8
0
100
AcDbLine
 10
98.4584
 20
62.04604596720649
 30
0.0
 11
98.4584
 21
60.233403081953
 31
0.0
  0
LINE
  5
65D
330
1E
100
AcDbEntity
  8
0
100
AcDbLine
 10
104.1339999999999
 20
62.07382033132111
 30
0.0
 11
104.1339999999999
 21
63.8864632165747
 31
0.0
  0
LINE
  5
65E
330
1E
100
AcDbEntity
  8
0
100
AcDbLine
 10
104.1339999999999
 20
62.07382033132111
 30
0.0
 11
105.8659999999999
 21
62.4964093073189
 31
0.0
  0
LINE
  5
65F
330
1E
100
AcDbEntity
  8
0
100
AcDbLine
 10
104.1339999999999
 20
62.07382033132111
 30
0.0
 11
105.1339999999999
 21
61.34185396599529
 31
0.0
  0
LINE
  5
660
330
1E
100
AcDbEntity
  8
0
100
AcDbLine
 10
228.493
 20
61.91539172421951
 30
0.0
 11
229.0109999999999
 21
61.09903434038689
 31
0.0
  0
LINE
  5
661
330
1E
100
AcDbEntity
  8
0
100
AcDbLine
 10
228.493
 20
61.91539172421951
 30
0.0
 11
228.493
 21
63.7280346094731
 31
0.0
  0
LINE
  5
662
330
1E
100
AcDbEntity
  8
0
100
AcDbLine
 10
212.0719999999999
 20
61.8686853739802
 30
0.0
 11
214.004
 21
62.08741742795671
 31
0.0
  0
LINE
  5
663
330
1E
100
AcDbEntity
  8
0
100
AcDbLine
 10
212.0719999999999
 20
61.8686853739802
 30
0.0
 11
212.0719999999999
 21
60.0560424887267
 31
0.0
  0
LINE
  5
664
330
1E
100
AcDbEntity
  8
0
100
AcDbLine
 10
146.5419999999999
 20
62.04604596720649
 30
0.0
 11
147.956
 21
61.4484206373504
 31
0.0
  0
LINE
  5
665
330
1E
100
AcDbEntity
  8
0
100
AcDbLine
 10
146.5419999999999
 20
62.04604596720649
 30
0.0
 11
146.5419999999999
 21
60.233403081953
 31
0.0
  0
LINE
  5
666
330
1E
100
AcDbEntity
  8
0
100
AcDbLine
 10
214.004
 20
62.08741742795671
 30
0.0
 11
214.522
 21
61.2710600441241
 31
0.0
  0
LINE
  5
667
330
1E
100
AcDbEntity
  8
0
100
AcDbLine
 10
214.004
 20
62.08741742795671
 30
0.0
 11
214.004
 21
60.27477454270311
 31
0.0
  0
LINE
  5
668
330
1E
100
AcDbEntity
  8
0
100
AcDbLine
 10
177.56
 20
62.42165331746489
 30
0.0
 11
179.292
 21
62.8442422934628
 31
0.0
  0
LINE
  5
669
330
1E
100
AcDbEntity
  8
0
100
AcDbLine
 10
165.3009999999999
 20
62.21939196516079
 30
0.0
 11
166.3009999999999
 21
61.4874678587326
 31
0.0
  0
LINE
  5
66A
330
1E
100
AcDbEntity
  8
0
100
AcDbLine
 10
165.3009999999999
 20
62.21939196516079
 30
0.0
 11
165.3009999999999
 21
60.40674907990729
 31
0.0
  0
LINE
  5
66B
330
1E
100
AcDbEntity
  8
0
100
AcDbLine
 10
139.1339999999999
 20
62.4964093073189
 30
0.0
 11
139.1339999999999
 21
64.30905219257249
 31
0.0
  0
LINE
  5
66C
330
1E
100
AcDbEntity
  8
0
100
AcDbLine
 10
139.1339999999999
 20
62.4964093073189
 30
0.0
 11
140.866
 21
62.07382033132111
 31
0.0
  0
LINE
  5
66D
330
1E
100
AcDbEntity
  8
0
100
AcDbLine
 10
140.866
 20
62.07382033132111
 30
0.0
 11
140.866
 21
63.8864632165747
 31
0.0
  0
LINE
  5
66E
330
1E
100
AcDbEntity
  8
0
100
AcDbLine
 10
132.007
 20
62.836931504178
 30
0.0
 11
132.525
 21
63.6533311469082
 31
0.0
  0
LINE
  5
66F
330
1E
100
AcDbEntity
  8
0
100
AcDbLine
 10
229.0109999999999
 20
62.9116772256405
 30
0.0
 11
229.0109999999999
 21
61.09903434038689
 31
0.0
  0
LINE
  5
670
330
1E
100
AcDbEntity
  8
0
100
AcDbLine
 10
179.292
 20
62.8442422934628
 30
0.0
 11
179.292
 21
64.6568851787163
 31
0.0
  0
LINE
  5
671
330
1E
100
AcDbEntity
  8
0
100
AcDbLine
 10
176.56
 20
63.1535774238932
 30
0.0
 11
176.56
 21
64.96622030914679
 31
0.0
  0
LINE
  5
672
330
1E
100
AcDbEntity
  8
0
100
AcDbLine
 10
176.56
 20
63.1535774238932
 30
0.0
 11
178.292
 21
63.576166399891
 31
0.0
  0
LINE
  5
673
330
1E
100
AcDbEntity
  8
0
100
AcDbLine
 10
176.56
 20
63.1535774238932
 30
0.0
 11
177.56
 21
62.42165331746489
 31
0.0
  0
LINE
  5
674
330
1E
100
AcDbEntity
  8
0
100
AcDbLine
 10
130.0749999999999
 20
63.0557058170521
 30
0.0
 11
130.0749999999999
 21
64.8683487023057
 31
0.0
  0
LINE
  5
675
330
1E
100
AcDbEntity
  8
0
100
AcDbLine
 10
130.0749999999999
 20
63.0557058170521
 30
0.0
 11
130.5929999999999
 21
63.8720632008847
 31
0.0
  0
LINE
  5
676
330
1E
100
AcDbEntity
  8
0
100
AcDbLine
 10
130.0749999999999
 20
63.0557058170521
 30
0.0
 11
132.007
 21
62.836931504178
 31
0.0
  0
LINE
  5
677
330
1E
100
AcDbEntity
  8
0
100
AcDbLine
 10
114.925
 20
63.0557058170521
 30
0.0
 11
114.925
 21
64.8683487023057
 31
0.0
  0
LINE
  5
678
330
1E
100
AcDbEntity
  8
0
100
AcDbLine
 10
112.9929999999999
 20
62.836931504178
 30
0.0
 11
114.925
 21
63.0557058170521
 31
0.0
  0
LINE
  5
679
330
1E
100
AcDbEntity
  8
0
100
AcDbLine
 10
105.8659999999999
 20
62.4964093073189
 30
0.0
 11
106.8659999999999
 21
61.7644429419931
 31
0.0
  0
LINE
  5
67A
330
1E
100
AcDbEntity
  8
0
100
AcDbLine
 10
105.8659999999999
 20
62.4964093073189
 30
0.0
 11
105.8659999999999
 21
64.30905219257249
 31
0.0
  0
LINE
  5
67B
330
1E
100
AcDbEntity
  8
0
100
AcDbLine
 10
81.43080000000001
 20
61.79680298916299
 30
0.0
 11
81.43080000000001
 21
59.9841601039094
 31
0.0
  0
LINE
  5
67C
330
1E
100
AcDbEntity
  8
0
100
AcDbLine
 10
79.6987
 20
62.21939196516079
 30
0.0
 11
81.43080000000001
 21
61.79680298916299
 31
0.0
  0
LINE
  5
67D
330
1E
100
AcDbEntity
  8
0
100
AcDbLine
 10
79.6987
 20
62.21939196516079
 30
0.0
 11
79.6987
 21
60.40674907990729
 31
0.0
  0
LINE
  5
67E
330
1E
100
AcDbEntity
  8
0
100
AcDbLine
 10
89.266
 20
64.1180099849154
 30
0.0
 11
89.266
 21
65.930652870169
 31
0.0
  0
LINE
  5
67F
330
1E
100
AcDbEntity
  8
0
100
AcDbLine
 10
87.8518
 20
63.5203846550593
 30
0.0
 11
89.266
 21
64.1180099849154
 31
0.0
  0
LINE
  5
680
330
1E
100
AcDbEntity
  8
0
100
AcDbLine
 10
86.4376
 20
64.1180099849154
 30
0.0
 11
86.4376
 21
65.930652870169
 31
0.0
  0
LINE
  5
681
330
1E
100
AcDbEntity
  8
0
100
AcDbLine
 10
86.4376
 20
64.1180099849154
 30
0.0
 11
87.8518
 21
64.7156353147716
 31
0.0
  0
LINE
  5
682
330
1E
100
AcDbEntity
  8
0
100
AcDbLine
 10
86.4376
 20
64.1180099849154
 30
0.0
 11
87.8518
 21
63.5203846550593
 31
0.0
  0
LINE
  5
683
330
1E
100
AcDbEntity
  8
0
100
AcDbLine
 10
104.1339999999999
 20
63.8864632165747
 30
0.0
 11
105.8659999999999
 21
64.30905219257249
 31
0.0
  0
LINE
  5
684
330
1E
100
AcDbEntity
  8
0
100
AcDbLine
 10
104.1339999999999
 20
63.8864632165747
 30
0.0
 11
104.1339999999999
 21
62.07382033132111
 31
0.0
  0
LINE
  5
685
330
1E
100
AcDbEntity
  8
0
100
AcDbLine
 10
87.8518
 20
64.7156353147716
 30
0.0
 11
87.8518
 21
66.5282782000251
 31
0.0
  0
LINE
  5
686
330
1E
100
AcDbEntity
  8
0
100
AcDbLine
 10
87.8518
 20
64.7156353147716
 30
0.0
 11
89.266
 21
64.1180099849154
 31
0.0
  0
LINE
  5
687
330
1E
100
AcDbEntity
  8
0
100
AcDbLine
 10
105.8659999999999
 20
64.30905219257249
 30
0.0
 11
106.8659999999999
 21
63.5770858272467
 31
0.0
  0
LINE
  5
688
330
1E
100
AcDbEntity
  8
0
100
AcDbLine
 10
105.8659999999999
 20
64.30905219257249
 30
0.0
 11
105.8659999999999
 21
62.4964093073189
 31
0.0
  0
LINE
  5
689
330
1E
100
AcDbEntity
  8
0
100
AcDbLine
 10
121.5
 20
63.4214988346758
 30
0.0
 11
121.5
 21
65.23414171992939
 31
0.0
  0
LINE
  5
68A
330
1E
100
AcDbEntity
  8
0
100
AcDbLine
 10
121.5
 20
63.4214988346758
 30
0.0
 11
121.5
 21
64.2666767866715
 31
0.0
  0
LINE
  5
68B
330
1E
100
AcDbEntity
  8
0
100
AcDbLine
 10
121.5
 20
63.4214988346758
 30
0.0
 11
123.5
 21
63.4214988346758
 31
0.0
  0
LINE
  5
68C
330
1E
100
AcDbEntity
  8
0
100
AcDbLine
 10
226.5609999999999
 20
63.50930255549659
 30
0.0
 11
228.493
 21
63.7280346094731
 31
0.0
  0
LINE
  5
68D
330
1E
100
AcDbEntity
  8
0
100
AcDbLine
 10
226.5609999999999
 20
63.50930255549659
 30
0.0
 11
226.5609999999999
 21
61.6966596702431
 31
0.0
  0
LINE
  5
68E
330
1E
100
AcDbEntity
  8
0
100
AcDbLine
 10
178.292
 20
63.576166399891
 30
0.0
 11
179.292
 21
62.8442422934628
 31
0.0
  0
LINE
  5
68F
330
1E
100
AcDbEntity
  8
0
100
AcDbLine
 10
178.292
 20
63.576166399891
 30
0.0
 11
178.292
 21
65.3888092851446
 31
0.0
  0
LINE
  5
690
330
1E
100
AcDbEntity
  8
0
100
AcDbLine
 10
157.148
 20
63.5203846550593
 30
0.0
 11
158.562
 21
64.1180099849154
 31
0.0
  0
LINE
  5
691
330
1E
100
AcDbEntity
  8
0
100
AcDbLine
 10
138.1339999999999
 20
63.5770858272467
 30
0.0
 11
139.1339999999999
 21
64.30905219257249
 31
0.0
  0
LINE
  5
692
330
1E
100
AcDbEntity
  8
0
100
AcDbLine
 10
138.1339999999999
 20
63.5770858272467
 30
0.0
 11
138.1339999999999
 21
61.7644429419931
 31
0.0
  0
LINE
  5
693
330
1E
100
AcDbEntity
  8
0
100
AcDbLine
 10
123.5
 20
63.4214988346758
 30
0.0
 11
123.5
 21
64.2666767866715
 31
0.0
  0
LINE
  5
694
330
1E
100
AcDbEntity
  8
0
100
AcDbLine
 10
228.493
 20
63.7280346094731
 30
0.0
 11
229.0109999999999
 21
62.9116772256405
 31
0.0
  0
LINE
  5
695
330
1E
100
AcDbEntity
  8
0
100
AcDbLine
 10
228.493
 20
63.7280346094731
 30
0.0
 11
228.493
 21
61.91539172421951
 31
0.0
  0
LINE
  5
696
330
1E
100
AcDbEntity
  8
0
100
AcDbLine
 10
130.5929999999999
 20
63.8720632008847
 30
0.0
 11
130.5929999999999
 21
65.68470608613829
 31
0.0
  0
LINE
  5
697
330
1E
100
AcDbEntity
  8
0
100
AcDbLine
 10
130.5929999999999
 20
63.8720632008847
 30
0.0
 11
132.525
 21
63.6533311469082
 31
0.0
  0
LINE
  5
698
330
1E
100
AcDbEntity
  8
0
100
AcDbLine
 10
132.525
 20
63.6533311469082
 30
0.0
 11
132.525
 21
65.46597403216179
 31
0.0
  0
LINE
  5
699
330
1E
100
AcDbEntity
  8
0
100
AcDbLine
 10
112.4749999999999
 20
63.6533311469082
 30
0.0
 11
112.4749999999999
 21
65.46597403216179
 31
0.0
  0
LINE
  5
69A
330
1E
100
AcDbEntity
  8
0
100
AcDbLine
 10
112.4749999999999
 20
63.6533311469082
 30
0.0
 11
114.407
 21
63.8720632008847
 31
0.0
  0
LINE
  5
69B
330
1E
100
AcDbEntity
  8
0
100
AcDbLine
 10
112.4749999999999
 20
63.6533311469082
 30
0.0
 11
112.9929999999999
 21
62.836931504178
 31
0.0
  0
LINE
  5
69C
330
1E
100
AcDbEntity
  8
0
100
AcDbLine
 10
121.5
 20
64.2666767866715
 30
0.0
 11
121.5
 21
66.079319671925
 31
0.0
  0
LINE
  5
69D
330
1E
100
AcDbEntity
  8
0
100
AcDbLine
 10
121.5
 20
64.2666767866715
 30
0.0
 11
123.5
 21
64.2666767866715
 31
0.0
  0
LINE
  5
69E
330
1E
100
AcDbEntity
  8
0
100
AcDbLine
 10
121.5
 20
64.2666767866715
 30
0.0
 11
121.5
 21
63.4214988346758
 31
0.0
  0
LINE
  5
69F
330
1E
100
AcDbEntity
  8
0
100
AcDbLine
 10
155.734
 20
64.1180099849154
 30
0.0
 11
155.734
 21
65.930652870169
 31
0.0
  0
LINE
  5
6A0
330
1E
100
AcDbEntity
  8
0
100
AcDbLine
 10
155.734
 20
64.1180099849154
 30
0.0
 11
157.148
 21
64.7156353147716
 31
0.0
  0
LINE
  5
6A1
330
1E
100
AcDbEntity
  8
0
100
AcDbLine
 10
155.734
 20
64.1180099849154
 30
0.0
 11
157.148
 21
63.5203846550593
 31
0.0
  0
LINE
  5
6A2
330
1E
100
AcDbEntity
  8
0
100
AcDbLine
 10
158.562
 20
64.1180099849154
 30
0.0
 11
158.562
 21
65.930652870169
 31
0.0
  0
LINE
  5
6A3
330
1E
100
AcDbEntity
  8
0
100
AcDbLine
 10
140.866
 20
63.8864632165747
 30
0.0
 11
140.866
 21
62.07382033132111
 31
0.0
  0
LINE
  5
6A4
330
1E
100
AcDbEntity
  8
0
100
AcDbLine
 10
239.5999999999999
 20
64.47348156313329
 30
0.0
 11
244.0
 21
51.2887055120009
 31
0.0
  0
LINE
  5
6A5
330
1E
100
AcDbEntity
  8
0
100
AcDbLine
 10
179.292
 20
64.6568851787163
 30
0.0
 11
179.292
 21
62.8442422934628
 31
0.0
  0
LINE
  5
6A6
330
1E
100
AcDbEntity
  8
0
100
AcDbLine
 10
157.148
 20
64.7156353147716
 30
0.0
 11
157.148
 21
66.5282782000251
 31
0.0
  0
LINE
  5
6A7
330
1E
100
AcDbEntity
  8
0
100
AcDbLine
 10
157.148
 20
64.7156353147716
 30
0.0
 11
158.562
 21
64.1180099849154
 31
0.0
  0
LINE
  5
6A8
330
1E
100
AcDbEntity
  8
0
100
AcDbLine
 10
139.1339999999999
 20
64.30905219257249
 30
0.0
 11
140.866
 21
63.8864632165747
 31
0.0
  0
LINE
  5
6A9
330
1E
100
AcDbEntity
  8
0
100
AcDbLine
 10
139.1339999999999
 20
64.30905219257249
 30
0.0
 11
139.1339999999999
 21
62.4964093073189
 31
0.0
  0
LINE
  5
6AA
330
1E
100
AcDbEntity
  8
0
100
AcDbLine
 10
123.5
 20
64.2666767866715
 30
0.0
 11
123.5
 21
66.079319671925
 31
0.0
  0
LINE
  5
6AB
330
1E
100
AcDbEntity
  8
0
100
AcDbLine
 10
123.5
 20
64.2666767866715
 30
0.0
 11
123.5
 21
63.4214988346758
 31
0.0
  0
LINE
  5
6AC
330
1E
100
AcDbEntity
  8
0
100
AcDbLine
 10
176.56
 20
64.96622030914679
 30
0.0
 11
178.292
 21
65.3888092851446
 31
0.0
  0
LINE
  5
6AD
330
1E
100
AcDbEntity
  8
0
100
AcDbLine
 10
176.56
 20
64.96622030914679
 30
0.0
 11
176.56
 21
63.1535774238932
 31
0.0
  0
LINE
  5
6AE
330
1E
100
AcDbEntity
  8
0
100
AcDbLine
 10
130.0749999999999
 20
64.8683487023057
 30
0.0
 11
130.5929999999999
 21
65.68470608613829
 31
0.0
  0
LINE
  5
6AF
330
1E
100
AcDbEntity
  8
0
100
AcDbLine
 10
130.0749999999999
 20
64.8683487023057
 30
0.0
 11
130.0749999999999
 21
63.0557058170521
 31
0.0
  0
LINE
  5
6B0
330
1E
100
AcDbEntity
  8
0
100
AcDbLine
 10
114.925
 20
64.8683487023057
 30
0.0
 11
114.925
 21
63.0557058170521
 31
0.0
  0
LINE
  5
6B1
330
1E
100
AcDbEntity
  8
0
100
AcDbLine
 10
114.407
 20
63.8720632008847
 30
0.0
 11
114.925
 21
63.0557058170521
 31
0.0
  0
LINE
  5
6B2
330
1E
100
AcDbEntity
  8
0
100
AcDbLine
 10
114.407
 20
63.8720632008847
 30
0.0
 11
114.407
 21
65.68470608613829
 31
0.0
  0
LINE
  5
6B3
330
1E
100
AcDbEntity
  8
0
100
AcDbLine
 10
106.8659999999999
 20
63.5770858272467
 30
0.0
 11
106.8659999999999
 21
61.7644429419931
 31
0.0
  0
LINE
  5
6B4
330
1E
100
AcDbEntity
  8
0
100
AcDbLine
 10
68.44039999999999
 20
63.1535774238932
 30
0.0
 11
68.44039999999999
 21
64.96622030914679
 31
0.0
  0
LINE
  5
6B5
330
1E
100
AcDbEntity
  8
0
100
AcDbLine
 10
67.4404
 20
62.42165331746489
 30
0.0
 11
68.44039999999999
 21
63.1535774238932
 31
0.0
  0
LINE
  5
6B6
330
1E
100
AcDbEntity
  8
0
100
AcDbLine
 10
86.4376
 20
65.930652870169
 30
0.0
 11
87.8518
 21
66.5282782000251
 31
0.0
  0
LINE
  5
6B7
330
1E
100
AcDbEntity
  8
0
100
AcDbLine
 10
86.4376
 20
65.930652870169
 30
0.0
 11
86.4376
 21
64.1180099849154
 31
0.0
  0
LINE
  5
6B8
330
1E
100
AcDbEntity
  8
0
100
AcDbLine
 10
121.5
 20
65.23414171992939
 30
0.0
 11
121.5
 21
66.079319671925
 31
0.0
  0
LINE
  5
6B9
330
1E
100
AcDbEntity
  8
0
100
AcDbLine
 10
121.5
 20
65.23414171992939
 30
0.0
 11
121.5
 21
63.4214988346758
 31
0.0
  0
LINE
  5
6BA
330
1E
100
AcDbEntity
  8
0
100
AcDbLine
 10
241.0
 20
65.4002613392478
 30
0.0
 11
241.0
 21
66.6961700366563
 31
0.0
  0
LINE
  5
6BB
330
1E
100
AcDbEntity
  8
0
100
AcDbLine
 10
240.9
 20
65.50657969855939
 30
0.0
 11
245.0
 21
52.19502695462771
 31
0.0
  0
LINE
  5
6BC
330
1E
100
AcDbEntity
  8
0
100
AcDbLine
 10
190.55
 20
65.59107063744869
 30
0.0
 11
192.282
 21
66.01365961344651
 31
0.0
  0
LINE
  5
6BD
330
1E
100
AcDbEntity
  8
0
100
AcDbLine
 10
178.292
 20
65.3888092851446
 30
0.0
 11
179.292
 21
64.6568851787163
 31
0.0
  0
LINE
  5
6BE
330
1E
100
AcDbEntity
  8
0
100
AcDbLine
 10
178.292
 20
65.3888092851446
 30
0.0
 11
178.292
 21
63.576166399891
 31
0.0
  0
LINE
  5
6BF
330
1E
100
AcDbEntity
  8
0
100
AcDbLine
 10
132.525
 20
65.46597403216179
 30
0.0
 11
132.525
 21
63.6533311469082
 31
0.0
  0
LINE
  5
6C0
330
1E
100
AcDbEntity
  8
0
100
AcDbLine
 10
130.5929999999999
 20
65.68470608613829
 30
0.0
 11
132.525
 21
65.46597403216179
 31
0.0
  0
LINE
  5
6C1
330
1E
100
AcDbEntity
  8
0
100
AcDbLine
 10
130.5929999999999
 20
65.68470608613829
 30
0.0
 11
130.5929999999999
 21
63.8720632008847
 31
0.0
  0
LINE
  5
6C2
330
1E
100
AcDbEntity
  8
0
100
AcDbLine
 10
112.4749999999999
 20
65.46597403216179
 30
0.0
 11
114.407
 21
65.68470608613829
 31
0.0
  0
LINE
  5
6C3
330
1E
100
AcDbEntity
  8
0
100
AcDbLine
 10
112.4749999999999
 20
65.46597403216179
 30
0.0
 11
112.4749999999999
 21
63.6533311469082
 31
0.0
  0
LINE
  5
6C4
330
1E
100
AcDbEntity
  8
0
100
AcDbLine
 10
155.734
 20
65.930652870169
 30
0.0
 11
157.148
 21
66.5282782000251
 31
0.0
  0
LINE
  5
6C5
330
1E
100
AcDbEntity
  8
0
100
AcDbLine
 10
155.734
 20
65.930652870169
 30
0.0
 11
155.734
 21
64.1180099849154
 31
0.0
  0
LINE
  5
6C6
330
1E
100
AcDbEntity
  8
0
100
AcDbLine
 10
192.282
 20
66.01365961344651
 30
0.0
 11
192.282
 21
67.8263024987001
 31
0.0
  0
LINE
  5
6C7
330
1E
100
AcDbEntity
  8
0
100
AcDbLine
 10
158.562
 20
65.930652870169
 30
0.0
 11
158.562
 21
64.1180099849154
 31
0.0
  0
LINE
  5
6C8
330
1E
100
AcDbEntity
  8
0
100
AcDbLine
 10
189.55
 20
66.32299474387689
 30
0.0
 11
189.55
 21
68.1356376291305
 31
0.0
  0
LINE
  5
6C9
330
1E
100
AcDbEntity
  8
0
100
AcDbLine
 10
189.55
 20
66.32299474387689
 30
0.0
 11
191.282
 21
66.7455837198748
 31
0.0
  0
LINE
  5
6CA
330
1E
100
AcDbEntity
  8
0
100
AcDbLine
 10
189.55
 20
66.32299474387689
 30
0.0
 11
190.55
 21
65.59107063744869
 31
0.0
  0
LINE
  5
6CB
330
1E
100
AcDbEntity
  8
0
100
AcDbLine
 10
123.5
 20
66.079319671925
 30
0.0
 11
123.5
 21
64.2666767866715
 31
0.0
  0
LINE
  5
6CC
330
1E
100
AcDbEntity
  8
0
100
AcDbLine
 10
121.5
 20
66.079319671925
 30
0.0
 11
123.5
 21
66.079319671925
 31
0.0
  0
LINE
  5
6CD
330
1E
100
AcDbEntity
  8
0
100
AcDbLine
 10
121.5
 20
66.079319671925
 30
0.0
 11
121.5
 21
64.2666767866715
 31
0.0
  0
LINE
  5
6CE
330
1E
100
AcDbEntity
  8
0
100
AcDbLine
 10
121.5
 20
66.079319671925
 30
0.0
 11
121.5
 21
65.23414171992939
 31
0.0
  0
LINE
  5
6CF
330
1E
100
AcDbEntity
  8
0
100
AcDbLine
 10
114.407
 20
65.68470608613829
 30
0.0
 11
114.925
 21
64.8683487023057
 31
0.0
  0
LINE
  5
6D0
330
1E
100
AcDbEntity
  8
0
100
AcDbLine
 10
114.407
 20
65.68470608613829
 30
0.0
 11
114.407
 21
63.8720632008847
 31
0.0
  0
LINE
  5
6D1
330
1E
100
AcDbEntity
  8
0
100
AcDbLine
 10
89.266
 20
65.930652870169
 30
0.0
 11
89.266
 21
64.1180099849154
 31
0.0
  0
LINE
  5
6D2
330
1E
100
AcDbEntity
  8
0
100
AcDbLine
 10
68.44039999999999
 20
64.96622030914679
 30
0.0
 11
68.44039999999999
 21
63.1535774238932
 31
0.0
  0
LINE
  5
6D3
330
1E
100
AcDbEntity
  8
0
100
AcDbLine
 10
66.7084
 20
65.3888092851446
 30
0.0
 11
68.44039999999999
 21
64.96622030914679
 31
0.0
  0
LINE
  5
6D4
330
1E
100
AcDbEntity
  8
0
100
AcDbLine
 10
66.7084
 20
65.3888092851446
 30
0.0
 11
66.7084
 21
63.576166399891
 31
0.0
  0
LINE
  5
6D5
330
1E
100
AcDbEntity
  8
0
100
AcDbLine
 10
87.8518
 20
66.5282782000251
 30
0.0
 11
89.266
 21
65.930652870169
 31
0.0
  0
LINE
  5
6D6
330
1E
100
AcDbEntity
  8
0
100
AcDbLine
 10
87.8518
 20
66.5282782000251
 30
0.0
 11
87.8518
 21
64.7156353147716
 31
0.0
  0
LINE
  5
6D7
330
1E
100
AcDbEntity
  8
0
100
AcDbLine
 10
97.634
 20
66.8314537997975
 30
0.0
 11
99.366
 21
67.2540427757953
 31
0.0
  0
LINE
  5
6D8
330
1E
100
AcDbEntity
  8
0
100
AcDbLine
 10
77.2452
 20
68.00261688787791
 30
0.0
 11
78.65940000000001
 21
68.600242217734
 31
0.0
  0
LINE
  5
6D9
330
1E
100
AcDbEntity
  8
0
100
AcDbLine
 10
96.63400000000001
 20
67.56342016512339
 30
0.0
 11
96.63400000000001
 21
69.376063050377
 31
0.0
  0
LINE
  5
6DA
330
1E
100
AcDbEntity
  8
0
100
AcDbLine
 10
96.63400000000001
 20
67.56342016512339
 30
0.0
 11
98.366
 21
67.9860091411212
 31
0.0
  0
LINE
  5
6DB
330
1E
100
AcDbEntity
  8
0
100
AcDbLine
 10
96.63400000000001
 20
67.56342016512339
 30
0.0
 11
97.634
 21
66.8314537997975
 31
0.0
  0
LINE
  5
6DC
330
1E
100
AcDbEntity
  8
0
100
AcDbLine
 10
145.6339999999999
 20
67.2540427757953
 30
0.0
 11
145.6339999999999
 21
69.06668566104889
 31
0.0
  0
LINE
  5
6DD
330
1E
100
AcDbEntity
  8
0
100
AcDbLine
 10
145.6339999999999
 20
67.2540427757953
 30
0.0
 11
146.6339999999999
 21
67.9860091411212
 31
0.0
  0
LINE
  5
6DE
330
1E
100
AcDbEntity
  8
0
100
AcDbLine
 10
145.6339999999999
 20
67.2540427757953
 30
0.0
 11
147.366
 21
66.8314537997975
 31
0.0
  0
LINE
  5
6DF
330
1E
100
AcDbEntity
  8
0
100
AcDbLine
 10
241.0
 20
66.6961700366563
 30
0.0
 11
241.0
 21
65.4002613392478
 31
0.0
  0
LINE
  5
6E0
330
1E
100
AcDbEntity
  8
0
100
AcDbLine
 10
191.282
 20
66.7455837198748
 30
0.0
 11
192.282
 21
66.01365961344651
 31
0.0
  0
LINE
  5
6E1
330
1E
100
AcDbEntity
  8
0
100
AcDbLine
 10
191.282
 20
66.7455837198748
 30
0.0
 11
191.282
 21
68.5582266051283
 31
0.0
  0
LINE
  5
6E2
330
1E
100
AcDbEntity
  8
0
100
AcDbLine
 10
157.148
 20
66.5282782000251
 30
0.0
 11
158.562
 21
65.930652870169
 31
0.0
  0
LINE
  5
6E3
330
1E
100
AcDbEntity
  8
0
100
AcDbLine
 10
157.148
 20
66.5282782000251
 30
0.0
 11
157.148
 21
64.7156353147716
 31
0.0
  0
LINE
  5
6E4
330
1E
100
AcDbEntity
  8
0
100
AcDbLine
 10
147.366
 20
66.8314537997975
 30
0.0
 11
148.366
 21
67.56342016512339
 31
0.0
  0
LINE
  5
6E5
330
1E
100
AcDbEntity
  8
0
100
AcDbLine
 10
146.6339999999999
 20
67.9860091411212
 30
0.0
 11
146.6339999999999
 21
69.7986520263748
 31
0.0
  0
LINE
  5
6E6
330
1E
100
AcDbEntity
  8
0
100
AcDbLine
 10
146.6339999999999
 20
67.9860091411212
 30
0.0
 11
148.366
 21
67.56342016512339
 31
0.0
  0
LINE
  5
6E7
330
1E
100
AcDbEntity
  8
0
100
AcDbLine
 10
192.282
 20
67.8263024987001
 30
0.0
 11
192.282
 21
66.01365961344651
 31
0.0
  0
LINE
  5
6E8
330
1E
100
AcDbEntity
  8
0
100
AcDbLine
 10
240.546451257821
 20
68.0556522005965
 30
0.0
 11
241.0
 21
69.41513436453671
 31
0.0
  0
LINE
  5
6E9
330
1E
100
AcDbEntity
  8
0
100
AcDbLine
 10
189.55
 20
68.1356376291305
 30
0.0
 11
191.282
 21
68.5582266051283
 31
0.0
  0
LINE
  5
6EA
330
1E
100
AcDbEntity
  8
0
100
AcDbLine
 10
189.55
 20
68.1356376291305
 30
0.0
 11
189.55
 21
66.32299474387689
 31
0.0
  0
LINE
  5
6EB
330
1E
100
AcDbEntity
  8
0
100
AcDbLine
 10
167.755
 20
68.00261688787791
 30
0.0
 11
169.169
 21
68.600242217734
 31
0.0
  0
LINE
  5
6EC
330
1E
100
AcDbEntity
  8
0
100
AcDbLine
 10
148.366
 20
67.56342016512339
 30
0.0
 11
148.366
 21
69.376063050377
 31
0.0
  0
LINE
  5
6ED
330
1E
100
AcDbEntity
  8
0
100
AcDbLine
 10
99.366
 20
67.2540427757953
 30
0.0
 11
99.366
 21
69.06668566104889
 31
0.0
  0
LINE
  5
6EE
330
1E
100
AcDbEntity
  8
0
100
AcDbLine
 10
98.366
 20
67.9860091411212
 30
0.0
 11
99.366
 21
67.2540427757953
 31
0.0
  0
LINE
  5
6EF
330
1E
100
AcDbEntity
  8
0
100
AcDbLine
 10
98.366
 20
67.9860091411212
 30
0.0
 11
98.366
 21
69.7986520263748
 31
0.0
  0
LINE
  5
6F0
330
1E
100
AcDbEntity
  8
0
100
AcDbLine
 10
55.45
 20
66.32299474387689
 30
0.0
 11
55.45
 21
68.1356376291305
 31
0.0
  0
LINE
  5
6F1
330
1E
100
AcDbEntity
  8
0
100
AcDbLine
 10
54.45
 20
65.59107063744869
 30
0.0
 11
55.45
 21
66.32299474387689
 31
0.0
  0
LINE
  5
6F2
330
1E
100
AcDbEntity
  8
0
100
AcDbLine
 10
56.032
 20
76.96708135351508
 30
0.0
 11
57.4462
 21
77.56470668337129
 31
0.0
  0
LINE
  5
6F3
330
1E
100
AcDbEntity
  8
0
100
AcDbLine
 10
54.6177
 20
77.56470668337129
 30
0.0
 11
54.6177
 21
79.37734956862491
 31
0.0
  0
LINE
  5
6F4
330
1E
100
AcDbEntity
  8
0
100
AcDbLine
 10
54.6177
 20
77.56470668337129
 30
0.0
 11
56.032
 21
78.16237427212499
 31
0.0
  0
LINE
  5
6F5
330
1E
100
AcDbEntity
  8
0
100
AcDbLine
 10
54.6177
 20
77.56470668337129
 30
0.0
 11
56.032
 21
76.96708135351508
 31
0.0
  0
LINE
  5
6F6
330
1E
100
AcDbEntity
  8
0
100
AcDbLine
 10
54.6177
 20
79.37734956862491
 30
0.0
 11
56.032
 21
79.9750171573786
 31
0.0
  0
LINE
  5
6F7
330
1E
100
AcDbEntity
  8
0
100
AcDbLine
 10
54.6177
 20
79.37734956862491
 30
0.0
 11
54.6177
 21
77.56470668337129
 31
0.0
  0
LINE
  5
6F8
330
1E
100
AcDbEntity
  8
0
100
AcDbLine
 10
56.032
 20
78.16237427212499
 30
0.0
 11
56.032
 21
79.9750171573786
 31
0.0
  0
LINE
  5
6F9
330
1E
100
AcDbEntity
  8
0
100
AcDbLine
 10
56.032
 20
78.16237427212499
 30
0.0
 11
57.4462
 21
77.56470668337129
 31
0.0
  0
LINE
  5
6FA
330
1E
100
AcDbEntity
  8
0
100
AcDbLine
 10
65.22429999999999
 20
73.08247445055269
 30
0.0
 11
65.22429999999999
 21
74.8951173358062
 31
0.0
  0
LINE
  5
6FB
330
1E
100
AcDbEntity
  8
0
100
AcDbLine
 10
65.22429999999999
 20
73.08247445055269
 30
0.0
 11
66.63859999999999
 21
73.6801420393064
 31
0.0
  0
LINE
  5
6FC
330
1E
100
AcDbEntity
  8
0
100
AcDbLine
 10
65.22429999999999
 20
73.08247445055269
 30
0.0
 11
66.63859999999999
 21
72.48484912069649
 31
0.0
  0
LINE
  5
6FD
330
1E
100
AcDbEntity
  8
0
100
AcDbLine
 10
65.22429999999999
 20
74.8951173358062
 30
0.0
 11
66.63859999999999
 21
75.49278492456
 31
0.0
  0
LINE
  5
6FE
330
1E
100
AcDbEntity
  8
0
100
AcDbLine
 10
65.22429999999999
 20
74.8951173358062
 30
0.0
 11
65.22429999999999
 21
73.08247445055269
 31
0.0
  0
LINE
  5
6FF
330
1E
100
AcDbEntity
  8
0
100
AcDbLine
 10
57.4462
 20
77.56470668337129
 30
0.0
 11
57.4462
 21
79.37734956862491
 31
0.0
  0
LINE
  5
700
330
1E
100
AcDbEntity
  8
0
100
AcDbLine
 10
57.4462
 20
79.37734956862491
 30
0.0
 11
57.4462
 21
77.56470668337129
 31
0.0
  0
LINE
  5
701
330
1E
100
AcDbEntity
  8
0
100
AcDbLine
 10
56.032
 20
79.9750171573786
 30
0.0
 11
57.4462
 21
79.37734956862491
 31
0.0
  0
LINE
  5
702
330
1E
100
AcDbEntity
  8
0
100
AcDbLine
 10
56.032
 20
79.9750171573786
 30
0.0
 11
56.032
 21
78.16237427212499
 31
0.0
  0
LINE
  5
703
330
1E
100
AcDbEntity
  8
0
100
AcDbLine
 10
66.634
 20
89.52177724143471
 30
0.0
 11
66.634
 21
91.33442012668828
 31
0.0
  0
LINE
  5
704
330
1E
100
AcDbEntity
  8
0
100
AcDbLine
 10
66.634
 20
89.52177724143471
 30
0.0
 11
68.366
 21
89.94436621743259
 31
0.0
  0
LINE
  5
705
330
1E
100
AcDbEntity
  8
0
100
AcDbLine
 10
66.634
 20
89.52177724143471
 30
0.0
 11
67.634
 21
88.78981087610892
 31
0.0
  0
LINE
  5
706
330
1E
100
AcDbEntity
  8
0
100
AcDbLine
 10
66.63859999999999
 20
72.48484912069649
 30
0.0
 11
68.0528
 21
73.08247445055269
 31
0.0
  0
LINE
  5
707
330
1E
100
AcDbEntity
  8
0
100
AcDbLine
 10
66.63859999999999
 20
73.6801420393064
 30
0.0
 11
66.63859999999999
 21
75.49278492456
 31
0.0
  0
LINE
  5
708
330
1E
100
AcDbEntity
  8
0
100
AcDbLine
 10
66.63859999999999
 20
73.6801420393064
 30
0.0
 11
68.0528
 21
73.08247445055269
 31
0.0
  0
LINE
  5
709
330
1E
100
AcDbEntity
  8
0
100
AcDbLine
 10
68.0528
 20
73.08247445055269
 30
0.0
 11
68.0528
 21
74.8951173358062
 31
0.0
  0
LINE
  5
70A
330
1E
100
AcDbEntity
  8
0
100
AcDbLine
 10
68.0528
 20
74.8951173358062
 30
0.0
 11
68.0528
 21
73.08247445055269
 31
0.0
  0
LINE
  5
70B
330
1E
100
AcDbEntity
  8
0
100
AcDbLine
 10
66.63859999999999
 20
75.49278492456
 30
0.0
 11
68.0528
 21
74.8951173358062
 31
0.0
  0
LINE
  5
70C
330
1E
100
AcDbEntity
  8
0
100
AcDbLine
 10
66.63859999999999
 20
75.49278492456
 30
0.0
 11
66.63859999999999
 21
73.6801420393064
 31
0.0
  0
LINE
  5
70D
330
1E
100
AcDbEntity
  8
0
100
AcDbLine
 10
67.634
 20
88.78981087610892
 30
0.0
 11
69.366
 21
89.2123998521067
 31
0.0
  0
LINE
  5
70E
330
1E
100
AcDbEntity
  8
0
100
AcDbLine
 10
66.634
 20
91.33442012668828
 30
0.0
 11
68.366
 21
91.7570091026862
 31
0.0
  0
LINE
  5
70F
330
1E
100
AcDbEntity
  8
0
100
AcDbLine
 10
66.634
 20
91.33442012668828
 30
0.0
 11
66.634
 21
89.52177724143471
 31
0.0
  0
LINE
  5
710
330
1E
100
AcDbEntity
  8
0
100
AcDbLine
 10
62.1
 20
97.55770867222651
 30
0.0
 11
91.3
 21
102.586517486601
 31
0.0
  0
LINE
  5
711
330
1E
100
AcDbEntity
  8
0
100
AcDbLine
 10
61.6
 20
97.03171730799772
 30
0.0
 11
91.0
 21
102.2295617127709
 31
0.0
  0
LINE
  5
712
330
1E
100
AcDbEntity
  8
0
100
AcDbLine
 10
63.5
 20
112.772763301914
 30
0.0
 11
92.0
 21
117.6747954234889
 31
0.0
  0
LINE
  5
713
330
1E
100
AcDbEntity
  8
0
100
AcDbLine
 10
64.5
 20
113.8670049279719
 30
0.0
 11
92.5
 21
118.6845192543469
 31
0.0
  0
LINE
  5
715
330
1E
100
AcDbEntity
  8
0
100
AcDbLine
 10
63.5
 20
110.053798974034
 30
0.0
 11
92.0
 21
114.955831095609
 31
0.0
  0
LINE
  5
716
330
1E
100
AcDbEntity
  8
0
100
AcDbLine
 10
62.7
 20
103.6061464874159
 30
0.0
 11
91.5
 21
108.50817860899
 31
0.0
  0
LINE
  5
717
330
1E
100
AcDbEntity
  8
0
100
AcDbLine
 10
62.1
 20
95.7450657869729
 30
0.0
 11
91.3
 21
100.773874601347
 31
0.0
  0
LINE
  5
718
330
1E
100
AcDbEntity
  8
0
100
AcDbLine
 10
68.366
 20
91.7570091026862
 30
0.0
 11
69.366
 21
91.0250427373603
 31
0.0
  0
LINE
  5
719
330
1E
100
AcDbEntity
  8
0
100
AcDbLine
 10
68.366
 20
91.7570091026862
 30
0.0
 11
68.366
 21
89.94436621743259
 31
0.0
  0
LINE
  5
71A
330
1E
100
AcDbEntity
  8
0
100
AcDbLine
 10
75.831
 20
68.600242217734
 30
0.0
 11
75.831
 21
70.41288510298759
 31
0.0
  0
LINE
  5
71B
330
1E
100
AcDbEntity
  8
0
100
AcDbLine
 10
75.831
 20
68.600242217734
 30
0.0
 11
77.2452
 21
69.19786754759019
 31
0.0
  0
LINE
  5
71C
330
1E
100
AcDbEntity
  8
0
100
AcDbLine
 10
75.831
 20
68.600242217734
 30
0.0
 11
77.2452
 21
68.00261688787791
 31
0.0
  0
LINE
  5
71D
330
1E
100
AcDbEntity
  8
0
100
AcDbLine
 10
75.831
 20
70.41288510298759
 30
0.0
 11
77.2452
 21
71.0105104328438
 31
0.0
  0
LINE
  5
71E
330
1E
100
AcDbEntity
  8
0
100
AcDbLine
 10
75.831
 20
70.41288510298759
 30
0.0
 11
75.831
 21
68.600242217734
 31
0.0
  0
LINE
  5
71F
330
1E
100
AcDbEntity
  8
0
100
AcDbLine
 10
77.2452
 20
69.19786754759019
 30
0.0
 11
77.2452
 21
71.0105104328438
 31
0.0
  0
LINE
  5
720
330
1E
100
AcDbEntity
  8
0
100
AcDbLine
 10
77.2452
 20
69.19786754759019
 30
0.0
 11
78.65940000000001
 21
68.600242217734
 31
0.0
  0
LINE
  5
721
330
1E
100
AcDbEntity
  8
0
100
AcDbLine
 10
78.65940000000001
 20
68.600242217734
 30
0.0
 11
78.65940000000001
 21
70.41288510298759
 31
0.0
  0
LINE
  5
722
330
1E
100
AcDbEntity
  8
0
100
AcDbLine
 10
78.65940000000001
 20
70.41288510298759
 30
0.0
 11
78.65940000000001
 21
68.600242217734
 31
0.0
  0
LINE
  5
723
330
1E
100
AcDbEntity
  8
0
100
AcDbLine
 10
77.2452
 20
71.0105104328438
 30
0.0
 11
78.65940000000001
 21
70.41288510298759
 31
0.0
  0
LINE
  5
724
330
1E
100
AcDbEntity
  8
0
100
AcDbLine
 10
77.2452
 20
71.0105104328438
 30
0.0
 11
77.2452
 21
69.19786754759019
 31
0.0
  0
LINE
  5
725
330
1E
100
AcDbEntity
  8
0
100
AcDbLine
 10
81.63400000000001
 20
78.5425775738303
 30
0.0
 11
81.63400000000001
 21
80.35522045908379
 31
0.0
  0
LINE
  5
726
330
1E
100
AcDbEntity
  8
0
100
AcDbLine
 10
81.63400000000001
 20
78.5425775738303
 30
0.0
 11
83.366
 21
78.9651665498281
 31
0.0
  0
LINE
  5
727
330
1E
100
AcDbEntity
  8
0
100
AcDbLine
 10
81.63400000000001
 20
78.5425775738303
 30
0.0
 11
82.634
 21
77.810653467402
 31
0.0
  0
LINE
  5
728
330
1E
100
AcDbEntity
  8
0
100
AcDbLine
 10
82.634
 20
77.810653467402
 30
0.0
 11
84.366
 21
78.2332424433998
 31
0.0
  0
LINE
  5
729
330
1E
100
AcDbEntity
  8
0
100
AcDbLine
 10
81.63400000000001
 20
80.35522045908379
 30
0.0
 11
83.366
 21
80.77780943508171
 31
0.0
  0
LINE
  5
72A
330
1E
100
AcDbEntity
  8
0
100
AcDbLine
 10
81.63400000000001
 20
80.35522045908379
 30
0.0
 11
81.63400000000001
 21
78.5425775738303
 31
0.0
  0
LINE
  5
72B
330
1E
100
AcDbEntity
  8
0
100
AcDbLine
 10
83.366
 20
80.77780943508171
 30
0.0
 11
84.366
 21
80.04588532865339
 31
0.0
  0
LINE
  5
72C
330
1E
100
AcDbEntity
  8
0
100
AcDbLine
 10
83.366
 20
80.77780943508171
 30
0.0
 11
83.366
 21
78.9651665498281
 31
0.0
  0
LINE
  5
72D
330
1E
100
AcDbEntity
  8
0
100
AcDbLine
 10
89.13400000000001
 20
73.052977740028
 30
0.0
 11
89.13400000000001
 21
74.86562062528159
 31
0.0
  0
LINE
  5
72E
330
1E
100
AcDbEntity
  8
0
100
AcDbLine
 10
89.13400000000001
 20
73.052977740028
 30
0.0
 11
90.866
 21
73.47556671602579
 31
0.0
  0
LINE
  5
72F
330
1E
100
AcDbEntity
  8
0
100
AcDbLine
 10
89.13400000000001
 20
73.052977740028
 30
0.0
 11
90.134
 21
72.3210536335998
 31
0.0
  0
LINE
  5
730
330
1E
100
AcDbEntity
  8
0
100
AcDbLine
 10
90.134
 20
72.3210536335998
 30
0.0
 11
91.866
 21
72.7436426095976
 31
0.0
  0
LINE
  5
731
330
1E
100
AcDbEntity
  8
0
100
AcDbLine
 10
89.13400000000001
 20
74.86562062528159
 30
0.0
 11
90.866
 21
75.28820960127941
 31
0.0
  0
LINE
  5
732
330
1E
100
AcDbEntity
  8
0
100
AcDbLine
 10
89.13400000000001
 20
74.86562062528159
 30
0.0
 11
89.13400000000001
 21
73.052977740028
 31
0.0
  0
LINE
  5
733
330
1E
100
AcDbEntity
  8
0
100
AcDbLine
 10
90.866
 20
75.28820960127941
 30
0.0
 11
91.866
 21
74.55628549485121
 31
0.0
  0
LINE
  5
734
330
1E
100
AcDbEntity
  8
0
100
AcDbLine
 10
90.866
 20
75.28820960127941
 30
0.0
 11
90.866
 21
73.47556671602579
 31
0.0
  0
LINE
  5
735
330
1E
100
AcDbEntity
  8
0
100
AcDbLine
 10
91.866
 20
72.7436426095976
 30
0.0
 11
91.866
 21
74.55628549485121
 31
0.0
  0
LINE
  5
736
330
1E
100
AcDbEntity
  8
0
100
AcDbLine
 10
91.866
 20
74.55628549485121
 30
0.0
 11
91.866
 21
72.7436426095976
 31
0.0
  0
LINE
  5
737
330
1E
100
AcDbEntity
  8
0
100
AcDbLine
 10
90.866
 20
73.47556671602579
 30
0.0
 11
91.866
 21
72.7436426095976
 31
0.0
  0
LINE
  5
738
330
1E
100
AcDbEntity
  8
0
100
AcDbLine
 10
90.866
 20
73.47556671602579
 30
0.0
 11
90.866
 21
75.28820960127941
 31
0.0
  0
LINE
  5
739
330
1E
100
AcDbEntity
  8
0
100
AcDbLine
 10
96.63400000000001
 20
69.376063050377
 30
0.0
 11
98.366
 21
69.7986520263748
 31
0.0
  0
LINE
  5
73A
330
1E
100
AcDbEntity
  8
0
100
AcDbLine
 10
96.63400000000001
 20
69.376063050377
 30
0.0
 11
96.63400000000001
 21
67.56342016512339
 31
0.0
  0
LINE
  5
73B
330
1E
100
AcDbEntity
  8
0
100
AcDbLine
 10
84.366
 20
78.2332424433998
 30
0.0
 11
84.366
 21
80.04588532865339
 31
0.0
  0
LINE
  5
73C
330
1E
100
AcDbEntity
  8
0
100
AcDbLine
 10
84.366
 20
80.04588532865339
 30
0.0
 11
84.366
 21
78.2332424433998
 31
0.0
  0
LINE
  5
73D
330
1E
100
AcDbEntity
  8
0
100
AcDbLine
 10
83.366
 20
78.9651665498281
 30
0.0
 11
84.366
 21
78.2332424433998
 31
0.0
  0
LINE
  5
73E
330
1E
100
AcDbEntity
  8
0
100
AcDbLine
 10
83.366
 20
78.9651665498281
 30
0.0
 11
83.366
 21
80.77780943508171
 31
0.0
  0
LINE
  5
73F
330
1E
100
AcDbEntity
  8
0
100
AcDbLine
 10
76.866
 20
83.72284227720209
 30
0.0
 11
76.866
 21
85.53548516245569
 31
0.0
  0
LINE
  5
740
330
1E
100
AcDbEntity
  8
0
100
AcDbLine
 10
75.134
 20
83.30025330120429
 30
0.0
 11
76.866
 21
83.72284227720209
 31
0.0
  0
LINE
  5
741
330
1E
100
AcDbEntity
  8
0
100
AcDbLine
 10
74.134
 20
84.03217740763251
 30
0.0
 11
74.134
 21
85.8448202928861
 31
0.0
  0
LINE
  5
742
330
1E
100
AcDbEntity
  8
0
100
AcDbLine
 10
74.134
 20
84.03217740763251
 30
0.0
 11
75.866
 21
84.45476638363031
 31
0.0
  0
LINE
  5
743
330
1E
100
AcDbEntity
  8
0
100
AcDbLine
 10
74.134
 20
84.03217740763251
 30
0.0
 11
75.134
 21
83.30025330120429
 31
0.0
  0
LINE
  5
744
330
1E
100
AcDbEntity
  8
0
100
AcDbLine
 10
74.134
 20
85.8448202928861
 30
0.0
 11
75.866
 21
86.26740926888391
 31
0.0
  0
LINE
  5
745
330
1E
100
AcDbEntity
  8
0
100
AcDbLine
 10
74.134
 20
85.8448202928861
 30
0.0
 11
74.134
 21
84.03217740763251
 31
0.0
  0
LINE
  5
746
330
1E
100
AcDbEntity
  8
0
100
AcDbLine
 10
75.866
 20
86.26740926888391
 30
0.0
 11
76.866
 21
85.53548516245569
 31
0.0
  0
LINE
  5
747
330
1E
100
AcDbEntity
  8
0
100
AcDbLine
 10
75.866
 20
86.26740926888391
 30
0.0
 11
75.866
 21
84.45476638363031
 31
0.0
  0
LINE
  5
748
330
1E
100
AcDbEntity
  8
0
100
AcDbLine
 10
76.866
 20
85.53548516245569
 30
0.0
 11
76.866
 21
83.72284227720209
 31
0.0
  0
LINE
  5
749
330
1E
100
AcDbEntity
  8
0
100
AcDbLine
 10
75.866
 20
84.45476638363031
 30
0.0
 11
76.866
 21
83.72284227720209
 31
0.0
  0
LINE
  5
74A
330
1E
100
AcDbEntity
  8
0
100
AcDbLine
 10
75.866
 20
84.45476638363031
 30
0.0
 11
75.866
 21
86.26740926888391
 31
0.0
  0
LINE
  5
74B
330
1E
100
AcDbEntity
  8
0
100
AcDbLine
 10
98.366
 20
69.7986520263748
 30
0.0
 11
99.366
 21
69.06668566104889
 31
0.0
  0
LINE
  5
74C
330
1E
100
AcDbEntity
  8
0
100
AcDbLine
 10
98.366
 20
69.7986520263748
 30
0.0
 11
98.366
 21
67.9860091411212
 31
0.0
  0
LINE
  5
74D
330
1E
100
AcDbEntity
  8
0
100
AcDbLine
 10
99.366
 20
69.06668566104889
 30
0.0
 11
99.366
 21
67.2540427757953
 31
0.0
  0
LINE
  5
74E
330
1E
100
AcDbEntity
  8
0
100
AcDbLine
 10
100.8289999999999
 20
82.02183713101559
 30
0.0
 11
100.8289999999999
 21
83.83448001626922
 31
0.0
  0
LINE
  5
74F
330
1E
100
AcDbEntity
  8
0
100
AcDbLine
 10
100.8289999999999
 20
82.02183713101559
 30
0.0
 11
102.76
 21
82.2406114438897
 31
0.0
  0
LINE
  5
750
330
1E
100
AcDbEntity
  8
0
100
AcDbLine
 10
100.8289999999999
 20
82.02183713101559
 30
0.0
 11
101.346
 21
81.205479747183
 31
0.0
  0
LINE
  5
751
330
1E
100
AcDbEntity
  8
0
100
AcDbLine
 10
101.346
 20
81.205479747183
 30
0.0
 11
103.278
 21
81.42421180115951
 31
0.0
  0
LINE
  5
752
330
1E
100
AcDbEntity
  8
0
100
AcDbLine
 10
100.8289999999999
 20
83.83448001626922
 30
0.0
 11
102.76
 21
84.05325432914329
 31
0.0
  0
LINE
  5
753
330
1E
100
AcDbEntity
  8
0
100
AcDbLine
 10
100.8289999999999
 20
83.83448001626922
 30
0.0
 11
100.8289999999999
 21
82.02183713101559
 31
0.0
  0
LINE
  5
754
330
1E
100
AcDbEntity
  8
0
100
AcDbLine
 10
102.76
 20
84.05325432914329
 30
0.0
 11
103.278
 21
83.23685468641309
 31
0.0
  0
LINE
  5
755
330
1E
100
AcDbEntity
  8
0
100
AcDbLine
 10
102.76
 20
84.05325432914329
 30
0.0
 11
102.76
 21
82.2406114438897
 31
0.0
  0
LINE
  5
756
330
1E
100
AcDbEntity
  8
0
100
AcDbLine
 10
108.5929999999999
 20
69.77618056124319
 30
0.0
 11
108.5929999999999
 21
71.5888234464968
 31
0.0
  0
LINE
  5
757
330
1E
100
AcDbEntity
  8
0
100
AcDbLine
 10
108.5929999999999
 20
69.77618056124319
 30
0.0
 11
110.525
 21
69.99491261521971
 31
0.0
  0
LINE
  5
758
330
1E
100
AcDbEntity
  8
0
100
AcDbLine
 10
108.5929999999999
 20
69.77618056124319
 30
0.0
 11
109.111
 21
68.95978091851301
 31
0.0
  0
LINE
  5
759
330
1E
100
AcDbEntity
  8
0
100
AcDbLine
 10
109.111
 20
68.95978091851301
 30
0.0
 11
111.043
 21
69.17855523138709
 31
0.0
  0
LINE
  5
75A
330
1E
100
AcDbEntity
  8
0
100
AcDbLine
 10
108.5929999999999
 20
71.5888234464968
 30
0.0
 11
110.525
 21
71.80755550047329
 31
0.0
  0
LINE
  5
75B
330
1E
100
AcDbEntity
  8
0
100
AcDbLine
 10
108.5929999999999
 20
71.5888234464968
 30
0.0
 11
108.5929999999999
 21
69.77618056124319
 31
0.0
  0
LINE
  5
75C
330
1E
100
AcDbEntity
  8
0
100
AcDbLine
 10
110.525
 20
71.80755550047329
 30
0.0
 11
111.043
 21
70.99119811664071
 31
0.0
  0
LINE
  5
75D
330
1E
100
AcDbEntity
  8
0
100
AcDbLine
 10
110.525
 20
71.80755550047329
 30
0.0
 11
110.525
 21
69.99491261521971
 31
0.0
  0
LINE
  5
75E
330
1E
100
AcDbEntity
  8
0
100
AcDbLine
 10
191.282
 20
68.5582266051283
 30
0.0
 11
192.282
 21
67.8263024987001
 31
0.0
  0
LINE
  5
75F
330
1E
100
AcDbEntity
  8
0
100
AcDbLine
 10
191.282
 20
68.5582266051283
 30
0.0
 11
191.282
 21
66.7455837198748
 31
0.0
  0
LINE
  5
760
330
1E
100
AcDbEntity
  8
0
100
AcDbLine
 10
166.3409999999999
 20
68.600242217734
 30
0.0
 11
166.3409999999999
 21
70.41288510298759
 31
0.0
  0
LINE
  5
761
330
1E
100
AcDbEntity
  8
0
100
AcDbLine
 10
166.3409999999999
 20
68.600242217734
 30
0.0
 11
167.755
 21
69.19786754759019
 31
0.0
  0
LINE
  5
762
330
1E
100
AcDbEntity
  8
0
100
AcDbLine
 10
166.3409999999999
 20
68.600242217734
 30
0.0
 11
167.755
 21
68.00261688787791
 31
0.0
  0
LINE
  5
763
330
1E
100
AcDbEntity
  8
0
100
AcDbLine
 10
169.169
 20
68.600242217734
 30
0.0
 11
169.169
 21
70.41288510298759
 31
0.0
  0
LINE
  5
764
330
1E
100
AcDbEntity
  8
0
100
AcDbLine
 10
203.54
 20
68.76048795743239
 30
0.0
 11
205.272
 21
69.1830769334303
 31
0.0
  0
LINE
  5
765
330
1E
100
AcDbEntity
  8
0
100
AcDbLine
 10
121.5
 20
69.7603334746433
 30
0.0
 11
121.5
 21
71.57297635989691
 31
0.0
  0
LINE
  5
766
330
1E
100
AcDbEntity
  8
0
100
AcDbLine
 10
121.5
 20
69.7603334746433
 30
0.0
 11
121.5
 21
70.605511426639
 31
0.0
  0
LINE
  5
767
330
1E
100
AcDbEntity
  8
0
100
AcDbLine
 10
121.5
 20
69.7603334746433
 30
0.0
 11
123.5
 21
69.7603334746433
 31
0.0
  0
LINE
  5
768
330
1E
100
AcDbEntity
  8
0
100
AcDbLine
 10
123.5
 20
69.7603334746433
 30
0.0
 11
123.5
 21
70.605511426639
 31
0.0
  0
LINE
  5
769
330
1E
100
AcDbEntity
  8
0
100
AcDbLine
 10
133.9569999999999
 20
69.17855523138709
 30
0.0
 11
133.9569999999999
 21
70.99119811664071
 31
0.0
  0
LINE
  5
76A
330
1E
100
AcDbEntity
  8
0
100
AcDbLine
 10
133.9569999999999
 20
69.17855523138709
 30
0.0
 11
134.4749999999999
 21
69.99491261521971
 31
0.0
  0
LINE
  5
76B
330
1E
100
AcDbEntity
  8
0
100
AcDbLine
 10
133.9569999999999
 20
69.17855523138709
 30
0.0
 11
135.889
 21
68.95978091851301
 31
0.0
  0
LINE
  5
76C
330
1E
100
AcDbEntity
  8
0
100
AcDbLine
 10
121.5
 20
70.605511426639
 30
0.0
 11
121.5
 21
72.41815431189249
 31
0.0
  0
LINE
  5
76D
330
1E
100
AcDbEntity
  8
0
100
AcDbLine
 10
121.5
 20
70.605511426639
 30
0.0
 11
123.5
 21
70.605511426639
 31
0.0
  0
LINE
  5
76E
330
1E
100
AcDbEntity
  8
0
100
AcDbLine
 10
121.5
 20
70.605511426639
 30
0.0
 11
121.5
 21
69.7603334746433
 31
0.0
  0
LINE
  5
76F
330
1E
100
AcDbEntity
  8
0
100
AcDbLine
 10
123.5
 20
70.605511426639
 30
0.0
 11
123.5
 21
72.41815431189249
 31
0.0
  0
LINE
  5
770
330
1E
100
AcDbEntity
  8
0
100
AcDbLine
 10
123.5
 20
70.605511426639
 30
0.0
 11
123.5
 21
69.7603334746433
 31
0.0
  0
LINE
  5
771
330
1E
100
AcDbEntity
  8
0
100
AcDbLine
 10
133.9569999999999
 20
70.99119811664071
 30
0.0
 11
134.4749999999999
 21
71.80755550047329
 31
0.0
  0
LINE
  5
772
330
1E
100
AcDbEntity
  8
0
100
AcDbLine
 10
133.9569999999999
 20
70.99119811664071
 30
0.0
 11
133.9569999999999
 21
69.17855523138709
 31
0.0
  0
LINE
  5
773
330
1E
100
AcDbEntity
  8
0
100
AcDbLine
 10
134.4749999999999
 20
69.99491261521971
 30
0.0
 11
134.4749999999999
 21
71.80755550047329
 31
0.0
  0
LINE
  5
774
330
1E
100
AcDbEntity
  8
0
100
AcDbLine
 10
134.4749999999999
 20
69.99491261521971
 30
0.0
 11
136.407
 21
69.77618056124319
 31
0.0
  0
LINE
  5
775
330
1E
100
AcDbEntity
  8
0
100
AcDbLine
 10
145.6339999999999
 20
69.06668566104889
 30
0.0
 11
146.6339999999999
 21
69.7986520263748
 31
0.0
  0
LINE
  5
776
330
1E
100
AcDbEntity
  8
0
100
AcDbLine
 10
145.6339999999999
 20
69.06668566104889
 30
0.0
 11
145.6339999999999
 21
67.2540427757953
 31
0.0
  0
LINE
  5
777
330
1E
100
AcDbEntity
  8
0
100
AcDbLine
 10
167.755
 20
69.19786754759019
 30
0.0
 11
167.755
 21
71.0105104328438
 31
0.0
  0
LINE
  5
778
330
1E
100
AcDbEntity
  8
0
100
AcDbLine
 10
167.755
 20
69.19786754759019
 30
0.0
 11
169.169
 21
68.600242217734
 31
0.0
  0
LINE
  5
779
330
1E
100
AcDbEntity
  8
0
100
AcDbLine
 10
202.5399999999999
 20
69.49241206386069
 30
0.0
 11
202.5399999999999
 21
71.30505494911429
 31
0.0
  0
LINE
  5
77A
330
1E
100
AcDbEntity
  8
0
100
AcDbLine
 10
202.5399999999999
 20
69.49241206386069
 30
0.0
 11
204.272
 21
69.91500103985851
 31
0.0
  0
LINE
  5
77B
330
1E
100
AcDbEntity
  8
0
100
AcDbLine
 10
202.5399999999999
 20
69.49241206386069
 30
0.0
 11
203.54
 21
68.76048795743239
 31
0.0
  0
LINE
  5
77C
330
1E
100
AcDbEntity
  8
0
100
AcDbLine
 10
205.272
 20
69.1830769334303
 30
0.0
 11
205.272
 21
70.99571981868379
 31
0.0
  0
LINE
  5
77D
330
1E
100
AcDbEntity
  8
0
100
AcDbLine
 10
148.366
 20
69.376063050377
 30
0.0
 11
148.366
 21
67.56342016512339
 31
0.0
  0
LINE
  5
77E
330
1E
100
AcDbEntity
  8
0
100
AcDbLine
 10
166.3409999999999
 20
70.41288510298759
 30
0.0
 11
167.755
 21
71.0105104328438
 31
0.0
  0
LINE
  5
77F
330
1E
100
AcDbEntity
  8
0
100
AcDbLine
 10
166.3409999999999
 20
70.41288510298759
 30
0.0
 11
166.3409999999999
 21
68.600242217734
 31
0.0
  0
LINE
  5
780
330
1E
100
AcDbEntity
  8
0
100
AcDbLine
 10
169.169
 20
70.41288510298759
 30
0.0
 11
169.169
 21
68.600242217734
 31
0.0
  0
LINE
  5
781
330
1E
100
AcDbEntity
  8
0
100
AcDbLine
 10
204.272
 20
69.91500103985851
 30
0.0
 11
205.272
 21
69.1830769334303
 31
0.0
  0
LINE
  5
782
330
1E
100
AcDbEntity
  8
0
100
AcDbLine
 10
204.272
 20
69.91500103985851
 30
0.0
 11
204.272
 21
71.72764392511209
 31
0.0
  0
LINE
  5
783
330
1E
100
AcDbEntity
  8
0
100
AcDbLine
 10
146.6339999999999
 20
69.7986520263748
 30
0.0
 11
148.366
 21
69.376063050377
 31
0.0
  0
LINE
  5
784
330
1E
100
AcDbEntity
  8
0
100
AcDbLine
 10
146.6339999999999
 20
69.7986520263748
 30
0.0
 11
146.6339999999999
 21
67.9860091411212
 31
0.0
  0
LINE
  5
785
330
1E
100
AcDbEntity
  8
0
100
AcDbLine
 10
136.407
 20
69.77618056124319
 30
0.0
 11
136.407
 21
71.5888234464968
 31
0.0
  0
LINE
  5
786
330
1E
100
AcDbEntity
  8
0
100
AcDbLine
 10
135.889
 20
68.95978091851301
 30
0.0
 11
136.407
 21
69.77618056124319
 31
0.0
  0
LINE
  5
787
330
1E
100
AcDbEntity
  8
0
100
AcDbLine
 10
111.043
 20
69.17855523138709
 30
0.0
 11
111.043
 21
70.99119811664071
 31
0.0
  0
LINE
  5
788
330
1E
100
AcDbEntity
  8
0
100
AcDbLine
 10
121.5
 20
71.57297635989691
 30
0.0
 11
121.5
 21
72.41815431189249
 31
0.0
  0
LINE
  5
789
330
1E
100
AcDbEntity
  8
0
100
AcDbLine
 10
121.5
 20
71.57297635989691
 30
0.0
 11
121.5
 21
69.7603334746433
 31
0.0
  0
LINE
  5
78A
330
1E
100
AcDbEntity
  8
0
100
AcDbLine
 10
123.5
 20
72.41815431189249
 30
0.0
 11
123.5
 21
70.605511426639
 31
0.0
  0
LINE
  5
78B
330
1E
100
AcDbEntity
  8
0
100
AcDbLine
 10
121.5
 20
72.41815431189249
 30
0.0
 11
123.5
 21
72.41815431189249
 31
0.0
  0
LINE
  5
78C
330
1E
100
AcDbEntity
  8
0
100
AcDbLine
 10
121.5
 20
72.41815431189249
 30
0.0
 11
121.5
 21
70.605511426639
 31
0.0
  0
LINE
  5
78D
330
1E
100
AcDbEntity
  8
0
100
AcDbLine
 10
121.5
 20
72.41815431189249
 30
0.0
 11
121.5
 21
71.57297635989691
 31
0.0
  0
LINE
  5
78E
330
1E
100
AcDbEntity
  8
0
100
AcDbLine
 10
167.755
 20
71.0105104328438
 30
0.0
 11
169.169
 21
70.41288510298759
 31
0.0
  0
LINE
  5
78F
330
1E
100
AcDbEntity
  8
0
100
AcDbLine
 10
167.755
 20
71.0105104328438
 30
0.0
 11
167.755
 21
69.19786754759019
 31
0.0
  0
LINE
  5
790
330
1E
100
AcDbEntity
  8
0
100
AcDbLine
 10
202.5399999999999
 20
71.30505494911429
 30
0.0
 11
204.272
 21
71.72764392511209
 31
0.0
  0
LINE
  5
791
330
1E
100
AcDbEntity
  8
0
100
AcDbLine
 10
202.5399999999999
 20
71.30505494911429
 30
0.0
 11
202.5399999999999
 21
69.49241206386069
 31
0.0
  0
LINE
  5
792
330
1E
100
AcDbEntity
  8
0
100
AcDbLine
 10
205.272
 20
70.99571981868379
 30
0.0
 11
205.272
 21
69.1830769334303
 31
0.0
  0
LINE
  5
793
330
1E
100
AcDbEntity
  8
0
100
AcDbLine
 10
153.1339999999999
 20
72.7436426095976
 30
0.0
 11
153.1339999999999
 21
74.55628549485121
 31
0.0
  0
LINE
  5
794
330
1E
100
AcDbEntity
  8
0
100
AcDbLine
 10
153.1339999999999
 20
72.7436426095976
 30
0.0
 11
154.1339999999999
 21
73.47556671602579
 31
0.0
  0
LINE
  5
795
330
1E
100
AcDbEntity
  8
0
100
AcDbLine
 10
153.1339999999999
 20
72.7436426095976
 30
0.0
 11
154.866
 21
72.3210536335998
 31
0.0
  0
LINE
  5
796
330
1E
100
AcDbEntity
  8
0
100
AcDbLine
 10
139.772
 20
75.082630332848
 30
0.0
 11
140.289
 21
75.8990299755782
 31
0.0
  0
LINE
  5
797
330
1E
100
AcDbEntity
  8
0
100
AcDbLine
 10
153.1339999999999
 20
74.55628549485121
 30
0.0
 11
154.1339999999999
 21
75.28820960127941
 31
0.0
  0
LINE
  5
798
330
1E
100
AcDbEntity
  8
0
100
AcDbLine
 10
153.1339999999999
 20
74.55628549485121
 30
0.0
 11
153.1339999999999
 21
72.7436426095976
 31
0.0
  0
LINE
  5
799
330
1E
100
AcDbEntity
  8
0
100
AcDbLine
 10
154.1339999999999
 20
73.47556671602579
 30
0.0
 11
154.1339999999999
 21
75.28820960127941
 31
0.0
  0
LINE
  5
79A
330
1E
100
AcDbEntity
  8
0
100
AcDbLine
 10
154.1339999999999
 20
73.47556671602579
 30
0.0
 11
155.866
 21
73.052977740028
 31
0.0
  0
LINE
  5
79B
330
1E
100
AcDbEntity
  8
0
100
AcDbLine
 10
178.3609999999999
 20
72.48484912069649
 30
0.0
 11
179.7759999999999
 21
73.08247445055269
 31
0.0
  0
LINE
  5
79C
330
1E
100
AcDbEntity
  8
0
100
AcDbLine
 10
215.5309999999999
 20
72.6618293838444
 30
0.0
 11
215.5309999999999
 21
74.474472269098
 31
0.0
  0
LINE
  5
79D
330
1E
100
AcDbEntity
  8
0
100
AcDbLine
 10
215.5309999999999
 20
72.6618293838444
 30
0.0
 11
217.263
 21
73.0844183598422
 31
0.0
  0
LINE
  5
79E
330
1E
100
AcDbEntity
  8
0
100
AcDbLine
 10
215.5309999999999
 20
72.6618293838444
 30
0.0
 11
216.5309999999999
 21
71.9299052774162
 31
0.0
  0
LINE
  5
79F
330
1E
100
AcDbEntity
  8
0
100
AcDbLine
 10
238.6
 20
72.54585675157478
 30
0.0
 11
243.0
 21
59.445598495642
 31
0.0
  0
LINE
  5
7A0
330
1E
100
AcDbEntity
  8
0
100
AcDbLine
 10
218.263
 20
72.352494253414
 30
0.0
 11
218.263
 21
74.16513713866759
 31
0.0
  0
LINE
  5
7A1
330
1E
100
AcDbEntity
  8
0
100
AcDbLine
 10
216.5309999999999
 20
71.9299052774162
 30
0.0
 11
218.263
 21
72.352494253414
 31
0.0
  0
LINE
  5
7A2
330
1E
100
AcDbEntity
  8
0
100
AcDbLine
 10
204.272
 20
71.72764392511209
 30
0.0
 11
205.272
 21
70.99571981868379
 31
0.0
  0
LINE
  5
7A3
330
1E
100
AcDbEntity
  8
0
100
AcDbLine
 10
204.272
 20
71.72764392511209
 30
0.0
 11
204.272
 21
69.91500103985851
 31
0.0
  0
LINE
  5
7A4
330
1E
100
AcDbEntity
  8
0
100
AcDbLine
 10
176.947
 20
73.08247445055269
 30
0.0
 11
176.947
 21
74.8951173358062
 31
0.0
  0
LINE
  5
7A5
330
1E
100
AcDbEntity
  8
0
100
AcDbLine
 10
176.947
 20
73.08247445055269
 30
0.0
 11
178.3609999999999
 21
73.6801420393064
 31
0.0
  0
LINE
  5
7A6
330
1E
100
AcDbEntity
  8
0
100
AcDbLine
 10
176.947
 20
73.08247445055269
 30
0.0
 11
178.3609999999999
 21
72.48484912069649
 31
0.0
  0
LINE
  5
7A7
330
1E
100
AcDbEntity
  8
0
100
AcDbLine
 10
176.947
 20
74.8951173358062
 30
0.0
 11
178.3609999999999
 21
75.49278492456
 31
0.0
  0
LINE
  5
7A8
330
1E
100
AcDbEntity
  8
0
100
AcDbLine
 10
176.947
 20
74.8951173358062
 30
0.0
 11
176.947
 21
73.08247445055269
 31
0.0
  0
LINE
  5
7A9
330
1E
100
AcDbEntity
  8
0
100
AcDbLine
 10
215.5309999999999
 20
74.474472269098
 30
0.0
 11
217.263
 21
74.8970612450958
 31
0.0
  0
LINE
  5
7AA
330
1E
100
AcDbEntity
  8
0
100
AcDbLine
 10
215.5309999999999
 20
74.474472269098
 30
0.0
 11
215.5309999999999
 21
72.6618293838444
 31
0.0
  0
LINE
  5
7AB
330
1E
100
AcDbEntity
  8
0
100
AcDbLine
 10
218.263
 20
74.16513713866759
 30
0.0
 11
218.263
 21
72.352494253414
 31
0.0
  0
LINE
  5
7AC
330
1E
100
AcDbEntity
  8
0
100
AcDbLine
 10
217.263
 20
73.0844183598422
 30
0.0
 11
218.263
 21
72.352494253414
 31
0.0
  0
LINE
  5
7AD
330
1E
100
AcDbEntity
  8
0
100
AcDbLine
 10
217.263
 20
73.0844183598422
 30
0.0
 11
217.263
 21
74.8970612450958
 31
0.0
  0
LINE
  5
7AE
330
1E
100
AcDbEntity
  8
0
100
AcDbLine
 10
217.263
 20
74.8970612450958
 30
0.0
 11
218.263
 21
74.16513713866759
 31
0.0
  0
LINE
  5
7AF
330
1E
100
AcDbEntity
  8
0
100
AcDbLine
 10
217.263
 20
74.8970612450958
 30
0.0
 11
217.263
 21
73.0844183598422
 31
0.0
  0
LINE
  5
7B0
330
1E
100
AcDbEntity
  8
0
100
AcDbLine
 10
179.7759999999999
 20
74.8951173358062
 30
0.0
 11
179.7759999999999
 21
73.08247445055269
 31
0.0
  0
LINE
  5
7B1
330
1E
100
AcDbEntity
  8
0
100
AcDbLine
 10
178.3609999999999
 20
73.6801420393064
 30
0.0
 11
178.3609999999999
 21
75.49278492456
 31
0.0
  0
LINE
  5
7B2
330
1E
100
AcDbEntity
  8
0
100
AcDbLine
 10
178.3609999999999
 20
73.6801420393064
 30
0.0
 11
179.7759999999999
 21
73.08247445055269
 31
0.0
  0
LINE
  5
7B3
330
1E
100
AcDbEntity
  8
0
100
AcDbLine
 10
179.7759999999999
 20
73.08247445055269
 30
0.0
 11
179.7759999999999
 21
74.8951173358062
 31
0.0
  0
LINE
  5
7B4
330
1E
100
AcDbEntity
  8
0
100
AcDbLine
 10
155.866
 20
74.86562062528159
 30
0.0
 11
155.866
 21
73.052977740028
 31
0.0
  0
LINE
  5
7B5
330
1E
100
AcDbEntity
  8
0
100
AcDbLine
 10
155.866
 20
73.052977740028
 30
0.0
 11
155.866
 21
74.86562062528159
 31
0.0
  0
LINE
  5
7B6
330
1E
100
AcDbEntity
  8
0
100
AcDbLine
 10
154.866
 20
72.3210536335998
 30
0.0
 11
155.866
 21
73.052977740028
 31
0.0
  0
LINE
  5
7B7
330
1E
100
AcDbEntity
  8
0
100
AcDbLine
 10
136.407
 20
71.5888234464968
 30
0.0
 11
136.407
 21
69.77618056124319
 31
0.0
  0
LINE
  5
7B8
330
1E
100
AcDbEntity
  8
0
100
AcDbLine
 10
134.4749999999999
 20
71.80755550047329
 30
0.0
 11
136.407
 21
71.5888234464968
 31
0.0
  0
LINE
  5
7B9
330
1E
100
AcDbEntity
  8
0
100
AcDbLine
 10
134.4749999999999
 20
71.80755550047329
 30
0.0
 11
134.4749999999999
 21
69.99491261521971
 31
0.0
  0
LINE
  5
7BA
330
1E
100
AcDbEntity
  8
0
100
AcDbLine
 10
111.043
 20
70.99119811664071
 30
0.0
 11
111.043
 21
69.17855523138709
 31
0.0
  0
LINE
  5
7BB
330
1E
100
AcDbEntity
  8
0
100
AcDbLine
 10
110.525
 20
69.99491261521971
 30
0.0
 11
111.043
 21
69.17855523138709
 31
0.0
  0
LINE
  5
7BC
330
1E
100
AcDbEntity
  8
0
100
AcDbLine
 10
110.525
 20
69.99491261521971
 30
0.0
 11
110.525
 21
71.80755550047329
 31
0.0
  0
LINE
  5
7BD
330
1E
100
AcDbEntity
  8
0
100
AcDbLine
 10
137.84
 20
75.30136238682451
 30
0.0
 11
137.84
 21
77.11400527207809
 31
0.0
  0
LINE
  5
7BE
330
1E
100
AcDbEntity
  8
0
100
AcDbLine
 10
137.84
 20
75.30136238682451
 30
0.0
 11
138.3569999999999
 21
76.1177620295547
 31
0.0
  0
LINE
  5
7BF
330
1E
100
AcDbEntity
  8
0
100
AcDbLine
 10
137.84
 20
75.30136238682451
 30
0.0
 11
139.772
 21
75.082630332848
 31
0.0
  0
LINE
  5
7C0
330
1E
100
AcDbEntity
  8
0
100
AcDbLine
 10
178.3609999999999
 20
75.49278492456
 30
0.0
 11
179.7759999999999
 21
74.8951173358062
 31
0.0
  0
LINE
  5
7C1
330
1E
100
AcDbEntity
  8
0
100
AcDbLine
 10
178.3609999999999
 20
75.49278492456
 30
0.0
 11
178.3609999999999
 21
73.6801420393064
 31
0.0
  0
LINE
  5
7C2
330
1E
100
AcDbEntity
  8
0
100
AcDbLine
 10
140.289
 20
75.8990299755782
 30
0.0
 11
140.289
 21
77.7116728608318
 31
0.0
  0
LINE
  5
7C3
330
1E
100
AcDbEntity
  8
0
100
AcDbLine
 10
154.1339999999999
 20
75.28820960127941
 30
0.0
 11
155.866
 21
74.86562062528159
 31
0.0
  0
LINE
  5
7C4
330
1E
100
AcDbEntity
  8
0
100
AcDbLine
 10
154.1339999999999
 20
75.28820960127941
 30
0.0
 11
154.1339999999999
 21
73.47556671602579
 31
0.0
  0
LINE
  5
7C5
330
1E
100
AcDbEntity
  8
0
100
AcDbLine
 10
121.5
 20
76.09916811461079
 30
0.0
 11
121.5
 21
77.9118109998644
 31
0.0
  0
LINE
  5
7C6
330
1E
100
AcDbEntity
  8
0
100
AcDbLine
 10
121.5
 20
76.09916811461079
 30
0.0
 11
121.5
 21
76.94434606660641
 31
0.0
  0
LINE
  5
7C7
330
1E
100
AcDbEntity
  8
0
100
AcDbLine
 10
121.5
 20
76.09916811461079
 30
0.0
 11
123.5
 21
76.09916811461079
 31
0.0
  0
LINE
  5
7C8
330
1E
100
AcDbEntity
  8
0
100
AcDbLine
 10
138.3569999999999
 20
76.1177620295547
 30
0.0
 11
138.3569999999999
 21
77.93040491480829
 31
0.0
  0
LINE
  5
7C9
330
1E
100
AcDbEntity
  8
0
100
AcDbLine
 10
138.3569999999999
 20
76.1177620295547
 30
0.0
 11
140.289
 21
75.8990299755782
 31
0.0
  0
LINE
  5
7CA
330
1E
100
AcDbEntity
  8
0
100
AcDbLine
 10
123.5
 20
76.09916811461079
 30
0.0
 11
123.5
 21
76.94434606660641
 31
0.0
  0
LINE
  5
7CB
330
1E
100
AcDbEntity
  8
0
100
AcDbLine
 10
107.1599999999999
 20
75.30136238682451
 30
0.0
 11
107.1599999999999
 21
77.11400527207809
 31
0.0
  0
LINE
  5
7CC
330
1E
100
AcDbEntity
  8
0
100
AcDbLine
 10
105.2279999999999
 20
75.082630332848
 30
0.0
 11
107.1599999999999
 21
75.30136238682451
 31
0.0
  0
LINE
  5
7CD
330
1E
100
AcDbEntity
  8
0
100
AcDbLine
 10
104.7109999999999
 20
75.8990299755782
 30
0.0
 11
104.7109999999999
 21
77.7116728608318
 31
0.0
  0
LINE
  5
7CE
330
1E
100
AcDbEntity
  8
0
100
AcDbLine
 10
104.7109999999999
 20
75.8990299755782
 30
0.0
 11
106.6429999999999
 21
76.1177620295547
 31
0.0
  0
LINE
  5
7CF
330
1E
100
AcDbEntity
  8
0
100
AcDbLine
 10
104.7109999999999
 20
75.8990299755782
 30
0.0
 11
105.2279999999999
 21
75.082630332848
 31
0.0
  0
LINE
  5
7D0
330
1E
100
AcDbEntity
  8
0
100
AcDbLine
 10
104.7109999999999
 20
77.7116728608318
 30
0.0
 11
106.6429999999999
 21
77.93040491480829
 31
0.0
  0
LINE
  5
7D1
330
1E
100
AcDbEntity
  8
0
100
AcDbLine
 10
104.7109999999999
 20
77.7116728608318
 30
0.0
 11
104.7109999999999
 21
75.8990299755782
 31
0.0
  0
LINE
  5
7D2
330
1E
100
AcDbEntity
  8
0
100
AcDbLine
 10
106.6429999999999
 20
77.93040491480829
 30
0.0
 11
107.1599999999999
 21
77.11400527207809
 31
0.0
  0
LINE
  5
7D3
330
1E
100
AcDbEntity
  8
0
100
AcDbLine
 10
106.6429999999999
 20
77.93040491480829
 30
0.0
 11
106.6429999999999
 21
76.1177620295547
 31
0.0
  0
LINE
  5
7D4
330
1E
100
AcDbEntity
  8
0
100
AcDbLine
 10
227.7
 20
76.81307966227
 30
0.0
 11
239.5999999999999
 21
64.47348156313329
 31
0.0
  0
LINE
  5
7D5
330
1E
100
AcDbEntity
  8
0
100
AcDbLine
 10
121.5
 20
76.94434606660641
 30
0.0
 11
121.5
 21
78.75698895185999
 31
0.0
  0
LINE
  5
7D6
330
1E
100
AcDbEntity
  8
0
100
AcDbLine
 10
121.5
 20
76.94434606660641
 30
0.0
 11
123.5
 21
76.94434606660641
 31
0.0
  0
LINE
  5
7D7
330
1E
100
AcDbEntity
  8
0
100
AcDbLine
 10
121.5
 20
76.94434606660641
 30
0.0
 11
121.5
 21
76.09916811461079
 31
0.0
  0
LINE
  5
7D8
330
1E
100
AcDbEntity
  8
0
100
AcDbLine
 10
121.5
 20
82.43800275457829
 30
0.0
 11
121.5
 21
84.2506456398318
 31
0.0
  0
LINE
  5
7D9
330
1E
100
AcDbEntity
  8
0
100
AcDbLine
 10
121.5
 20
82.43800275457829
 30
0.0
 11
121.5
 21
83.2831807065739
 31
0.0
  0
LINE
  5
7DA
330
1E
100
AcDbEntity
  8
0
100
AcDbLine
 10
121.5
 20
82.43800275457829
 30
0.0
 11
123.5
 21
82.43800275457829
 31
0.0
  0
LINE
  5
7DB
330
1E
100
AcDbEntity
  8
0
100
AcDbLine
 10
121.5
 20
77.9118109998644
 30
0.0
 11
121.5
 21
78.75698895185999
 31
0.0
  0
LINE
  5
7DC
330
1E
100
AcDbEntity
  8
0
100
AcDbLine
 10
121.5
 20
77.9118109998644
 30
0.0
 11
121.5
 21
76.09916811461079
 31
0.0
  0
LINE
  5
7DD
330
1E
100
AcDbEntity
  8
0
100
AcDbLine
 10
137.84
 20
77.11400527207809
 30
0.0
 11
138.3569999999999
 21
77.93040491480829
 31
0.0
  0
LINE
  5
7DE
330
1E
100
AcDbEntity
  8
0
100
AcDbLine
 10
137.84
 20
77.11400527207809
 30
0.0
 11
137.84
 21
75.30136238682451
 31
0.0
  0
LINE
  5
7DF
330
1E
100
AcDbEntity
  8
0
100
AcDbLine
 10
140.289
 20
77.7116728608318
 30
0.0
 11
140.289
 21
75.8990299755782
 31
0.0
  0
LINE
  5
7E0
330
1E
100
AcDbEntity
  8
0
100
AcDbLine
 10
138.3569999999999
 20
77.93040491480829
 30
0.0
 11
140.289
 21
77.7116728608318
 31
0.0
  0
LINE
  5
7E1
330
1E
100
AcDbEntity
  8
0
100
AcDbLine
 10
138.3569999999999
 20
77.93040491480829
 30
0.0
 11
138.3569999999999
 21
76.1177620295547
 31
0.0
  0
LINE
  5
7E2
330
1E
100
AcDbEntity
  8
0
100
AcDbLine
 10
160.6339999999999
 20
78.2332424433998
 30
0.0
 11
160.6339999999999
 21
80.04588532865339
 31
0.0
  0
LINE
  5
7E3
330
1E
100
AcDbEntity
  8
0
100
AcDbLine
 10
160.6339999999999
 20
78.2332424433998
 30
0.0
 11
161.6339999999999
 21
78.9651665498281
 31
0.0
  0
LINE
  5
7E4
330
1E
100
AcDbEntity
  8
0
100
AcDbLine
 10
160.6339999999999
 20
78.2332424433998
 30
0.0
 11
162.366
 21
77.810653467402
 31
0.0
  0
LINE
  5
7E5
330
1E
100
AcDbEntity
  8
0
100
AcDbLine
 10
187.5539999999999
 20
77.56470668337129
 30
0.0
 11
187.5539999999999
 21
79.37734956862491
 31
0.0
  0
LINE
  5
7E6
330
1E
100
AcDbEntity
  8
0
100
AcDbLine
 10
187.5539999999999
 20
77.56470668337129
 30
0.0
 11
188.968
 21
78.16237427212499
 31
0.0
  0
LINE
  5
7E7
330
1E
100
AcDbEntity
  8
0
100
AcDbLine
 10
187.5539999999999
 20
77.56470668337129
 30
0.0
 11
188.968
 21
76.96708135351508
 31
0.0
  0
LINE
  5
7E8
330
1E
100
AcDbEntity
  8
0
100
AcDbLine
 10
188.968
 20
78.16237427212499
 30
0.0
 11
188.968
 21
79.9750171573786
 31
0.0
  0
LINE
  5
7E9
330
1E
100
AcDbEntity
  8
0
100
AcDbLine
 10
188.968
 20
78.16237427212499
 30
0.0
 11
190.3819999999999
 21
77.56470668337129
 31
0.0
  0
LINE
  5
7EA
330
1E
100
AcDbEntity
  8
0
100
AcDbLine
 10
228.6
 20
77.9306955928957
 30
0.0
 11
240.9
 21
65.50657969855939
 31
0.0
  0
LINE
  5
7EB
330
1E
100
AcDbEntity
  8
0
100
AcDbLine
 10
190.3819999999999
 20
77.56470668337129
 30
0.0
 11
190.3819999999999
 21
79.37734956862491
 31
0.0
  0
LINE
  5
7EC
330
1E
100
AcDbEntity
  8
0
100
AcDbLine
 10
188.968
 20
76.96708135351508
 30
0.0
 11
190.3819999999999
 21
77.56470668337129
 31
0.0
  0
LINE
  5
7ED
330
1E
100
AcDbEntity
  8
0
100
AcDbLine
 10
227.7
 20
78.62572254752359
 30
0.0
 11
228.6
 21
77.9306955928957
 31
0.0
  0
LINE
  5
7EE
330
1E
100
AcDbEntity
  8
0
100
AcDbLine
 10
163.366
 20
78.5425775738303
 30
0.0
 11
163.366
 21
80.35522045908379
 31
0.0
  0
LINE
  5
7EF
330
1E
100
AcDbEntity
  8
0
100
AcDbLine
 10
162.366
 20
77.810653467402
 30
0.0
 11
163.366
 21
78.5425775738303
 31
0.0
  0
LINE
  5
7F0
330
1E
100
AcDbEntity
  8
0
100
AcDbLine
 10
160.6339999999999
 20
80.04588532865339
 30
0.0
 11
161.6339999999999
 21
80.77780943508171
 31
0.0
  0
LINE
  5
7F1
330
1E
100
AcDbEntity
  8
0
100
AcDbLine
 10
160.6339999999999
 20
80.04588532865339
 30
0.0
 11
160.6339999999999
 21
78.2332424433998
 31
0.0
  0
LINE
  5
7F2
330
1E
100
AcDbEntity
  8
0
100
AcDbLine
 10
161.6339999999999
 20
78.9651665498281
 30
0.0
 11
161.6339999999999
 21
80.77780943508171
 31
0.0
  0
LINE
  5
7F3
330
1E
100
AcDbEntity
  8
0
100
AcDbLine
 10
161.6339999999999
 20
78.9651665498281
 30
0.0
 11
163.366
 21
78.5425775738303
 31
0.0
  0
LINE
  5
7F4
330
1E
100
AcDbEntity
  8
0
100
AcDbLine
 10
187.5539999999999
 20
79.37734956862491
 30
0.0
 11
188.968
 21
79.9750171573786
 31
0.0
  0
LINE
  5
7F5
330
1E
100
AcDbEntity
  8
0
100
AcDbLine
 10
187.5539999999999
 20
79.37734956862491
 30
0.0
 11
187.5539999999999
 21
77.56470668337129
 31
0.0
  0
LINE
  5
7F6
330
1E
100
AcDbEntity
  8
0
100
AcDbLine
 10
236.6999999999999
 20
79.5851338045902
 30
0.0
 11
241.0
 21
66.6961700366563
 31
0.0
  0
LINE
  5
7F7
330
1E
100
AcDbEntity
  8
0
100
AcDbLine
 10
190.3819999999999
 20
79.37734956862491
 30
0.0
 11
190.3819999999999
 21
77.56470668337129
 31
0.0
  0
LINE
  5
7F8
330
1E
100
AcDbEntity
  8
0
100
AcDbLine
 10
188.968
 20
79.9750171573786
 30
0.0
 11
190.3819999999999
 21
79.37734956862491
 31
0.0
  0
LINE
  5
7F9
330
1E
100
AcDbEntity
  8
0
100
AcDbLine
 10
188.968
 20
79.9750171573786
 30
0.0
 11
188.968
 21
78.16237427212499
 31
0.0
  0
LINE
  5
7FA
330
1E
100
AcDbEntity
  8
0
100
AcDbLine
 10
163.366
 20
80.35522045908379
 30
0.0
 11
163.366
 21
78.5425775738303
 31
0.0
  0
LINE
  5
7FB
330
1E
100
AcDbEntity
  8
0
100
AcDbLine
 10
161.6339999999999
 20
80.77780943508171
 30
0.0
 11
163.366
 21
80.35522045908379
 31
0.0
  0
LINE
  5
7FC
330
1E
100
AcDbEntity
  8
0
100
AcDbLine
 10
161.6339999999999
 20
80.77780943508171
 30
0.0
 11
161.6339999999999
 21
78.9651665498281
 31
0.0
  0
LINE
  5
7FD
330
1E
100
AcDbEntity
  8
0
100
AcDbLine
 10
141.722
 20
81.42421180115951
 30
0.0
 11
141.722
 21
83.23685468641309
 31
0.0
  0
LINE
  5
7FE
330
1E
100
AcDbEntity
  8
0
100
AcDbLine
 10
141.722
 20
81.42421180115951
 30
0.0
 11
142.24
 21
82.2406114438897
 31
0.0
  0
LINE
  5
7FF
330
1E
100
AcDbEntity
  8
0
100
AcDbLine
 10
141.722
 20
81.42421180115951
 30
0.0
 11
143.6539999999999
 21
81.205479747183
 31
0.0
  0
LINE
  5
800
330
1E
100
AcDbEntity
  8
0
100
AcDbLine
 10
141.722
 20
83.23685468641309
 30
0.0
 11
142.24
 21
84.05325432914329
 31
0.0
  0
LINE
  5
801
330
1E
100
AcDbEntity
  8
0
100
AcDbLine
 10
141.722
 20
83.23685468641309
 30
0.0
 11
141.722
 21
81.42421180115951
 31
0.0
  0
LINE
  5
802
330
1E
100
AcDbEntity
  8
0
100
AcDbLine
 10
142.24
 20
82.2406114438897
 30
0.0
 11
142.24
 21
84.05325432914329
 31
0.0
  0
LINE
  5
803
330
1E
100
AcDbEntity
  8
0
100
AcDbLine
 10
142.24
 20
82.2406114438897
 30
0.0
 11
144.171
 21
82.02183713101559
 31
0.0
  0
LINE
  5
804
330
1E
100
AcDbEntity
  8
0
100
AcDbLine
 10
198.16
 20
82.04693891618992
 30
0.0
 11
198.16
 21
83.85958180144349
 31
0.0
  0
LINE
  5
805
330
1E
100
AcDbEntity
  8
0
100
AcDbLine
 10
198.16
 20
82.04693891618992
 30
0.0
 11
199.5749999999999
 21
82.6446065049436
 31
0.0
  0
LINE
  5
806
330
1E
100
AcDbEntity
  8
0
100
AcDbLine
 10
198.16
 20
82.04693891618992
 30
0.0
 11
199.5749999999999
 21
81.44931358633369
 31
0.0
  0
LINE
  5
807
330
1E
100
AcDbEntity
  8
0
100
AcDbLine
 10
199.5749999999999
 20
82.6446065049436
 30
0.0
 11
199.5749999999999
 21
84.4572493901972
 31
0.0
  0
LINE
  5
808
330
1E
100
AcDbEntity
  8
0
100
AcDbLine
 10
199.5749999999999
 20
82.6446065049436
 30
0.0
 11
200.9889999999999
 21
82.04693891618992
 31
0.0
  0
LINE
  5
809
330
1E
100
AcDbEntity
  8
0
100
AcDbLine
 10
236.6999999999999
 20
82.3040981324706
 30
0.0
 11
241.0
 21
69.41513436453671
 31
0.0
  0
LINE
  5
80A
330
1E
100
AcDbEntity
  8
0
100
AcDbLine
 10
200.9889999999999
 20
82.04693891618992
 30
0.0
 11
200.9889999999999
 21
83.85958180144349
 31
0.0
  0
LINE
  5
80B
330
1E
100
AcDbEntity
  8
0
100
AcDbLine
 10
199.5749999999999
 20
81.44931358633369
 30
0.0
 11
200.9889999999999
 21
82.04693891618992
 31
0.0
  0
LINE
  5
80C
330
1E
100
AcDbEntity
  8
0
100
AcDbLine
 10
144.171
 20
82.02183713101559
 30
0.0
 11
144.171
 21
83.83448001626922
 31
0.0
  0
LINE
  5
80D
330
1E
100
AcDbEntity
  8
0
100
AcDbLine
 10
143.6539999999999
 20
81.205479747183
 30
0.0
 11
144.171
 21
82.02183713101559
 31
0.0
  0
LINE
  5
80E
330
1E
100
AcDbEntity
  8
0
100
AcDbLine
 10
123.5
 20
82.43800275457829
 30
0.0
 11
123.5
 21
83.2831807065739
 31
0.0
  0
LINE
  5
80F
330
1E
100
AcDbEntity
  8
0
100
AcDbLine
 10
123.5
 20
78.75698895185999
 30
0.0
 11
123.5
 21
76.94434606660641
 31
0.0
  0
LINE
  5
810
330
1E
100
AcDbEntity
  8
0
100
AcDbLine
 10
121.5
 20
78.75698895185999
 30
0.0
 11
123.5
 21
78.75698895185999
 31
0.0
  0
LINE
  5
811
330
1E
100
AcDbEntity
  8
0
100
AcDbLine
 10
121.5
 20
78.75698895185999
 30
0.0
 11
121.5
 21
76.94434606660641
 31
0.0
  0
LINE
  5
812
330
1E
100
AcDbEntity
  8
0
100
AcDbLine
 10
121.5
 20
78.75698895185999
 30
0.0
 11
121.5
 21
77.9118109998644
 31
0.0
  0
LINE
  5
813
330
1E
100
AcDbEntity
  8
0
100
AcDbLine
 10
123.5
 20
76.94434606660641
 30
0.0
 11
123.5
 21
78.75698895185999
 31
0.0
  0
LINE
  5
814
330
1E
100
AcDbEntity
  8
0
100
AcDbLine
 10
123.5
 20
76.94434606660641
 30
0.0
 11
123.5
 21
76.09916811461079
 31
0.0
  0
LINE
  5
815
330
1E
100
AcDbEntity
  8
0
100
AcDbLine
 10
107.1599999999999
 20
77.11400527207809
 30
0.0
 11
107.1599999999999
 21
75.30136238682451
 31
0.0
  0
LINE
  5
816
330
1E
100
AcDbEntity
  8
0
100
AcDbLine
 10
106.6429999999999
 20
76.1177620295547
 30
0.0
 11
107.1599999999999
 21
75.30136238682451
 31
0.0
  0
LINE
  5
817
330
1E
100
AcDbEntity
  8
0
100
AcDbLine
 10
106.6429999999999
 20
76.1177620295547
 30
0.0
 11
106.6429999999999
 21
77.93040491480829
 31
0.0
  0
LINE
  5
818
330
1E
100
AcDbEntity
  8
0
100
AcDbLine
 10
103.278
 20
81.42421180115951
 30
0.0
 11
103.278
 21
83.23685468641309
 31
0.0
  0
LINE
  5
819
330
1E
100
AcDbEntity
  8
0
100
AcDbLine
 10
121.5
 20
84.2506456398318
 30
0.0
 11
121.5
 21
85.09582359182749
 31
0.0
  0
LINE
  5
81A
330
1E
100
AcDbEntity
  8
0
100
AcDbLine
 10
121.5
 20
84.2506456398318
 30
0.0
 11
121.5
 21
82.43800275457829
 31
0.0
  0
LINE
  5
81B
330
1E
100
AcDbEntity
  8
0
100
AcDbLine
 10
123.5
 20
85.09582359182749
 30
0.0
 11
123.5
 21
83.2831807065739
 31
0.0
  0
LINE
  5
81C
330
1E
100
AcDbEntity
  8
0
100
AcDbLine
 10
121.5
 20
83.2831807065739
 30
0.0
 11
121.5
 21
85.09582359182749
 31
0.0
  0
LINE
  5
81D
330
1E
100
AcDbEntity
  8
0
100
AcDbLine
 10
121.5
 20
83.2831807065739
 30
0.0
 11
123.5
 21
83.2831807065739
 31
0.0
  0
LINE
  5
81E
330
1E
100
AcDbEntity
  8
0
100
AcDbLine
 10
121.5
 20
83.2831807065739
 30
0.0
 11
121.5
 21
82.43800275457829
 31
0.0
  0
LINE
  5
81F
330
1E
100
AcDbEntity
  8
0
100
AcDbLine
 10
121.5
 20
85.09582359182749
 30
0.0
 11
123.5
 21
85.09582359182749
 31
0.0
  0
LINE
  5
820
330
1E
100
AcDbEntity
  8
0
100
AcDbLine
 10
121.5
 20
85.09582359182749
 30
0.0
 11
121.5
 21
83.2831807065739
 31
0.0
  0
LINE
  5
821
330
1E
100
AcDbEntity
  8
0
100
AcDbLine
 10
121.5
 20
85.09582359182749
 30
0.0
 11
121.5
 21
84.2506456398318
 31
0.0
  0
LINE
  5
822
330
1E
100
AcDbEntity
  8
0
100
AcDbLine
 10
144.171
 20
83.83448001626922
 30
0.0
 11
144.171
 21
82.02183713101559
 31
0.0
  0
LINE
  5
823
330
1E
100
AcDbEntity
  8
0
100
AcDbLine
 10
142.24
 20
84.05325432914329
 30
0.0
 11
144.171
 21
83.83448001626922
 31
0.0
  0
LINE
  5
824
330
1E
100
AcDbEntity
  8
0
100
AcDbLine
 10
142.24
 20
84.05325432914329
 30
0.0
 11
142.24
 21
82.2406114438897
 31
0.0
  0
LINE
  5
825
330
1E
100
AcDbEntity
  8
0
100
AcDbLine
 10
168.134
 20
85.53548516245569
 30
0.0
 11
169.134
 21
86.26740926888391
 31
0.0
  0
LINE
  5
826
330
1E
100
AcDbEntity
  8
0
100
AcDbLine
 10
168.134
 20
85.53548516245569
 30
0.0
 11
168.134
 21
83.72284227720209
 31
0.0
  0
LINE
  5
827
330
1E
100
AcDbEntity
  8
0
100
AcDbLine
 10
168.134
 20
83.72284227720209
 30
0.0
 11
168.134
 21
85.53548516245569
 31
0.0
  0
LINE
  5
828
330
1E
100
AcDbEntity
  8
0
100
AcDbLine
 10
168.134
 20
83.72284227720209
 30
0.0
 11
169.134
 21
84.45476638363031
 31
0.0
  0
LINE
  5
829
330
1E
100
AcDbEntity
  8
0
100
AcDbLine
 10
168.134
 20
83.72284227720209
 30
0.0
 11
169.8659999999999
 21
83.30025330120429
 31
0.0
  0
LINE
  5
82A
330
1E
100
AcDbEntity
  8
0
100
AcDbLine
 10
170.8659999999999
 20
85.8448202928861
 30
0.0
 11
170.8659999999999
 21
84.03217740763251
 31
0.0
  0
LINE
  5
82B
330
1E
100
AcDbEntity
  8
0
100
AcDbLine
 10
169.134
 20
84.45476638363031
 30
0.0
 11
169.134
 21
86.26740926888391
 31
0.0
  0
LINE
  5
82C
330
1E
100
AcDbEntity
  8
0
100
AcDbLine
 10
169.134
 20
84.45476638363031
 30
0.0
 11
170.8659999999999
 21
84.03217740763251
 31
0.0
  0
LINE
  5
82D
330
1E
100
AcDbEntity
  8
0
100
AcDbLine
 10
147.536
 20
87.32832916151799
 30
0.0
 11
148.0539999999999
 21
88.1446865453506
 31
0.0
  0
LINE
  5
82E
330
1E
100
AcDbEntity
  8
0
100
AcDbLine
 10
169.134
 20
86.26740926888391
 30
0.0
 11
170.8659999999999
 21
85.8448202928861
 31
0.0
  0
LINE
  5
82F
330
1E
100
AcDbEntity
  8
0
100
AcDbLine
 10
169.134
 20
86.26740926888391
 30
0.0
 11
169.134
 21
84.45476638363031
 31
0.0
  0
LINE
  5
830
330
1E
100
AcDbEntity
  8
0
100
AcDbLine
 10
198.16
 20
83.85958180144349
 30
0.0
 11
199.5749999999999
 21
84.4572493901972
 31
0.0
  0
LINE
  5
831
330
1E
100
AcDbEntity
  8
0
100
AcDbLine
 10
198.16
 20
83.85958180144349
 30
0.0
 11
198.16
 21
82.04693891618992
 31
0.0
  0
LINE
  5
832
330
1E
100
AcDbEntity
  8
0
100
AcDbLine
 10
200.9889999999999
 20
83.85958180144349
 30
0.0
 11
200.9889999999999
 21
82.04693891618992
 31
0.0
  0
LINE
  5
833
330
1E
100
AcDbEntity
  8
0
100
AcDbLine
 10
227.0
 20
84.7164192603124
 30
0.0
 11
238.6
 21
72.54585675157478
 31
0.0
  0
LINE
  5
834
330
1E
100
AcDbEntity
  8
0
100
AcDbLine
 10
199.5749999999999
 20
84.4572493901972
 30
0.0
 11
200.9889999999999
 21
83.85958180144349
 31
0.0
  0
LINE
  5
835
330
1E
100
AcDbEntity
  8
0
100
AcDbLine
 10
199.5749999999999
 20
84.4572493901972
 30
0.0
 11
199.5749999999999
 21
82.6446065049436
 31
0.0
  0
LINE
  5
836
330
1E
100
AcDbEntity
  8
0
100
AcDbLine
 10
170.8659999999999
 20
84.03217740763251
 30
0.0
 11
170.8659999999999
 21
85.8448202928861
 31
0.0
  0
LINE
  5
837
330
1E
100
AcDbEntity
  8
0
100
AcDbLine
 10
169.8659999999999
 20
83.30025330120429
 30
0.0
 11
170.8659999999999
 21
84.03217740763251
 31
0.0
  0
LINE
  5
838
330
1E
100
AcDbEntity
  8
0
100
AcDbLine
 10
123.5
 20
83.2831807065739
 30
0.0
 11
123.5
 21
85.09582359182749
 31
0.0
  0
LINE
  5
839
330
1E
100
AcDbEntity
  8
0
100
AcDbLine
 10
123.5
 20
83.2831807065739
 30
0.0
 11
123.5
 21
82.43800275457829
 31
0.0
  0
LINE
  5
83A
330
1E
100
AcDbEntity
  8
0
100
AcDbLine
 10
103.278
 20
83.23685468641309
 30
0.0
 11
103.278
 21
81.42421180115951
 31
0.0
  0
LINE
  5
83B
330
1E
100
AcDbEntity
  8
0
100
AcDbLine
 10
102.76
 20
82.2406114438897
 30
0.0
 11
103.278
 21
81.42421180115951
 31
0.0
  0
LINE
  5
83C
330
1E
100
AcDbEntity
  8
0
100
AcDbLine
 10
102.76
 20
82.2406114438897
 30
0.0
 11
102.76
 21
84.05325432914329
 31
0.0
  0
LINE
  5
83D
330
1E
100
AcDbEntity
  8
0
100
AcDbLine
 10
208.3
 20
87.5468396526149
 30
0.0
 11
227.7
 21
76.81307966227
 31
0.0
  0
LINE
  5
83E
330
1E
100
AcDbEntity
  8
0
100
AcDbLine
 10
145.6039999999999
 20
87.5470612154945
 30
0.0
 11
145.6039999999999
 21
89.359704100748
 31
0.0
  0
LINE
  5
83F
330
1E
100
AcDbEntity
  8
0
100
AcDbLine
 10
145.6039999999999
 20
87.5470612154945
 30
0.0
 11
146.122
 21
88.36346085822469
 31
0.0
  0
LINE
  5
840
330
1E
100
AcDbEntity
  8
0
100
AcDbLine
 10
145.6039999999999
 20
87.5470612154945
 30
0.0
 11
147.536
 21
87.32832916151799
 31
0.0
  0
LINE
  5
841
330
1E
100
AcDbEntity
  8
0
100
AcDbLine
 10
146.122
 20
88.36346085822469
 30
0.0
 11
146.122
 21
90.1761037434783
 31
0.0
  0
LINE
  5
842
330
1E
100
AcDbEntity
  8
0
100
AcDbLine
 10
146.122
 20
88.36346085822469
 30
0.0
 11
148.0539999999999
 21
88.1446865453506
 31
0.0
  0
LINE
  5
843
330
1E
100
AcDbEntity
  8
0
100
AcDbLine
 10
148.0539999999999
 20
88.1446865453506
 30
0.0
 11
148.0539999999999
 21
89.95732943060421
 31
0.0
  0
LINE
  5
844
330
1E
100
AcDbEntity
  8
0
100
AcDbLine
 10
99.39579999999999
 20
87.5470612154945
 30
0.0
 11
99.39579999999999
 21
89.359704100748
 31
0.0
  0
LINE
  5
845
330
1E
100
AcDbEntity
  8
0
100
AcDbLine
 10
97.46389999999999
 20
87.32832916151799
 30
0.0
 11
99.39579999999999
 21
87.5470612154945
 31
0.0
  0
LINE
  5
846
330
1E
100
AcDbEntity
  8
0
100
AcDbLine
 10
96.9463
 20
88.1446865453506
 30
0.0
 11
96.9463
 21
89.95732943060421
 31
0.0
  0
LINE
  5
847
330
1E
100
AcDbEntity
  8
0
100
AcDbLine
 10
96.9463
 20
88.1446865453506
 30
0.0
 11
98.87810000000001
 21
88.36346085822469
 31
0.0
  0
LINE
  5
848
330
1E
100
AcDbEntity
  8
0
100
AcDbLine
 10
96.9463
 20
88.1446865453506
 30
0.0
 11
97.46389999999999
 21
87.32832916151799
 31
0.0
  0
LINE
  5
849
330
1E
100
AcDbEntity
  8
0
100
AcDbLine
 10
96.9463
 20
89.95732943060421
 30
0.0
 11
98.87810000000001
 21
90.1761037434783
 31
0.0
  0
LINE
  5
84A
330
1E
100
AcDbEntity
  8
0
100
AcDbLine
 10
96.9463
 20
89.95732943060421
 30
0.0
 11
96.9463
 21
88.1446865453506
 31
0.0
  0
LINE
  5
84B
330
1E
100
AcDbEntity
  8
0
100
AcDbLine
 10
98.87810000000001
 20
90.1761037434783
 30
0.0
 11
99.39579999999999
 21
89.359704100748
 31
0.0
  0
LINE
  5
84C
330
1E
100
AcDbEntity
  8
0
100
AcDbLine
 10
98.87810000000001
 20
90.1761037434783
 30
0.0
 11
98.87810000000001
 21
88.36346085822469
 31
0.0
  0
LINE
  5
84D
330
1E
100
AcDbEntity
  8
0
100
AcDbLine
 10
209.0
 20
88.74897337844021
 30
0.0
 11
228.6
 21
77.9306955928957
 31
0.0
  0
LINE
  5
84E
330
1E
100
AcDbEntity
  8
0
100
AcDbLine
 10
121.5
 20
88.7768373945458
 30
0.0
 11
121.5
 21
90.58948027979928
 31
0.0
  0
LINE
  5
84F
330
1E
100
AcDbEntity
  8
0
100
AcDbLine
 10
121.5
 20
88.7768373945458
 30
0.0
 11
121.5
 21
89.62201534654139
 31
0.0
  0
LINE
  5
850
330
1E
100
AcDbEntity
  8
0
100
AcDbLine
 10
121.5
 20
88.7768373945458
 30
0.0
 11
123.5
 21
88.7768373945458
 31
0.0
  0
LINE
  5
851
330
1E
100
AcDbEntity
  8
0
100
AcDbLine
 10
121.5
 20
90.58948027979928
 30
0.0
 11
121.5
 21
91.43465823179502
 31
0.0
  0
LINE
  5
852
330
1E
100
AcDbEntity
  8
0
100
AcDbLine
 10
121.5
 20
90.58948027979928
 30
0.0
 11
121.5
 21
88.7768373945458
 31
0.0
  0
LINE
  5
853
330
1E
100
AcDbEntity
  8
0
100
AcDbLine
 10
121.5
 20
89.62201534654139
 30
0.0
 11
121.5
 21
91.43465823179502
 31
0.0
  0
LINE
  5
854
330
1E
100
AcDbEntity
  8
0
100
AcDbLine
 10
121.5
 20
89.62201534654139
 30
0.0
 11
123.5
 21
89.62201534654139
 31
0.0
  0
LINE
  5
855
330
1E
100
AcDbEntity
  8
0
100
AcDbLine
 10
121.5
 20
89.62201534654139
 30
0.0
 11
121.5
 21
88.7768373945458
 31
0.0
  0
LINE
  5
856
330
1E
100
AcDbEntity
  8
0
100
AcDbLine
 10
145.6039999999999
 20
89.359704100748
 30
0.0
 11
146.122
 21
90.1761037434783
 31
0.0
  0
LINE
  5
857
330
1E
100
AcDbEntity
  8
0
100
AcDbLine
 10
145.6039999999999
 20
89.359704100748
 30
0.0
 11
145.6039999999999
 21
87.5470612154945
 31
0.0
  0
LINE
  5
858
330
1E
100
AcDbEntity
  8
0
100
AcDbLine
 10
175.634
 20
89.2123998521067
 30
0.0
 11
175.634
 21
91.0250427373603
 31
0.0
  0
LINE
  5
859
330
1E
100
AcDbEntity
  8
0
100
AcDbLine
 10
175.634
 20
89.2123998521067
 30
0.0
 11
176.634
 21
89.94436621743259
 31
0.0
  0
LINE
  5
85A
330
1E
100
AcDbEntity
  8
0
100
AcDbLine
 10
175.634
 20
89.2123998521067
 30
0.0
 11
177.3659999999999
 21
88.78981087610892
 31
0.0
  0
LINE
  5
85B
330
1E
100
AcDbEntity
  8
0
100
AcDbLine
 10
176.634
 20
89.94436621743259
 30
0.0
 11
176.634
 21
91.7570091026862
 31
0.0
  0
LINE
  5
85C
330
1E
100
AcDbEntity
  8
0
100
AcDbLine
 10
176.634
 20
89.94436621743259
 30
0.0
 11
178.3659999999999
 21
89.52177724143471
 31
0.0
  0
LINE
  5
85D
330
1E
100
AcDbEntity
  8
0
100
AcDbLine
 10
208.3
 20
89.3594825378685
 30
0.0
 11
227.7
 21
78.62572254752359
 31
0.0
  0
LINE
  5
85E
330
1E
100
AcDbEntity
  8
0
100
AcDbLine
 10
178.3659999999999
 20
89.52177724143471
 30
0.0
 11
178.3659999999999
 21
91.33442012668828
 31
0.0
  0
LINE
  5
85F
330
1E
100
AcDbEntity
  8
0
100
AcDbLine
 10
177.3659999999999
 20
88.78981087610892
 30
0.0
 11
178.3659999999999
 21
89.52177724143471
 31
0.0
  0
LINE
  5
860
330
1E
100
AcDbEntity
  8
0
100
AcDbLine
 10
148.0539999999999
 20
89.95732943060421
 30
0.0
 11
148.0539999999999
 21
88.1446865453506
 31
0.0
  0
LINE
  5
861
330
1E
100
AcDbEntity
  8
0
100
AcDbLine
 10
175.634
 20
91.0250427373603
 30
0.0
 11
176.634
 21
91.7570091026862
 31
0.0
  0
LINE
  5
862
330
1E
100
AcDbEntity
  8
0
100
AcDbLine
 10
175.634
 20
91.0250427373603
 30
0.0
 11
175.634
 21
89.2123998521067
 31
0.0
  0
LINE
  5
863
330
1E
100
AcDbEntity
  8
0
100
AcDbLine
 10
146.122
 20
90.1761037434783
 30
0.0
 11
148.0539999999999
 21
89.95732943060421
 31
0.0
  0
LINE
  5
864
330
1E
100
AcDbEntity
  8
0
100
AcDbLine
 10
146.122
 20
90.1761037434783
 30
0.0
 11
146.122
 21
88.36346085822469
 31
0.0
  0
LINE
  5
865
330
1E
100
AcDbEntity
  8
0
100
AcDbLine
 10
123.5
 20
89.62201534654139
 30
0.0
 11
123.5
 21
91.43465823179502
 31
0.0
  0
LINE
  5
866
330
1E
100
AcDbEntity
  8
0
100
AcDbLine
 10
123.5
 20
89.62201534654139
 30
0.0
 11
123.5
 21
88.7768373945458
 31
0.0
  0
LINE
  5
867
330
1E
100
AcDbEntity
  8
0
100
AcDbLine
 10
123.5
 20
88.7768373945458
 30
0.0
 11
123.5
 21
89.62201534654139
 31
0.0
  0
LINE
  5
868
330
1E
100
AcDbEntity
  8
0
100
AcDbLine
 10
99.39579999999999
 20
89.359704100748
 30
0.0
 11
99.39579999999999
 21
87.5470612154945
 31
0.0
  0
LINE
  5
869
330
1E
100
AcDbEntity
  8
0
100
AcDbLine
 10
98.87810000000001
 20
88.36346085822469
 30
0.0
 11
99.39579999999999
 21
87.5470612154945
 31
0.0
  0
LINE
  5
86A
330
1E
100
AcDbEntity
  8
0
100
AcDbLine
 10
98.87810000000001
 20
88.36346085822469
 30
0.0
 11
98.87810000000001
 21
90.1761037434783
 31
0.0
  0
LINE
  5
86B
330
1E
100
AcDbEntity
  8
0
100
AcDbLine
 10
69.366
 20
89.2123998521067
 30
0.0
 11
69.366
 21
91.0250427373603
 31
0.0
  0
LINE
  5
86C
330
1E
100
AcDbEntity
  8
0
100
AcDbLine
 10
93.064
 20
94.26753595968559
 30
0.0
 11
93.064
 21
96.0801788449392
 31
0.0
  0
LINE
  5
86D
330
1E
100
AcDbEntity
  8
0
100
AcDbLine
 10
93.064
 20
94.26753595968559
 30
0.0
 11
94.99579999999999
 21
94.4863102725597
 31
0.0
  0
LINE
  5
86E
330
1E
100
AcDbEntity
  8
0
100
AcDbLine
 10
93.064
 20
94.26753595968559
 30
0.0
 11
93.58159999999999
 21
93.451178575853
 31
0.0
  0
LINE
  5
86F
330
1E
100
AcDbEntity
  8
0
100
AcDbLine
 10
93.58159999999999
 20
93.451178575853
 30
0.0
 11
95.51349999999999
 21
93.6699106298295
 31
0.0
  0
LINE
  5
870
330
1E
100
AcDbEntity
  8
0
100
AcDbLine
 10
93.064
 20
96.0801788449392
 30
0.0
 11
94.99579999999999
 21
96.29895315781331
 31
0.0
  0
LINE
  5
871
330
1E
100
AcDbEntity
  8
0
100
AcDbLine
 10
93.064
 20
96.0801788449392
 30
0.0
 11
93.064
 21
94.26753595968559
 31
0.0
  0
LINE
  5
872
330
1E
100
AcDbEntity
  8
0
100
AcDbLine
 10
91.3
 20
102.586517486601
 30
0.0
 11
122.5
 21
104.4459089809909
 31
0.0
  0
LINE
  5
873
330
1E
100
AcDbEntity
  8
0
100
AcDbLine
 10
91.0
 20
102.2295617127709
 30
0.0
 11
122.5
 21
103.9621765143619
 31
0.0
  0
LINE
  5
874
330
1E
100
AcDbEntity
  8
0
100
AcDbLine
 10
91.5
 20
137.991355071735
 30
0.0
 11
92.59999999999999
 21
129.9748550717349
 31
0.0
  0
LINE
  5
875
330
1E
100
AcDbEntity
  8
0
100
AcDbLine
 10
91.5
 20
137.991355071735
 30
0.0
 11
92.59999999999999
 21
146.0080550717349
 31
0.0
  0
LINE
  5
876
330
1E
100
AcDbEntity
  8
0
100
AcDbLine
 10
92.0
 20
117.6747954234889
 30
0.0
 11
122.5
 21
119.4919280202799
 31
0.0
  0
LINE
  5
877
330
1E
100
AcDbEntity
  8
0
100
AcDbLine
 10
92.59999999999999
 20
146.0080550717349
 30
0.0
 11
95.7
 21
153.4233550717349
 31
0.0
  0
LINE
  5
878
330
1E
100
AcDbEntity
  8
0
100
AcDbLine
 10
92.59999999999999
 20
129.9748550717349
 30
0.0
 11
95.7
 21
122.559455071735
 31
0.0
  0
LINE
  5
879
330
1E
100
AcDbEntity
  8
0
100
AcDbLine
 10
92.5
 20
118.6845192543469
 30
0.0
 11
122.5
 21
120.459392953538
 31
0.0
  0
LINE
  5
87B
330
1E
100
AcDbEntity
  8
0
100
AcDbLine
 10
92.0
 20
114.955831095609
 30
0.0
 11
122.5
 21
116.772963692399
 31
0.0
  0
LINE
  5
87C
330
1E
100
AcDbEntity
  8
0
100
AcDbLine
 10
91.5
 20
108.50817860899
 30
0.0
 11
122.5
 21
110.367570103381
 31
0.0
  0
LINE
  5
87D
330
1E
100
AcDbEntity
  8
0
100
AcDbLine
 10
91.3
 20
100.773874601347
 30
0.0
 11
122.5
 21
102.6332660957379
 31
0.0
  0
LINE
  5
87E
330
1E
100
AcDbEntity
  8
0
100
AcDbLine
 10
94.99579999999999
 20
96.29895315781331
 30
0.0
 11
95.51349999999999
 21
95.48255351508309
 31
0.0
  0
LINE
  5
87F
330
1E
100
AcDbEntity
  8
0
100
AcDbLine
 10
94.99579999999999
 20
96.29895315781331
 30
0.0
 11
94.99579999999999
 21
94.4863102725597
 31
0.0
  0
LINE
  5
880
330
1E
100
AcDbEntity
  8
0
100
AcDbLine
 10
121.5
 20
91.43465823179502
 30
0.0
 11
123.5
 21
91.43465823179502
 31
0.0
  0
LINE
  5
881
330
1E
100
AcDbEntity
  8
0
100
AcDbLine
 10
121.5
 20
91.43465823179502
 30
0.0
 11
121.5
 21
89.62201534654139
 31
0.0
  0
LINE
  5
882
330
1E
100
AcDbEntity
  8
0
100
AcDbLine
 10
121.5
 20
91.43465823179502
 30
0.0
 11
121.5
 21
90.58948027979928
 31
0.0
  0
LINE
  5
883
330
1E
100
AcDbEntity
  8
0
100
AcDbLine
 10
178.3659999999999
 20
91.33442012668828
 30
0.0
 11
178.3659999999999
 21
89.52177724143471
 31
0.0
  0
LINE
  5
884
330
1E
100
AcDbEntity
  8
0
100
AcDbLine
 10
149.4869999999999
 20
93.6699106298295
 30
0.0
 11
149.4869999999999
 21
95.48255351508309
 31
0.0
  0
LINE
  5
885
330
1E
100
AcDbEntity
  8
0
100
AcDbLine
 10
149.4869999999999
 20
93.6699106298295
 30
0.0
 11
150.004
 21
94.4863102725597
 31
0.0
  0
LINE
  5
886
330
1E
100
AcDbEntity
  8
0
100
AcDbLine
 10
149.4869999999999
 20
93.6699106298295
 30
0.0
 11
151.418
 21
93.451178575853
 31
0.0
  0
LINE
  5
887
330
1E
100
AcDbEntity
  8
0
100
AcDbLine
 10
150.004
 20
94.4863102725597
 30
0.0
 11
150.004
 21
96.29895315781331
 31
0.0
  0
LINE
  5
888
330
1E
100
AcDbEntity
  8
0
100
AcDbLine
 10
150.004
 20
94.4863102725597
 30
0.0
 11
151.9359999999999
 21
94.26753595968559
 31
0.0
  0
LINE
  5
88A
330
1E
100
AcDbEntity
  8
0
100
AcDbLine
 10
225.0999999999999
 20
91.62891962052841
 30
0.0
 11
236.6999999999999
 21
79.5851338045902
 31
0.0
  0
LINE
  5
88B
330
1E
100
AcDbEntity
  8
0
100
AcDbLine
 10
176.634
 20
91.7570091026862
 30
0.0
 11
178.3659999999999
 21
91.33442012668828
 31
0.0
  0
LINE
  5
88C
330
1E
100
AcDbEntity
  8
0
100
AcDbLine
 10
176.634
 20
91.7570091026862
 30
0.0
 11
176.634
 21
89.94436621743259
 31
0.0
  0
LINE
  5
88D
330
1E
100
AcDbEntity
  8
0
100
AcDbLine
 10
225.0999999999999
 20
94.34788394840879
 30
0.0
 11
236.6999999999999
 21
82.3040981324706
 31
0.0
  0
LINE
  5
88E
330
1E
100
AcDbEntity
  8
0
100
AcDbLine
 10
151.9359999999999
 20
94.26753595968559
 30
0.0
 11
151.9359999999999
 21
96.0801788449392
 31
0.0
  0
LINE
  5
88F
330
1E
100
AcDbEntity
  8
0
100
AcDbLine
 10
151.418
 20
93.451178575853
 30
0.0
 11
151.9359999999999
 21
94.26753595968559
 31
0.0
  0
LINE
  5
890
330
1E
100
AcDbEntity
  8
0
100
AcDbLine
 10
123.5
 20
91.43465823179502
 30
0.0
 11
123.5
 21
89.62201534654139
 31
0.0
  0
LINE
  5
891
330
1E
100
AcDbEntity
  8
0
100
AcDbLine
 10
121.5
 20
95.11567203451329
 30
0.0
 11
121.5
 21
96.92831491976679
 31
0.0
  0
LINE
  5
892
330
1E
100
AcDbEntity
  8
0
100
AcDbLine
 10
121.5
 20
95.11567203451329
 30
0.0
 11
121.5
 21
95.96084998650891
 31
0.0
  0
LINE
  5
893
330
1E
100
AcDbEntity
  8
0
100
AcDbLine
 10
121.5
 20
95.11567203451329
 30
0.0
 11
123.5
 21
95.11567203451329
 31
0.0
  0
LINE
  5
894
330
1E
100
AcDbEntity
  8
0
100
AcDbLine
 10
207.6
 20
95.4079203530575
 30
0.0
 11
227.0
 21
84.7164192603124
 31
0.0
  0
LINE
  5
895
330
1E
100
AcDbEntity
  8
0
100
AcDbLine
 10
149.4869999999999
 20
95.48255351508309
 30
0.0
 11
150.004
 21
96.29895315781331
 31
0.0
  0
LINE
  5
896
330
1E
100
AcDbEntity
  8
0
100
AcDbLine
 10
149.4869999999999
 20
95.48255351508309
 30
0.0
 11
149.4869999999999
 21
93.6699106298295
 31
0.0
  0
LINE
  5
897
330
1E
100
AcDbEntity
  8
0
100
AcDbLine
 10
123.5
 20
95.11567203451329
 30
0.0
 11
123.5
 21
95.96084998650891
 31
0.0
  0
LINE
  5
898
330
1E
100
AcDbEntity
  8
0
100
AcDbLine
 10
95.51349999999999
 20
93.6699106298295
 30
0.0
 11
95.51349999999999
 21
95.48255351508309
 31
0.0
  0
LINE
  5
899
330
1E
100
AcDbEntity
  8
0
100
AcDbLine
 10
121.5
 20
96.92831491976679
 30
0.0
 11
121.5
 21
97.77349287176249
 31
0.0
  0
LINE
  5
89A
330
1E
100
AcDbEntity
  8
0
100
AcDbLine
 10
121.5
 20
96.92831491976679
 30
0.0
 11
121.5
 21
95.11567203451329
 31
0.0
  0
LINE
  5
89B
330
1E
100
AcDbEntity
  8
0
100
AcDbLine
 10
123.5
 20
97.77349287176249
 30
0.0
 11
123.5
 21
95.96084998650891
 31
0.0
  0
LINE
  5
89C
330
1E
100
AcDbEntity
  8
0
100
AcDbLine
 10
121.5
 20
95.96084998650891
 30
0.0
 11
121.5
 21
97.77349287176249
 31
0.0
  0
LINE
  5
89D
330
1E
100
AcDbEntity
  8
0
100
AcDbLine
 10
121.5
 20
95.96084998650891
 30
0.0
 11
123.5
 21
95.96084998650891
 31
0.0
  0
LINE
  5
89E
330
1E
100
AcDbEntity
  8
0
100
AcDbLine
 10
121.5
 20
95.96084998650891
 30
0.0
 11
121.5
 21
95.11567203451329
 31
0.0
  0
LINE
  5
89F
330
1E
100
AcDbEntity
  8
0
100
AcDbLine
 10
111.4999999999999
 20
119.8086059305009
 30
0.0
 11
111.4999999999999
 21
123.8777550717349
 31
0.0
  0
LINE
  5
8A0
330
1E
100
AcDbEntity
  8
0
100
AcDbLine
 10
95.7
 20
153.4233550717349
 30
0.0
 11
100.6
 21
159.936955071735
 31
0.0
  0
LINE
  5
8A1
330
1E
100
AcDbEntity
  8
0
100
AcDbLine
 10
100.6
 20
159.936955071735
 30
0.0
 11
107.0999999999999
 21
164.8471550717349
 31
0.0
  0
LINE
  5
8A2
330
1E
100
AcDbEntity
  8
0
100
AcDbLine
 10
111.4999999999999
 20
137.579955071735
 30
0.0
 11
111.4999999999999
 21
136.3524550717349
 31
0.0
  0
LINE
  5
8A3
330
1E
100
AcDbEntity
  8
0
100
AcDbLine
 10
111.4999999999999
 20
137.579955071735
 30
0.0
 11
111.4999999999999
 21
137.991355071735
 31
0.0
  0
LINE
  5
8A4
330
1E
100
AcDbEntity
  8
0
100
AcDbLine
 10
111.4999999999999
 20
136.3524550717349
 30
0.0
 11
111.4999999999999
 21
134.3300550717349
 31
0.0
  0
LINE
  5
8A5
330
1E
100
AcDbEntity
  8
0
100
AcDbLine
 10
111.4999999999999
 20
136.3524550717349
 30
0.0
 11
111.4999999999999
 21
137.579955071735
 31
0.0
  0
LINE
  5
8A6
330
1E
100
AcDbEntity
  8
0
100
AcDbLine
 10
111.4999999999999
 20
134.3300550717349
 30
0.0
 11
111.4999999999999
 21
131.547355071735
 31
0.0
  0
LINE
  5
8A7
330
1E
100
AcDbEntity
  8
0
100
AcDbLine
 10
111.4999999999999
 20
134.3300550717349
 30
0.0
 11
111.4999999999999
 21
136.3524550717349
 31
0.0
  0
LINE
  5
8A8
330
1E
100
AcDbEntity
  8
0
100
AcDbLine
 10
111.4999999999999
 20
131.547355071735
 30
0.0
 11
111.4999999999999
 21
134.3300550717349
 31
0.0
  0
LINE
  5
8A9
330
1E
100
AcDbEntity
  8
0
100
AcDbLine
 10
111.4999999999999
 20
131.547355071735
 30
0.0
 11
111.4999999999999
 21
128.0517550717349
 31
0.0
  0
LINE
  5
8AA
330
1E
100
AcDbEntity
  8
0
100
AcDbLine
 10
111.4999999999999
 20
128.0517550717349
 30
0.0
 11
111.4999999999999
 21
123.8777550717349
 31
0.0
  0
LINE
  5
8AB
330
1E
100
AcDbEntity
  8
0
100
AcDbLine
 10
111.4999999999999
 20
128.0517550717349
 30
0.0
 11
111.4999999999999
 21
131.547355071735
 31
0.0
  0
LINE
  5
8AC
330
1E
100
AcDbEntity
  8
0
100
AcDbLine
 10
111.4999999999999
 20
123.8777550717349
 30
0.0
 11
111.4999999999999
 21
128.0517550717349
 31
0.0
  0
LINE
  5
8AD
330
1E
100
AcDbEntity
  8
0
100
AcDbLine
 10
111.4999999999999
 20
123.8777550717349
 30
0.0
 11
111.4999999999999
 21
119.8086059305009
 31
0.0
  0
LINE
  5
8AE
330
1E
100
AcDbEntity
  8
0
100
AcDbLine
 10
122.5
 20
149.0143550717349
 30
0.0
 11
125.316
 21
148.617455071735
 31
0.0
  0
LINE
  5
8AF
330
1E
100
AcDbEntity
  8
0
100
AcDbLine
 10
119.6839999999999
 20
148.617455071735
 30
0.0
 11
122.5
 21
149.0143550717349
 31
0.0
  0
LINE
  5
8B0
330
1E
100
AcDbEntity
  8
0
100
AcDbLine
 10
117.0439999999999
 20
147.559255071735
 30
0.0
 11
119.6839999999999
 21
148.617455071735
 31
0.0
  0
LINE
  5
8B1
330
1E
100
AcDbEntity
  8
0
100
AcDbLine
 10
114.712
 20
145.795655071735
 30
0.0
 11
117.0439999999999
 21
147.559255071735
 31
0.0
  0
LINE
  5
8B2
330
1E
100
AcDbEntity
  8
0
100
AcDbLine
 10
112.952
 20
143.458755071735
 30
0.0
 11
114.712
 21
145.795655071735
 31
0.0
  0
LINE
  5
8B3
330
1E
100
AcDbEntity
  8
0
100
AcDbLine
 10
111.8959999999999
 20
140.813355071735
 30
0.0
 11
112.952
 21
143.458755071735
 31
0.0
  0
LINE
  5
8B4
330
1E
100
AcDbEntity
  8
0
100
AcDbLine
 10
111.4999999999999
 20
137.991355071735
 30
0.0
 11
111.8959999999999
 21
140.813355071735
 31
0.0
  0
LINE
  5
8B5
330
1E
100
AcDbEntity
  8
0
100
AcDbLine
 10
111.4999999999999
 20
137.991355071735
 30
0.0
 11
111.8959999999999
 21
140.813355071735
 31
0.0
  0
LINE
  5
8B6
330
1E
100
AcDbEntity
  8
0
100
AcDbLine
 10
111.4999999999999
 20
137.991355071735
 30
0.0
 11
111.4999999999999
 21
137.579955071735
 31
0.0
  0
LINE
  5
8B7
330
1E
100
AcDbEntity
  8
0
100
AcDbLine
 10
107.0999999999999
 20
164.8471550717349
 30
0.0
 11
114.5
 21
167.9535550717349
 31
0.0
  0
LINE
  5
8B8
330
1E
100
AcDbEntity
  8
0
100
AcDbLine
 10
122.5
 20
169.055855071735
 30
0.0
 11
130.4999999999999
 21
167.9535550717349
 31
0.0
  0
LINE
  5
8B9
330
1E
100
AcDbEntity
  8
0
100
AcDbLine
 10
114.5
 20
167.9535550717349
 30
0.0
 11
122.5
 21
169.055855071735
 31
0.0
  0
LINE
  5
8BA
330
1E
100
AcDbEntity
  8
0
100
AcDbLine
 10
95.7
 20
122.559455071735
 30
0.0
 11
98.35444678522042
 21
119.0308827084269
 31
0.0
  0
LINE
  5
8BB
330
1E
100
AcDbEntity
  8
0
100
AcDbLine
 10
122.5
 20
120.459392953538
 30
0.0
 11
152.5
 21
118.6845192543469
 31
0.0
  0
LINE
  5
8BC
330
1E
100
AcDbEntity
  8
0
100
AcDbLine
 10
122.5
 20
119.4919280202799
 30
0.0
 11
153.0
 21
117.6747954234889
 31
0.0
  0
LINE
  5
8BE
330
1E
100
AcDbEntity
  8
0
100
AcDbLine
 10
122.5
 20
116.772963692399
 30
0.0
 11
153.0
 21
114.955831095609
 31
0.0
  0
LINE
  5
8BF
330
1E
100
AcDbEntity
  8
0
100
AcDbLine
 10
122.5
 20
110.367570103381
 30
0.0
 11
153.5
 21
108.50817860899
 31
0.0
  0
LINE
  5
8C0
330
1E
100
AcDbEntity
  8
0
100
AcDbLine
 10
122.5
 20
104.4459089809909
 30
0.0
 11
153.6999999999999
 21
102.586517486601
 31
0.0
  0
LINE
  5
8C1
330
1E
100
AcDbEntity
  8
0
100
AcDbLine
 10
122.5
 20
103.9621765143619
 30
0.0
 11
154.0
 21
102.2295617127709
 31
0.0
  0
LINE
  5
8C2
330
1E
100
AcDbEntity
  8
0
100
AcDbLine
 10
122.5
 20
102.6332660957379
 30
0.0
 11
153.6999999999999
 21
100.773874601347
 31
0.0
  0
LINE
  5
8C3
330
1E
100
AcDbEntity
  8
0
100
AcDbLine
 10
121.5
 20
97.77349287176249
 30
0.0
 11
123.5
 21
97.77349287176249
 31
0.0
  0
LINE
  5
8C4
330
1E
100
AcDbEntity
  8
0
100
AcDbLine
 10
121.5
 20
97.77349287176249
 30
0.0
 11
121.5
 21
95.96084998650891
 31
0.0
  0
LINE
  5
8C5
330
1E
100
AcDbEntity
  8
0
100
AcDbLine
 10
121.5
 20
97.77349287176249
 30
0.0
 11
121.5
 21
96.92831491976679
 31
0.0
  0
LINE
  5
8C6
330
1E
100
AcDbEntity
  8
0
100
AcDbLine
 10
223.3999999999999
 20
95.73793785766451
 30
0.0
 11
225.0999999999999
 21
94.34788394840879
 31
0.0
  0
LINE
  5
8C7
330
1E
100
AcDbEntity
  8
0
100
AcDbLine
 10
182.9
 20
95.7450657869729
 30
0.0
 11
208.3
 21
87.5468396526149
 31
0.0
  0
LINE
  5
8C8
330
1E
100
AcDbEntity
  8
0
100
AcDbLine
 10
151.9359999999999
 20
96.0801788449392
 30
0.0
 11
151.9359999999999
 21
94.26753595968559
 31
0.0
  0
LINE
  5
8C9
330
1E
100
AcDbEntity
  8
0
100
AcDbLine
 10
133.4999999999999
 20
119.8086059305009
 30
0.0
 11
133.4999999999999
 21
123.8777550717349
 31
0.0
  0
LINE
  5
8CA
330
1E
100
AcDbEntity
  8
0
100
AcDbLine
 10
133.4999999999999
 20
137.991355071735
 30
0.0
 11
133.4999999999999
 21
137.579955071735
 31
0.0
  0
LINE
  5
8CB
330
1E
100
AcDbEntity
  8
0
100
AcDbLine
 10
133.4999999999999
 20
136.3524550717349
 30
0.0
 11
133.4999999999999
 21
134.3300550717349
 31
0.0
  0
LINE
  5
8CC
330
1E
100
AcDbEntity
  8
0
100
AcDbLine
 10
133.4999999999999
 20
136.3524550717349
 30
0.0
 11
133.4999999999999
 21
137.579955071735
 31
0.0
  0
LINE
  5
8CD
330
1E
100
AcDbEntity
  8
0
100
AcDbLine
 10
133.4999999999999
 20
134.3300550717349
 30
0.0
 11
133.4999999999999
 21
131.547355071735
 31
0.0
  0
LINE
  5
8CE
330
1E
100
AcDbEntity
  8
0
100
AcDbLine
 10
133.4999999999999
 20
134.3300550717349
 30
0.0
 11
133.4999999999999
 21
136.3524550717349
 31
0.0
  0
LINE
  5
8CF
330
1E
100
AcDbEntity
  8
0
100
AcDbLine
 10
133.4999999999999
 20
137.579955071735
 30
0.0
 11
133.4999999999999
 21
137.991355071735
 31
0.0
  0
LINE
  5
8D0
330
1E
100
AcDbEntity
  8
0
100
AcDbLine
 10
133.4999999999999
 20
137.579955071735
 30
0.0
 11
133.4999999999999
 21
136.3524550717349
 31
0.0
  0
LINE
  5
8D1
330
1E
100
AcDbEntity
  8
0
100
AcDbLine
 10
133.1039999999999
 20
140.813355071735
 30
0.0
 11
133.4999999999999
 21
137.991355071735
 31
0.0
  0
LINE
  5
8D2
330
1E
100
AcDbEntity
  8
0
100
AcDbLine
 10
132.048
 20
143.458755071735
 30
0.0
 11
133.1039999999999
 21
140.813355071736
 31
0.0
  0
LINE
  5
8D3
330
1E
100
AcDbEntity
  8
0
100
AcDbLine
 10
130.2879999999999
 20
145.795655071735
 30
0.0
 11
132.048
 21
143.458755071735
 31
0.0
  0
LINE
  5
8D4
330
1E
100
AcDbEntity
  8
0
100
AcDbLine
 10
130.4999999999999
 20
167.9535550717349
 30
0.0
 11
137.9
 21
164.8471550717349
 31
0.0
  0
LINE
  5
8D5
330
1E
100
AcDbEntity
  8
0
100
AcDbLine
 10
127.956
 20
147.559255071735
 30
0.0
 11
130.2879999999999
 21
145.795655071735
 31
0.0
  0
LINE
  5
8D6
330
1E
100
AcDbEntity
  8
0
100
AcDbLine
 10
125.316
 20
148.617455071735
 30
0.0
 11
127.956
 21
147.559255071735
 31
0.0
  0
LINE
  5
8D7
330
1E
100
AcDbEntity
  8
0
100
AcDbLine
 10
132.048
 20
143.458755071735
 30
0.0
 11
133.1039999999999
 21
140.813355071735
 31
0.0
  0
LINE
  5
8D8
330
1E
100
AcDbEntity
  8
0
100
AcDbLine
 10
133.4999999999999
 20
131.547355071735
 30
0.0
 11
133.4999999999999
 21
128.0517550717349
 31
0.0
  0
LINE
  5
8D9
330
1E
100
AcDbEntity
  8
0
100
AcDbLine
 10
133.4999999999999
 20
131.547355071735
 30
0.0
 11
133.4999999999999
 21
134.3300550717349
 31
0.0
  0
LINE
  5
8DA
330
1E
100
AcDbEntity
  8
0
100
AcDbLine
 10
133.4999999999999
 20
128.0517550717349
 30
0.0
 11
133.4999999999999
 21
123.8777550717349
 31
0.0
  0
LINE
  5
8DB
330
1E
100
AcDbEntity
  8
0
100
AcDbLine
 10
133.4999999999999
 20
128.0517550717349
 30
0.0
 11
133.4999999999999
 21
131.547355071735
 31
0.0
  0
LINE
  5
8DC
330
1E
100
AcDbEntity
  8
0
100
AcDbLine
 10
149.3
 20
153.4233550717349
 30
0.0
 11
152.4
 21
146.0080550717349
 31
0.0
  0
LINE
  5
8DD
330
1E
100
AcDbEntity
  8
0
100
AcDbLine
 10
144.4
 20
159.936955071735
 30
0.0
 11
149.3
 21
153.4233550717349
 31
0.0
  0
LINE
  5
8DE
330
1E
100
AcDbEntity
  8
0
100
AcDbLine
 10
137.9
 20
164.8471550717349
 30
0.0
 11
144.4
 21
159.936955071735
 31
0.0
  0
LINE
  5
8DF
330
1E
100
AcDbEntity
  8
0
100
AcDbLine
 10
152.4
 20
146.0080550717349
 30
0.0
 11
153.5
 21
137.991355071735
 31
0.0
  0
LINE
  5
8E0
330
1E
100
AcDbEntity
  8
0
100
AcDbLine
 10
152.4
 20
129.9748550717349
 30
0.0
 11
153.5
 21
137.991355071735
 31
0.0
  0
LINE
  5
8E1
330
1E
100
AcDbEntity
  8
0
100
AcDbLine
 10
149.3
 20
122.559455071735
 30
0.0
 11
152.4
 21
129.9748550717349
 31
0.0
  0
LINE
  5
8E2
330
1E
100
AcDbEntity
  8
0
100
AcDbLine
 10
146.6455532147799
 20
119.0308827084269
 30
0.0
 11
149.3
 21
122.559455071735
 31
0.0
  0
LINE
  5
8E3
330
1E
100
AcDbEntity
  8
0
100
AcDbLine
 10
133.4999999999999
 20
123.8777550717349
 30
0.0
 11
133.4999999999999
 21
128.0517550717349
 31
0.0
  0
LINE
  5
8E4
330
1E
100
AcDbEntity
  8
0
100
AcDbLine
 10
133.4999999999999
 20
123.8777550717349
 30
0.0
 11
133.4999999999999
 21
119.8086059305009
 31
0.0
  0
LINE
  5
8E5
330
1E
100
AcDbEntity
  8
0
100
AcDbLine
 10
152.5
 20
118.6845192543469
 30
0.0
 11
180.4999999999999
 21
113.8670049279719
 31
0.0
  0
LINE
  5
8E6
330
1E
100
AcDbEntity
  8
0
100
AcDbLine
 10
153.0
 20
117.6747954234889
 30
0.0
 11
181.4999999999999
 21
112.772763301914
 31
0.0
  0
LINE
  5
8E8
330
1E
100
AcDbEntity
  8
0
100
AcDbLine
 10
153.0
 20
114.955831095609
 30
0.0
 11
181.4999999999999
 21
110.053798974034
 31
0.0
  0
LINE
  5
8E9
330
1E
100
AcDbEntity
  8
0
100
AcDbLine
 10
153.5
 20
108.50817860899
 30
0.0
 11
182.3
 21
103.6061464874159
 31
0.0
  0
LINE
  5
8EA
330
1E
100
AcDbEntity
  8
0
100
AcDbLine
 10
153.6999999999999
 20
102.586517486601
 30
0.0
 11
182.9
 21
97.55770867222651
 31
0.0
  0
LINE
  5
8EB
330
1E
100
AcDbEntity
  8
0
100
AcDbLine
 10
182.9
 20
97.55770867222651
 30
0.0
 11
208.3
 21
89.3594825378685
 31
0.0
  0
LINE
  5
8EC
330
1E
100
AcDbEntity
  8
0
100
AcDbLine
 10
206.0999999999999
 20
102.0246084300749
 30
0.0
 11
225.0999999999999
 21
91.62891962052841
 31
0.0
  0
LINE
  5
8ED
330
1E
100
AcDbEntity
  8
0
100
AcDbLine
 10
183.3999999999999
 20
97.03171730799772
 30
0.0
 11
209.0
 21
88.74897337844021
 31
0.0
  0
LINE
  5
8EE
330
1E
100
AcDbEntity
  8
0
100
AcDbLine
 10
180.4999999999999
 20
113.8670049279719
 30
0.0
 11
204.8
 21
106.006849974412
 31
0.0
  0
LINE
  5
8EF
330
1E
100
AcDbEntity
  8
0
100
AcDbLine
 10
181.4999999999999
 20
112.772763301914
 30
0.0
 11
206.0999999999999
 21
104.743572757955
 31
0.0
  0
LINE
  5
8F1
330
1E
100
AcDbEntity
  8
0
100
AcDbLine
 10
181.4999999999999
 20
110.053798974034
 30
0.0
 11
206.0999999999999
 21
102.0246084300749
 31
0.0
  0
LINE
  5
8F2
330
1E
100
AcDbEntity
  8
0
100
AcDbLine
 10
204.8
 20
106.006849974412
 30
0.0
 11
223.3999999999999
 21
95.73793785766451
 31
0.0
  0
LINE
  5
8F3
330
1E
100
AcDbEntity
  8
0
100
AcDbLine
 10
206.0999999999999
 20
104.743572757955
 30
0.0
 11
225.0999999999999
 21
94.34788394840879
 31
0.0
  0
LINE
  5
8F5
330
1E
100
AcDbEntity
  8
0
100
AcDbLine
 10
182.3
 20
103.6061464874159
 30
0.0
 11
207.6
 21
95.4079203530575
 31
0.0
  0
LINE
  5
8F6
330
1E
100
AcDbEntity
  8
0
100
AcDbLine
 10
154.0
 20
102.2295617127709
 30
0.0
 11
183.3999999999999
 21
97.03171730799772
 31
0.0
  0
LINE
  5
8F7
330
1E
100
AcDbEntity
  8
0
100
AcDbLine
 10
153.6999999999999
 20
100.773874601347
 30
0.0
 11
182.9
 21
95.7450657869729
 31
0.0
  0
LINE
  5
8F8
330
1E
100
AcDbEntity
  8
0
100
AcDbLine
 10
150.004
 20
96.29895315781331
 30
0.0
 11
151.9359999999999
 21
96.0801788449392
 31
0.0
  0
LINE
  5
8F9
330
1E
100
AcDbEntity
  8
0
100
AcDbLine
 10
150.004
 20
96.29895315781331
 30
0.0
 11
150.004
 21
94.4863102725597
 31
0.0
  0
LINE
  5
8FA
330
1E
100
AcDbEntity
  8
0
100
AcDbLine
 10
123.5
 20
95.96084998650891
 30
0.0
 11
123.5
 21
97.77349287176249
 31
0.0
  0
LINE
  5
8FB
330
1E
100
AcDbEntity
  8
0
100
AcDbLine
 10
123.5
 20
95.96084998650891
 30
0.0
 11
123.5
 21
95.11567203451329
 31
0.0
  0
LINE
  5
8FC
330
1E
100
AcDbEntity
  8
0
100
AcDbLine
 10
95.51349999999999
 20
95.48255351508309
 30
0.0
 11
95.51349999999999
 21
93.6699106298295
 31
0.0
  0
LINE
  5
8FD
330
1E
100
AcDbEntity
  8
0
100
AcDbLine
 10
94.99579999999999
 20
94.4863102725597
 30
0.0
 11
95.51349999999999
 21
93.6699106298295
 31
0.0
  0
LINE
  5
8FE
330
1E
100
AcDbEntity
  8
0
100
AcDbLine
 10
94.99579999999999
 20
94.4863102725597
 30
0.0
 11
94.99579999999999
 21
96.29895315781331
 31
0.0
  0
LINE
  5
8FF
330
1E
100
AcDbEntity
  8
0
100
AcDbLine
 10
69.366
 20
91.0250427373603
 30
0.0
 11
69.366
 21
89.2123998521067
 31
0.0
  0
LINE
  5
900
330
1E
100
AcDbEntity
  8
0
100
AcDbLine
 10
68.366
 20
89.94436621743259
 30
0.0
 11
69.366
 21
89.2123998521067
 31
0.0
  0
LINE
  5
901
330
1E
100
AcDbEntity
  8
0
100
AcDbLine
 10
68.366
 20
89.94436621743259
 30
0.0
 11
68.366
 21
91.7570091026862
 31
0.0
  0
LINE
  5
902
330
1E
100
AcDbEntity
  8
0
100
AcDbLine
 10
55.45
 20
68.1356376291305
 30
0.0
 11
55.45
 21
66.32299474387689
 31
0.0
  0
LINE
  5
903
330
1E
100
AcDbEntity
  8
0
100
AcDbLine
 10
53.718
 20
68.5582266051283
 30
0.0
 11
55.45
 21
68.1356376291305
 31
0.0
  0
LINE
  5
904
330
1E
100
AcDbEntity
  8
0
100
AcDbLine
 10
53.718
 20
68.5582266051283
 30
0.0
 11
53.718
 21
66.7455837198748
 31
0.0
  0
LINE
  5
905
330
1E
100
AcDbEntity
  8
0
100
AcDbLine
 10
47.4166
 20
60.2281527102591
 30
0.0
 11
47.4166
 21
58.4155098250055
 31
0.0
  0
LINE
  5
906
330
1E
100
AcDbEntity
  8
0
100
AcDbLine
 10
45.4848
 20
60.44663121084989
 30
0.0
 11
47.4166
 21
60.2281527102591
 31
0.0
  0
LINE
  5
907
330
1E
100
AcDbEntity
  8
0
100
AcDbLine
 10
45.4848
 20
60.44663121084989
 30
0.0
 11
45.4848
 21
58.6339883255964
 31
0.0
  0
LINE
  5
908
330
1E
100
AcDbEntity
  8
0
100
AcDbLine
 10
44.5
 20
51.7112944879987
 30
0.0
 11
44.5
 21
49.89865160274519
 31
0.0
  0
LINE
  5
909
330
1E
100
AcDbEntity
  8
0
100
AcDbLine
 10
42.5
 20
51.7112944879987
 30
0.0
 11
44.5
 21
51.7112944879987
 31
0.0
  0
LINE
  5
90A
330
1E
100
AcDbEntity
  8
0
100
AcDbLine
 10
42.5
 20
51.7112944879987
 30
0.0
 11
42.5
 21
49.89865160274519
 31
0.0
  0
LINE
  5
90B
330
1E
100
AcDbEntity
  8
0
100
AcDbLine
 10
42.5
 20
51.7112944879987
 30
0.0
 11
42.5
 21
50.86611653600311
 31
0.0
  0
ENDSEC
  0
SECTION
  2
OBJECTS
  0
DICTIONARY
  5
C
330
0
100
AcDbDictionary
281
     1
  3
ACAD_GROUP
350
D
  3
ACAD_LAYOUT
350
19
  3
ACAD_MLINESTYLE
350
16
  3
ACAD_PLOTSETTINGS
350
18
  3
ACAD_PLOTSTYLENAME
350
E
  3
AcDbVariableDictionary
350
910
  0
DICTIONARY
  5
D
102
{ACAD_REACTORS
330
C
102
}
330
C
100
AcDbDictionary
281
     1
  0
DICTIONARY
  5
19
102
{ACAD_REACTORS
330
C
102
}
330
C
100
AcDbDictionary
281
     1
  3
Layout1
350
1D
  3
Model
350
21
  0
DICTIONARY
  5
16
102
{ACAD_REACTORS
330
C
102
}
330
C
100
AcDbDictionary
281
     1
  3
Standard
350
17
  0
DICTIONARY
  5
18
102
{ACAD_REACTORS
330
C
102
}
330
C
100
AcDbDictionary
281
     1
  0
ACDBDICTIONARYWDFLT
  5
E
102
{ACAD_REACTORS
330
C
102
}
330
C
100
AcDbDictionary
281
     1
  3
Normal
350
F
100
AcDbDictionaryWithDefault
340
F
  0
DICTIONARY
  5
910
102
{ACAD_REACTORS
330
C
102
}
330
C
100
AcDbDictionary
281
     1
  3
DIMASSOC
350
911
  0
LAYOUT
  5
1D
102
{ACAD_REACTORS
330
19
102
}
330
19
100
AcDbPlotSettings
  1

  2
hp deskjet 980c series
  4

  6

 40
0.0
 41
0.0
 42
0.0
 43
0.0
 44
0.0
 45
0.0
 46
0.0
 47
0.0
 48
0.0
 49
0.0
140
0.0
141
0.0
142
1.0
143
1.0
 70
   688
 72
     0
 73
     0
 74
     5
  7

 75
    16
147
1.0
148
0.0
149
0.0
100
AcDbLayout
  1
Layout1
 70
     1
 71
     1
 10
0.0
 20
0.0
 11
12.0
 21
9.0
 12
0.0
 22
0.0
 32
0.0
 14
1.000000000000000E+20
 24
1.000000000000000E+20
 34
1.000000000000000E+20
 15
-1.000000000000000E+20
 25
-1.000000000000000E+20
 35
-1.000000000000000E+20
146
0.0
 13
0.0
 23
0.0
 33
0.0
 16
1.0
 26
0.0
 36
0.0
 17
0.0
 27
1.0
 37
0.0
 76
     0
330
1A
  0
LAYOUT
  5
21
102
{ACAD_REACTORS
330
19
102
}
330
19
100
AcDbPlotSettings
  1

  2
hp deskjet 980c series
  4

  6

 40
0.0
 41
0.0
 42
0.0
 43
0.0
 44
0.0
 45
0.0
 46
0.0
 47
0.0
 48
0.0
 49
0.0
140
0.0
141
0.0
142
1.0
143
1.0
 70
  1712
 72
     0
 73
     0
 74
     0
  7

 75
     0
147
1.0
148
0.0
149
0.0
100
AcDbLayout
  1
Model
 70
     1
 71
     0
 10
0.0
 20
0.0
 11
12.0
 21
9.0
 12
0.0
 22
0.0
 32
0.0
 14
0.0
 24
0.0
 34
0.0
 15
0.0
 25
0.0
 35
0.0
146
0.0
 13
0.0
 23
0.0
 33
0.0
 16
1.0
 26
0.0
 36
0.0
 17
0.0
 27
1.0
 37
0.0
 76
     0
330
1E
  0
MLINESTYLE
  5
17
102
{ACAD_REACTORS
330
16
102
}
330
16
100
AcDbMlineStyle
  2
STANDARD
 70
     0
  3

 62
   256
 51
90.0
 52
90.0
 71
     2
 49
0.5
 62
   256
  6
BYLAYER
 49
-0.5
 62
   256
  6
BYLAYER
  0
ACDBPLACEHOLDER
  5
F
102
{ACAD_REACTORS
330
E
102
}
330
E
  0
DICTIONARYVAR
  5
911
102
{ACAD_REACTORS
330
910
102
}
330
910
100
DictionaryVariables
280
     0
  1
1
  0
ENDSEC
  0
EOF
