  0
SECTION
  2
HEADER
  9
$ACADVER
  1
AC1015
  9
$ACADMAINTVER
 70
    13
  9
$DWGCODEPAGE
  3
ANSI_1252
  9
$INSBASE
 10
0.0
 20
0.0
 30
0.0
  9
$EXTMIN
 10
-0.0000000000000078
 20
-0.0000000000000059
 30
0.0
  9
$EXTMAX
 10
100.0
 20
202.0
 30
0.0
  9
$LIMMIN
 10
0.0
 20
0.0
  9
$LIMMAX
 10
12.0
 20
9.0
  9
$ORTHOMODE
 70
     0
  9
$REGENMODE
 70
     1
  9
$FILLMODE
 70
     1
  9
$QTEXTMODE
 70
     0
  9
$MIRRTEXT
 70
     1
  9
$LTSCALE
 40
1.0
  9
$ATTMODE
 70
     1
  9
$TEXTSIZE
 40
0.2
  9
$TRACEWID
 40
0.05
  9
$TEXTSTYLE
  7
Standard
  9
$CLAYER
  8
0
  9
$CELTYPE
  6
Continuous
  9
$CECOLOR
 62
   256
  9
$CELTSCALE
 40
1.0
  9
$DISPSILH
 70
     0
  9
$DIMSCALE
 40
1.0
  9
$DIMASZ
 40
0.18
  9
$DIMEXO
 40
0.0625
  9
$DIMDLI
 40
0.38
  9
$DIMRND
 40
0.0
  9
$DIMDLE
 40
0.0
  9
$DIMEXE
 40
0.18
  9
$DIMTP
 40
0.0
  9
$DIMTM
 40
0.0
  9
$DIMTXT
 40
0.18
  9
$DIMCEN
 40
0.09
  9
$DIMTSZ
 40
0.0
  9
$DIMTOL
 70
     0
  9
$DIMLIM
 70
     0
  9
$DIMTIH
 70
     1
  9
$DIMTOH
 70
     1
  9
$DIMSE1
 70
     0
  9
$DIMSE2
 70
     0
  9
$DIMTAD
 70
     0
  9
$DIMZIN
 70
     0
  9
$DIMBLK
  1

  9
$DIMASO
 70
     1
  9
$DIMSHO
 70
     1
  9
$DIMPOST
  1

  9
$DIMAPOST
  1

  9
$DIMALT
 70
     0
  9
$DIMALTD
 70
     2
  9
$DIMALTF
 40
25.4
  9
$DIMLFAC
 40
1.0
  9
$DIMTOFL
 70
     0
  9
$DIMTVP
 40
0.0
  9
$DIMTIX
 70
     0
  9
$DIMSOXD
 70
     0
  9
$DIMSAH
 70
     0
  9
$DIMBLK1
  1

  9
$DIMBLK2
  1

  9
$DIMSTYLE
  2
Standard
  9
$DIMCLRD
 70
     0
  9
$DIMCLRE
 70
     0
  9
$DIMCLRT
 70
     0
  9
$DIMTFAC
 40
1.0
  9
$DIMGAP
 40
0.09
  9
$DIMJUST
 70
     0
  9
$DIMSD1
 70
     0
  9
$DIMSD2
 70
     0
  9
$DIMTOLJ
 70
     1
  9
$DIMTZIN
 70
     0
  9
$DIMALTZ
 70
     0
  9
$DIMALTTZ
 70
     0
  9
$DIMUPT
 70
     0
  9
$DIMDEC
 70
     4
  9
$DIMTDEC
 70
     4
  9
$DIMALTU
 70
     2
  9
$DIMALTTD
 70
     2
  9
$DIMTXSTY
  7
Standard
  9
$DIMAUNIT
 70
     0
  9
$DIMADEC
 70
     0
  9
$DIMALTRND
 40
0.0
  9
$DIMAZIN
 70
     0
  9
$DIMDSEP
 70
    46
  9
$DIMATFIT
 70
     3
  9
$DIMFRAC
 70
     0
  9
$DIMLDRBLK
  1

  9
$DIMLUNIT
 70
     2
  9
$DIMLWD
 70
    -2
  9
$DIMLWE
 70
    -2
  9
$DIMTMOVE
 70
     0
  9
$LUNITS
 70
     2
  9
$LUPREC
 70
     4
  9
$SKETCHINC
 40
0.1
  9
$FILLETRAD
 40
0.0
  9
$AUNITS
 70
     0
  9
$AUPREC
 70
     0
  9
$MENU
  1
.
  9
$ELEVATION
 40
0.0
  9
$PELEVATION
 40
0.0
  9
$THICKNESS
 40
0.0
  9
$LIMCHECK
 70
     0
  9
$CHAMFERA
 40
0.0
  9
$CHAMFERB
 40
0.0
  9
$CHAMFERC
 40
0.0
  9
$CHAMFERD
 40
0.0
  9
$SKPOLY
 70
     0
  9
$TDCREATE
 40
2454752.791668286
  9
$TDUCREATE
 40
2454752.708334953
  9
$TDUPDATE
 40
2454752.795203993
  9
$TDUUPDATE
 40
2454752.711870659
  9
$TDINDWG
 40
0.0035358796
  9
$TDUSRTIMER
 40
0.0035358796
  9
$USRTIMER
 70
     1
  9
$ANGBASE
 50
0.0
  9
$ANGDIR
 70
     0
  9
$PDMODE
 70
     0
  9
$PDSIZE
 40
0.0
  9
$PLINEWID
 40
0.0
  9
$SPLFRAME
 70
     0
  9
$SPLINETYPE
 70
     6
  9
$SPLINESEGS
 70
     8
  9
$HANDSEED
  5
1EF
  9
$SURFTAB1
 70
     6
  9
$SURFTAB2
 70
     6
  9
$SURFTYPE
 70
     6
  9
$SURFU
 70
     6
  9
$SURFV
 70
     6
  9
$UCSBASE
  2

  9
$UCSNAME
  2

  9
$UCSORG
 10
0.0
 20
0.0
 30
0.0
  9
$UCSXDIR
 10
1.0
 20
0.0
 30
0.0
  9
$UCSYDIR
 10
0.0
 20
1.0
 30
0.0
  9
$UCSORTHOREF
  2

  9
$UCSORTHOVIEW
 70
     1
  9
$UCSORGTOP
 10
0.0
 20
0.0
 30
0.0
  9
$UCSORGBOTTOM
 10
0.0
 20
0.0
 30
0.0
  9
$UCSORGLEFT
 10
0.0
 20
0.0
 30
0.0
  9
$UCSORGRIGHT
 10
0.0
 20
0.0
 30
0.0
  9
$UCSORGFRONT
 10
0.0
 20
0.0
 30
0.0
  9
$UCSORGBACK
 10
0.0
 20
0.0
 30
0.0
  9
$PUCSBASE
  2

  9
$PUCSNAME
  2

  9
$PUCSORG
 10
0.0
 20
0.0
 30
0.0
  9
$PUCSXDIR
 10
1.0
 20
0.0
 30
0.0
  9
$PUCSYDIR
 10
0.0
 20
1.0
 30
0.0
  9
$PUCSORTHOREF
  2

  9
$PUCSORTHOVIEW
 70
     0
  9
$PUCSORGTOP
 10
0.0
 20
0.0
 30
0.0
  9
$PUCSORGBOTTOM
 10
0.0
 20
0.0
 30
0.0
  9
$PUCSORGLEFT
 10
0.0
 20
0.0
 30
0.0
  9
$PUCSORGRIGHT
 10
0.0
 20
0.0
 30
0.0
  9
$PUCSORGFRONT
 10
0.0
 20
0.0
 30
0.0
  9
$PUCSORGBACK
 10
0.0
 20
0.0
 30
0.0
  9
$USERI1
 70
     0
  9
$USERI2
 70
     0
  9
$USERI3
 70
     0
  9
$USERI4
 70
     0
  9
$USERI5
 70
     0
  9
$USERR1
 40
0.0
  9
$USERR2
 40
0.0
  9
$USERR3
 40
0.0
  9
$USERR4
 40
0.0
  9
$USERR5
 40
0.0
  9
$WORLDVIEW
 70
     1
  9
$SHADEDGE
 70
     3
  9
$SHADEDIF
 70
    70
  9
$TILEMODE
 70
     1
  9
$MAXACTVP
 70
    64
  9
$PINSBASE
 10
0.0
 20
0.0
 30
0.0
  9
$PLIMCHECK
 70
     0
  9
$PEXTMIN
 10
1.000000000000000E+20
 20
1.000000000000000E+20
 30
1.000000000000000E+20
  9
$PEXTMAX
 10
-1.000000000000000E+20
 20
-1.000000000000000E+20
 30
-1.000000000000000E+20
  9
$PLIMMIN
 10
0.0
 20
0.0
  9
$PLIMMAX
 10
12.0
 20
9.0
  9
$UNITMODE
 70
     0
  9
$VISRETAIN
 70
     1
  9
$PLINEGEN
 70
     0
  9
$PSLTSCALE
 70
     1
  9
$TREEDEPTH
 70
  3020
  9
$CMLSTYLE
  2
Standard
  9
$CMLJUST
 70
     0
  9
$CMLSCALE
 40
1.0
  9
$PROXYGRAPHICS
 70
     1
  9
$MEASUREMENT
 70
     0
  9
$CELWEIGHT
370
    -1
  9
$ENDCAPS
280
     0
  9
$JOINSTYLE
280
     0
  9
$LWDISPLAY
290
     0
  9
$INSUNITS
 70
     0
  9
$HYPERLINKBASE
  1

  9
$STYLESHEET
  1

  9
$XEDIT
290
     1
  9
$CEPSNTYPE
380
     0
  9
$PSTYLEMODE
290
     1
  9
$FINGERPRINTGUID
  2
{DDEE2857-CBA6-4E53-8502-F1A9F65C48A6}
  9
$VERSIONGUID
  2
{1E0033D3-88E3-4F09-96B5-7BED12CFCF74}
  9
$EXTNAMES
290
     1
  9
$PSVPSCALE
 40
0.0
  9
$OLESTARTUP
290
     0
  0
ENDSEC
  0
SECTION
  2
CLASSES
  0
CLASS
  1
ACDBDICTIONARYWDFLT
  2
AcDbDictionaryWithDefault
  3
AutoCAD 2000
 90
        0
280
     0
281
     0
  0
CLASS
  1
ACDBPLACEHOLDER
  2
AcDbPlaceHolder
  3
AutoCAD 2000
 90
        0
280
     0
281
     0
  0
CLASS
  1
LAYOUT
  2
AcDbLayout
  3
AutoCAD 2000
 90
        0
280
     0
281
     0
  0
CLASS
  1
DICTIONARYVAR
  2
AcDbDictionaryVar
  3
AutoCAD 2000
 90
        0
280
     0
281
     0
  0
ENDSEC
  0
SECTION
  2
TABLES
  0
TABLE
  2
VPORT
  5
8
330
0
100
AcDbSymbolTable
 70
     2
  0
VPORT
  5
1EE
330
8
100
AcDbSymbolTableRecord
100
AcDbViewportTableRecord
  2
*Active
 70
     0
 10
0.0
 20
0.0
 11
1.0
 21
1.0
 12
50.0
 22
101.0
 13
0.0
 23
0.0
 14
1.0
 24
1.0
 15
0.0
 25
0.0
 16
0.0
 26
0.0
 36
1.0
 17
0.0
 27
0.0
 37
0.0
 40
203.5498721227621
 41
2.078104993597951
 42
50.0
 43
0.0
 44
0.0
 50
0.0
 51
0.0
 71
     0
 72
   100
 73
     1
 74
     3
 75
     0
 76
     0
 77
     0
 78
     0
281
     0
 65
     1
110
0.0
120
0.0
130
0.0
111
1.0
121
0.0
131
0.0
112
0.0
122
1.0
132
0.0
 79
     1
146
0.0
  0
ENDTAB
  0
TABLE
  2
LTYPE
  5
5
330
0
100
AcDbSymbolTable
 70
     1
  0
LTYPE
  5
13
330
5
100
AcDbSymbolTableRecord
100
AcDbLinetypeTableRecord
  2
ByBlock
 70
     0
  3

 72
    65
 73
     0
 40
0.0
  0
LTYPE
  5
14
330
5
100
AcDbSymbolTableRecord
100
AcDbLinetypeTableRecord
  2
ByLayer
 70
     0
  3

 72
    65
 73
     0
 40
0.0
  0
LTYPE
  5
15
330
5
100
AcDbSymbolTableRecord
100
AcDbLinetypeTableRecord
  2
Continuous
 70
     0
  3
Solid line
 72
    65
 73
     0
 40
0.0
  0
ENDTAB
  0
TABLE
  2
LAYER
  5
2
330
0
100
AcDbSymbolTable
 70
     1
  0
LAYER
  5
10
330
2
100
AcDbSymbolTableRecord
100
AcDbLayerTableRecord
  2
0
 70
     0
 62
     7
  6
Continuous
370
    -3
390
F
  0
ENDTAB
  0
TABLE
  2
STYLE
  5
3
330
0
100
AcDbSymbolTable
 70
     1
  0
STYLE
  5
11
330
3
100
AcDbSymbolTableRecord
100
AcDbTextStyleTableRecord
  2
Standard
 70
     0
 40
0.0
 41
1.0
 50
0.0
 71
     0
 42
0.2
  3
txt
  4

  0
ENDTAB
  0
TABLE
  2
VIEW
  5
6
330
0
100
AcDbSymbolTable
 70
     0
  0
ENDTAB
  0
TABLE
  2
UCS
  5
7
330
0
100
AcDbSymbolTable
 70
     0
  0
ENDTAB
  0
TABLE
  2
APPID
  5
9
330
0
100
AcDbSymbolTable
 70
     1
  0
APPID
  5
12
330
9
100
AcDbSymbolTableRecord
100
AcDbRegAppTableRecord
  2
ACAD
 70
     0
  0
ENDTAB
  0
TABLE
  2
DIMSTYLE
  5
A
330
0
100
AcDbSymbolTable
 70
     1
100
AcDbDimStyleTable
 71
     0
  0
DIMSTYLE
105
1E7
330
A
100
AcDbSymbolTableRecord
100
AcDbDimStyleTableRecord
  2
Standard
 70
     0
340
11
  0
ENDTAB
  0
TABLE
  2
BLOCK_RECORD
  5
1
330
0
100
AcDbSymbolTable
 70
     0
  0
BLOCK_RECORD
  5
1E
330
1
100
AcDbSymbolTableRecord
100
AcDbBlockTableRecord
  2
*Model_Space
340
21
  0
BLOCK_RECORD
  5
1A
330
1
100
AcDbSymbolTableRecord
100
AcDbBlockTableRecord
  2
*Paper_Space
340
1D
  0
ENDTAB
  0
ENDSEC
  0
SECTION
  2
BLOCKS
  0
BLOCK
  5
1F
330
1E
100
AcDbEntity
  8
0
100
AcDbBlockBegin
  2
*Model_Space
 70
     0
 10
0.0
 20
0.0
 30
0.0
  3
*Model_Space
  1

  0
ENDBLK
  5
20
330
1E
100
AcDbEntity
  8
0
100
AcDbBlockEnd
  0
BLOCK
  5
1B
330
1A
100
AcDbEntity
 67
     1
  8
0
100
AcDbBlockBegin
  2
*Paper_Space
 70
     0
 10
0.0
 20
0.0
 30
0.0
  3
*Paper_Space
  1

  0
ENDBLK
  5
1C
330
1A
100
AcDbEntity
 67
     1
  8
0
100
AcDbBlockEnd
  0
ENDSEC
  0
SECTION
  2
ENTITIES
  0
LINE
  5
22
330
1E
100
AcDbEntity
  8
0
100
AcDbLine
 10
3.99999999999999
 20
110.4
 30
0.0
 11
3.99999999999999
 21
111.4999999999999
 31
0.0
  0
LINE
  5
27
330
1E
100
AcDbEntity
  8
0
100
AcDbLine
 10
3.99999999999999
 20
110.0
 30
0.0
 11
4.49999999999999
 21
109.4999999999999
 31
0.0
  0
LINE
  5
28
330
1E
100
AcDbEntity
  8
0
100
AcDbLine
 10
3.99999999999999
 20
110.0
 30
0.0
 11
3.99999999999999
 21
110.4
 31
0.0
  0
LINE
  5
29
330
1E
100
AcDbEntity
  8
0
100
AcDbLine
 10
4.49999999999999
 20
109.4999999999999
 30
0.0
 11
5.49999999999999
 21
109.4999999999999
 31
0.0
  0
LINE
  5
2B
330
1E
100
AcDbEntity
  8
0
100
AcDbLine
 10
5.49999999999999
 20
109.4999999999999
 30
0.0
 11
5.99999999999999
 21
110.0
 31
0.0
  0
LINE
  5
2D
330
1E
100
AcDbEntity
  8
0
100
AcDbLine
 10
3.99999999999999
 20
111.4999999999999
 30
0.0
 11
3.99999999999999
 21
113.2
 31
0.0
  0
LINE
  5
32
330
1E
100
AcDbEntity
  8
0
100
AcDbLine
 10
1.499999999999989
 20
113.7999999999999
 30
0.0
 11
3.99999999999999
 21
110.0
 31
0.0
  0
LINE
  5
33
330
1E
100
AcDbEntity
  8
0
100
AcDbLine
 10
1.499999999999989
 20
113.7999999999999
 30
0.0
 11
3.99999999999999
 21
110.0
 31
0.0
  0
LINE
  5
34
330
1E
100
AcDbEntity
  8
0
100
AcDbLine
 10
3.99999999999999
 20
113.2
 30
0.0
 11
3.99999999999999
 21
115.5
 31
0.0
  0
LINE
  5
35
330
1E
100
AcDbEntity
  8
0
100
AcDbLine
 10
0.199999999999992
 20
117.7
 30
0.0
 11
1.499999999999989
 21
113.7999999999999
 31
0.0
  0
LINE
  5
36
330
1E
100
AcDbEntity
  8
0
100
AcDbLine
 10
0.199999999999992
 20
117.7
 30
0.0
 11
1.499999999999989
 21
113.7999999999999
 31
0.0
  0
LINE
  5
37
330
1E
100
AcDbEntity
  8
0
100
AcDbLine
 10
-0.0000000000000078
 20
121.0
 30
0.0
 11
0.199999999999992
 21
117.7
 31
0.0
  0
LINE
  5
38
330
1E
100
AcDbEntity
  8
0
100
AcDbLine
 10
-0.0000000000000078
 20
121.0
 30
0.0
 11
0.199999999999992
 21
124.3
 31
0.0
  0
LINE
  5
39
330
1E
100
AcDbEntity
  8
0
100
AcDbLine
 10
-0.0000000000000078
 20
121.0
 30
0.0
 11
0.199999999999992
 21
124.3
 31
0.0
  0
LINE
  5
3A
330
1E
100
AcDbEntity
  8
0
100
AcDbLine
 10
-0.0000000000000078
 20
121.0
 30
0.0
 11
0.199999999999992
 21
117.7
 31
0.0
  0
LINE
  5
3B
330
1E
100
AcDbEntity
  8
0
100
AcDbLine
 10
3.99999999999999
 20
121.0
 30
0.0
 11
3.99999999999999
 21
123.7999999999999
 31
0.0
  0
LINE
  5
3C
330
1E
100
AcDbEntity
  8
0
100
AcDbLine
 10
0.199999999999992
 20
124.3
 30
0.0
 11
1.499999999999989
 21
128.1999999999999
 31
0.0
  0
LINE
  5
3D
330
1E
100
AcDbEntity
  8
0
100
AcDbLine
 10
1.499999999999989
 20
128.1999999999999
 30
0.0
 11
3.99999999999999
 21
132.0
 31
0.0
  0
LINE
  5
3E
330
1E
100
AcDbEntity
  8
0
100
AcDbLine
 10
3.99999999999999
 20
123.7999999999999
 30
0.0
 11
3.99999999999999
 21
126.5
 31
0.0
  0
LINE
  5
3F
330
1E
100
AcDbEntity
  8
0
100
AcDbLine
 10
3.99999999999999
 20
126.5
 30
0.0
 11
3.99999999999999
 21
128.8
 31
0.0
  0
LINE
  5
40
330
1E
100
AcDbEntity
  8
0
100
AcDbLine
 10
3.99999999999999
 20
128.8
 30
0.0
 11
3.99999999999999
 21
130.4999999999999
 31
0.0
  0
LINE
  5
41
330
1E
100
AcDbEntity
  8
0
100
AcDbLine
 10
3.99999999999999
 20
130.4999999999999
 30
0.0
 11
3.99999999999999
 21
131.6
 31
0.0
  0
LINE
  5
42
330
1E
100
AcDbEntity
  8
0
100
AcDbLine
 10
3.99999999999999
 20
131.6
 30
0.0
 11
3.99999999999999
 21
132.0
 31
0.0
  0
LINE
  5
45
330
1E
100
AcDbEntity
  8
0
100
AcDbLine
 10
3.99999999999999
 20
118.2
 30
0.0
 11
3.99999999999999
 21
121.0
 31
0.0
  0
LINE
  5
48
330
1E
100
AcDbEntity
  8
0
100
AcDbLine
 10
3.99999999999999
 20
115.5
 30
0.0
 11
3.99999999999999
 21
118.2
 31
0.0
  0
LINE
  5
61
330
1E
100
AcDbEntity
  8
0
100
AcDbLine
 10
3.99999999999999
 20
132.0
 30
0.0
 11
4.49999999999999
 21
132.4999999999999
 31
0.0
  0
LINE
  5
62
330
1E
100
AcDbEntity
  8
0
100
AcDbLine
 10
5.99999999999999
 20
111.4999999999999
 30
0.0
 11
5.99999999999999
 21
113.2
 31
0.0
  0
LINE
  5
63
330
1E
100
AcDbEntity
  8
0
100
AcDbLine
 10
5.99999999999999
 20
111.4999999999999
 30
0.0
 11
5.99999999999999
 21
110.4
 31
0.0
  0
LINE
  5
64
330
1E
100
AcDbEntity
  8
0
100
AcDbLine
 10
5.99999999999999
 20
110.4
 30
0.0
 11
5.99999999999999
 21
111.4999999999999
 31
0.0
  0
LINE
  5
65
330
1E
100
AcDbEntity
  8
0
100
AcDbLine
 10
5.99999999999999
 20
110.4
 30
0.0
 11
5.99999999999999
 21
110.0
 31
0.0
  0
LINE
  5
66
330
1E
100
AcDbEntity
  8
0
100
AcDbLine
 10
5.99999999999999
 20
121.0
 30
0.0
 11
5.99999999999999
 21
123.7999999999999
 31
0.0
  0
LINE
  5
67
330
1E
100
AcDbEntity
  8
0
100
AcDbLine
 10
5.99999999999999
 20
121.0
 30
0.0
 11
5.99999999999999
 21
118.2
 31
0.0
  0
LINE
  5
68
330
1E
100
AcDbEntity
  8
0
100
AcDbLine
 10
5.99999999999999
 20
123.7999999999999
 30
0.0
 11
5.99999999999999
 21
126.5
 31
0.0
  0
LINE
  5
69
330
1E
100
AcDbEntity
  8
0
100
AcDbLine
 10
5.99999999999999
 20
123.7999999999999
 30
0.0
 11
5.99999999999999
 21
121.0
 31
0.0
  0
LINE
  5
6A
330
1E
100
AcDbEntity
  8
0
100
AcDbLine
 10
5.99999999999999
 20
118.2
 30
0.0
 11
5.99999999999999
 21
121.0
 31
0.0
  0
LINE
  5
6B
330
1E
100
AcDbEntity
  8
0
100
AcDbLine
 10
5.99999999999999
 20
118.2
 30
0.0
 11
5.99999999999999
 21
115.5
 31
0.0
  0
LINE
  5
6C
330
1E
100
AcDbEntity
  8
0
100
AcDbLine
 10
5.99999999999999
 20
126.5
 30
0.0
 11
5.99999999999999
 21
128.8
 31
0.0
  0
LINE
  5
6D
330
1E
100
AcDbEntity
  8
0
100
AcDbLine
 10
5.99999999999999
 20
128.8
 30
0.0
 11
5.99999999999999
 21
130.4999999999999
 31
0.0
  0
LINE
  5
6E
330
1E
100
AcDbEntity
  8
0
100
AcDbLine
 10
5.99999999999999
 20
128.8
 30
0.0
 11
5.99999999999999
 21
126.5
 31
0.0
  0
LINE
  5
6F
330
1E
100
AcDbEntity
  8
0
100
AcDbLine
 10
5.99999999999999
 20
130.4999999999999
 30
0.0
 11
5.99999999999999
 21
131.6
 31
0.0
  0
LINE
  5
70
330
1E
100
AcDbEntity
  8
0
100
AcDbLine
 10
5.99999999999999
 20
130.4999999999999
 30
0.0
 11
5.99999999999999
 21
128.8
 31
0.0
  0
LINE
  5
71
330
1E
100
AcDbEntity
  8
0
100
AcDbLine
 10
5.99999999999999
 20
131.6
 30
0.0
 11
5.99999999999999
 21
132.0
 31
0.0
  0
LINE
  5
72
330
1E
100
AcDbEntity
  8
0
100
AcDbLine
 10
5.99999999999999
 20
131.6
 30
0.0
 11
5.99999999999999
 21
130.4999999999999
 31
0.0
  0
LINE
  5
73
330
1E
100
AcDbEntity
  8
0
100
AcDbLine
 10
5.99999999999999
 20
115.5
 30
0.0
 11
5.99999999999999
 21
118.2
 31
0.0
  0
LINE
  5
74
330
1E
100
AcDbEntity
  8
0
100
AcDbLine
 10
5.99999999999999
 20
115.5
 30
0.0
 11
5.99999999999999
 21
113.2
 31
0.0
  0
LINE
  5
75
330
1E
100
AcDbEntity
  8
0
100
AcDbLine
 10
5.99999999999999
 20
113.2
 30
0.0
 11
5.99999999999999
 21
115.5
 31
0.0
  0
LINE
  5
76
330
1E
100
AcDbEntity
  8
0
100
AcDbLine
 10
5.99999999999999
 20
110.0
 30
0.0
 11
8.999999999999991
 21
109.0
 31
0.0
  0
LINE
  5
77
330
1E
100
AcDbEntity
  8
0
100
AcDbLine
 10
5.99999999999999
 20
110.0
 30
0.0
 11
5.99999999999999
 21
110.4
 31
0.0
  0
LINE
  5
7C
330
1E
100
AcDbEntity
  8
0
100
AcDbLine
 10
4.49999999999999
 20
132.4999999999999
 30
0.0
 11
5.49999999999999
 21
132.4999999999999
 31
0.0
  0
LINE
  5
7E
330
1E
100
AcDbEntity
  8
0
100
AcDbLine
 10
5.49999999999999
 20
132.4999999999999
 30
0.0
 11
5.99999999999999
 21
132.0
 31
0.0
  0
LINE
  5
80
330
1E
100
AcDbEntity
  8
0
100
AcDbLine
 10
5.99999999999999
 20
132.0
 30
0.0
 11
8.999999999999991
 21
133.0
 31
0.0
  0
LINE
  5
81
330
1E
100
AcDbEntity
  8
0
100
AcDbLine
 10
5.99999999999999
 20
132.0
 30
0.0
 11
5.99999999999999
 21
131.6
 31
0.0
  0
LINE
  5
82
330
1E
100
AcDbEntity
  8
0
100
AcDbLine
 10
6.99999999999999
 20
170.0
 30
0.0
 11
7.99999999999999
 21
151.0
 31
0.0
  0
LINE
  5
83
330
1E
100
AcDbEntity
  8
0
100
AcDbLine
 10
6.799999999999999
 20
183.0
 30
0.0
 11
6.99999999999999
 21
170.0
 31
0.0
  0
LINE
  5
84
330
1E
100
AcDbEntity
  8
0
100
AcDbLine
 10
6.5
 20
192.0
 30
0.0
 11
7.0
 21
195.5
 31
0.0
  0
LINE
  5
85
330
1E
100
AcDbEntity
  8
0
100
AcDbLine
 10
6.5
 20
192.0
 30
0.0
 11
6.799999999999999
 21
183.0
 31
0.0
  0
LINE
  5
86
330
1E
100
AcDbEntity
  8
0
100
AcDbLine
 10
8.999999999999991
 20
109.0
 30
0.0
 11
12.0
 21
108.4999999999999
 31
0.0
  0
LINE
  5
87
330
1E
100
AcDbEntity
  8
0
100
AcDbLine
 10
8.999999999999991
 20
133.0
 30
0.0
 11
9.345679012345669
 21
133.0576131687239
 31
0.0
  0
LINE
  5
88
330
1E
100
AcDbEntity
  8
0
100
AcDbLine
 10
7.99999999999999
 20
151.0
 30
0.0
 11
9.345679012345669
 21
133.0576131687239
 31
0.0
  0
LINE
  5
89
330
1E
100
AcDbEntity
  8
0
100
AcDbLine
 10
7.99999999999999
 20
151.0
 30
0.0
 11
9.345679012345669
 21
133.0576131687239
 31
0.0
  0
LINE
  5
8A
330
1E
100
AcDbEntity
  8
0
100
AcDbLine
 10
7.0
 20
195.5
 30
0.0
 11
8.0
 21
198.0
 31
0.0
  0
LINE
  5
8B
330
1E
100
AcDbEntity
  8
0
100
AcDbLine
 10
8.0
 20
198.0
 30
0.0
 11
9.5
 21
200.0
 31
0.0
  0
LINE
  5
8C
330
1E
100
AcDbEntity
  8
0
100
AcDbLine
 10
12.0
 20
108.4999999999999
 30
0.0
 11
14.0
 21
108.4
 31
0.0
  0
LINE
  5
8D
330
1E
100
AcDbEntity
  8
0
100
AcDbLine
 10
14.0
 20
108.4
 30
0.0
 11
16.0
 21
108.4999999999999
 31
0.0
  0
LINE
  5
8E
330
1E
100
AcDbEntity
  8
0
100
AcDbLine
 10
9.5
 20
200.0
 30
0.0
 11
11.5
 21
201.5
 31
0.0
  0
LINE
  5
8F
330
1E
100
AcDbEntity
  8
0
100
AcDbLine
 10
11.5
 20
201.5
 30
0.0
 11
14.0
 21
202.0
 31
0.0
  0
LINE
  5
90
330
1E
100
AcDbEntity
  8
0
100
AcDbLine
 10
16.0
 20
108.4999999999999
 30
0.0
 11
19.0
 21
109.0
 31
0.0
  0
LINE
  5
91
330
1E
100
AcDbEntity
  8
0
100
AcDbLine
 10
19.0
 20
109.0
 30
0.0
 11
22.0
 21
110.0
 31
0.0
  0
LINE
  5
92
330
1E
100
AcDbEntity
  8
0
100
AcDbLine
 10
19.0
 20
133.0
 30
0.0
 11
22.0
 21
132.0
 31
0.0
  0
LINE
  5
93
330
1E
100
AcDbEntity
  8
0
100
AcDbLine
 10
18.65432098765429
 20
133.0576131687239
 30
0.0
 11
20.0
 21
151.0
 31
0.0
  0
LINE
  5
94
330
1E
100
AcDbEntity
  8
0
100
AcDbLine
 10
18.65432098765429
 20
133.0576131687239
 30
0.0
 11
19.0
 21
133.0
 31
0.0
  0
LINE
  5
95
330
1E
100
AcDbEntity
  8
0
100
AcDbLine
 10
20.0
 20
151.0
 30
0.0
 11
21.0
 21
170.0
 31
0.0
  0
LINE
  5
96
330
1E
100
AcDbEntity
  8
0
100
AcDbLine
 10
21.0
 20
170.0
 30
0.0
 11
21.2
 21
183.0
 31
0.0
  0
LINE
  5
97
330
1E
100
AcDbEntity
  8
0
100
AcDbLine
 10
66.5
 20
60.0
 30
0.0
 11
66.90000000000001
 21
60.0
 31
0.0
  0
LINE
  5
98
330
1E
100
AcDbEntity
  8
0
100
AcDbLine
 10
62.0
 20
89.0
 30
0.0
 11
63.0
 21
90.2308
 31
0.0
  0
LINE
  5
9A
330
1E
100
AcDbEntity
  8
0
100
AcDbLine
 10
61.0
 20
89.0
 30
0.0
 11
62.0
 21
89.0
 31
0.0
  0
LINE
  5
9C
330
1E
100
AcDbEntity
  8
0
100
AcDbLine
 10
65.9
 20
90.0
 30
0.0
 11
67.0
 21
90.0
 31
0.0
  0
LINE
  5
9D
330
1E
100
AcDbEntity
  8
0
100
AcDbLine
 10
66.90000000000001
 20
60.0
 30
0.0
 11
67.9
 21
60.0
 31
0.0
  0
LINE
  5
9E
330
1E
100
AcDbEntity
  8
0
100
AcDbLine
 10
68.9
 20
90.0
 30
0.0
 11
71.29999999999999
 21
90.0
 31
0.0
  0
LINE
  5
9F
330
1E
100
AcDbEntity
  8
0
100
AcDbLine
 10
67.9
 20
60.0
 30
0.0
 11
69.5
 21
60.0
 31
0.0
  0
LINE
  5
A0
330
1E
100
AcDbEntity
  8
0
100
AcDbLine
 10
67.9
 20
60.0
 30
0.0
 11
69.59999999999999
 21
60.0
 31
0.0
  0
LINE
  5
A1
330
1E
100
AcDbEntity
  8
0
100
AcDbLine
 10
60.0
 20
91.3385
 30
0.0
 11
60.0
 21
94.2923
 31
0.0
  0
LINE
  5
A2
330
1E
100
AcDbEntity
  8
0
100
AcDbLine
 10
60.0
 20
91.3385
 30
0.0
 11
60.0
 21
90.2308
 31
0.0
  0
LINE
  5
A3
330
1E
100
AcDbEntity
  8
0
100
AcDbLine
 10
60.0
 20
90.2308
 30
0.0
 11
60.0
 21
91.0
 31
0.0
  0
LINE
  5
A4
330
1E
100
AcDbEntity
  8
0
100
AcDbLine
 10
60.0
 20
90.2308
 30
0.0
 11
61.0
 21
89.0
 31
0.0
  0
LINE
  5
A5
330
1E
100
AcDbEntity
  8
0
100
AcDbLine
 10
60.0
 20
90.2308
 30
0.0
 11
60.0
 21
91.3385
 31
0.0
  0
LINE
  5
A6
330
1E
100
AcDbEntity
  8
0
100
AcDbLine
 10
60.0
 20
91.69769999999999
 30
0.0
 11
60.0
 21
94.13949999999999
 31
0.0
  0
LINE
  5
A9
330
1E
100
AcDbEntity
  8
0
100
AcDbLine
 10
63.0
 20
90.2308
 30
0.0
 11
63.0
 21
91.3385
 31
0.0
  0
LINE
  5
AA
330
1E
100
AcDbEntity
  8
0
100
AcDbLine
 10
63.0
 20
91.3385
 30
0.0
 11
63.0
 21
94.2923
 31
0.0
  0
LINE
  5
AB
330
1E
100
AcDbEntity
  8
0
100
AcDbLine
 10
63.0
 20
91.3385
 30
0.0
 11
63.0
 21
90.2308
 31
0.0
  0
LINE
  5
AE
330
1E
100
AcDbEntity
  8
0
100
AcDbLine
 10
60.0
 20
91.0
 30
0.0
 11
60.0
 21
91.69769999999999
 31
0.0
  0
LINE
  5
AF
330
1E
100
AcDbEntity
  8
0
100
AcDbLine
 10
60.0
 20
91.0
 30
0.0
 11
60.0
 21
90.2308
 31
0.0
  0
LINE
  5
B0
330
1E
100
AcDbEntity
  8
0
100
AcDbLine
 10
51.7647
 20
91.69769999999999
 30
0.0
 11
60.0
 21
91.0
 31
0.0
  0
LINE
  5
B1
330
1E
100
AcDbEntity
  8
0
100
AcDbLine
 10
65.5
 20
90.0
 30
0.0
 11
66.5
 21
60.0
 31
0.0
  0
LINE
  5
B2
330
1E
100
AcDbEntity
  8
0
100
AcDbLine
 10
65.5
 20
90.0
 30
0.0
 11
65.9
 21
90.0
 31
0.0
  0
LINE
  5
B3
330
1E
100
AcDbEntity
  8
0
100
AcDbLine
 10
64.4763
 20
91.0
 30
0.0
 11
67.0
 21
91.0
 31
0.0
  0
LINE
  5
B4
330
1E
100
AcDbEntity
  8
0
100
AcDbLine
 10
63.7873
 20
91.32139999999999
 30
0.0
 11
64.4763
 21
91.0
 31
0.0
  0
LINE
  5
B5
330
1E
100
AcDbEntity
  8
0
100
AcDbLine
 10
63.2952
 20
91.8571
 30
0.0
 11
63.7873
 21
91.32139999999999
 31
0.0
  0
LINE
  5
B6
330
1E
100
AcDbEntity
  8
0
100
AcDbLine
 10
25.0
 20
112.0
 30
0.0
 11
26.0
 21
111.0
 31
0.0
  0
LINE
  5
B7
330
1E
100
AcDbEntity
  8
0
100
AcDbLine
 10
25.0
 20
112.0
 30
0.0
 11
25.0
 21
112.2999999999999
 31
0.0
  0
LINE
  5
B8
330
1E
100
AcDbEntity
  8
0
100
AcDbLine
 10
25.0
 20
123.3
 30
0.0
 11
25.0
 21
121.0
 31
0.0
  0
LINE
  5
B9
330
1E
100
AcDbEntity
  8
0
100
AcDbLine
 10
25.0
 20
123.3
 30
0.0
 11
25.0
 21
125.5
 31
0.0
  0
LINE
  5
BA
330
1E
100
AcDbEntity
  8
0
100
AcDbLine
 10
25.0
 20
121.0
 30
0.0
 11
25.0
 21
118.7
 31
0.0
  0
LINE
  5
BB
330
1E
100
AcDbEntity
  8
0
100
AcDbLine
 10
25.0
 20
121.0
 30
0.0
 11
25.0
 21
123.3
 31
0.0
  0
LINE
  5
BC
330
1E
100
AcDbEntity
  8
0
100
AcDbLine
 10
25.0
 20
118.7
 30
0.0
 11
25.0
 21
116.5
 31
0.0
  0
LINE
  5
BD
330
1E
100
AcDbEntity
  8
0
100
AcDbLine
 10
25.0
 20
118.7
 30
0.0
 11
25.0
 21
121.0
 31
0.0
  0
LINE
  5
BE
330
1E
100
AcDbEntity
  8
0
100
AcDbLine
 10
25.0
 20
116.5
 30
0.0
 11
25.0
 21
114.5999999999999
 31
0.0
  0
LINE
  5
BF
330
1E
100
AcDbEntity
  8
0
100
AcDbLine
 10
25.0
 20
116.5
 30
0.0
 11
25.0
 21
118.7
 31
0.0
  0
LINE
  5
C0
330
1E
100
AcDbEntity
  8
0
100
AcDbLine
 10
25.0
 20
114.5999999999999
 30
0.0
 11
25.0
 21
113.2
 31
0.0
  0
LINE
  5
C1
330
1E
100
AcDbEntity
  8
0
100
AcDbLine
 10
25.0
 20
114.5999999999999
 30
0.0
 11
25.0
 21
116.5
 31
0.0
  0
LINE
  5
C2
330
1E
100
AcDbEntity
  8
0
100
AcDbLine
 10
25.0
 20
113.2
 30
0.0
 11
25.0
 21
112.2999999999999
 31
0.0
  0
LINE
  5
C3
330
1E
100
AcDbEntity
  8
0
100
AcDbLine
 10
25.0
 20
113.2
 30
0.0
 11
25.0
 21
114.5999999999999
 31
0.0
  0
LINE
  5
C4
330
1E
100
AcDbEntity
  8
0
100
AcDbLine
 10
26.0
 20
111.0
 30
0.0
 11
27.0
 21
111.0
 31
0.0
  0
LINE
  5
E2
330
1E
100
AcDbEntity
  8
0
100
AcDbLine
 10
27.0
 20
111.0
 30
0.0
 11
27.6212426631885
 21
111.621242663188
 31
0.0
  0
LINE
  5
E4
330
1E
100
AcDbEntity
  8
0
100
AcDbLine
 10
25.0
 20
112.2999999999999
 30
0.0
 11
25.0
 21
112.0
 31
0.0
  0
LINE
  5
E5
330
1E
100
AcDbEntity
  8
0
100
AcDbLine
 10
25.0
 20
112.2999999999999
 30
0.0
 11
25.0
 21
113.2
 31
0.0
  0
LINE
  5
E6
330
1E
100
AcDbEntity
  8
0
100
AcDbLine
 10
22.0
 20
110.0
 30
0.0
 11
25.0
 21
112.0
 31
0.0
  0
LINE
  5
EA
330
1E
100
AcDbEntity
  8
0
100
AcDbLine
 10
27.6212426631885
 20
111.621242663188
 30
0.0
 11
27.8824
 21
110.884
 31
0.0
  0
LINE
  5
EC
330
1E
100
AcDbEntity
  8
0
100
AcDbLine
 10
25.0
 20
127.4
 30
0.0
 11
25.0
 21
128.8
 31
0.0
  0
LINE
  5
ED
330
1E
100
AcDbEntity
  8
0
100
AcDbLine
 10
25.0
 20
125.5
 30
0.0
 11
25.0
 21
127.4
 31
0.0
  0
LINE
  5
EE
330
1E
100
AcDbEntity
  8
0
100
AcDbLine
 10
25.0
 20
125.5
 30
0.0
 11
25.0
 21
123.3
 31
0.0
  0
LINE
  5
EF
330
1E
100
AcDbEntity
  8
0
100
AcDbLine
 10
25.0
 20
128.8
 30
0.0
 11
25.0
 21
127.4
 31
0.0
  0
LINE
  5
F0
330
1E
100
AcDbEntity
  8
0
100
AcDbLine
 10
25.0
 20
128.8
 30
0.0
 11
25.0
 21
129.6999999999999
 31
0.0
  0
LINE
  5
F1
330
1E
100
AcDbEntity
  8
0
100
AcDbLine
 10
25.0
 20
129.6999999999999
 30
0.0
 11
25.0
 21
128.8
 31
0.0
  0
LINE
  5
F2
330
1E
100
AcDbEntity
  8
0
100
AcDbLine
 10
25.0
 20
129.6999999999999
 30
0.0
 11
25.0
 21
130.0
 31
0.0
  0
LINE
  5
103
330
1E
100
AcDbEntity
  8
0
100
AcDbLine
 10
26.0
 20
131.0
 30
0.0
 11
27.0
 21
131.0
 31
0.0
  0
LINE
  5
105
330
1E
100
AcDbEntity
  8
0
100
AcDbLine
 10
27.0
 20
131.0
 30
0.0
 11
27.6212426631885
 21
130.3787573368119
 31
0.0
  0
LINE
  5
107
330
1E
100
AcDbEntity
  8
0
100
AcDbLine
 10
25.0
 20
130.0
 30
0.0
 11
25.0
 21
129.6999999999999
 31
0.0
  0
LINE
  5
108
330
1E
100
AcDbEntity
  8
0
100
AcDbLine
 10
25.0
 20
130.0
 30
0.0
 11
26.0
 21
131.0
 31
0.0
  0
LINE
  5
10A
330
1E
100
AcDbEntity
  8
0
100
AcDbLine
 10
27.8824
 20
110.884
 30
0.0
 11
32.0
 21
103.907
 31
0.0
  0
LINE
  5
10D
330
1E
100
AcDbEntity
  8
0
100
AcDbLine
 10
32.0
 20
103.907
 30
0.0
 11
37.76469999999999
 21
98.3256
 31
0.0
  0
LINE
  5
112
330
1E
100
AcDbEntity
  8
0
100
AcDbLine
 10
27.6212426631885
 20
130.3787573368119
 30
0.0
 11
27.8824
 21
131.116
 31
0.0
  0
LINE
  5
113
330
1E
100
AcDbEntity
  8
0
100
AcDbLine
 10
22.0
 20
132.0
 30
0.0
 11
25.0
 21
130.0
 31
0.0
  0
LINE
  5
114
330
1E
100
AcDbEntity
  8
0
100
AcDbLine
 10
27.8824
 20
131.116
 30
0.0
 11
32.0
 21
138.0929999999999
 31
0.0
  0
LINE
  5
115
330
1E
100
AcDbEntity
  8
0
100
AcDbLine
 10
37.76469999999999
 20
98.3256
 30
0.0
 11
44.3529
 21
94.13949999999999
 31
0.0
  0
LINE
  5
116
330
1E
100
AcDbEntity
  8
0
100
AcDbLine
 10
60.0
 20
94.2923
 30
0.0
 11
60.0
 21
99.33849999999999
 31
0.0
  0
LINE
  5
117
330
1E
100
AcDbEntity
  8
0
100
AcDbLine
 10
60.0
 20
94.2923
 30
0.0
 11
60.0
 21
91.3385
 31
0.0
  0
LINE
  5
118
330
1E
100
AcDbEntity
  8
0
100
AcDbLine
 10
60.0
 20
99.33849999999999
 30
0.0
 11
60.0
 21
105.7389999999999
 31
0.0
  0
LINE
  5
119
330
1E
100
AcDbEntity
  8
0
100
AcDbLine
 10
60.0
 20
99.33849999999999
 30
0.0
 11
60.0
 21
94.2923
 31
0.0
  0
LINE
  5
11A
330
1E
100
AcDbEntity
  8
0
100
AcDbLine
 10
60.0
 20
103.907
 30
0.0
 11
60.0
 21
106.231
 31
0.0
  0
LINE
  5
11B
330
1E
100
AcDbEntity
  8
0
100
AcDbLine
 10
60.0
 20
113.369
 30
0.0
 11
60.0
 21
106.231
 31
0.0
  0
LINE
  5
11C
330
1E
100
AcDbEntity
  8
0
100
AcDbLine
 10
60.0
 20
113.1229999999999
 30
0.0
 11
60.0
 21
121.0
 31
0.0
  0
LINE
  5
11D
330
1E
100
AcDbEntity
  8
0
100
AcDbLine
 10
60.0
 20
113.1229999999999
 30
0.0
 11
60.0
 21
105.7389999999999
 31
0.0
  0
LINE
  5
11E
330
1E
100
AcDbEntity
  8
0
100
AcDbLine
 10
60.0
 20
117.86
 30
0.0
 11
60.0
 21
121.0
 31
0.0
  0
LINE
  5
11F
330
1E
100
AcDbEntity
  8
0
100
AcDbLine
 10
60.0
 20
110.884
 30
0.0
 11
60.0
 21
117.86
 31
0.0
  0
LINE
  5
120
330
1E
100
AcDbEntity
  8
0
100
AcDbLine
 10
60.0
 20
105.7389999999999
 30
0.0
 11
60.0
 21
110.884
 31
0.0
  0
LINE
  5
121
330
1E
100
AcDbEntity
  8
0
100
AcDbLine
 10
60.0
 20
105.7389999999999
 30
0.0
 11
60.0
 21
113.1229999999999
 31
0.0
  0
LINE
  5
122
330
1E
100
AcDbEntity
  8
0
100
AcDbLine
 10
60.0
 20
98.3256
 30
0.0
 11
60.0
 21
99.33849999999999
 31
0.0
  0
LINE
  5
123
330
1E
100
AcDbEntity
  8
0
100
AcDbLine
 10
60.0
 20
94.13949999999999
 30
0.0
 11
60.0
 21
98.3256
 31
0.0
  0
LINE
  5
124
330
1E
100
AcDbEntity
  8
0
100
AcDbLine
 10
44.3529
 20
94.13949999999999
 30
0.0
 11
51.7647
 21
91.69769999999999
 31
0.0
  0
LINE
  5
125
330
1E
100
AcDbEntity
  8
0
100
AcDbLine
 10
60.0
 20
128.877
 30
0.0
 11
60.0
 21
136.2619999999999
 31
0.0
  0
LINE
  5
126
330
1E
100
AcDbEntity
  8
0
100
AcDbLine
 10
60.0
 20
128.877
 30
0.0
 11
60.0
 21
121.0
 31
0.0
  0
LINE
  5
127
330
1E
100
AcDbEntity
  8
0
100
AcDbLine
 10
60.0
 20
121.0
 30
0.0
 11
60.0
 21
124.14
 31
0.0
  0
LINE
  5
128
330
1E
100
AcDbEntity
  8
0
100
AcDbLine
 10
60.0
 20
121.0
 30
0.0
 11
60.0
 21
113.1229999999999
 31
0.0
  0
LINE
  5
129
330
1E
100
AcDbEntity
  8
0
100
AcDbLine
 10
60.0
 20
121.0
 30
0.0
 11
60.0
 21
128.877
 31
0.0
  0
LINE
  5
12A
330
1E
100
AcDbEntity
  8
0
100
AcDbLine
 10
60.0
 20
124.14
 30
0.0
 11
60.0
 21
131.116
 31
0.0
  0
LINE
  5
12B
330
1E
100
AcDbEntity
  8
0
100
AcDbLine
 10
60.0
 20
142.6609999999999
 30
0.0
 11
60.0
 21
147.7079999999999
 31
0.0
  0
LINE
  5
12C
330
1E
100
AcDbEntity
  8
0
100
AcDbLine
 10
60.0
 20
142.6609999999999
 30
0.0
 11
60.0
 21
136.2619999999999
 31
0.0
  0
LINE
  5
12D
330
1E
100
AcDbEntity
  8
0
100
AcDbLine
 10
60.0
 20
136.2619999999999
 30
0.0
 11
60.0
 21
142.6609999999999
 31
0.0
  0
LINE
  5
12E
330
1E
100
AcDbEntity
  8
0
100
AcDbLine
 10
60.0
 20
136.2619999999999
 30
0.0
 11
60.0
 21
128.877
 31
0.0
  0
LINE
  5
12F
330
1E
100
AcDbEntity
  8
0
100
AcDbLine
 10
60.0
 20
135.769
 30
0.0
 11
60.0
 21
128.631
 31
0.0
  0
LINE
  5
130
330
1E
100
AcDbEntity
  8
0
100
AcDbLine
 10
60.0
 20
131.116
 30
0.0
 11
60.0
 21
138.0929999999999
 31
0.0
  0
LINE
  5
139
330
1E
100
AcDbEntity
  8
0
100
AcDbLine
 10
63.0
 20
94.2923
 30
0.0
 11
63.0
 21
99.33849999999999
 31
0.0
  0
LINE
  5
13A
330
1E
100
AcDbEntity
  8
0
100
AcDbLine
 10
63.0
 20
94.2923
 30
0.0
 11
63.0
 21
91.3385
 31
0.0
  0
LINE
  5
13B
330
1E
100
AcDbEntity
  8
0
100
AcDbLine
 10
63.0
 20
99.33849999999999
 30
0.0
 11
63.0
 21
105.7389999999999
 31
0.0
  0
LINE
  5
13C
330
1E
100
AcDbEntity
  8
0
100
AcDbLine
 10
63.0
 20
99.33849999999999
 30
0.0
 11
63.0
 21
94.2923
 31
0.0
  0
LINE
  5
13D
330
1E
100
AcDbEntity
  8
0
100
AcDbLine
 10
63.0
 20
105.7389999999999
 30
0.0
 11
63.0
 21
113.1229999999999
 31
0.0
  0
LINE
  5
13E
330
1E
100
AcDbEntity
  8
0
100
AcDbLine
 10
63.0
 20
105.7389999999999
 30
0.0
 11
63.0
 21
99.33849999999999
 31
0.0
  0
LINE
  5
14E
330
1E
100
AcDbEntity
  8
0
100
AcDbLine
 10
63.0
 20
136.2619999999999
 30
0.0
 11
63.0
 21
142.6609999999999
 31
0.0
  0
LINE
  5
14F
330
1E
100
AcDbEntity
  8
0
100
AcDbLine
 10
63.0
 20
136.2619999999999
 30
0.0
 11
63.0
 21
128.877
 31
0.0
  0
LINE
  5
150
330
1E
100
AcDbEntity
  8
0
100
AcDbLine
 10
63.0
 20
128.877
 30
0.0
 11
63.0
 21
136.2619999999999
 31
0.0
  0
LINE
  5
151
330
1E
100
AcDbEntity
  8
0
100
AcDbLine
 10
63.0
 20
128.877
 30
0.0
 11
63.0
 21
121.0
 31
0.0
  0
LINE
  5
152
330
1E
100
AcDbEntity
  8
0
100
AcDbLine
 10
63.0
 20
142.6609999999999
 30
0.0
 11
63.0
 21
147.7079999999999
 31
0.0
  0
LINE
  5
153
330
1E
100
AcDbEntity
  8
0
100
AcDbLine
 10
63.0
 20
142.6609999999999
 30
0.0
 11
63.0
 21
136.2619999999999
 31
0.0
  0
LINE
  5
157
330
1E
100
AcDbEntity
  8
0
100
AcDbLine
 10
63.0
 20
121.0
 30
0.0
 11
63.0
 21
113.1229999999999
 31
0.0
  0
LINE
  5
158
330
1E
100
AcDbEntity
  8
0
100
AcDbLine
 10
63.0
 20
121.0
 30
0.0
 11
63.0
 21
128.877
 31
0.0
  0
LINE
  5
159
330
1E
100
AcDbEntity
  8
0
100
AcDbLine
 10
63.0
 20
113.1229999999999
 30
0.0
 11
63.0
 21
121.0
 31
0.0
  0
LINE
  5
15A
330
1E
100
AcDbEntity
  8
0
100
AcDbLine
 10
63.0
 20
113.1229999999999
 30
0.0
 11
63.0
 21
105.7389999999999
 31
0.0
  0
LINE
  5
15F
330
1E
100
AcDbEntity
  8
0
100
AcDbLine
 10
60.0
 20
138.0929999999999
 30
0.0
 11
60.0
 21
143.674
 31
0.0
  0
LINE
  5
160
330
1E
100
AcDbEntity
  8
0
100
AcDbLine
 10
60.0
 20
138.0929999999999
 30
0.0
 11
60.0
 21
135.769
 31
0.0
  0
LINE
  5
161
330
1E
100
AcDbEntity
  8
0
100
AcDbLine
 10
60.0
 20
143.674
 30
0.0
 11
60.0
 21
147.8609999999999
 31
0.0
  0
LINE
  5
162
330
1E
100
AcDbEntity
  8
0
100
AcDbLine
 10
32.0
 20
138.0929999999999
 30
0.0
 11
37.76469999999999
 21
143.674
 31
0.0
  0
LINE
  5
163
330
1E
100
AcDbEntity
  8
0
100
AcDbLine
 10
63.0
 20
146.6
 30
0.0
 11
63.0
 21
147.7079999999999
 31
0.0
  0
LINE
  5
164
330
1E
100
AcDbEntity
  8
0
100
AcDbLine
 10
60.0
 20
147.7079999999999
 30
0.0
 11
60.0
 21
150.661
 31
0.0
  0
LINE
  5
165
330
1E
100
AcDbEntity
  8
0
100
AcDbLine
 10
60.0
 20
147.7079999999999
 30
0.0
 11
60.0
 21
142.6609999999999
 31
0.0
  0
LINE
  5
166
330
1E
100
AcDbEntity
  8
0
100
AcDbLine
 10
37.76469999999999
 20
143.674
 30
0.0
 11
44.3529
 21
147.8609999999999
 31
0.0
  0
LINE
  5
167
330
1E
100
AcDbEntity
  8
0
100
AcDbLine
 10
63.0
 20
145.643
 30
0.0
 11
63.0
 21
147.7079999999999
 31
0.0
  0
LINE
  5
168
330
1E
100
AcDbEntity
  8
0
100
AcDbLine
 10
44.3529
 20
147.8609999999999
 30
0.0
 11
51.7647
 21
150.302
 31
0.0
  0
LINE
  5
16D
330
1E
100
AcDbEntity
  8
0
100
AcDbLine
 10
60.0
 20
147.8609999999999
 30
0.0
 11
60.0
 21
150.302
 31
0.0
  0
LINE
  5
16E
330
1E
100
AcDbEntity
  8
0
100
AcDbLine
 10
60.0
 20
151.0
 30
0.0
 11
60.0
 21
151.7689999999999
 31
0.0
  0
LINE
  5
16F
330
1E
100
AcDbEntity
  8
0
100
AcDbLine
 10
60.0
 20
151.7689999999999
 30
0.0
 11
60.0
 21
150.661
 31
0.0
  0
LINE
  5
170
330
1E
100
AcDbEntity
  8
0
100
AcDbLine
 10
60.0
 20
151.7689999999999
 30
0.0
 11
61.0
 21
153.0
 31
0.0
  0
LINE
  5
171
330
1E
100
AcDbEntity
  8
0
100
AcDbLine
 10
60.0
 20
151.7689999999999
 30
0.0
 11
60.0
 21
151.0
 31
0.0
  0
LINE
  5
172
330
1E
100
AcDbEntity
  8
0
100
AcDbLine
 10
63.0
 20
151.7689999999999
 30
0.0
 11
63.0
 21
150.661
 31
0.0
  0
LINE
  5
173
330
1E
100
AcDbEntity
  8
0
100
AcDbLine
 10
63.0
 20
150.661
 30
0.0
 11
63.0
 21
151.7689999999999
 31
0.0
  0
LINE
  5
174
330
1E
100
AcDbEntity
  8
0
100
AcDbLine
 10
63.0
 20
150.661
 30
0.0
 11
63.0
 21
147.7079999999999
 31
0.0
  0
LINE
  5
178
330
1E
100
AcDbEntity
  8
0
100
AcDbLine
 10
62.0
 20
153.0
 30
0.0
 11
63.0
 21
151.7689999999999
 31
0.0
  0
LINE
  5
17A
330
1E
100
AcDbEntity
  8
0
100
AcDbLine
 10
61.0
 20
153.0
 30
0.0
 11
62.0
 21
153.0
 31
0.0
  0
LINE
  5
17D
330
1E
100
AcDbEntity
  8
0
100
AcDbLine
 10
60.0
 20
150.661
 30
0.0
 11
60.0
 21
151.7689999999999
 31
0.0
  0
LINE
  5
17E
330
1E
100
AcDbEntity
  8
0
100
AcDbLine
 10
60.0
 20
150.661
 30
0.0
 11
60.0
 21
147.7079999999999
 31
0.0
  0
LINE
  5
17F
330
1E
100
AcDbEntity
  8
0
100
AcDbLine
 10
60.0
 20
150.302
 30
0.0
 11
60.0
 21
151.0
 31
0.0
  0
LINE
  5
180
330
1E
100
AcDbEntity
  8
0
100
AcDbLine
 10
51.7647
 20
150.302
 30
0.0
 11
60.0
 21
151.0
 31
0.0
  0
LINE
  5
181
330
1E
100
AcDbEntity
  8
0
100
AcDbLine
 10
63.0
 20
147.7079999999999
 30
0.0
 11
63.0
 21
145.643
 31
0.0
  0
LINE
  5
182
330
1E
100
AcDbEntity
  8
0
100
AcDbLine
 10
63.0
 20
147.7079999999999
 30
0.0
 11
63.0
 21
150.661
 31
0.0
  0
LINE
  5
183
330
1E
100
AcDbEntity
  8
0
100
AcDbLine
 10
63.0
 20
147.7079999999999
 30
0.0
 11
63.0
 21
146.6
 31
0.0
  0
LINE
  5
184
330
1E
100
AcDbEntity
  8
0
100
AcDbLine
 10
64.4763
 20
151.0
 30
0.0
 11
100.0
 21
151.0
 31
0.0
  0
LINE
  5
185
330
1E
100
AcDbEntity
  8
0
100
AcDbLine
 10
63.7873
 20
150.679
 30
0.0
 11
64.4763
 21
151.0
 31
0.0
  0
LINE
  5
186
330
1E
100
AcDbEntity
  8
0
100
AcDbLine
 10
63.2952
 20
150.143
 30
0.0
 11
63.7873
 21
150.679
 31
0.0
  0
LINE
  5
187
330
1E
100
AcDbEntity
  8
0
100
AcDbLine
 10
63.0
 20
149.3929999999999
 30
0.0
 11
63.2952
 21
150.143
 31
0.0
  0
LINE
  5
188
330
1E
100
AcDbEntity
  8
0
100
AcDbLine
 10
63.0
 20
92.60710000000001
 30
0.0
 11
63.2952
 21
91.8571
 31
0.0
  0
LINE
  5
189
330
1E
100
AcDbEntity
  8
0
100
AcDbLine
 10
67.0
 20
91.0
 30
0.0
 11
67.0
 21
90.0
 31
0.0
  0
LINE
  5
18A
330
1E
100
AcDbEntity
  8
0
100
AcDbLine
 10
67.0
 20
90.0
 30
0.0
 11
67.0
 21
91.0
 31
0.0
  0
LINE
  5
18B
330
1E
100
AcDbEntity
  8
0
100
AcDbLine
 10
67.0
 20
90.0
 30
0.0
 11
68.9
 21
90.0
 31
0.0
  0
LINE
  5
18C
330
1E
100
AcDbEntity
  8
0
100
AcDbLine
 10
69.59999999999999
 20
60.0
 30
0.0
 11
71.79999999999999
 21
60.0
 31
0.0
  0
LINE
  5
18D
330
1E
100
AcDbEntity
  8
0
100
AcDbLine
 10
69.5
 20
60.0
 30
0.0
 11
69.8
 21
60.0
 31
0.0
  0
LINE
  5
18E
330
1E
100
AcDbEntity
  8
0
100
AcDbLine
 10
69.8
 20
60.0
 30
0.0
 11
70.5
 21
60.0
 31
0.0
  0
LINE
  5
18F
330
1E
100
AcDbEntity
  8
0
100
AcDbLine
 10
69.8
 20
5.61113999999999
 30
0.0
 11
70.5
 21
6.81057999999999
 31
0.0
  0
LINE
  5
190
330
1E
100
AcDbEntity
  8
0
100
AcDbLine
 10
69.5
 20
4.261769999999999
 30
0.0
 11
69.5
 21
60.0
 31
0.0
  0
LINE
  5
191
330
1E
100
AcDbEntity
  8
0
100
AcDbLine
 10
69.5
 20
4.261769999999999
 30
0.0
 11
69.8
 21
2.27519999999999
 31
0.0
  0
LINE
  5
192
330
1E
100
AcDbEntity
  8
0
100
AcDbLine
 10
69.5
 20
4.261769999999999
 30
0.0
 11
69.5
 21
60.0
 31
0.0
  0
LINE
  5
193
330
1E
100
AcDbEntity
  8
0
100
AcDbLine
 10
69.5
 20
4.261769999999999
 30
0.0
 11
69.8
 21
5.61113999999999
 31
0.0
  0
LINE
  5
194
330
1E
100
AcDbEntity
  8
0
100
AcDbLine
 10
70.5
 20
6.81057999999999
 30
0.0
 11
71.7
 21
8.01001999999999
 31
0.0
  0
LINE
  5
195
330
1E
100
AcDbEntity
  8
0
100
AcDbLine
 10
71.29999999999999
 20
90.0
 30
0.0
 11
74.0
 21
90.0
 31
0.0
  0
LINE
  5
196
330
1E
100
AcDbEntity
  8
0
100
AcDbLine
 10
70.5
 20
60.0
 30
0.0
 11
71.7
 21
60.0
 31
0.0
  0
LINE
  5
197
330
1E
100
AcDbEntity
  8
0
100
AcDbLine
 10
71.7
 20
8.01001999999999
 30
0.0
 11
73.3
 21
9.05953
 31
0.0
  0
LINE
  5
198
330
1E
100
AcDbEntity
  8
0
100
AcDbLine
 10
69.8
 20
2.27519999999999
 30
0.0
 11
70.5
 21
1.15072999999999
 31
0.0
  0
LINE
  5
199
330
1E
100
AcDbEntity
  8
0
100
AcDbLine
 10
70.5
 20
1.15072999999999
 30
0.0
 11
71.7
 21
0.476039999999994
 31
0.0
  0
LINE
  5
19A
330
1E
100
AcDbEntity
  8
0
100
AcDbLine
 10
73.3
 20
9.05953
 30
0.0
 11
75.09999999999999
 21
9.77169999999999
 31
0.0
  0
LINE
  5
19B
330
1E
100
AcDbEntity
  8
0
100
AcDbLine
 10
71.79999999999999
 20
60.0
 30
0.0
 11
74.29999999999999
 21
60.0
 31
0.0
  0
LINE
  5
19C
330
1E
100
AcDbEntity
  8
0
100
AcDbLine
 10
71.7
 20
60.0
 30
0.0
 11
73.3
 21
60.0
 31
0.0
  0
LINE
  5
19D
330
1E
100
AcDbEntity
  8
0
100
AcDbLine
 10
74.29999999999999
 20
60.0
 30
0.0
 11
77.0
 21
60.0
 31
0.0
  0
LINE
  5
19E
330
1E
100
AcDbEntity
  8
0
100
AcDbLine
 10
74.0
 20
90.0
 30
0.0
 11
77.0
 21
90.0
 31
0.0
  0
LINE
  5
19F
330
1E
100
AcDbEntity
  8
0
100
AcDbLine
 10
73.3
 20
60.0
 30
0.0
 11
75.09999999999999
 21
60.0
 31
0.0
  0
LINE
  5
1A0
330
1E
100
AcDbEntity
  8
0
100
AcDbLine
 10
75.09999999999999
 20
9.77169999999999
 30
0.0
 11
77.0
 21
9.999999999999991
 31
0.0
  0
LINE
  5
1A1
330
1E
100
AcDbEntity
  8
0
100
AcDbLine
 10
71.7
 20
0.476039999999994
 30
0.0
 11
73.3
 21
0.101219999999994
 31
0.0
  0
LINE
  5
1A2
330
1E
100
AcDbEntity
  8
0
100
AcDbLine
 10
73.3
 20
0.101219999999994
 30
0.0
 11
75.09999999999999
 21
0.0262499999999942
 31
0.0
  0
LINE
  5
1A3
330
1E
100
AcDbEntity
  8
0
100
AcDbLine
 10
77.0
 20
-0.0000000000000059
 30
0.0
 11
78.9
 21
0.026249999999994
 31
0.0
  0
LINE
  5
1A4
330
1E
100
AcDbEntity
  8
0
100
AcDbLine
 10
77.0
 20
9.999999999999991
 30
0.0
 11
78.9
 21
9.77169999999999
 31
0.0
  0
LINE
  5
1A5
330
1E
100
AcDbEntity
  8
0
100
AcDbLine
 10
78.9
 20
0.026249999999994
 30
0.0
 11
80.7
 21
0.101219999999994
 31
0.0
  0
LINE
  5
1A6
330
1E
100
AcDbEntity
  8
0
100
AcDbLine
 10
82.3
 20
0.476039999999994
 30
0.0
 11
83.49999999999999
 21
1.15072999999999
 31
0.0
  0
LINE
  5
1A7
330
1E
100
AcDbEntity
  8
0
100
AcDbLine
 10
80.7
 20
0.101219999999994
 30
0.0
 11
82.3
 21
0.476039999999994
 31
0.0
  0
LINE
  5
1A8
330
1E
100
AcDbEntity
  8
0
100
AcDbLine
 10
84.19999999999999
 20
2.27519999999999
 30
0.0
 11
84.50000000000001
 21
4.26176999999999
 31
0.0
  0
LINE
  5
1A9
330
1E
100
AcDbEntity
  8
0
100
AcDbLine
 10
83.49999999999999
 20
1.15072999999999
 30
0.0
 11
84.19999999999999
 21
2.27519999999999
 31
0.0
  0
LINE
  5
1AA
330
1E
100
AcDbEntity
  8
0
100
AcDbLine
 10
84.50000000000001
 20
4.26176999999999
 30
0.0
 11
84.50000000000001
 21
60.0
 31
0.0
  0
LINE
  5
1AB
330
1E
100
AcDbEntity
  8
0
100
AcDbLine
 10
84.19999999999999
 20
5.61113999999999
 30
0.0
 11
84.50000000000001
 21
4.26176999999999
 31
0.0
  0
LINE
  5
1AC
330
1E
100
AcDbEntity
  8
0
100
AcDbLine
 10
83.49999999999999
 20
6.81057999999999
 30
0.0
 11
84.19999999999999
 21
5.61113999999999
 31
0.0
  0
LINE
  5
1AD
330
1E
100
AcDbEntity
  8
0
100
AcDbLine
 10
82.3
 20
8.01001999999999
 30
0.0
 11
83.49999999999999
 21
6.81057999999999
 31
0.0
  0
LINE
  5
1AE
330
1E
100
AcDbEntity
  8
0
100
AcDbLine
 10
79.7
 20
60.0
 30
0.0
 11
82.2
 21
60.0
 31
0.0
  0
LINE
  5
1AF
330
1E
100
AcDbEntity
  8
0
100
AcDbLine
 10
82.2
 20
60.0
 30
0.0
 11
84.40000000000001
 21
60.0
 31
0.0
  0
LINE
  5
1B0
330
1E
100
AcDbEntity
  8
0
100
AcDbLine
 10
84.40000000000001
 20
60.0
 30
0.0
 11
86.09999999999999
 21
60.0
 31
0.0
  0
LINE
  5
1B1
330
1E
100
AcDbEntity
  8
0
100
AcDbLine
 10
87.5
 20
60.0
 30
0.0
 11
88.49999999999999
 21
90.0
 31
0.0
  0
LINE
  5
1B2
330
1E
100
AcDbEntity
  8
0
100
AcDbLine
 10
87.09999999999999
 20
60.0
 30
0.0
 11
87.5
 21
60.0
 31
0.0
  0
LINE
  5
1B3
330
1E
100
AcDbEntity
  8
0
100
AcDbLine
 10
86.09999999999999
 20
60.0
 30
0.0
 11
87.09999999999999
 21
60.0
 31
0.0
  0
LINE
  5
1B4
330
1E
100
AcDbEntity
  8
0
100
AcDbLine
 10
84.19999999999999
 20
60.0
 30
0.0
 11
84.50000000000001
 21
60.0
 31
0.0
  0
LINE
  5
1B5
330
1E
100
AcDbEntity
  8
0
100
AcDbLine
 10
84.50000000000001
 20
60.0
 30
0.0
 11
84.50000000000001
 21
4.261769999999999
 31
0.0
  0
LINE
  5
1B6
330
1E
100
AcDbEntity
  8
0
100
AcDbLine
 10
84.50000000000001
 20
60.0
 30
0.0
 11
86.09999999999999
 21
60.0
 31
0.0
  0
LINE
  5
1B7
330
1E
100
AcDbEntity
  8
0
100
AcDbLine
 10
83.49999999999999
 20
60.0
 30
0.0
 11
84.19999999999999
 21
60.0
 31
0.0
  0
LINE
  5
1B8
330
1E
100
AcDbEntity
  8
0
100
AcDbLine
 10
82.3
 20
60.0
 30
0.0
 11
83.49999999999999
 21
60.0
 31
0.0
  0
LINE
  5
1B9
330
1E
100
AcDbEntity
  8
0
100
AcDbLine
 10
80.7
 20
60.0
 30
0.0
 11
82.3
 21
60.0
 31
0.0
  0
LINE
  5
1BA
330
1E
100
AcDbEntity
  8
0
100
AcDbLine
 10
80.7
 20
9.05953
 30
0.0
 11
82.3
 21
8.01001999999999
 31
0.0
  0
LINE
  5
1BB
330
1E
100
AcDbEntity
  8
0
100
AcDbLine
 10
78.9
 20
9.77169999999999
 30
0.0
 11
80.7
 21
9.05953
 31
0.0
  0
LINE
  5
1BC
330
1E
100
AcDbEntity
  8
0
100
AcDbLine
 10
78.9
 20
60.0
 30
0.0
 11
80.7
 21
60.0
 31
0.0
  0
LINE
  5
1BD
330
1E
100
AcDbEntity
  8
0
100
AcDbLine
 10
77.0
 20
60.0
 30
0.0
 11
78.9
 21
60.0
 31
0.0
  0
LINE
  5
1BE
330
1E
100
AcDbEntity
  8
0
100
AcDbLine
 10
77.0
 20
60.0
 30
0.0
 11
79.7
 21
60.0
 31
0.0
  0
LINE
  5
1BF
330
1E
100
AcDbEntity
  8
0
100
AcDbLine
 10
85.09999999999999
 20
90.0
 30
0.0
 11
87.0
 21
90.0
 31
0.0
  0
LINE
  5
1C0
330
1E
100
AcDbEntity
  8
0
100
AcDbLine
 10
82.70000000000001
 20
90.0
 30
0.0
 11
85.09999999999999
 21
90.0
 31
0.0
  0
LINE
  5
1C1
330
1E
100
AcDbEntity
  8
0
100
AcDbLine
 10
80.0
 20
90.0
 30
0.0
 11
82.70000000000001
 21
90.0
 31
0.0
  0
LINE
  5
1C2
330
1E
100
AcDbEntity
  8
0
100
AcDbLine
 10
77.0
 20
90.0
 30
0.0
 11
80.0
 21
90.0
 31
0.0
  0
LINE
  5
1C3
330
1E
100
AcDbEntity
  8
0
100
AcDbLine
 10
87.0
 20
91.0
 30
0.0
 11
87.0
 21
90.0
 31
0.0
  0
LINE
  5
1C4
330
1E
100
AcDbEntity
  8
0
100
AcDbLine
 10
87.0
 20
91.0
 30
0.0
 11
100.0
 21
91.0
 31
0.0
  0
LINE
  5
1C5
330
1E
100
AcDbEntity
  8
0
100
AcDbLine
 10
88.1
 20
90.0
 30
0.0
 11
88.49999999999999
 21
90.0
 31
0.0
  0
LINE
  5
1C6
330
1E
100
AcDbEntity
  8
0
100
AcDbLine
 10
100.0
 20
91.0
 30
0.0
 11
100.0
 21
92.0714
 31
0.0
  0
LINE
  5
1C7
330
1E
100
AcDbEntity
  8
0
100
AcDbLine
 10
100.0
 20
92.0714
 30
0.0
 11
100.0
 21
95.07139999999999
 31
0.0
  0
LINE
  5
1C8
330
1E
100
AcDbEntity
  8
0
100
AcDbLine
 10
100.0
 20
92.0714
 30
0.0
 11
100.0
 21
91.0
 31
0.0
  0
LINE
  5
1C9
330
1E
100
AcDbEntity
  8
0
100
AcDbLine
 10
100.0
 20
95.07139999999999
 30
0.0
 11
100.0
 21
99.78570000000001
 31
0.0
  0
LINE
  5
1CA
330
1E
100
AcDbEntity
  8
0
100
AcDbLine
 10
100.0
 20
95.07139999999999
 30
0.0
 11
100.0
 21
92.0714
 31
0.0
  0
LINE
  5
1CB
330
1E
100
AcDbEntity
  8
0
100
AcDbLine
 10
100.0
 20
99.78570000000001
 30
0.0
 11
100.0
 21
106.107
 31
0.0
  0
LINE
  5
1CC
330
1E
100
AcDbEntity
  8
0
100
AcDbLine
 10
100.0
 20
99.78570000000001
 30
0.0
 11
100.0
 21
95.07139999999999
 31
0.0
  0
LINE
  5
1CD
330
1E
100
AcDbEntity
  8
0
100
AcDbLine
 10
100.0
 20
106.107
 30
0.0
 11
100.0
 21
113.2859999999999
 31
0.0
  0
LINE
  5
1CE
330
1E
100
AcDbEntity
  8
0
100
AcDbLine
 10
100.0
 20
106.107
 30
0.0
 11
100.0
 21
99.78570000000001
 31
0.0
  0
LINE
  5
1CF
330
1E
100
AcDbEntity
  8
0
100
AcDbLine
 10
100.0
 20
151.0
 30
0.0
 11
100.0
 21
149.929
 31
0.0
  0
LINE
  5
1D0
330
1E
100
AcDbEntity
  8
0
100
AcDbLine
 10
100.0
 20
149.929
 30
0.0
 11
100.0
 21
151.0
 31
0.0
  0
LINE
  5
1D1
330
1E
100
AcDbEntity
  8
0
100
AcDbLine
 10
100.0
 20
149.929
 30
0.0
 11
100.0
 21
146.9289999999999
 31
0.0
  0
LINE
  5
1D2
330
1E
100
AcDbEntity
  8
0
100
AcDbLine
 10
100.0
 20
146.9289999999999
 30
0.0
 11
100.0
 21
149.929
 31
0.0
  0
LINE
  5
1D3
330
1E
100
AcDbEntity
  8
0
100
AcDbLine
 10
100.0
 20
146.9289999999999
 30
0.0
 11
100.0
 21
142.2139999999999
 31
0.0
  0
LINE
  5
1D4
330
1E
100
AcDbEntity
  8
0
100
AcDbLine
 10
100.0
 20
142.2139999999999
 30
0.0
 11
100.0
 21
146.9289999999999
 31
0.0
  0
LINE
  5
1D5
330
1E
100
AcDbEntity
  8
0
100
AcDbLine
 10
100.0
 20
142.2139999999999
 30
0.0
 11
100.0
 21
135.8929999999999
 31
0.0
  0
LINE
  5
1D6
330
1E
100
AcDbEntity
  8
0
100
AcDbLine
 10
100.0
 20
135.8929999999999
 30
0.0
 11
100.0
 21
142.2139999999999
 31
0.0
  0
LINE
  5
1D7
330
1E
100
AcDbEntity
  8
0
100
AcDbLine
 10
100.0
 20
135.8929999999999
 30
0.0
 11
100.0
 21
128.7139999999999
 31
0.0
  0
LINE
  5
1D8
330
1E
100
AcDbEntity
  8
0
100
AcDbLine
 10
100.0
 20
128.7139999999999
 30
0.0
 11
100.0
 21
135.8929999999999
 31
0.0
  0
LINE
  5
1D9
330
1E
100
AcDbEntity
  8
0
100
AcDbLine
 10
100.0
 20
121.0
 30
0.0
 11
100.0
 21
113.2859999999999
 31
0.0
  0
LINE
  5
1DA
330
1E
100
AcDbEntity
  8
0
100
AcDbLine
 10
100.0
 20
121.0
 30
0.0
 11
100.0
 21
128.7139999999999
 31
0.0
  0
LINE
  5
1DB
330
1E
100
AcDbEntity
  8
0
100
AcDbLine
 10
100.0
 20
113.2859999999999
 30
0.0
 11
100.0
 21
121.0
 31
0.0
  0
LINE
  5
1DC
330
1E
100
AcDbEntity
  8
0
100
AcDbLine
 10
100.0
 20
113.2859999999999
 30
0.0
 11
100.0
 21
106.107
 31
0.0
  0
LINE
  5
1DD
330
1E
100
AcDbEntity
  8
0
100
AcDbLine
 10
87.0
 20
90.0
 30
0.0
 11
87.0
 21
91.0
 31
0.0
  0
LINE
  5
1DE
330
1E
100
AcDbEntity
  8
0
100
AcDbLine
 10
87.0
 20
90.0
 30
0.0
 11
88.1
 21
90.0
 31
0.0
  0
LINE
  5
1DF
330
1E
100
AcDbEntity
  8
0
100
AcDbLine
 10
75.09999999999999
 20
60.0
 30
0.0
 11
77.0
 21
60.0
 31
0.0
  0
LINE
  5
1E0
330
1E
100
AcDbEntity
  8
0
100
AcDbLine
 10
75.09999999999999
 20
0.0262499999999942
 30
0.0
 11
77.0
 21
-0.0000000000000059
 31
0.0
  0
LINE
  5
1E1
330
1E
100
AcDbEntity
  8
0
100
AcDbLine
 10
21.2
 20
183.0
 30
0.0
 11
21.49999999999999
 21
192.0
 31
0.0
  0
LINE
  5
1E2
330
1E
100
AcDbEntity
  8
0
100
AcDbLine
 10
21.0
 20
195.5
 30
0.0
 11
21.49999999999999
 21
192.0
 31
0.0
  0
LINE
  5
1E3
330
1E
100
AcDbEntity
  8
0
100
AcDbLine
 10
20.0
 20
198.0
 30
0.0
 11
21.0
 21
195.5
 31
0.0
  0
LINE
  5
1E4
330
1E
100
AcDbEntity
  8
0
100
AcDbLine
 10
18.5
 20
200.0
 30
0.0
 11
20.0
 21
198.0
 31
0.0
  0
LINE
  5
1E5
330
1E
100
AcDbEntity
  8
0
100
AcDbLine
 10
16.5
 20
201.5
 30
0.0
 11
18.5
 21
200.0
 31
0.0
  0
LINE
  5
1E6
330
1E
100
AcDbEntity
  8
0
100
AcDbLine
 10
14.0
 20
202.0
 30
0.0
 11
16.5
 21
201.5
 31
0.0
  0
LINE
  5
1EB
330
1E
100
AcDbEntity
  8
0
100
AcDbLine
 10
27.6212426631885
 20
130.3787573368119
 30
0.0
 11
27.6212426631885
 21
111.621242663188
 31
0.0
  0
ENDSEC
  0
SECTION
  2
OBJECTS
  0
DICTIONARY
  5
C
330
0
100
AcDbDictionary
281
     1
  3
ACAD_GROUP
350
D
  3
ACAD_LAYOUT
350
19
  3
ACAD_MLINESTYLE
350
16
  3
ACAD_PLOTSETTINGS
350
18
  3
ACAD_PLOTSTYLENAME
350
E
  3
AcDbVariableDictionary
350
1EC
  0
DICTIONARY
  5
D
102
{ACAD_REACTORS
330
C
102
}
330
C
100
AcDbDictionary
281
     1
  0
DICTIONARY
  5
19
102
{ACAD_REACTORS
330
C
102
}
330
C
100
AcDbDictionary
281
     1
  3
Layout1
350
1D
  3
Model
350
21
  0
DICTIONARY
  5
16
102
{ACAD_REACTORS
330
C
102
}
330
C
100
AcDbDictionary
281
     1
  3
Standard
350
17
  0
DICTIONARY
  5
18
102
{ACAD_REACTORS
330
C
102
}
330
C
100
AcDbDictionary
281
     1
  0
ACDBDICTIONARYWDFLT
  5
E
102
{ACAD_REACTORS
330
C
102
}
330
C
100
AcDbDictionary
281
     1
  3
Normal
350
F
100
AcDbDictionaryWithDefault
340
F
  0
DICTIONARY
  5
1EC
102
{ACAD_REACTORS
330
C
102
}
330
C
100
AcDbDictionary
281
     1
  3
DIMASSOC
350
1ED
  0
LAYOUT
  5
1D
102
{ACAD_REACTORS
330
19
102
}
330
19
100
AcDbPlotSettings
  1

  2
hp deskjet 980c series
  4

  6

 40
0.0
 41
0.0
 42
0.0
 43
0.0
 44
0.0
 45
0.0
 46
0.0
 47
0.0
 48
0.0
 49
0.0
140
0.0
141
0.0
142
1.0
143
1.0
 70
   688
 72
     0
 73
     0
 74
     5
  7

 75
    16
147
1.0
148
0.0
149
0.0
100
AcDbLayout
  1
Layout1
 70
     1
 71
     1
 10
0.0
 20
0.0
 11
12.0
 21
9.0
 12
0.0
 22
0.0
 32
0.0
 14
1.000000000000000E+20
 24
1.000000000000000E+20
 34
1.000000000000000E+20
 15
-1.000000000000000E+20
 25
-1.000000000000000E+20
 35
-1.000000000000000E+20
146
0.0
 13
0.0
 23
0.0
 33
0.0
 16
1.0
 26
0.0
 36
0.0
 17
0.0
 27
1.0
 37
0.0
 76
     0
330
1A
  0
LAYOUT
  5
21
102
{ACAD_REACTORS
330
19
102
}
330
19
100
AcDbPlotSettings
  1

  2
hp deskjet 980c series
  4

  6

 40
0.0
 41
0.0
 42
0.0
 43
0.0
 44
0.0
 45
0.0
 46
0.0
 47
0.0
 48
0.0
 49
0.0
140
0.0
141
0.0
142
1.0
143
1.0
 70
  1712
 72
     0
 73
     0
 74
     0
  7

 75
     0
147
1.0
148
0.0
149
0.0
100
AcDbLayout
  1
Model
 70
     1
 71
     0
 10
0.0
 20
0.0
 11
12.0
 21
9.0
 12
0.0
 22
0.0
 32
0.0
 14
0.0
 24
0.0
 34
0.0
 15
0.0
 25
0.0
 35
0.0
146
0.0
 13
0.0
 23
0.0
 33
0.0
 16
1.0
 26
0.0
 36
0.0
 17
0.0
 27
1.0
 37
0.0
 76
     0
330
1E
  0
MLINESTYLE
  5
17
102
{ACAD_REACTORS
330
16
102
}
330
16
100
AcDbMlineStyle
  2
STANDARD
 70
     0
  3

 62
   256
 51
90.0
 52
90.0
 71
     2
 49
0.5
 62
   256
  6
BYLAYER
 49
-0.5
 62
   256
  6
BYLAYER
  0
ACDBPLACEHOLDER
  5
F
102
{ACAD_REACTORS
330
E
102
}
330
E
  0
DICTIONARYVAR
  5
1ED
102
{ACAD_REACTORS
330
1EC
102
}
330
1EC
100
DictionaryVariables
280
     0
  1
1
  0
ENDSEC
  0
EOF
