  0
SECTION
  2
HEADER
  9
$ACADVER
  1
AC1015
  9
$ACADMAINTVER
 70
    13
  9
$DWGCODEPAGE
  3
ANSI_1252
  9
$INSBASE
 10
0.0
 20
0.0
 30
0.0
  9
$EXTMIN
 10
-0.0000000000000027
 20
-0.0000000000000045
 30
0.0
  9
$EXTMAX
 10
92.0
 20
170.0
 30
0.0
  9
$LIMMIN
 10
0.0
 20
0.0
  9
$LIMMAX
 10
12.0
 20
9.0
  9
$ORTHOMODE
 70
     0
  9
$REGENMODE
 70
     1
  9
$FILLMODE
 70
     1
  9
$QTEXTMODE
 70
     0
  9
$MIRRTEXT
 70
     1
  9
$LTSCALE
 40
1.0
  9
$ATTMODE
 70
     1
  9
$TEXTSIZE
 40
0.2
  9
$TRACEWID
 40
0.05
  9
$TEXTSTYLE
  7
Standard
  9
$CLAYER
  8
0
  9
$CELTYPE
  6
Continuous
  9
$CECOLOR
 62
   256
  9
$CELTSCALE
 40
1.0
  9
$DISPSILH
 70
     0
  9
$DIMSCALE
 40
1.0
  9
$DIMASZ
 40
0.18
  9
$DIMEXO
 40
0.0625
  9
$DIMDLI
 40
0.38
  9
$DIMRND
 40
0.0
  9
$DIMDLE
 40
0.0
  9
$DIMEXE
 40
0.18
  9
$DIMTP
 40
0.0
  9
$DIMTM
 40
0.0
  9
$DIMTXT
 40
0.18
  9
$DIMCEN
 40
0.09
  9
$DIMTSZ
 40
0.0
  9
$DIMTOL
 70
     0
  9
$DIMLIM
 70
     0
  9
$DIMTIH
 70
     1
  9
$DIMTOH
 70
     1
  9
$DIMSE1
 70
     0
  9
$DIMSE2
 70
     0
  9
$DIMTAD
 70
     0
  9
$DIMZIN
 70
     0
  9
$DIMBLK
  1

  9
$DIMASO
 70
     1
  9
$DIMSHO
 70
     1
  9
$DIMPOST
  1

  9
$DIMAPOST
  1

  9
$DIMALT
 70
     0
  9
$DIMALTD
 70
     2
  9
$DIMALTF
 40
25.4
  9
$DIMLFAC
 40
1.0
  9
$DIMTOFL
 70
     0
  9
$DIMTVP
 40
0.0
  9
$DIMTIX
 70
     0
  9
$DIMSOXD
 70
     0
  9
$DIMSAH
 70
     0
  9
$DIMBLK1
  1

  9
$DIMBLK2
  1

  9
$DIMSTYLE
  2
Standard
  9
$DIMCLRD
 70
     0
  9
$DIMCLRE
 70
     0
  9
$DIMCLRT
 70
     0
  9
$DIMTFAC
 40
1.0
  9
$DIMGAP
 40
0.09
  9
$DIMJUST
 70
     0
  9
$DIMSD1
 70
     0
  9
$DIMSD2
 70
     0
  9
$DIMTOLJ
 70
     1
  9
$DIMTZIN
 70
     0
  9
$DIMALTZ
 70
     0
  9
$DIMALTTZ
 70
     0
  9
$DIMUPT
 70
     0
  9
$DIMDEC
 70
     4
  9
$DIMTDEC
 70
     4
  9
$DIMALTU
 70
     2
  9
$DIMALTTD
 70
     2
  9
$DIMTXSTY
  7
Standard
  9
$DIMAUNIT
 70
     0
  9
$DIMADEC
 70
     0
  9
$DIMALTRND
 40
0.0
  9
$DIMAZIN
 70
     0
  9
$DIMDSEP
 70
    46
  9
$DIMATFIT
 70
     3
  9
$DIMFRAC
 70
     0
  9
$DIMLDRBLK
  1

  9
$DIMLUNIT
 70
     2
  9
$DIMLWD
 70
    -2
  9
$DIMLWE
 70
    -2
  9
$DIMTMOVE
 70
     0
  9
$LUNITS
 70
     2
  9
$LUPREC
 70
     4
  9
$SKETCHINC
 40
0.1
  9
$FILLETRAD
 40
0.0
  9
$AUNITS
 70
     0
  9
$AUPREC
 70
     0
  9
$MENU
  1
.
  9
$ELEVATION
 40
0.0
  9
$PELEVATION
 40
0.0
  9
$THICKNESS
 40
0.0
  9
$LIMCHECK
 70
     0
  9
$CHAMFERA
 40
0.0
  9
$CHAMFERB
 40
0.0
  9
$CHAMFERC
 40
0.0
  9
$CHAMFERD
 40
0.0
  9
$SKPOLY
 70
     0
  9
$TDCREATE
 40
2454752.765194942
  9
$TDUCREATE
 40
2454752.681861608
  9
$TDUPDATE
 40
2454752.766361400
  9
$TDUUPDATE
 40
2454752.683028067
  9
$TDINDWG
 40
0.0011666319
  9
$TDUSRTIMER
 40
0.0011666319
  9
$USRTIMER
 70
     1
  9
$ANGBASE
 50
0.0
  9
$ANGDIR
 70
     0
  9
$PDMODE
 70
     0
  9
$PDSIZE
 40
0.0
  9
$PLINEWID
 40
0.0
  9
$SPLFRAME
 70
     0
  9
$SPLINETYPE
 70
     6
  9
$SPLINESEGS
 70
     8
  9
$HANDSEED
  5
329
  9
$SURFTAB1
 70
     6
  9
$SURFTAB2
 70
     6
  9
$SURFTYPE
 70
     6
  9
$SURFU
 70
     6
  9
$SURFV
 70
     6
  9
$UCSBASE
  2

  9
$UCSNAME
  2

  9
$UCSORG
 10
0.0
 20
0.0
 30
0.0
  9
$UCSXDIR
 10
1.0
 20
0.0
 30
0.0
  9
$UCSYDIR
 10
0.0
 20
1.0
 30
0.0
  9
$UCSORTHOREF
  2

  9
$UCSORTHOVIEW
 70
     1
  9
$UCSORGTOP
 10
0.0
 20
0.0
 30
0.0
  9
$UCSORGBOTTOM
 10
0.0
 20
0.0
 30
0.0
  9
$UCSORGLEFT
 10
0.0
 20
0.0
 30
0.0
  9
$UCSORGRIGHT
 10
0.0
 20
0.0
 30
0.0
  9
$UCSORGFRONT
 10
0.0
 20
0.0
 30
0.0
  9
$UCSORGBACK
 10
0.0
 20
0.0
 30
0.0
  9
$PUCSBASE
  2

  9
$PUCSNAME
  2

  9
$PUCSORG
 10
0.0
 20
0.0
 30
0.0
  9
$PUCSXDIR
 10
1.0
 20
0.0
 30
0.0
  9
$PUCSYDIR
 10
0.0
 20
1.0
 30
0.0
  9
$PUCSORTHOREF
  2

  9
$PUCSORTHOVIEW
 70
     0
  9
$PUCSORGTOP
 10
0.0
 20
0.0
 30
0.0
  9
$PUCSORGBOTTOM
 10
0.0
 20
0.0
 30
0.0
  9
$PUCSORGLEFT
 10
0.0
 20
0.0
 30
0.0
  9
$PUCSORGRIGHT
 10
0.0
 20
0.0
 30
0.0
  9
$PUCSORGFRONT
 10
0.0
 20
0.0
 30
0.0
  9
$PUCSORGBACK
 10
0.0
 20
0.0
 30
0.0
  9
$USERI1
 70
     0
  9
$USERI2
 70
     0
  9
$USERI3
 70
     0
  9
$USERI4
 70
     0
  9
$USERI5
 70
     0
  9
$USERR1
 40
0.0
  9
$USERR2
 40
0.0
  9
$USERR3
 40
0.0
  9
$USERR4
 40
0.0
  9
$USERR5
 40
0.0
  9
$WORLDVIEW
 70
     1
  9
$SHADEDGE
 70
     3
  9
$SHADEDIF
 70
    70
  9
$TILEMODE
 70
     1
  9
$MAXACTVP
 70
    64
  9
$PINSBASE
 10
0.0
 20
0.0
 30
0.0
  9
$PLIMCHECK
 70
     0
  9
$PEXTMIN
 10
1.000000000000000E+20
 20
1.000000000000000E+20
 30
1.000000000000000E+20
  9
$PEXTMAX
 10
-1.000000000000000E+20
 20
-1.000000000000000E+20
 30
-1.000000000000000E+20
  9
$PLIMMIN
 10
0.0
 20
0.0
  9
$PLIMMAX
 10
12.0
 20
9.0
  9
$UNITMODE
 70
     0
  9
$VISRETAIN
 70
     1
  9
$PLINEGEN
 70
     0
  9
$PSLTSCALE
 70
     1
  9
$TREEDEPTH
 70
  3020
  9
$CMLSTYLE
  2
Standard
  9
$CMLJUST
 70
     0
  9
$CMLSCALE
 40
1.0
  9
$PROXYGRAPHICS
 70
     1
  9
$MEASUREMENT
 70
     0
  9
$CELWEIGHT
370
    -1
  9
$ENDCAPS
280
     0
  9
$JOINSTYLE
280
     0
  9
$LWDISPLAY
290
     0
  9
$INSUNITS
 70
     0
  9
$HYPERLINKBASE
  1

  9
$STYLESHEET
  1

  9
$XEDIT
290
     1
  9
$CEPSNTYPE
380
     0
  9
$PSTYLEMODE
290
     1
  9
$FINGERPRINTGUID
  2
{3814DA0C-D155-4FE9-924A-D959A123FE59}
  9
$VERSIONGUID
  2
{BC6A4FCE-856F-4242-855B-090D96487DBB}
  9
$EXTNAMES
290
     1
  9
$PSVPSCALE
 40
0.0
  9
$OLESTARTUP
290
     0
  0
ENDSEC
  0
SECTION
  2
CLASSES
  0
CLASS
  1
ACDBDICTIONARYWDFLT
  2
AcDbDictionaryWithDefault
  3
AutoCAD 2000
 90
        0
280
     0
281
     0
  0
CLASS
  1
ACDBPLACEHOLDER
  2
AcDbPlaceHolder
  3
AutoCAD 2000
 90
        0
280
     0
281
     0
  0
CLASS
  1
LAYOUT
  2
AcDbLayout
  3
AutoCAD 2000
 90
        0
280
     0
281
     0
  0
CLASS
  1
DICTIONARYVAR
  2
AcDbDictionaryVar
  3
AutoCAD 2000
 90
        0
280
     0
281
     0
  0
ENDSEC
  0
SECTION
  2
TABLES
  0
TABLE
  2
VPORT
  5
8
330
0
100
AcDbSymbolTable
 70
     2
  0
VPORT
  5
328
330
8
100
AcDbSymbolTableRecord
100
AcDbViewportTableRecord
  2
*Active
 70
     0
 10
0.0
 20
0.0
 11
1.0
 21
1.0
 12
46.0
 22
85.0
 13
0.0
 23
0.0
 14
1.0
 24
1.0
 15
0.0
 25
0.0
 16
0.0
 26
0.0
 36
1.0
 17
0.0
 27
0.0
 37
0.0
 40
171.3043478260869
 41
2.078104993597951
 42
50.0
 43
0.0
 44
0.0
 50
0.0
 51
0.0
 71
     0
 72
   100
 73
     1
 74
     3
 75
     0
 76
     0
 77
     0
 78
     0
281
     0
 65
     1
110
0.0
120
0.0
130
0.0
111
1.0
121
0.0
131
0.0
112
0.0
122
1.0
132
0.0
 79
     1
146
0.0
  0
ENDTAB
  0
TABLE
  2
LTYPE
  5
5
330
0
100
AcDbSymbolTable
 70
     1
  0
LTYPE
  5
13
330
5
100
AcDbSymbolTableRecord
100
AcDbLinetypeTableRecord
  2
ByBlock
 70
     0
  3

 72
    65
 73
     0
 40
0.0
  0
LTYPE
  5
14
330
5
100
AcDbSymbolTableRecord
100
AcDbLinetypeTableRecord
  2
ByLayer
 70
     0
  3

 72
    65
 73
     0
 40
0.0
  0
LTYPE
  5
15
330
5
100
AcDbSymbolTableRecord
100
AcDbLinetypeTableRecord
  2
Continuous
 70
     0
  3
Solid line
 72
    65
 73
     0
 40
0.0
  0
ENDTAB
  0
TABLE
  2
LAYER
  5
2
330
0
100
AcDbSymbolTable
 70
     1
  0
LAYER
  5
10
330
2
100
AcDbSymbolTableRecord
100
AcDbLayerTableRecord
  2
0
 70
     0
 62
     7
  6
Continuous
370
    -3
390
F
  0
ENDTAB
  0
TABLE
  2
STYLE
  5
3
330
0
100
AcDbSymbolTable
 70
     1
  0
STYLE
  5
11
330
3
100
AcDbSymbolTableRecord
100
AcDbTextStyleTableRecord
  2
Standard
 70
     0
 40
0.0
 41
1.0
 50
0.0
 71
     0
 42
0.2
  3
txt
  4

  0
ENDTAB
  0
TABLE
  2
VIEW
  5
6
330
0
100
AcDbSymbolTable
 70
     0
  0
ENDTAB
  0
TABLE
  2
UCS
  5
7
330
0
100
AcDbSymbolTable
 70
     0
  0
ENDTAB
  0
TABLE
  2
APPID
  5
9
330
0
100
AcDbSymbolTable
 70
     1
  0
APPID
  5
12
330
9
100
AcDbSymbolTableRecord
100
AcDbRegAppTableRecord
  2
ACAD
 70
     0
  0
ENDTAB
  0
TABLE
  2
DIMSTYLE
  5
A
330
0
100
AcDbSymbolTable
 70
     1
100
AcDbDimStyleTable
 71
     0
  0
DIMSTYLE
105
31C
330
A
100
AcDbSymbolTableRecord
100
AcDbDimStyleTableRecord
  2
Standard
 70
     0
340
11
  0
ENDTAB
  0
TABLE
  2
BLOCK_RECORD
  5
1
330
0
100
AcDbSymbolTable
 70
     0
  0
BLOCK_RECORD
  5
1E
330
1
100
AcDbSymbolTableRecord
100
AcDbBlockTableRecord
  2
*Model_Space
340
21
  0
BLOCK_RECORD
  5
1A
330
1
100
AcDbSymbolTableRecord
100
AcDbBlockTableRecord
  2
*Paper_Space
340
1D
  0
ENDTAB
  0
ENDSEC
  0
SECTION
  2
BLOCKS
  0
BLOCK
  5
1F
330
1E
100
AcDbEntity
  8
0
100
AcDbBlockBegin
  2
*Model_Space
 70
     0
 10
0.0
 20
0.0
 30
0.0
  3
*Model_Space
  1

  0
ENDBLK
  5
20
330
1E
100
AcDbEntity
  8
0
100
AcDbBlockEnd
  0
BLOCK
  5
1B
330
1A
100
AcDbEntity
 67
     1
  8
0
100
AcDbBlockBegin
  2
*Paper_Space
 70
     0
 10
0.0
 20
0.0
 30
0.0
  3
*Paper_Space
  1

  0
ENDBLK
  5
1C
330
1A
100
AcDbEntity
 67
     1
  8
0
100
AcDbBlockEnd
  0
ENDSEC
  0
SECTION
  2
ENTITIES
  0
LINE
  5
22
330
1E
100
AcDbEntity
  8
0
100
AcDbLine
 10
80.0
 20
3.0
 30
0.0
 11
80.5
 21
1.6
 31
0.0
  0
LINE
  5
23
330
1E
100
AcDbEntity
  8
0
100
AcDbLine
 10
80.0
 20
3.0
 30
0.0
 11
80.0
 21
3.799999999999999
 31
0.0
  0
LINE
  5
24
330
1E
100
AcDbEntity
  8
0
100
AcDbLine
 10
4.5
 20
39.5
 30
0.0
 11
5.5
 21
39.5
 31
0.0
  0
LINE
  5
26
330
1E
100
AcDbEntity
  8
0
100
AcDbLine
 10
4.0
 20
40.4
 30
0.0
 11
4.0
 21
40.0
 31
0.0
  0
LINE
  5
27
330
1E
100
AcDbEntity
  8
0
100
AcDbLine
 10
4.0
 20
40.4
 30
0.0
 11
4.0
 21
41.5
 31
0.0
  0
LINE
  5
28
330
1E
100
AcDbEntity
  8
0
100
AcDbLine
 10
4.0
 20
40.0
 30
0.0
 11
4.5
 21
39.5
 31
0.0
  0
LINE
  5
29
330
1E
100
AcDbEntity
  8
0
100
AcDbLine
 10
4.0
 20
40.0
 30
0.0
 11
4.0
 21
40.4
 31
0.0
  0
LINE
  5
2C
330
1E
100
AcDbEntity
  8
0
100
AcDbLine
 10
5.5
 20
39.5
 30
0.0
 11
6.0
 21
40.0
 31
0.0
  0
LINE
  5
30
330
1E
100
AcDbEntity
  8
0
100
AcDbLine
 10
4.0
 20
41.5
 30
0.0
 11
4.0
 21
40.4
 31
0.0
  0
LINE
  5
31
330
1E
100
AcDbEntity
  8
0
100
AcDbLine
 10
4.0
 20
41.5
 30
0.0
 11
4.0
 21
43.2
 31
0.0
  0
LINE
  5
36
330
1E
100
AcDbEntity
  8
0
100
AcDbLine
 10
6.0
 20
40.4
 30
0.0
 11
6.0
 21
40.0
 31
0.0
  0
LINE
  5
37
330
1E
100
AcDbEntity
  8
0
100
AcDbLine
 10
6.0
 20
40.4
 30
0.0
 11
6.0
 21
41.5
 31
0.0
  0
LINE
  5
38
330
1E
100
AcDbEntity
  8
0
100
AcDbLine
 10
6.0
 20
40.0
 30
0.0
 11
9.0
 21
39.0
 31
0.0
  0
LINE
  5
39
330
1E
100
AcDbEntity
  8
0
100
AcDbLine
 10
6.0
 20
40.0
 30
0.0
 11
6.0
 21
40.4
 31
0.0
  0
LINE
  5
3C
330
1E
100
AcDbEntity
  8
0
100
AcDbLine
 10
1.5
 20
43.79999999999999
 30
0.0
 11
4.0
 21
40.0
 31
0.0
  0
LINE
  5
3D
330
1E
100
AcDbEntity
  8
0
100
AcDbLine
 10
4.0
 20
43.2
 30
0.0
 11
4.0
 21
41.5
 31
0.0
  0
LINE
  5
3E
330
1E
100
AcDbEntity
  8
0
100
AcDbLine
 10
4.0
 20
43.2
 30
0.0
 11
4.0
 21
45.49999999999999
 31
0.0
  0
LINE
  5
3F
330
1E
100
AcDbEntity
  8
0
100
AcDbLine
 10
0.199999999999997
 20
47.7
 30
0.0
 11
1.5
 21
43.79999999999999
 31
0.0
  0
LINE
  5
40
330
1E
100
AcDbEntity
  8
0
100
AcDbLine
 10
4.0
 20
45.49999999999999
 30
0.0
 11
4.0
 21
43.2
 31
0.0
  0
LINE
  5
41
330
1E
100
AcDbEntity
  8
0
100
AcDbLine
 10
4.0
 20
45.49999999999999
 30
0.0
 11
4.0
 21
48.2
 31
0.0
  0
LINE
  5
43
330
1E
100
AcDbEntity
  8
0
100
AcDbLine
 10
4.0
 20
48.2
 30
0.0
 11
4.0
 21
51.0
 31
0.0
  0
LINE
  5
44
330
1E
100
AcDbEntity
  8
0
100
AcDbLine
 10
4.0
 20
48.2
 30
0.0
 11
4.0
 21
45.49999999999999
 31
0.0
  0
LINE
  5
4A
330
1E
100
AcDbEntity
  8
0
100
AcDbLine
 10
6.0
 20
43.2
 30
0.0
 11
6.0
 21
45.49999999999999
 31
0.0
  0
LINE
  5
4D
330
1E
100
AcDbEntity
  8
0
100
AcDbLine
 10
6.0
 20
41.5
 30
0.0
 11
6.0
 21
43.2
 31
0.0
  0
LINE
  5
4E
330
1E
100
AcDbEntity
  8
0
100
AcDbLine
 10
6.0
 20
41.5
 30
0.0
 11
6.0
 21
40.4
 31
0.0
  0
LINE
  5
4F
330
1E
100
AcDbEntity
  8
0
100
AcDbLine
 10
6.0
 20
45.49999999999999
 30
0.0
 11
6.0
 21
43.2
 31
0.0
  0
LINE
  5
50
330
1E
100
AcDbEntity
  8
0
100
AcDbLine
 10
6.0
 20
45.49999999999999
 30
0.0
 11
6.0
 21
48.2
 31
0.0
  0
LINE
  5
51
330
1E
100
AcDbEntity
  8
0
100
AcDbLine
 10
-0.0000000000000027
 20
51.0
 30
0.0
 11
0.199999999999997
 21
54.29999999999999
 31
0.0
  0
LINE
  5
52
330
1E
100
AcDbEntity
  8
0
100
AcDbLine
 10
-0.0000000000000027
 20
51.0
 30
0.0
 11
0.199999999999997
 21
47.7
 31
0.0
  0
LINE
  5
53
330
1E
100
AcDbEntity
  8
0
100
AcDbLine
 10
4.0
 20
51.0
 30
0.0
 11
4.0
 21
53.79999999999999
 31
0.0
  0
LINE
  5
54
330
1E
100
AcDbEntity
  8
0
100
AcDbLine
 10
-0.0000000000000027
 20
51.0
 30
0.0
 11
0.199999999999997
 21
54.29999999999999
 31
0.0
  0
LINE
  5
55
330
1E
100
AcDbEntity
  8
0
100
AcDbLine
 10
-0.0000000000000027
 20
51.0
 30
0.0
 11
0.199999999999997
 21
47.7
 31
0.0
  0
LINE
  5
56
330
1E
100
AcDbEntity
  8
0
100
AcDbLine
 10
0.199999999999998
 20
54.29999999999999
 30
0.0
 11
1.5
 21
58.2
 31
0.0
  0
LINE
  5
57
330
1E
100
AcDbEntity
  8
0
100
AcDbLine
 10
0.199999999999997
 20
54.29999999999999
 30
0.0
 11
1.5
 21
58.2
 31
0.0
  0
LINE
  5
58
330
1E
100
AcDbEntity
  8
0
100
AcDbLine
 10
4.0
 20
56.5
 30
0.0
 11
4.0
 21
53.79999999999999
 31
0.0
  0
LINE
  5
59
330
1E
100
AcDbEntity
  8
0
100
AcDbLine
 10
4.0
 20
56.5
 30
0.0
 11
4.0
 21
58.79999999999999
 31
0.0
  0
LINE
  5
5B
330
1E
100
AcDbEntity
  8
0
100
AcDbLine
 10
4.0
 20
53.79999999999999
 30
0.0
 11
4.0
 21
51.0
 31
0.0
  0
LINE
  5
5C
330
1E
100
AcDbEntity
  8
0
100
AcDbLine
 10
4.0
 20
53.79999999999999
 30
0.0
 11
4.0
 21
56.5
 31
0.0
  0
LINE
  5
62
330
1E
100
AcDbEntity
  8
0
100
AcDbLine
 10
6.0
 20
48.2
 30
0.0
 11
6.0
 21
45.49999999999999
 31
0.0
  0
LINE
  5
63
330
1E
100
AcDbEntity
  8
0
100
AcDbLine
 10
6.0
 20
48.2
 30
0.0
 11
6.0
 21
51.0
 31
0.0
  0
LINE
  5
64
330
1E
100
AcDbEntity
  8
0
100
AcDbLine
 10
6.0
 20
51.0
 30
0.0
 11
6.0
 21
48.2
 31
0.0
  0
LINE
  5
65
330
1E
100
AcDbEntity
  8
0
100
AcDbLine
 10
6.0
 20
51.0
 30
0.0
 11
6.0
 21
53.79999999999999
 31
0.0
  0
LINE
  5
66
330
1E
100
AcDbEntity
  8
0
100
AcDbLine
 10
4.0
 20
58.79999999999999
 30
0.0
 11
4.0
 21
60.5
 31
0.0
  0
LINE
  5
67
330
1E
100
AcDbEntity
  8
0
100
AcDbLine
 10
1.5
 20
58.2
 30
0.0
 11
4.0
 21
62.0
 31
0.0
  0
LINE
  5
6C
330
1E
100
AcDbEntity
  8
0
100
AcDbLine
 10
4.0
 20
60.5
 30
0.0
 11
4.0
 21
58.79999999999999
 31
0.0
  0
LINE
  5
6D
330
1E
100
AcDbEntity
  8
0
100
AcDbLine
 10
4.0
 20
60.5
 30
0.0
 11
4.0
 21
61.6
 31
0.0
  0
LINE
  5
72
330
1E
100
AcDbEntity
  8
0
100
AcDbLine
 10
4.0
 20
61.6
 30
0.0
 11
4.0
 21
60.5
 31
0.0
  0
LINE
  5
73
330
1E
100
AcDbEntity
  8
0
100
AcDbLine
 10
4.0
 20
61.6
 30
0.0
 11
4.0
 21
62.0
 31
0.0
  0
LINE
  5
78
330
1E
100
AcDbEntity
  8
0
100
AcDbLine
 10
4.0
 20
62.0
 30
0.0
 11
4.5
 21
62.5
 31
0.0
  0
LINE
  5
79
330
1E
100
AcDbEntity
  8
0
100
AcDbLine
 10
4.0
 20
62.0
 30
0.0
 11
4.0
 21
61.6
 31
0.0
  0
LINE
  5
7A
330
1E
100
AcDbEntity
  8
0
100
AcDbLine
 10
6.0
 20
61.6
 30
0.0
 11
6.0
 21
60.5
 31
0.0
  0
LINE
  5
7B
330
1E
100
AcDbEntity
  8
0
100
AcDbLine
 10
6.0
 20
61.6
 30
0.0
 11
6.0
 21
62.0
 31
0.0
  0
LINE
  5
7C
330
1E
100
AcDbEntity
  8
0
100
AcDbLine
 10
6.0
 20
60.5
 30
0.0
 11
6.0
 21
58.79999999999999
 31
0.0
  0
LINE
  5
7D
330
1E
100
AcDbEntity
  8
0
100
AcDbLine
 10
6.0
 20
60.5
 30
0.0
 11
6.0
 21
61.6
 31
0.0
  0
LINE
  5
7E
330
1E
100
AcDbEntity
  8
0
100
AcDbLine
 10
6.0
 20
58.79999999999999
 30
0.0
 11
6.0
 21
56.5
 31
0.0
  0
LINE
  5
7F
330
1E
100
AcDbEntity
  8
0
100
AcDbLine
 10
6.0
 20
58.79999999999999
 30
0.0
 11
6.0
 21
60.5
 31
0.0
  0
LINE
  5
80
330
1E
100
AcDbEntity
  8
0
100
AcDbLine
 10
6.0
 20
56.5
 30
0.0
 11
6.0
 21
53.79999999999999
 31
0.0
  0
LINE
  5
81
330
1E
100
AcDbEntity
  8
0
100
AcDbLine
 10
6.0
 20
56.5
 30
0.0
 11
6.0
 21
58.79999999999999
 31
0.0
  0
LINE
  5
82
330
1E
100
AcDbEntity
  8
0
100
AcDbLine
 10
7.0
 20
32.0
 30
0.0
 11
8.0
 21
36.0
 31
0.0
  0
LINE
  5
83
330
1E
100
AcDbEntity
  8
0
100
AcDbLine
 10
6.799999999999999
 20
29.0
 30
0.0
 11
7.0
 21
32.0
 31
0.0
  0
LINE
  5
84
330
1E
100
AcDbEntity
  8
0
100
AcDbLine
 10
6.5
 20
25.0
 30
0.0
 11
7.0
 21
21.49999999999999
 31
0.0
  0
LINE
  5
85
330
1E
100
AcDbEntity
  8
0
100
AcDbLine
 10
6.5
 20
25.0
 30
0.0
 11
6.799999999999999
 21
29.0
 31
0.0
  0
LINE
  5
86
330
1E
100
AcDbEntity
  8
0
100
AcDbLine
 10
7.0
 20
21.49999999999999
 30
0.0
 11
7.99999999999999
 21
19.0
 31
0.0
  0
LINE
  5
87
330
1E
100
AcDbEntity
  8
0
100
AcDbLine
 10
8.0
 20
36.0
 30
0.0
 11
9.117647058823528
 21
38.98039215686269
 31
0.0
  0
LINE
  5
88
330
1E
100
AcDbEntity
  8
0
100
AcDbLine
 10
7.99999999999999
 20
19.0
 30
0.0
 11
9.499999999999991
 21
17.0
 31
0.0
  0
LINE
  5
89
330
1E
100
AcDbEntity
  8
0
100
AcDbLine
 10
6.799999999999999
 20
49.0
 30
0.0
 11
7.5
 21
47.2
 31
0.0
  0
LINE
  5
8A
330
1E
100
AcDbEntity
  8
0
100
AcDbLine
 10
6.5
 20
51.0
 30
0.0
 11
6.799999999999999
 21
53.0
 31
0.0
  0
LINE
  5
8B
330
1E
100
AcDbEntity
  8
0
100
AcDbLine
 10
6.5
 20
51.0
 30
0.0
 11
6.799999999999999
 21
49.0
 31
0.0
  0
LINE
  5
8C
330
1E
100
AcDbEntity
  8
0
100
AcDbLine
 10
7.5
 20
47.2
 30
0.0
 11
8.699999999999999
 21
45.7
 31
0.0
  0
LINE
  5
8D
330
1E
100
AcDbEntity
  8
0
100
AcDbLine
 10
8.699999999999999
 20
45.7
 30
0.0
 11
10.2
 21
44.5
 31
0.0
  0
LINE
  5
8E
330
1E
100
AcDbEntity
  8
0
100
AcDbLine
 10
6.799999999999999
 20
53.0
 30
0.0
 11
7.5
 21
54.8
 31
0.0
  0
LINE
  5
8F
330
1E
100
AcDbEntity
  8
0
100
AcDbLine
 10
7.5
 20
54.8
 30
0.0
 11
8.699999999999999
 21
56.29999999999999
 31
0.0
  0
LINE
  5
90
330
1E
100
AcDbEntity
  8
0
100
AcDbLine
 10
8.699999999999999
 20
56.29999999999999
 30
0.0
 11
10.2
 21
57.5
 31
0.0
  0
LINE
  5
91
330
1E
100
AcDbEntity
  8
0
100
AcDbLine
 10
9.0
 20
39.0
 30
0.0
 11
9.117647058823528
 21
38.98039215686269
 31
0.0
  0
LINE
  5
92
330
1E
100
AcDbEntity
  8
0
100
AcDbLine
 10
6.0
 20
53.79999999999999
 30
0.0
 11
6.0
 21
51.0
 31
0.0
  0
LINE
  5
93
330
1E
100
AcDbEntity
  8
0
100
AcDbLine
 10
6.0
 20
53.79999999999999
 30
0.0
 11
6.0
 21
56.5
 31
0.0
  0
LINE
  5
98
330
1E
100
AcDbEntity
  8
0
100
AcDbLine
 10
4.5
 20
62.5
 30
0.0
 11
5.5
 21
62.5
 31
0.0
  0
LINE
  5
9C
330
1E
100
AcDbEntity
  8
0
100
AcDbLine
 10
6.0
 20
62.0
 30
0.0
 11
9.0
 21
63.0
 31
0.0
  0
LINE
  5
9D
330
1E
100
AcDbEntity
  8
0
100
AcDbLine
 10
6.0
 20
62.0
 30
0.0
 11
6.0
 21
61.6
 31
0.0
  0
LINE
  5
9E
330
1E
100
AcDbEntity
  8
0
100
AcDbLine
 10
9.499999999999991
 20
17.0
 30
0.0
 11
11.5
 21
15.5
 31
0.0
  0
LINE
  5
9F
330
1E
100
AcDbEntity
  8
0
100
AcDbLine
 10
18.5
 20
17.0
 30
0.0
 11
20.0
 21
19.0
 31
0.0
  0
LINE
  5
A0
330
1E
100
AcDbEntity
  8
0
100
AcDbLine
 10
16.5
 20
15.5
 30
0.0
 11
18.5
 21
17.0
 31
0.0
  0
LINE
  5
A1
330
1E
100
AcDbEntity
  8
0
100
AcDbLine
 10
14.0
 20
15.0
 30
0.0
 11
16.5
 21
15.5
 31
0.0
  0
LINE
  5
A2
330
1E
100
AcDbEntity
  8
0
100
AcDbLine
 10
11.5
 20
15.5
 30
0.0
 11
14.0
 21
15.0
 31
0.0
  0
LINE
  5
A3
330
1E
100
AcDbEntity
  8
0
100
AcDbLine
 10
18.8823529411765
 20
38.98039215686269
 30
0.0
 11
19.0
 21
39.0
 31
0.0
  0
LINE
  5
A4
330
1E
100
AcDbEntity
  8
0
100
AcDbLine
 10
18.8823529411765
 20
38.98039215686269
 30
0.0
 11
20.0
 21
36.0
 31
0.0
  0
LINE
  5
A5
330
1E
100
AcDbEntity
  8
0
100
AcDbLine
 10
20.0
 20
36.0
 30
0.0
 11
21.0
 21
32.0
 31
0.0
  0
LINE
  5
A6
330
1E
100
AcDbEntity
  8
0
100
AcDbLine
 10
21.0
 20
32.0
 30
0.0
 11
21.2
 21
29.0
 31
0.0
  0
LINE
  5
A7
330
1E
100
AcDbEntity
  8
0
100
AcDbLine
 10
21.2
 20
29.0
 30
0.0
 11
21.49999999999999
 21
25.0
 31
0.0
  0
LINE
  5
A8
330
1E
100
AcDbEntity
  8
0
100
AcDbLine
 10
21.0
 20
21.49999999999999
 30
0.0
 11
21.49999999999999
 21
25.0
 31
0.0
  0
LINE
  5
A9
330
1E
100
AcDbEntity
  8
0
100
AcDbLine
 10
20.0
 20
19.0
 30
0.0
 11
21.0
 21
21.49999999999999
 31
0.0
  0
LINE
  5
AA
330
1E
100
AcDbEntity
  8
0
100
AcDbLine
 10
19.0
 20
39.0
 30
0.0
 11
22.0
 21
40.0
 31
0.0
  0
LINE
  5
AB
330
1E
100
AcDbEntity
  8
0
100
AcDbLine
 10
10.2
 20
44.5
 30
0.0
 11
12.0
 21
43.79999999999999
 31
0.0
  0
LINE
  5
AC
330
1E
100
AcDbEntity
  8
0
100
AcDbLine
 10
14.0
 20
43.5
 30
0.0
 11
16.0
 21
43.79999999999999
 31
0.0
  0
LINE
  5
AD
330
1E
100
AcDbEntity
  8
0
100
AcDbLine
 10
12.0
 20
43.79999999999999
 30
0.0
 11
14.0
 21
43.5
 31
0.0
  0
LINE
  5
AE
330
1E
100
AcDbEntity
  8
0
100
AcDbLine
 10
10.2
 20
57.5
 30
0.0
 11
12.0
 21
58.2
 31
0.0
  0
LINE
  5
AF
330
1E
100
AcDbEntity
  8
0
100
AcDbLine
 10
12.0
 20
58.2
 30
0.0
 11
14.0
 21
58.5
 31
0.0
  0
LINE
  5
B0
330
1E
100
AcDbEntity
  8
0
100
AcDbLine
 10
17.8
 20
44.5
 30
0.0
 11
19.3
 21
45.7
 31
0.0
  0
LINE
  5
B1
330
1E
100
AcDbEntity
  8
0
100
AcDbLine
 10
16.0
 20
43.79999999999999
 30
0.0
 11
17.8
 21
44.5
 31
0.0
  0
LINE
  5
B2
330
1E
100
AcDbEntity
  8
0
100
AcDbLine
 10
20.5
 20
47.2
 30
0.0
 11
21.2
 21
49.0
 31
0.0
  0
LINE
  5
B3
330
1E
100
AcDbEntity
  8
0
100
AcDbLine
 10
19.3
 20
45.7
 30
0.0
 11
20.5
 21
47.2
 31
0.0
  0
LINE
  5
B4
330
1E
100
AcDbEntity
  8
0
100
AcDbLine
 10
21.2
 20
49.0
 30
0.0
 11
21.49999999999999
 21
51.0
 31
0.0
  0
LINE
  5
B5
330
1E
100
AcDbEntity
  8
0
100
AcDbLine
 10
21.2
 20
53.0
 30
0.0
 11
21.49999999999999
 21
51.0
 31
0.0
  0
LINE
  5
B6
330
1E
100
AcDbEntity
  8
0
100
AcDbLine
 10
20.5
 20
54.8
 30
0.0
 11
21.2
 21
53.0
 31
0.0
  0
LINE
  5
B7
330
1E
100
AcDbEntity
  8
0
100
AcDbLine
 10
19.3
 20
56.29999999999999
 30
0.0
 11
20.5
 21
54.8
 31
0.0
  0
LINE
  5
B8
330
1E
100
AcDbEntity
  8
0
100
AcDbLine
 10
17.8
 20
57.5
 30
0.0
 11
19.3
 21
56.29999999999999
 31
0.0
  0
LINE
  5
B9
330
1E
100
AcDbEntity
  8
0
100
AcDbLine
 10
16.0
 20
58.2
 30
0.0
 11
17.8
 21
57.5
 31
0.0
  0
LINE
  5
BA
330
1E
100
AcDbEntity
  8
0
100
AcDbLine
 10
14.0
 20
58.5
 30
0.0
 11
16.0
 21
58.2
 31
0.0
  0
LINE
  5
BB
330
1E
100
AcDbEntity
  8
0
100
AcDbLine
 10
22.0
 20
40.0
 30
0.0
 11
25.0
 21
42.0
 31
0.0
  0
LINE
  5
BC
330
1E
100
AcDbEntity
  8
0
100
AcDbLine
 10
9.0
 20
63.0
 30
0.0
 11
9.117647058823528
 21
63.01960784313729
 31
0.0
  0
LINE
  5
BD
330
1E
100
AcDbEntity
  8
0
100
AcDbLine
 10
7.0
 20
70.0
 30
0.0
 11
8.0
 21
66.0
 31
0.0
  0
LINE
  5
BE
330
1E
100
AcDbEntity
  8
0
100
AcDbLine
 10
6.799999999999999
 20
73.0
 30
0.0
 11
7.0
 21
70.0
 31
0.0
  0
LINE
  5
BF
330
1E
100
AcDbEntity
  8
0
100
AcDbLine
 10
6.5
 20
77.0
 30
0.0
 11
7.0
 21
80.5
 31
0.0
  0
LINE
  5
C0
330
1E
100
AcDbEntity
  8
0
100
AcDbLine
 10
6.5
 20
77.0
 30
0.0
 11
6.799999999999999
 21
73.0
 31
0.0
  0
LINE
  5
C1
330
1E
100
AcDbEntity
  8
0
100
AcDbLine
 10
8.0
 20
66.0
 30
0.0
 11
9.117647058823528
 21
63.01960784313729
 31
0.0
  0
LINE
  5
C2
330
1E
100
AcDbEntity
  8
0
100
AcDbLine
 10
7.0
 20
80.5
 30
0.0
 11
8.0
 21
83.0
 31
0.0
  0
LINE
  5
C3
330
1E
100
AcDbEntity
  8
0
100
AcDbLine
 10
8.0
 20
83.0
 30
0.0
 11
9.5
 21
85.0
 31
0.0
  0
LINE
  5
C4
330
1E
100
AcDbEntity
  8
0
100
AcDbLine
 10
9.5
 20
85.0
 30
0.0
 11
11.5
 21
86.5
 31
0.0
  0
LINE
  5
C5
330
1E
100
AcDbEntity
  8
0
100
AcDbLine
 10
11.5
 20
86.5
 30
0.0
 11
14.0
 21
87.0
 31
0.0
  0
LINE
  5
C6
330
1E
100
AcDbEntity
  8
0
100
AcDbLine
 10
18.5
 20
85.0
 30
0.0
 11
20.0
 21
83.0
 31
0.0
  0
LINE
  5
C7
330
1E
100
AcDbEntity
  8
0
100
AcDbLine
 10
16.5
 20
86.5
 30
0.0
 11
18.5
 21
85.0
 31
0.0
  0
LINE
  5
C8
330
1E
100
AcDbEntity
  8
0
100
AcDbLine
 10
14.0
 20
87.0
 30
0.0
 11
16.5
 21
86.5
 31
0.0
  0
LINE
  5
C9
330
1E
100
AcDbEntity
  8
0
100
AcDbLine
 10
20.0
 20
66.0
 30
0.0
 11
21.0
 21
70.0
 31
0.0
  0
LINE
  5
CA
330
1E
100
AcDbEntity
  8
0
100
AcDbLine
 10
21.0
 20
70.0
 30
0.0
 11
21.2
 21
73.0
 31
0.0
  0
LINE
  5
CB
330
1E
100
AcDbEntity
  8
0
100
AcDbLine
 10
21.2
 20
73.0
 30
0.0
 11
21.49999999999999
 21
77.0
 31
0.0
  0
LINE
  5
CC
330
1E
100
AcDbEntity
  8
0
100
AcDbLine
 10
21.0
 20
80.5
 30
0.0
 11
21.49999999999999
 21
77.0
 31
0.0
  0
LINE
  5
CD
330
1E
100
AcDbEntity
  8
0
100
AcDbLine
 10
20.0
 20
83.0
 30
0.0
 11
21.0
 21
80.5
 31
0.0
  0
LINE
  5
CE
330
1E
100
AcDbEntity
  8
0
100
AcDbLine
 10
18.8823529411765
 20
63.01960784313729
 30
0.0
 11
19.0
 21
63.0
 31
0.0
  0
LINE
  5
CF
330
1E
100
AcDbEntity
  8
0
100
AcDbLine
 10
18.8823529411765
 20
63.01960784313729
 30
0.0
 11
20.0
 21
66.0
 31
0.0
  0
LINE
  5
D0
330
1E
100
AcDbEntity
  8
0
100
AcDbLine
 10
19.0
 20
63.0
 30
0.0
 11
22.0
 21
62.0
 31
0.0
  0
LINE
  5
D1
330
1E
100
AcDbEntity
  8
0
100
AcDbLine
 10
25.0
 20
42.0
 30
0.0
 11
25.0
 21
42.29999999999999
 31
0.0
  0
LINE
  5
D2
330
1E
100
AcDbEntity
  8
0
100
AcDbLine
 10
25.0
 20
42.0
 30
0.0
 11
26.0
 21
41.0
 31
0.0
  0
LINE
  5
D3
330
1E
100
AcDbEntity
  8
0
100
AcDbLine
 10
25.0
 20
42.29999999999999
 30
0.0
 11
25.0
 21
43.2
 31
0.0
  0
LINE
  5
D4
330
1E
100
AcDbEntity
  8
0
100
AcDbLine
 10
25.0
 20
42.29999999999999
 30
0.0
 11
25.0
 21
42.0
 31
0.0
  0
LINE
  5
D5
330
1E
100
AcDbEntity
  8
0
100
AcDbLine
 10
25.0
 20
43.2
 30
0.0
 11
25.0
 21
44.59999999999999
 31
0.0
  0
LINE
  5
D6
330
1E
100
AcDbEntity
  8
0
100
AcDbLine
 10
25.0
 20
44.59999999999999
 30
0.0
 11
25.0
 21
46.5
 31
0.0
  0
LINE
  5
D7
330
1E
100
AcDbEntity
  8
0
100
AcDbLine
 10
25.0
 20
44.59999999999999
 30
0.0
 11
25.0
 21
43.2
 31
0.0
  0
LINE
  5
D8
330
1E
100
AcDbEntity
  8
0
100
AcDbLine
 10
25.0
 20
46.5
 30
0.0
 11
25.0
 21
48.7
 31
0.0
  0
LINE
  5
D9
330
1E
100
AcDbEntity
  8
0
100
AcDbLine
 10
25.0
 20
46.5
 30
0.0
 11
25.0
 21
44.59999999999999
 31
0.0
  0
LINE
  5
DA
330
1E
100
AcDbEntity
  8
0
100
AcDbLine
 10
26.0
 20
41.0
 30
0.0
 11
27.0
 21
41.0
 31
0.0
  0
LINE
  5
DE
330
1E
100
AcDbEntity
  8
0
100
AcDbLine
 10
27.0
 20
41.0
 30
0.0
 11
28.0
 21
42.0
 31
0.0
  0
LINE
  5
E2
330
1E
100
AcDbEntity
  8
0
100
AcDbLine
 10
60.0
 20
26.0
 30
0.0
 11
60.0
 21
26.89999999999999
 31
0.0
  0
LINE
  5
E3
330
1E
100
AcDbEntity
  8
0
100
AcDbLine
 10
60.0
 20
26.0
 30
0.0
 11
61.0
 21
25.0
 31
0.0
  0
LINE
  5
E4
330
1E
100
AcDbEntity
  8
0
100
AcDbLine
 10
60.0
 20
26.89999999999999
 30
0.0
 11
60.0
 21
26.0
 31
0.0
  0
LINE
  5
E5
330
1E
100
AcDbEntity
  8
0
100
AcDbLine
 10
60.0
 20
26.89999999999999
 30
0.0
 11
60.0
 21
27.0
 31
0.0
  0
LINE
  5
E6
330
1E
100
AcDbEntity
  8
0
100
AcDbLine
 10
60.0
 20
26.89999999999999
 30
0.0
 11
60.0
 21
29.3
 31
0.0
  0
LINE
  5
E7
330
1E
100
AcDbEntity
  8
0
100
AcDbLine
 10
62.0
 20
25.0
 30
0.0
 11
63.0
 21
26.0
 31
0.0
  0
LINE
  5
E9
330
1E
100
AcDbEntity
  8
0
100
AcDbLine
 10
63.0
 20
26.0
 30
0.0
 11
63.0
 21
26.89999999999999
 31
0.0
  0
LINE
  5
EA
330
1E
100
AcDbEntity
  8
0
100
AcDbLine
 10
63.0
 20
26.89999999999999
 30
0.0
 11
63.0
 21
29.3
 31
0.0
  0
LINE
  5
EB
330
1E
100
AcDbEntity
  8
0
100
AcDbLine
 10
63.0
 20
26.89999999999999
 30
0.0
 11
63.0
 21
26.0
 31
0.0
  0
LINE
  5
F0
330
1E
100
AcDbEntity
  8
0
100
AcDbLine
 10
61.0
 20
25.0
 30
0.0
 11
62.0
 21
25.0
 31
0.0
  0
LINE
  5
F2
330
1E
100
AcDbEntity
  8
0
100
AcDbLine
 10
60.0
 20
27.0
 30
0.0
 11
60.0
 21
27.9
 31
0.0
  0
LINE
  5
F3
330
1E
100
AcDbEntity
  8
0
100
AcDbLine
 10
60.0
 20
27.0
 30
0.0
 11
60.0
 21
26.89999999999999
 31
0.0
  0
LINE
  5
F8
330
1E
100
AcDbEntity
  8
0
100
AcDbLine
 10
60.0
 20
27.9
 30
0.0
 11
60.0
 21
30.2
 31
0.0
  0
LINE
  5
F9
330
1E
100
AcDbEntity
  8
0
100
AcDbLine
 10
60.0
 20
27.9
 30
0.0
 11
60.0
 21
27.0
 31
0.0
  0
LINE
  5
FA
330
1E
100
AcDbEntity
  8
0
100
AcDbLine
 10
63.0
 20
27.0
 30
0.0
 11
80.0
 21
27.0
 31
0.0
  0
LINE
  5
FB
330
1E
100
AcDbEntity
  8
0
100
AcDbLine
 10
54.5
 20
27.3
 30
0.0
 11
60.0
 21
27.0
 31
0.0
  0
LINE
  5
FC
330
1E
100
AcDbEntity
  8
0
100
AcDbLine
 10
60.0
 20
29.3
 30
0.0
 11
60.0
 21
33.39999999999999
 31
0.0
  0
LINE
  5
FD
330
1E
100
AcDbEntity
  8
0
100
AcDbLine
 10
60.0
 20
29.3
 30
0.0
 11
60.0
 21
26.89999999999999
 31
0.0
  0
LINE
  5
FE
330
1E
100
AcDbEntity
  8
0
100
AcDbLine
 10
60.0
 20
33.39999999999999
 30
0.0
 11
60.0
 21
38.6
 31
0.0
  0
LINE
  5
FF
330
1E
100
AcDbEntity
  8
0
100
AcDbLine
 10
60.0
 20
33.39999999999999
 30
0.0
 11
60.0
 21
29.3
 31
0.0
  0
LINE
  5
100
330
1E
100
AcDbEntity
  8
0
100
AcDbLine
 10
63.0
 20
29.3
 30
0.0
 11
63.0
 21
33.39999999999999
 31
0.0
  0
LINE
  5
101
330
1E
100
AcDbEntity
  8
0
100
AcDbLine
 10
63.0
 20
29.3
 30
0.0
 11
63.0
 21
26.89999999999999
 31
0.0
  0
LINE
  5
104
330
1E
100
AcDbEntity
  8
0
100
AcDbLine
 10
63.0
 20
33.39999999999999
 30
0.0
 11
63.0
 21
38.6
 31
0.0
  0
LINE
  5
105
330
1E
100
AcDbEntity
  8
0
100
AcDbLine
 10
63.0
 20
33.39999999999999
 30
0.0
 11
63.0
 21
29.3
 31
0.0
  0
LINE
  5
108
330
1E
100
AcDbEntity
  8
0
100
AcDbLine
 10
60.0
 20
30.2
 30
0.0
 11
60.0
 21
34.1
 31
0.0
  0
LINE
  5
109
330
1E
100
AcDbEntity
  8
0
100
AcDbLine
 10
60.0
 20
30.2
 30
0.0
 11
60.0
 21
27.9
 31
0.0
  0
LINE
  5
10A
330
1E
100
AcDbEntity
  8
0
100
AcDbLine
 10
49.0
 20
28.5
 30
0.0
 11
54.5
 21
27.3
 31
0.0
  0
LINE
  5
10B
330
1E
100
AcDbEntity
  8
0
100
AcDbLine
 10
42.5
 20
31.0
 30
0.0
 11
49.0
 21
28.5
 31
0.0
  0
LINE
  5
10C
330
1E
100
AcDbEntity
  8
0
100
AcDbLine
 10
60.0
 20
38.6
 30
0.0
 11
60.0
 21
44.59999999999999
 31
0.0
  0
LINE
  5
10D
330
1E
100
AcDbEntity
  8
0
100
AcDbLine
 10
60.0
 20
38.6
 30
0.0
 11
60.0
 21
33.39999999999999
 31
0.0
  0
LINE
  5
10E
330
1E
100
AcDbEntity
  8
0
100
AcDbLine
 10
60.0
 20
34.1
 30
0.0
 11
60.0
 21
39.0
 31
0.0
  0
LINE
  5
10F
330
1E
100
AcDbEntity
  8
0
100
AcDbLine
 10
60.0
 20
34.1
 30
0.0
 11
60.0
 21
30.2
 31
0.0
  0
LINE
  5
111
330
1E
100
AcDbEntity
  8
0
100
AcDbLine
 10
63.0
 20
38.6
 30
0.0
 11
63.0
 21
44.59999999999999
 31
0.0
  0
LINE
  5
112
330
1E
100
AcDbEntity
  8
0
100
AcDbLine
 10
63.0
 20
38.6
 30
0.0
 11
63.0
 21
33.39999999999999
 31
0.0
  0
LINE
  5
115
330
1E
100
AcDbEntity
  8
0
100
AcDbLine
 10
60.0
 20
39.0
 30
0.0
 11
60.0
 21
44.79999999999999
 31
0.0
  0
LINE
  5
116
330
1E
100
AcDbEntity
  8
0
100
AcDbLine
 10
60.0
 20
39.0
 30
0.0
 11
60.0
 21
34.1
 31
0.0
  0
LINE
  5
117
330
1E
100
AcDbEntity
  8
0
100
AcDbLine
 10
37.0
 20
34.0
 30
0.0
 11
42.5
 21
31.0
 31
0.0
  0
LINE
  5
118
330
1E
100
AcDbEntity
  8
0
100
AcDbLine
 10
32.0
 20
38.0
 30
0.0
 11
37.0
 21
34.0
 31
0.0
  0
LINE
  5
121
330
1E
100
AcDbEntity
  8
0
100
AcDbLine
 10
28.0
 20
42.29999999999999
 30
0.0
 11
28.0
 21
42.0
 31
0.0
  0
LINE
  5
122
330
1E
100
AcDbEntity
  8
0
100
AcDbLine
 10
28.0
 20
42.29999999999999
 30
0.0
 11
28.0
 21
43.2
 31
0.0
  0
LINE
  5
123
330
1E
100
AcDbEntity
  8
0
100
AcDbLine
 10
28.0
 20
43.2
 30
0.0
 11
28.0
 21
42.29999999999999
 31
0.0
  0
LINE
  5
124
330
1E
100
AcDbEntity
  8
0
100
AcDbLine
 10
28.0
 20
43.2
 30
0.0
 11
28.0
 21
44.59999999999999
 31
0.0
  0
LINE
  5
12D
330
1E
100
AcDbEntity
  8
0
100
AcDbLine
 10
28.0
 20
44.59999999999999
 30
0.0
 11
28.0
 21
43.2
 31
0.0
  0
LINE
  5
12E
330
1E
100
AcDbEntity
  8
0
100
AcDbLine
 10
28.0
 20
44.59999999999999
 30
0.0
 11
28.0
 21
46.5
 31
0.0
  0
LINE
  5
12F
330
1E
100
AcDbEntity
  8
0
100
AcDbLine
 10
28.0
 20
46.5
 30
0.0
 11
28.0
 21
44.59999999999999
 31
0.0
  0
LINE
  5
130
330
1E
100
AcDbEntity
  8
0
100
AcDbLine
 10
28.0
 20
46.5
 30
0.0
 11
28.0
 21
48.7
 31
0.0
  0
LINE
  5
135
330
1E
100
AcDbEntity
  8
0
100
AcDbLine
 10
28.0
 20
48.7
 30
0.0
 11
28.0
 21
46.5
 31
0.0
  0
LINE
  5
136
330
1E
100
AcDbEntity
  8
0
100
AcDbLine
 10
28.0
 20
48.7
 30
0.0
 11
28.0
 21
51.0
 31
0.0
  0
LINE
  5
139
330
1E
100
AcDbEntity
  8
0
100
AcDbLine
 10
63.0
 20
44.59999999999999
 30
0.0
 11
63.0
 21
51.0
 31
0.0
  0
LINE
  5
13A
330
1E
100
AcDbEntity
  8
0
100
AcDbLine
 10
63.0
 20
44.59999999999999
 30
0.0
 11
63.0
 21
38.6
 31
0.0
  0
LINE
  5
13D
330
1E
100
AcDbEntity
  8
0
100
AcDbLine
 10
60.0
 20
44.59999999999999
 30
0.0
 11
60.0
 21
51.0
 31
0.0
  0
LINE
  5
13E
330
1E
100
AcDbEntity
  8
0
100
AcDbLine
 10
60.0
 20
44.59999999999999
 30
0.0
 11
60.0
 21
38.6
 31
0.0
  0
LINE
  5
13F
330
1E
100
AcDbEntity
  8
0
100
AcDbLine
 10
63.0
 20
51.0
 30
0.0
 11
63.0
 21
44.59999999999999
 31
0.0
  0
LINE
  5
140
330
1E
100
AcDbEntity
  8
0
100
AcDbLine
 10
63.0
 20
51.0
 30
0.0
 11
63.0
 21
57.4
 31
0.0
  0
LINE
  5
145
330
1E
100
AcDbEntity
  8
0
100
AcDbLine
 10
60.0
 20
51.0
 30
0.0
 11
60.0
 21
44.79999999999999
 31
0.0
  0
LINE
  5
146
330
1E
100
AcDbEntity
  8
0
100
AcDbLine
 10
60.0
 20
51.0
 30
0.0
 11
60.0
 21
44.59999999999999
 31
0.0
  0
LINE
  5
147
330
1E
100
AcDbEntity
  8
0
100
AcDbLine
 10
60.0
 20
51.0
 30
0.0
 11
60.0
 21
57.4
 31
0.0
  0
LINE
  5
148
330
1E
100
AcDbEntity
  8
0
100
AcDbLine
 10
60.0
 20
44.79999999999999
 30
0.0
 11
60.0
 21
51.0
 31
0.0
  0
LINE
  5
149
330
1E
100
AcDbEntity
  8
0
100
AcDbLine
 10
60.0
 20
44.79999999999999
 30
0.0
 11
60.0
 21
39.0
 31
0.0
  0
LINE
  5
14A
330
1E
100
AcDbEntity
  8
0
100
AcDbLine
 10
28.0
 20
51.0
 30
0.0
 11
28.0
 21
48.7
 31
0.0
  0
LINE
  5
14B
330
1E
100
AcDbEntity
  8
0
100
AcDbLine
 10
28.0
 20
51.0
 30
0.0
 11
28.0
 21
53.3
 31
0.0
  0
LINE
  5
14C
330
1E
100
AcDbEntity
  8
0
100
AcDbLine
 10
28.0
 20
42.0
 30
0.0
 11
32.0
 21
38.0
 31
0.0
  0
LINE
  5
14D
330
1E
100
AcDbEntity
  8
0
100
AcDbLine
 10
28.0
 20
42.0
 30
0.0
 11
28.0
 21
42.29999999999999
 31
0.0
  0
LINE
  5
14E
330
1E
100
AcDbEntity
  8
0
100
AcDbLine
 10
25.0
 20
48.7
 30
0.0
 11
25.0
 21
51.0
 31
0.0
  0
LINE
  5
14F
330
1E
100
AcDbEntity
  8
0
100
AcDbLine
 10
25.0
 20
48.7
 30
0.0
 11
25.0
 21
46.5
 31
0.0
  0
LINE
  5
150
330
1E
100
AcDbEntity
  8
0
100
AcDbLine
 10
25.0
 20
60.0
 30
0.0
 11
26.0
 21
61.0
 31
0.0
  0
LINE
  5
151
330
1E
100
AcDbEntity
  8
0
100
AcDbLine
 10
25.0
 20
60.0
 30
0.0
 11
25.0
 21
59.7
 31
0.0
  0
LINE
  5
152
330
1E
100
AcDbEntity
  8
0
100
AcDbLine
 10
25.0
 20
59.7
 30
0.0
 11
25.0
 21
60.0
 31
0.0
  0
LINE
  5
153
330
1E
100
AcDbEntity
  8
0
100
AcDbLine
 10
25.0
 20
59.7
 30
0.0
 11
25.0
 21
58.79999999999999
 31
0.0
  0
LINE
  5
154
330
1E
100
AcDbEntity
  8
0
100
AcDbLine
 10
25.0
 20
58.79999999999999
 30
0.0
 11
25.0
 21
59.7
 31
0.0
  0
LINE
  5
155
330
1E
100
AcDbEntity
  8
0
100
AcDbLine
 10
25.0
 20
58.79999999999999
 30
0.0
 11
25.0
 21
57.4
 31
0.0
  0
LINE
  5
156
330
1E
100
AcDbEntity
  8
0
100
AcDbLine
 10
25.0
 20
57.4
 30
0.0
 11
25.0
 21
58.79999999999999
 31
0.0
  0
LINE
  5
157
330
1E
100
AcDbEntity
  8
0
100
AcDbLine
 10
25.0
 20
57.4
 30
0.0
 11
25.0
 21
55.5
 31
0.0
  0
LINE
  5
158
330
1E
100
AcDbEntity
  8
0
100
AcDbLine
 10
25.0
 20
55.5
 30
0.0
 11
25.0
 21
57.4
 31
0.0
  0
LINE
  5
159
330
1E
100
AcDbEntity
  8
0
100
AcDbLine
 10
25.0
 20
55.5
 30
0.0
 11
25.0
 21
53.3
 31
0.0
  0
LINE
  5
16A
330
1E
100
AcDbEntity
  8
0
100
AcDbLine
 10
28.0
 20
59.7
 30
0.0
 11
28.0
 21
58.79999999999999
 31
0.0
  0
LINE
  5
16B
330
1E
100
AcDbEntity
  8
0
100
AcDbLine
 10
28.0
 20
59.7
 30
0.0
 11
28.0
 21
60.0
 31
0.0
  0
LINE
  5
16C
330
1E
100
AcDbEntity
  8
0
100
AcDbLine
 10
28.0
 20
58.79999999999999
 30
0.0
 11
28.0
 21
57.4
 31
0.0
  0
LINE
  5
16D
330
1E
100
AcDbEntity
  8
0
100
AcDbLine
 10
28.0
 20
58.79999999999999
 30
0.0
 11
28.0
 21
59.7
 31
0.0
  0
LINE
  5
16E
330
1E
100
AcDbEntity
  8
0
100
AcDbLine
 10
28.0
 20
57.4
 30
0.0
 11
28.0
 21
55.5
 31
0.0
  0
LINE
  5
16F
330
1E
100
AcDbEntity
  8
0
100
AcDbLine
 10
28.0
 20
57.4
 30
0.0
 11
28.0
 21
58.79999999999999
 31
0.0
  0
LINE
  5
170
330
1E
100
AcDbEntity
  8
0
100
AcDbLine
 10
28.0
 20
55.5
 30
0.0
 11
28.0
 21
53.3
 31
0.0
  0
LINE
  5
171
330
1E
100
AcDbEntity
  8
0
100
AcDbLine
 10
28.0
 20
55.5
 30
0.0
 11
28.0
 21
57.4
 31
0.0
  0
LINE
  5
172
330
1E
100
AcDbEntity
  8
0
100
AcDbLine
 10
63.0
 20
57.4
 30
0.0
 11
63.0
 21
63.39999999999999
 31
0.0
  0
LINE
  5
173
330
1E
100
AcDbEntity
  8
0
100
AcDbLine
 10
63.0
 20
57.4
 30
0.0
 11
63.0
 21
51.0
 31
0.0
  0
LINE
  5
178
330
1E
100
AcDbEntity
  8
0
100
AcDbLine
 10
60.0
 20
57.4
 30
0.0
 11
60.0
 21
63.0
 31
0.0
  0
LINE
  5
179
330
1E
100
AcDbEntity
  8
0
100
AcDbLine
 10
60.0
 20
57.4
 30
0.0
 11
60.0
 21
63.39999999999999
 31
0.0
  0
LINE
  5
17A
330
1E
100
AcDbEntity
  8
0
100
AcDbLine
 10
28.0
 20
53.3
 30
0.0
 11
28.0
 21
51.0
 31
0.0
  0
LINE
  5
17B
330
1E
100
AcDbEntity
  8
0
100
AcDbLine
 10
28.0
 20
53.3
 30
0.0
 11
28.0
 21
55.5
 31
0.0
  0
LINE
  5
180
330
1E
100
AcDbEntity
  8
0
100
AcDbLine
 10
26.0
 20
61.0
 30
0.0
 11
27.0
 21
61.0
 31
0.0
  0
LINE
  5
182
330
1E
100
AcDbEntity
  8
0
100
AcDbLine
 10
27.0
 20
61.0
 30
0.0
 11
28.0
 21
60.0
 31
0.0
  0
LINE
  5
184
330
1E
100
AcDbEntity
  8
0
100
AcDbLine
 10
60.0
 20
63.39999999999999
 30
0.0
 11
60.0
 21
68.59999999999999
 31
0.0
  0
LINE
  5
185
330
1E
100
AcDbEntity
  8
0
100
AcDbLine
 10
60.0
 20
63.39999999999999
 30
0.0
 11
60.0
 21
57.4
 31
0.0
  0
LINE
  5
186
330
1E
100
AcDbEntity
  8
0
100
AcDbLine
 10
60.0
 20
67.9
 30
0.0
 11
60.0
 21
71.79999999999999
 31
0.0
  0
LINE
  5
187
330
1E
100
AcDbEntity
  8
0
100
AcDbLine
 10
60.0
 20
67.9
 30
0.0
 11
60.0
 21
63.0
 31
0.0
  0
LINE
  5
188
330
1E
100
AcDbEntity
  8
0
100
AcDbLine
 10
63.0
 20
63.39999999999999
 30
0.0
 11
63.0
 21
68.59999999999999
 31
0.0
  0
LINE
  5
189
330
1E
100
AcDbEntity
  8
0
100
AcDbLine
 10
63.0
 20
63.39999999999999
 30
0.0
 11
63.0
 21
57.4
 31
0.0
  0
LINE
  5
18E
330
1E
100
AcDbEntity
  8
0
100
AcDbLine
 10
60.0
 20
63.0
 30
0.0
 11
60.0
 21
67.9
 31
0.0
  0
LINE
  5
18F
330
1E
100
AcDbEntity
  8
0
100
AcDbLine
 10
60.0
 20
63.0
 30
0.0
 11
60.0
 21
57.4
 31
0.0
  0
LINE
  5
193
330
1E
100
AcDbEntity
  8
0
100
AcDbLine
 10
47.78599999999999
 20
73.25289999999999
 30
0.0
 11
47.839394386019
 21
73.0536132253919
 31
0.0
  0
LINE
  5
197
330
1E
100
AcDbEntity
  8
0
100
AcDbLine
 10
44.1117
 20
75.3742
 30
0.0
 11
44.9104
 21
75.4847
 31
0.0
  0
LINE
  5
199
330
1E
100
AcDbEntity
  8
0
100
AcDbLine
 10
44.9104
 20
75.4847
 30
0.0
 11
46.2506
 21
75.1191
 31
0.0
  0
LINE
  5
19A
330
1E
100
AcDbEntity
  8
0
100
AcDbLine
 10
46.2506
 20
75.1191
 30
0.0
 11
47.3081
 21
74.2637
 31
0.0
  0
LINE
  5
19B
330
1E
100
AcDbEntity
  8
0
100
AcDbLine
 10
47.3081
 20
74.2637
 30
0.0
 11
47.78599999999999
 21
73.25289999999999
 31
0.0
  0
LINE
  5
19C
330
1E
100
AcDbEntity
  8
0
100
AcDbLine
 10
43.3649
 20
75.0706
 30
0.0
 11
44.1117
 21
75.3742
 31
0.0
  0
LINE
  5
19D
330
1E
100
AcDbEntity
  8
0
100
AcDbLine
 10
42.3869
 20
74.0838
 30
0.0
 11
43.3649
 21
75.0706
 31
0.0
  0
LINE
  5
19F
330
1E
100
AcDbEntity
  8
0
100
AcDbLine
 10
41.8989
 20
72.8143
 30
0.0
 11
41.9904
 21
71.7
 31
0.0
  0
LINE
  5
1A0
330
1E
100
AcDbEntity
  8
0
100
AcDbLine
 10
41.8989
 20
72.8143
 30
0.0
 11
42.3869
 21
74.0838
 31
0.0
  0
LINE
  5
1A1
330
1E
100
AcDbEntity
  8
0
100
AcDbLine
 10
41.9904
 20
71.7
 30
0.0
 11
42.21906458722229
 21
70.84676250212119
 31
0.0
  0
LINE
  5
1A2
330
1E
100
AcDbEntity
  8
0
100
AcDbLine
 10
60.0
 20
72.7
 30
0.0
 11
60.0
 21
75.09999999999999
 31
0.0
  0
LINE
  5
1A3
330
1E
100
AcDbEntity
  8
0
100
AcDbLine
 10
60.0
 20
72.7
 30
0.0
 11
60.0
 21
68.59999999999999
 31
0.0
  0
LINE
  5
1A4
330
1E
100
AcDbEntity
  8
0
100
AcDbLine
 10
60.0
 20
68.59999999999999
 30
0.0
 11
60.0
 21
72.7
 31
0.0
  0
LINE
  5
1A5
330
1E
100
AcDbEntity
  8
0
100
AcDbLine
 10
60.0
 20
68.59999999999999
 30
0.0
 11
60.0
 21
63.39999999999999
 31
0.0
  0
LINE
  5
1A6
330
1E
100
AcDbEntity
  8
0
100
AcDbLine
 10
63.0
 20
68.59999999999999
 30
0.0
 11
63.0
 21
72.7
 31
0.0
  0
LINE
  5
1A7
330
1E
100
AcDbEntity
  8
0
100
AcDbLine
 10
63.0
 20
68.59999999999999
 30
0.0
 11
63.0
 21
63.39999999999999
 31
0.0
  0
LINE
  5
1AA
330
1E
100
AcDbEntity
  8
0
100
AcDbLine
 10
63.0
 20
72.7
 30
0.0
 11
63.0
 21
75.09999999999999
 31
0.0
  0
LINE
  5
1AB
330
1E
100
AcDbEntity
  8
0
100
AcDbLine
 10
63.0
 20
72.7
 30
0.0
 11
63.0
 21
68.59999999999999
 31
0.0
  0
LINE
  5
1B2
330
1E
100
AcDbEntity
  8
0
100
AcDbLine
 10
60.0
 20
71.79999999999999
 30
0.0
 11
60.0
 21
74.1
 31
0.0
  0
LINE
  5
1B3
330
1E
100
AcDbEntity
  8
0
100
AcDbLine
 10
60.0
 20
71.79999999999999
 30
0.0
 11
60.0
 21
67.9
 31
0.0
  0
LINE
  5
1B4
330
1E
100
AcDbEntity
  8
0
100
AcDbLine
 10
60.0
 20
76.0
 30
0.0
 11
60.0
 21
75.09999999999999
 31
0.0
  0
LINE
  5
1B5
330
1E
100
AcDbEntity
  8
0
100
AcDbLine
 10
60.0
 20
76.0
 30
0.0
 11
61.0
 21
77.0
 31
0.0
  0
LINE
  5
1B6
330
1E
100
AcDbEntity
  8
0
100
AcDbLine
 10
63.0
 20
76.0
 30
0.0
 11
63.0
 21
75.09999999999999
 31
0.0
  0
LINE
  5
1B7
330
1E
100
AcDbEntity
  8
0
100
AcDbLine
 10
63.0
 20
75.09999999999999
 30
0.0
 11
63.0
 21
76.0
 31
0.0
  0
LINE
  5
1B8
330
1E
100
AcDbEntity
  8
0
100
AcDbLine
 10
63.0
 20
75.09999999999999
 30
0.0
 11
63.0
 21
72.7
 31
0.0
  0
LINE
  5
1BC
330
1E
100
AcDbEntity
  8
0
100
AcDbLine
 10
62.0
 20
77.0
 30
0.0
 11
63.0
 21
76.0
 31
0.0
  0
LINE
  5
1BE
330
1E
100
AcDbEntity
  8
0
100
AcDbLine
 10
61.0
 20
77.0
 30
0.0
 11
62.0
 21
77.0
 31
0.0
  0
LINE
  5
1C1
330
1E
100
AcDbEntity
  8
0
100
AcDbLine
 10
60.0
 20
75.09999999999999
 30
0.0
 11
60.0
 21
76.0
 31
0.0
  0
LINE
  5
1C2
330
1E
100
AcDbEntity
  8
0
100
AcDbLine
 10
60.0
 20
75.09999999999999
 30
0.0
 11
60.0
 21
72.7
 31
0.0
  0
LINE
  5
1C3
330
1E
100
AcDbEntity
  8
0
100
AcDbLine
 10
60.0
 20
75.09999999999999
 30
0.0
 11
60.0
 21
75.0
 31
0.0
  0
LINE
  5
1C4
330
1E
100
AcDbEntity
  8
0
100
AcDbLine
 10
60.0
 20
75.0
 30
0.0
 11
60.0
 21
74.1
 31
0.0
  0
LINE
  5
1C5
330
1E
100
AcDbEntity
  8
0
100
AcDbLine
 10
60.0
 20
75.0
 30
0.0
 11
60.0
 21
75.09999999999999
 31
0.0
  0
LINE
  5
1C6
330
1E
100
AcDbEntity
  8
0
100
AcDbLine
 10
63.0
 20
75.0
 30
0.0
 11
80.0
 21
75.0
 31
0.0
  0
LINE
  5
1C7
330
1E
100
AcDbEntity
  8
0
100
AcDbLine
 10
60.0
 20
74.1
 30
0.0
 11
60.0
 21
75.0
 31
0.0
  0
LINE
  5
1C8
330
1E
100
AcDbEntity
  8
0
100
AcDbLine
 10
60.0
 20
74.1
 30
0.0
 11
60.0
 21
71.79999999999999
 31
0.0
  0
LINE
  5
1C9
330
1E
100
AcDbEntity
  8
0
100
AcDbLine
 10
54.5
 20
74.7
 30
0.0
 11
60.0
 21
75.0
 31
0.0
  0
LINE
  5
1CA
330
1E
100
AcDbEntity
  8
0
100
AcDbLine
 10
49.0
 20
73.5
 30
0.0
 11
54.5
 21
74.7
 31
0.0
  0
LINE
  5
1CB
330
1E
100
AcDbEntity
  8
0
100
AcDbLine
 10
47.839394386019
 20
73.0536132253919
 30
0.0
 11
49.0
 21
73.5
 31
0.0
  0
LINE
  5
1CC
330
1E
100
AcDbEntity
  8
0
100
AcDbLine
 10
37.0
 20
68.0
 30
0.0
 11
42.21906458722229
 21
70.84676250212119
 31
0.0
  0
LINE
  5
1CD
330
1E
100
AcDbEntity
  8
0
100
AcDbLine
 10
32.0
 20
64.0
 30
0.0
 11
37.0
 21
68.0
 31
0.0
  0
LINE
  5
1CE
330
1E
100
AcDbEntity
  8
0
100
AcDbLine
 10
28.0
 20
60.0
 30
0.0
 11
32.0
 21
64.0
 31
0.0
  0
LINE
  5
1CF
330
1E
100
AcDbEntity
  8
0
100
AcDbLine
 10
28.0
 20
60.0
 30
0.0
 11
28.0
 21
59.7
 31
0.0
  0
LINE
  5
1D0
330
1E
100
AcDbEntity
  8
0
100
AcDbLine
 10
25.0
 20
53.3
 30
0.0
 11
25.0
 21
55.5
 31
0.0
  0
LINE
  5
1D1
330
1E
100
AcDbEntity
  8
0
100
AcDbLine
 10
25.0
 20
53.3
 30
0.0
 11
25.0
 21
51.0
 31
0.0
  0
LINE
  5
1D2
330
1E
100
AcDbEntity
  8
0
100
AcDbLine
 10
25.0
 20
51.0
 30
0.0
 11
25.0
 21
53.3
 31
0.0
  0
LINE
  5
1D3
330
1E
100
AcDbEntity
  8
0
100
AcDbLine
 10
25.0
 20
51.0
 30
0.0
 11
25.0
 21
48.7
 31
0.0
  0
LINE
  5
1D4
330
1E
100
AcDbEntity
  8
0
100
AcDbLine
 10
22.0
 20
62.0
 30
0.0
 11
25.0
 21
60.0
 31
0.0
  0
LINE
  5
1D5
330
1E
100
AcDbEntity
  8
0
100
AcDbLine
 10
40.0941776119402
 20
125.5550431000949
 30
0.0
 11
40.2725
 21
126.606
 31
0.0
  0
LINE
  5
1D6
330
1E
100
AcDbEntity
  8
0
100
AcDbLine
 10
40.0
 20
125.0
 30
0.0
 11
40.2725
 21
123.394
 31
0.0
  0
LINE
  5
1D7
330
1E
100
AcDbEntity
  8
0
100
AcDbLine
 10
41.779
 20
129.349
 30
0.0
 11
45.45
 21
132.562
 31
0.0
  0
LINE
  5
1D8
330
1E
100
AcDbEntity
  8
0
100
AcDbLine
 10
41.391
 20
129.676
 30
0.0
 11
42.823
 21
134.7649999999999
 31
0.0
  0
LINE
  5
1D9
330
1E
100
AcDbEntity
  8
0
100
AcDbLine
 10
42.823
 20
134.7649999999999
 30
0.0
 11
45.52399999999999
 21
140.4579999999999
 31
0.0
  0
LINE
  5
1DA
330
1E
100
AcDbEntity
  8
0
100
AcDbLine
 10
45.45
 20
132.562
 30
0.0
 11
50.89999999999999
 21
135.24
 31
0.0
  0
LINE
  5
1DE
330
1E
100
AcDbEntity
  8
0
100
AcDbLine
 10
40.2725
 20
123.394
 30
0.0
 11
42.38459999999999
 21
119.913
 31
0.0
  0
LINE
  5
1DF
330
1E
100
AcDbEntity
  8
0
100
AcDbLine
 10
42.38459999999999
 20
119.913
 30
0.0
 11
45.45049999999999
 21
117.1689999999999
 31
0.0
  0
LINE
  5
1E0
330
1E
100
AcDbEntity
  8
0
100
AcDbLine
 10
57.71399999999999
 20
137.5149999999999
 30
0.0
 11
64.5275
 21
138.787
 31
0.0
  0
LINE
  5
1E1
330
1E
100
AcDbEntity
  8
0
100
AcDbLine
 10
50.89999999999999
 20
135.24
 30
0.0
 11
57.71399999999999
 21
137.5149999999999
 31
0.0
  0
LINE
  5
1E2
330
1E
100
AcDbEntity
  8
0
100
AcDbLine
 10
45.52399999999999
 20
140.4579999999999
 30
0.0
 11
50.01699999999999
 21
146.711
 31
0.0
  0
LINE
  5
1E3
330
1E
100
AcDbEntity
  8
0
100
AcDbLine
 10
57.22100000000001
 20
153.9089999999999
 30
0.0
 11
67.25
 21
158.74
 31
0.0
  0
LINE
  5
1E4
330
1E
100
AcDbEntity
  8
0
100
AcDbLine
 10
45.45049999999999
 20
117.1689999999999
 30
0.0
 11
50.9011
 21
114.3579999999999
 31
0.0
  0
LINE
  5
1E5
330
1E
100
AcDbEntity
  8
0
100
AcDbLine
 10
50.9011
 20
114.3579999999999
 30
0.0
 11
57.7143
 21
112.016
 31
0.0
  0
LINE
  5
1E7
330
1E
100
AcDbEntity
  8
0
100
AcDbLine
 10
67.23829999999999
 20
158.2179999999999
 30
0.0
 11
67.37
 21
157.1929999999999
 31
0.0
  0
LINE
  5
1E8
330
1E
100
AcDbEntity
  8
0
100
AcDbLine
 10
67.23829999999999
 20
158.2179999999999
 30
0.0
 11
67.25
 21
158.74
 31
0.0
  0
LINE
  5
1E9
330
1E
100
AcDbEntity
  8
0
100
AcDbLine
 10
64.5275
 20
138.787
 30
0.0
 11
70.318
 21
139.7239999999999
 31
0.0
  0
LINE
  5
1EA
330
1E
100
AcDbEntity
  8
0
100
AcDbLine
 10
67.37
 20
157.1929999999999
 30
0.0
 11
70.31870000000001
 21
140.2599999999999
 31
0.0
  0
LINE
  5
1EC
330
1E
100
AcDbEntity
  8
0
100
AcDbLine
 10
57.7143
 20
112.016
 30
0.0
 11
64.5275
 21
110.677
 31
0.0
  0
LINE
  5
1ED
330
1E
100
AcDbEntity
  8
0
100
AcDbLine
 10
64.5275
 20
110.677
 30
0.0
 11
68.27469999999999
 21
110.0079999999999
 31
0.0
  0
LINE
  5
1EE
330
1E
100
AcDbEntity
  8
0
100
AcDbLine
 10
70.31870000000001
 20
110.276
 30
0.0
 11
70.31870000000001
 21
111.8149999999999
 31
0.0
  0
LINE
  5
1EF
330
1E
100
AcDbEntity
  8
0
100
AcDbLine
 10
70.31870000000001
 20
110.276
 30
0.0
 11
70.31870000000001
 21
109.7399999999999
 31
0.0
  0
LINE
  5
1F0
330
1E
100
AcDbEntity
  8
0
100
AcDbLine
 10
70.31870000000001
 20
111.8149999999999
 30
0.0
 11
70.31870000000001
 21
110.276
 31
0.0
  0
LINE
  5
1F1
330
1E
100
AcDbEntity
  8
0
100
AcDbLine
 10
70.31870000000001
 20
111.8149999999999
 30
0.0
 11
70.31870000000001
 21
114.2239999999999
 31
0.0
  0
LINE
  5
1F2
330
1E
100
AcDbEntity
  8
0
100
AcDbLine
 10
70.31870000000001
 20
121.0509999999999
 30
0.0
 11
70.31870000000001
 21
125.0
 31
0.0
  0
LINE
  5
1F3
330
1E
100
AcDbEntity
  8
0
100
AcDbLine
 10
70.31870000000001
 20
121.0509999999999
 30
0.0
 11
70.31870000000001
 21
117.3699999999999
 31
0.0
  0
LINE
  5
1F4
330
1E
100
AcDbEntity
  8
0
100
AcDbLine
 10
70.31870000000001
 20
138.185
 30
0.0
 11
70.31870000000001
 21
135.776
 31
0.0
  0
LINE
  5
1F5
330
1E
100
AcDbEntity
  8
0
100
AcDbLine
 10
70.31870000000001
 20
135.776
 30
0.0
 11
70.31870000000001
 21
138.185
 31
0.0
  0
LINE
  5
1F6
330
1E
100
AcDbEntity
  8
0
100
AcDbLine
 10
70.31870000000001
 20
135.776
 30
0.0
 11
70.31870000000001
 21
132.63
 31
0.0
  0
LINE
  5
1F7
330
1E
100
AcDbEntity
  8
0
100
AcDbLine
 10
70.31870000000001
 20
132.63
 30
0.0
 11
70.31870000000001
 21
135.776
 31
0.0
  0
LINE
  5
1F8
330
1E
100
AcDbEntity
  8
0
100
AcDbLine
 10
70.31870000000001
 20
132.63
 30
0.0
 11
70.31870000000001
 21
128.9489999999999
 31
0.0
  0
LINE
  5
1F9
330
1E
100
AcDbEntity
  8
0
100
AcDbLine
 10
70.31870000000001
 20
125.0
 30
0.0
 11
70.31870000000001
 21
128.9489999999999
 31
0.0
  0
LINE
  5
1FA
330
1E
100
AcDbEntity
  8
0
100
AcDbLine
 10
70.31870000000001
 20
125.0
 30
0.0
 11
70.31870000000001
 21
121.0509999999999
 31
0.0
  0
LINE
  5
1FB
330
1E
100
AcDbEntity
  8
0
100
AcDbLine
 10
70.31870000000001
 20
128.9489999999999
 30
0.0
 11
70.31870000000001
 21
125.0
 31
0.0
  0
LINE
  5
1FC
330
1E
100
AcDbEntity
  8
0
100
AcDbLine
 10
70.31870000000001
 20
128.9489999999999
 30
0.0
 11
70.31870000000001
 21
132.63
 31
0.0
  0
LINE
  5
1FD
330
1E
100
AcDbEntity
  8
0
100
AcDbLine
 10
70.31870000000001
 20
114.2239999999999
 30
0.0
 11
70.31870000000001
 21
117.3699999999999
 31
0.0
  0
LINE
  5
1FE
330
1E
100
AcDbEntity
  8
0
100
AcDbLine
 10
70.31870000000001
 20
114.2239999999999
 30
0.0
 11
70.31870000000001
 21
111.8149999999999
 31
0.0
  0
LINE
  5
1FF
330
1E
100
AcDbEntity
  8
0
100
AcDbLine
 10
71.0
 20
113.0
 30
0.0
 11
72.0
 21
113.0
 31
0.0
  0
LINE
  5
200
330
1E
100
AcDbEntity
  8
0
100
AcDbLine
 10
71.0
 20
112.217
 30
0.0
 11
71.0
 21
114.626
 31
0.0
  0
LINE
  5
201
330
1E
100
AcDbEntity
  8
0
100
AcDbLine
 10
71.0
 20
110.276
 30
0.0
 11
71.0
 21
110.811
 31
0.0
  0
LINE
  5
202
330
1E
100
AcDbEntity
  8
0
100
AcDbLine
 10
72.0
 20
111.0
 30
0.0
 11
72.0
 21
111.4999999999999
 31
0.0
  0
LINE
  5
203
330
1E
100
AcDbEntity
  8
0
100
AcDbLine
 10
72.0
 20
111.0
 30
0.0
 11
73.0
 21
110.0
 31
0.0
  0
LINE
  5
204
330
1E
100
AcDbEntity
  8
0
100
AcDbLine
 10
72.0
 20
113.4
 30
0.0
 11
72.0
 21
113.0
 31
0.0
  0
LINE
  5
205
330
1E
100
AcDbEntity
  8
0
100
AcDbLine
 10
72.0
 20
113.4
 30
0.0
 11
72.0
 21
114.5999999999999
 31
0.0
  0
LINE
  5
206
330
1E
100
AcDbEntity
  8
0
100
AcDbLine
 10
72.0
 20
114.5999999999999
 30
0.0
 11
72.0
 21
113.4
 31
0.0
  0
LINE
  5
207
330
1E
100
AcDbEntity
  8
0
100
AcDbLine
 10
72.0
 20
114.5999999999999
 30
0.0
 11
72.0
 21
116.5
 31
0.0
  0
LINE
  5
208
330
1E
100
AcDbEntity
  8
0
100
AcDbLine
 10
72.0
 20
113.0
 30
0.0
 11
72.0
 21
112.9
 31
0.0
  0
LINE
  5
209
330
1E
100
AcDbEntity
  8
0
100
AcDbLine
 10
72.0
 20
113.0
 30
0.0
 11
72.0
 21
113.4
 31
0.0
  0
LINE
  5
20A
330
1E
100
AcDbEntity
  8
0
100
AcDbLine
 10
72.0
 20
111.4999999999999
 30
0.0
 11
72.0
 21
112.9
 31
0.0
  0
LINE
  5
20B
330
1E
100
AcDbEntity
  8
0
100
AcDbLine
 10
72.0
 20
111.4999999999999
 30
0.0
 11
72.0
 21
111.0
 31
0.0
  0
LINE
  5
20C
330
1E
100
AcDbEntity
  8
0
100
AcDbLine
 10
73.0
 20
110.4999999999999
 30
0.0
 11
73.0
 21
110.0
 31
0.0
  0
LINE
  5
20D
330
1E
100
AcDbEntity
  8
0
100
AcDbLine
 10
73.0
 20
110.4999999999999
 30
0.0
 11
73.0
 21
112.0
 31
0.0
  0
LINE
  5
20E
330
1E
100
AcDbEntity
  8
0
100
AcDbLine
 10
73.0
 20
112.0
 30
0.0
 11
73.0
 21
110.4999999999999
 31
0.0
  0
LINE
  5
20F
330
1E
100
AcDbEntity
  8
0
100
AcDbLine
 10
73.0
 20
112.0
 30
0.0
 11
73.0
 21
114.4
 31
0.0
  0
LINE
  5
210
330
1E
100
AcDbEntity
  8
0
100
AcDbLine
 10
73.0
 20
114.4
 30
0.0
 11
73.0
 21
112.0
 31
0.0
  0
LINE
  5
211
330
1E
100
AcDbEntity
  8
0
100
AcDbLine
 10
73.0
 20
114.4
 30
0.0
 11
73.0
 21
117.5
 31
0.0
  0
LINE
  5
212
330
1E
100
AcDbEntity
  8
0
100
AcDbLine
 10
72.0
 20
112.9
 30
0.0
 11
72.0
 21
113.0
 31
0.0
  0
LINE
  5
213
330
1E
100
AcDbEntity
  8
0
100
AcDbLine
 10
72.0
 20
112.9
 30
0.0
 11
72.0
 21
111.4999999999999
 31
0.0
  0
LINE
  5
214
330
1E
100
AcDbEntity
  8
0
100
AcDbLine
 10
72.0
 20
112.9
 30
0.0
 11
72.0
 21
115.1
 31
0.0
  0
LINE
  5
215
330
1E
100
AcDbEntity
  8
0
100
AcDbLine
 10
73.0
 20
110.0
 30
0.0
 11
80.0
 21
110.0
 31
0.0
  0
LINE
  5
216
330
1E
100
AcDbEntity
  8
0
100
AcDbLine
 10
73.0
 20
110.0
 30
0.0
 11
73.0
 21
110.4999999999999
 31
0.0
  0
LINE
  5
217
330
1E
100
AcDbEntity
  8
0
100
AcDbLine
 10
71.0
 20
110.811
 30
0.0
 11
71.0
 21
112.217
 31
0.0
  0
LINE
  5
218
330
1E
100
AcDbEntity
  8
0
100
AcDbLine
 10
71.0
 20
117.6379999999999
 30
0.0
 11
71.0
 21
121.185
 31
0.0
  0
LINE
  5
219
330
1E
100
AcDbEntity
  8
0
100
AcDbLine
 10
71.0
 20
137.0
 30
0.0
 11
72.0
 21
137.0
 31
0.0
  0
LINE
  5
21A
330
1E
100
AcDbEntity
  8
0
100
AcDbLine
 10
71.0
 20
135.3739999999999
 30
0.0
 11
71.0
 21
137.7839999999999
 31
0.0
  0
LINE
  5
21B
330
1E
100
AcDbEntity
  8
0
100
AcDbLine
 10
71.0
 20
128.8149999999999
 30
0.0
 11
71.0
 21
132.362
 31
0.0
  0
LINE
  5
21C
330
1E
100
AcDbEntity
  8
0
100
AcDbLine
 10
71.0
 20
132.362
 30
0.0
 11
71.0
 21
135.3739999999999
 31
0.0
  0
LINE
  5
21D
330
1E
100
AcDbEntity
  8
0
100
AcDbLine
 10
71.0
 20
121.185
 30
0.0
 11
71.0
 21
125.0
 31
0.0
  0
LINE
  5
21E
330
1E
100
AcDbEntity
  8
0
100
AcDbLine
 10
71.0
 20
125.0
 30
0.0
 11
71.0
 21
128.8149999999999
 31
0.0
  0
LINE
  5
21F
330
1E
100
AcDbEntity
  8
0
100
AcDbLine
 10
71.0
 20
139.1889999999999
 30
0.0
 11
71.0
 21
139.7239999999999
 31
0.0
  0
LINE
  5
220
330
1E
100
AcDbEntity
  8
0
100
AcDbLine
 10
72.0
 20
116.5
 30
0.0
 11
72.0
 21
114.5999999999999
 31
0.0
  0
LINE
  5
221
330
1E
100
AcDbEntity
  8
0
100
AcDbLine
 10
72.0
 20
116.5
 30
0.0
 11
72.0
 21
119.0
 31
0.0
  0
LINE
  5
222
330
1E
100
AcDbEntity
  8
0
100
AcDbLine
 10
72.0
 20
115.1
 30
0.0
 11
72.0
 21
112.9
 31
0.0
  0
LINE
  5
223
330
1E
100
AcDbEntity
  8
0
100
AcDbLine
 10
72.0
 20
115.1
 30
0.0
 11
72.0
 21
118.0
 31
0.0
  0
LINE
  5
224
330
1E
100
AcDbEntity
  8
0
100
AcDbLine
 10
72.0
 20
119.0
 30
0.0
 11
72.0
 21
116.5
 31
0.0
  0
LINE
  5
225
330
1E
100
AcDbEntity
  8
0
100
AcDbLine
 10
72.0
 20
119.0
 30
0.0
 11
72.0
 21
121.9
 31
0.0
  0
LINE
  5
226
330
1E
100
AcDbEntity
  8
0
100
AcDbLine
 10
72.0
 20
118.0
 30
0.0
 11
72.0
 21
115.1
 31
0.0
  0
LINE
  5
227
330
1E
100
AcDbEntity
  8
0
100
AcDbLine
 10
72.0
 20
118.0
 30
0.0
 11
72.0
 21
121.4
 31
0.0
  0
LINE
  5
228
330
1E
100
AcDbEntity
  8
0
100
AcDbLine
 10
72.0
 20
121.9
 30
0.0
 11
72.0
 21
119.0
 31
0.0
  0
LINE
  5
229
330
1E
100
AcDbEntity
  8
0
100
AcDbLine
 10
72.0
 20
121.9
 30
0.0
 11
72.0
 21
125.0
 31
0.0
  0
LINE
  5
22A
330
1E
100
AcDbEntity
  8
0
100
AcDbLine
 10
72.0
 20
121.4
 30
0.0
 11
72.0
 21
118.0
 31
0.0
  0
LINE
  5
22B
330
1E
100
AcDbEntity
  8
0
100
AcDbLine
 10
72.0
 20
121.4
 30
0.0
 11
72.0
 21
125.0
 31
0.0
  0
LINE
  5
22C
330
1E
100
AcDbEntity
  8
0
100
AcDbLine
 10
72.0
 20
125.0
 30
0.0
 11
72.0
 21
121.4
 31
0.0
  0
LINE
  5
22D
330
1E
100
AcDbEntity
  8
0
100
AcDbLine
 10
72.0
 20
125.0
 30
0.0
 11
72.0
 21
121.9
 31
0.0
  0
LINE
  5
22E
330
1E
100
AcDbEntity
  8
0
100
AcDbLine
 10
72.0
 20
125.0
 30
0.0
 11
72.0
 21
128.6
 31
0.0
  0
LINE
  5
22F
330
1E
100
AcDbEntity
  8
0
100
AcDbLine
 10
72.0
 20
125.0
 30
0.0
 11
72.0
 21
128.0999999999999
 31
0.0
  0
LINE
  5
230
330
1E
100
AcDbEntity
  8
0
100
AcDbLine
 10
73.0
 20
117.5
 30
0.0
 11
73.0
 21
114.4
 31
0.0
  0
LINE
  5
231
330
1E
100
AcDbEntity
  8
0
100
AcDbLine
 10
73.0
 20
117.5
 30
0.0
 11
73.0
 21
121.1
 31
0.0
  0
LINE
  5
232
330
1E
100
AcDbEntity
  8
0
100
AcDbLine
 10
73.0
 20
121.1
 30
0.0
 11
73.0
 21
117.5
 31
0.0
  0
LINE
  5
233
330
1E
100
AcDbEntity
  8
0
100
AcDbLine
 10
73.0
 20
121.1
 30
0.0
 11
73.0
 21
125.0
 31
0.0
  0
LINE
  5
234
330
1E
100
AcDbEntity
  8
0
100
AcDbLine
 10
72.0
 20
131.0
 30
0.0
 11
72.0
 21
128.0999999999999
 31
0.0
  0
LINE
  5
235
330
1E
100
AcDbEntity
  8
0
100
AcDbLine
 10
72.0
 20
131.0
 30
0.0
 11
72.0
 21
133.4999999999999
 31
0.0
  0
LINE
  5
236
330
1E
100
AcDbEntity
  8
0
100
AcDbLine
 10
72.0
 20
128.0999999999999
 30
0.0
 11
72.0
 21
125.0
 31
0.0
  0
LINE
  5
237
330
1E
100
AcDbEntity
  8
0
100
AcDbLine
 10
72.0
 20
128.0999999999999
 30
0.0
 11
72.0
 21
131.0
 31
0.0
  0
LINE
  5
238
330
1E
100
AcDbEntity
  8
0
100
AcDbLine
 10
72.0
 20
132.0
 30
0.0
 11
72.0
 21
128.6
 31
0.0
  0
LINE
  5
239
330
1E
100
AcDbEntity
  8
0
100
AcDbLine
 10
72.0
 20
132.0
 30
0.0
 11
72.0
 21
134.8999999999999
 31
0.0
  0
LINE
  5
23A
330
1E
100
AcDbEntity
  8
0
100
AcDbLine
 10
72.0
 20
128.6
 30
0.0
 11
72.0
 21
125.0
 31
0.0
  0
LINE
  5
23B
330
1E
100
AcDbEntity
  8
0
100
AcDbLine
 10
72.0
 20
128.6
 30
0.0
 11
72.0
 21
132.0
 31
0.0
  0
LINE
  5
23C
330
1E
100
AcDbEntity
  8
0
100
AcDbLine
 10
72.0
 20
137.0
 30
0.0
 11
72.0
 21
136.5999999999999
 31
0.0
  0
LINE
  5
23D
330
1E
100
AcDbEntity
  8
0
100
AcDbLine
 10
72.0
 20
137.0
 30
0.0
 11
72.0
 21
137.0999999999999
 31
0.0
  0
LINE
  5
23E
330
1E
100
AcDbEntity
  8
0
100
AcDbLine
 10
72.0
 20
136.5999999999999
 30
0.0
 11
72.0
 21
135.4
 31
0.0
  0
LINE
  5
23F
330
1E
100
AcDbEntity
  8
0
100
AcDbLine
 10
72.0
 20
136.5999999999999
 30
0.0
 11
72.0
 21
137.0
 31
0.0
  0
LINE
  5
240
330
1E
100
AcDbEntity
  8
0
100
AcDbLine
 10
72.0
 20
135.4
 30
0.0
 11
72.0
 21
133.4999999999999
 31
0.0
  0
LINE
  5
241
330
1E
100
AcDbEntity
  8
0
100
AcDbLine
 10
72.0
 20
135.4
 30
0.0
 11
72.0
 21
136.5999999999999
 31
0.0
  0
LINE
  5
242
330
1E
100
AcDbEntity
  8
0
100
AcDbLine
 10
72.0
 20
133.4999999999999
 30
0.0
 11
72.0
 21
131.0
 31
0.0
  0
LINE
  5
243
330
1E
100
AcDbEntity
  8
0
100
AcDbLine
 10
72.0
 20
133.4999999999999
 30
0.0
 11
72.0
 21
135.4
 31
0.0
  0
LINE
  5
244
330
1E
100
AcDbEntity
  8
0
100
AcDbLine
 10
72.0
 20
137.0999999999999
 30
0.0
 11
72.0
 21
134.8999999999999
 31
0.0
  0
LINE
  5
245
330
1E
100
AcDbEntity
  8
0
100
AcDbLine
 10
72.0
 20
137.0999999999999
 30
0.0
 11
72.0
 21
138.5
 31
0.0
  0
LINE
  5
246
330
1E
100
AcDbEntity
  8
0
100
AcDbLine
 10
72.0
 20
137.0999999999999
 30
0.0
 11
72.0
 21
137.0
 31
0.0
  0
LINE
  5
247
330
1E
100
AcDbEntity
  8
0
100
AcDbLine
 10
72.0
 20
134.8999999999999
 30
0.0
 11
72.0
 21
132.0
 31
0.0
  0
LINE
  5
248
330
1E
100
AcDbEntity
  8
0
100
AcDbLine
 10
72.0
 20
134.8999999999999
 30
0.0
 11
72.0
 21
137.0999999999999
 31
0.0
  0
LINE
  5
249
330
1E
100
AcDbEntity
  8
0
100
AcDbLine
 10
72.0
 20
139.0
 30
0.0
 11
72.0
 21
138.5
 31
0.0
  0
LINE
  5
24A
330
1E
100
AcDbEntity
  8
0
100
AcDbLine
 10
72.0
 20
139.0
 30
0.0
 11
73.0
 21
140.0
 31
0.0
  0
LINE
  5
24B
330
1E
100
AcDbEntity
  8
0
100
AcDbLine
 10
72.0
 20
138.5
 30
0.0
 11
72.0
 21
137.0999999999999
 31
0.0
  0
LINE
  5
24C
330
1E
100
AcDbEntity
  8
0
100
AcDbLine
 10
72.0
 20
138.5
 30
0.0
 11
72.0
 21
139.0
 31
0.0
  0
LINE
  5
24D
330
1E
100
AcDbEntity
  8
0
100
AcDbLine
 10
73.0
 20
139.5
 30
0.0
 11
73.0
 21
138.0
 31
0.0
  0
LINE
  5
24E
330
1E
100
AcDbEntity
  8
0
100
AcDbLine
 10
73.0
 20
139.5
 30
0.0
 11
73.0
 21
140.0
 31
0.0
  0
LINE
  5
24F
330
1E
100
AcDbEntity
  8
0
100
AcDbLine
 10
73.0
 20
138.0
 30
0.0
 11
73.0
 21
135.5999999999999
 31
0.0
  0
LINE
  5
250
330
1E
100
AcDbEntity
  8
0
100
AcDbLine
 10
73.0
 20
138.0
 30
0.0
 11
73.0
 21
139.5
 31
0.0
  0
LINE
  5
251
330
1E
100
AcDbEntity
  8
0
100
AcDbLine
 10
73.0
 20
135.5999999999999
 30
0.0
 11
73.0
 21
132.4999999999999
 31
0.0
  0
LINE
  5
252
330
1E
100
AcDbEntity
  8
0
100
AcDbLine
 10
73.0
 20
135.5999999999999
 30
0.0
 11
73.0
 21
138.0
 31
0.0
  0
LINE
  5
253
330
1E
100
AcDbEntity
  8
0
100
AcDbLine
 10
73.0
 20
132.4999999999999
 30
0.0
 11
73.0
 21
128.9
 31
0.0
  0
LINE
  5
254
330
1E
100
AcDbEntity
  8
0
100
AcDbLine
 10
73.0
 20
132.4999999999999
 30
0.0
 11
73.0
 21
135.5999999999999
 31
0.0
  0
LINE
  5
255
330
1E
100
AcDbEntity
  8
0
100
AcDbLine
 10
73.0
 20
128.9
 30
0.0
 11
73.0
 21
125.0
 31
0.0
  0
LINE
  5
256
330
1E
100
AcDbEntity
  8
0
100
AcDbLine
 10
73.0
 20
128.9
 30
0.0
 11
73.0
 21
132.4999999999999
 31
0.0
  0
LINE
  5
257
330
1E
100
AcDbEntity
  8
0
100
AcDbLine
 10
73.0
 20
125.0
 30
0.0
 11
73.0
 21
121.1
 31
0.0
  0
LINE
  5
258
330
1E
100
AcDbEntity
  8
0
100
AcDbLine
 10
73.0
 20
125.0
 30
0.0
 11
73.0
 21
128.9
 31
0.0
  0
LINE
  5
259
330
1E
100
AcDbEntity
  8
0
100
AcDbLine
 10
71.0
 20
137.7839999999999
 30
0.0
 11
71.0
 21
139.1889999999999
 31
0.0
  0
LINE
  5
25A
330
1E
100
AcDbEntity
  8
0
100
AcDbLine
 10
71.0
 20
114.626
 30
0.0
 11
71.0
 21
117.6379999999999
 31
0.0
  0
LINE
  5
25B
330
1E
100
AcDbEntity
  8
0
100
AcDbLine
 10
70.31870000000001
 20
117.3699999999999
 30
0.0
 11
70.31870000000001
 21
114.2239999999999
 31
0.0
  0
LINE
  5
25C
330
1E
100
AcDbEntity
  8
0
100
AcDbLine
 10
70.31870000000001
 20
117.3699999999999
 30
0.0
 11
70.31870000000001
 21
121.0509999999999
 31
0.0
  0
LINE
  5
25D
330
1E
100
AcDbEntity
  8
0
100
AcDbLine
 10
73.0
 20
140.0
 30
0.0
 11
73.0
 21
139.5
 31
0.0
  0
LINE
  5
25E
330
1E
100
AcDbEntity
  8
0
100
AcDbLine
 10
73.0
 20
140.0
 30
0.0
 11
80.0
 21
140.0
 31
0.0
  0
LINE
  5
25F
330
1E
100
AcDbEntity
  8
0
100
AcDbLine
 10
70.318
 20
139.7239999999999
 30
0.0
 11
70.31870000000001
 21
140.2599999999999
 31
0.0
  0
LINE
  5
260
330
1E
100
AcDbEntity
  8
0
100
AcDbLine
 10
70.318
 20
139.7239999999999
 30
0.0
 11
70.31870000000001
 21
138.185
 31
0.0
  0
LINE
  5
261
330
1E
100
AcDbEntity
  8
0
100
AcDbLine
 10
70.31870000000001
 20
140.2599999999999
 30
0.0
 11
71.0
 21
139.7239999999999
 31
0.0
  0
LINE
  5
262
330
1E
100
AcDbEntity
  8
0
100
AcDbLine
 10
68.27469999999999
 20
110.0079999999999
 30
0.0
 11
70.31870000000001
 21
109.7399999999999
 31
0.0
  0
LINE
  5
263
330
1E
100
AcDbEntity
  8
0
100
AcDbLine
 10
70.31870000000001
 20
109.7399999999999
 30
0.0
 11
71.0
 21
110.276
 31
0.0
  0
LINE
  5
264
330
1E
100
AcDbEntity
  8
0
100
AcDbLine
 10
70.31870000000001
 20
109.7399999999999
 30
0.0
 11
70.31870000000001
 21
110.276
 31
0.0
  0
LINE
  5
265
330
1E
100
AcDbEntity
  8
0
100
AcDbLine
 10
80.0
 20
9.4
 30
0.0
 11
80.0
 21
14.0
 31
0.0
  0
LINE
  5
266
330
1E
100
AcDbEntity
  8
0
100
AcDbLine
 10
80.0
 20
9.4
 30
0.0
 11
80.0
 21
6.0
 31
0.0
  0
LINE
  5
267
330
1E
100
AcDbEntity
  8
0
100
AcDbLine
 10
80.0
 20
6.0
 30
0.0
 11
80.0
 21
3.799999999999999
 31
0.0
  0
LINE
  5
268
330
1E
100
AcDbEntity
  8
0
100
AcDbLine
 10
80.0
 20
6.0
 30
0.0
 11
80.0
 21
9.4
 31
0.0
  0
LINE
  5
269
330
1E
100
AcDbEntity
  8
0
100
AcDbLine
 10
80.0
 20
14.0
 30
0.0
 11
80.0
 21
20.0
 31
0.0
  0
LINE
  5
26A
330
1E
100
AcDbEntity
  8
0
100
AcDbLine
 10
92.0
 20
-0.0000000000000045
 30
0.0
 11
92.0
 21
0.899999999999996
 31
0.0
  0
LINE
  5
26B
330
1E
100
AcDbEntity
  8
0
100
AcDbLine
 10
80.5
 20
1.6
 30
0.0
 11
81.6
 21
0.4999999999999961
 31
0.0
  0
LINE
  5
26C
330
1E
100
AcDbEntity
  8
0
100
AcDbLine
 10
92.0
 20
17.7
 30
0.0
 11
92.0
 21
11.4
 31
0.0
  0
LINE
  5
26D
330
1E
100
AcDbEntity
  8
0
100
AcDbLine
 10
92.0
 20
17.7
 30
0.0
 11
92.0
 21
25.0
 31
0.0
  0
LINE
  5
26E
330
1E
100
AcDbEntity
  8
0
100
AcDbLine
 10
92.0
 20
11.4
 30
0.0
 11
92.0
 21
6.599999999999999
 31
0.0
  0
LINE
  5
26F
330
1E
100
AcDbEntity
  8
0
100
AcDbLine
 10
92.0
 20
11.4
 30
0.0
 11
92.0
 21
17.7
 31
0.0
  0
LINE
  5
270
330
1E
100
AcDbEntity
  8
0
100
AcDbLine
 10
92.0
 20
6.599999999999999
 30
0.0
 11
92.0
 21
3.1
 31
0.0
  0
LINE
  5
271
330
1E
100
AcDbEntity
  8
0
100
AcDbLine
 10
92.0
 20
6.599999999999999
 30
0.0
 11
92.0
 21
11.4
 31
0.0
  0
LINE
  5
272
330
1E
100
AcDbEntity
  8
0
100
AcDbLine
 10
92.0
 20
3.1
 30
0.0
 11
92.0
 21
0.8999999999999948
 31
0.0
  0
LINE
  5
273
330
1E
100
AcDbEntity
  8
0
100
AcDbLine
 10
92.0
 20
3.1
 30
0.0
 11
92.0
 21
6.599999999999999
 31
0.0
  0
LINE
  5
274
330
1E
100
AcDbEntity
  8
0
100
AcDbLine
 10
92.0
 20
0.899999999999996
 30
0.0
 11
92.0
 21
-0.0000000000000044
 31
0.0
  0
LINE
  5
275
330
1E
100
AcDbEntity
  8
0
100
AcDbLine
 10
92.0
 20
0.899999999999996
 30
0.0
 11
92.0
 21
3.1
 31
0.0
  0
LINE
  5
276
330
1E
100
AcDbEntity
  8
0
100
AcDbLine
 10
81.6
 20
0.4999999999999961
 30
0.0
 11
83.0
 21
-0.0000000000000039
 31
0.0
  0
LINE
  5
277
330
1E
100
AcDbEntity
  8
0
100
AcDbLine
 10
81.6
 20
0.4999999999999961
 30
0.0
 11
83.0
 21
-0.0000000000000039
 31
0.0
  0
LINE
  5
278
330
1E
100
AcDbEntity
  8
0
100
AcDbLine
 10
83.0
 20
-0.0000000000000039
 30
0.0
 11
92.0
 21
-0.0000000000000045
 31
0.0
  0
LINE
  5
279
330
1E
100
AcDbEntity
  8
0
100
AcDbLine
 10
80.0
 20
20.0
 30
0.0
 11
80.0
 21
14.0
 31
0.0
  0
LINE
  5
27A
330
1E
100
AcDbEntity
  8
0
100
AcDbLine
 10
80.0
 20
31.2
 30
0.0
 11
80.0
 21
34.0
 31
0.0
  0
LINE
  5
27B
330
1E
100
AcDbEntity
  8
0
100
AcDbLine
 10
80.0
 20
31.2
 30
0.0
 11
80.0
 21
28.8
 31
0.0
  0
LINE
  5
27C
330
1E
100
AcDbEntity
  8
0
100
AcDbLine
 10
80.0
 20
28.8
 30
0.0
 11
80.0
 21
31.2
 31
0.0
  0
LINE
  5
27D
330
1E
100
AcDbEntity
  8
0
100
AcDbLine
 10
80.0
 20
28.8
 30
0.0
 11
80.0
 21
26.8
 31
0.0
  0
LINE
  5
27E
330
1E
100
AcDbEntity
  8
0
100
AcDbLine
 10
80.0
 20
34.0
 30
0.0
 11
80.0
 21
31.2
 31
0.0
  0
LINE
  5
27F
330
1E
100
AcDbEntity
  8
0
100
AcDbLine
 10
80.0
 20
34.0
 30
0.0
 11
80.0
 21
37.1
 31
0.0
  0
LINE
  5
280
330
1E
100
AcDbEntity
  8
0
100
AcDbLine
 10
80.0
 20
27.1
 30
0.0
 11
80.0
 21
35.2
 31
0.0
  0
LINE
  5
281
330
1E
100
AcDbEntity
  8
0
100
AcDbLine
 10
80.0
 20
35.2
 30
0.0
 11
80.0
 21
44.2
 31
0.0
  0
LINE
  5
282
330
1E
100
AcDbEntity
  8
0
100
AcDbLine
 10
80.0
 20
35.2
 30
0.0
 11
80.0
 21
27.1
 31
0.0
  0
LINE
  5
283
330
1E
100
AcDbEntity
  8
0
100
AcDbLine
 10
80.0
 20
37.1
 30
0.0
 11
80.0
 21
34.0
 31
0.0
  0
LINE
  5
284
330
1E
100
AcDbEntity
  8
0
100
AcDbLine
 10
80.0
 20
37.1
 30
0.0
 11
80.0
 21
40.3
 31
0.0
  0
LINE
  5
285
330
1E
100
AcDbEntity
  8
0
100
AcDbLine
 10
80.0
 20
44.2
 30
0.0
 11
80.0
 21
53.7
 31
0.0
  0
LINE
  5
286
330
1E
100
AcDbEntity
  8
0
100
AcDbLine
 10
80.0
 20
44.2
 30
0.0
 11
80.0
 21
35.2
 31
0.0
  0
LINE
  5
287
330
1E
100
AcDbEntity
  8
0
100
AcDbLine
 10
80.0
 20
40.3
 30
0.0
 11
80.0
 21
37.1
 31
0.0
  0
LINE
  5
288
330
1E
100
AcDbEntity
  8
0
100
AcDbLine
 10
80.0
 20
40.3
 30
0.0
 11
80.0
 21
43.79999999999999
 31
0.0
  0
LINE
  5
289
330
1E
100
AcDbEntity
  8
0
100
AcDbLine
 10
80.0
 20
43.79999999999999
 30
0.0
 11
80.0
 21
40.3
 31
0.0
  0
LINE
  5
28A
330
1E
100
AcDbEntity
  8
0
100
AcDbLine
 10
80.0
 20
43.79999999999999
 30
0.0
 11
80.0
 21
47.4
 31
0.0
  0
LINE
  5
28B
330
1E
100
AcDbEntity
  8
0
100
AcDbLine
 10
80.0
 20
53.7
 30
0.0
 11
80.0
 21
63.79999999999999
 31
0.0
  0
LINE
  5
28C
330
1E
100
AcDbEntity
  8
0
100
AcDbLine
 10
80.0
 20
53.7
 30
0.0
 11
80.0
 21
44.2
 31
0.0
  0
LINE
  5
28D
330
1E
100
AcDbEntity
  8
0
100
AcDbLine
 10
80.0
 20
47.4
 30
0.0
 11
80.0
 21
43.79999999999999
 31
0.0
  0
LINE
  5
28E
330
1E
100
AcDbEntity
  8
0
100
AcDbLine
 10
80.0
 20
47.4
 30
0.0
 11
80.0
 21
51.0
 31
0.0
  0
LINE
  5
28F
330
1E
100
AcDbEntity
  8
0
100
AcDbLine
 10
80.0
 20
51.0
 30
0.0
 11
80.0
 21
47.4
 31
0.0
  0
LINE
  5
290
330
1E
100
AcDbEntity
  8
0
100
AcDbLine
 10
80.0
 20
51.0
 30
0.0
 11
80.0
 21
54.6
 31
0.0
  0
LINE
  5
291
330
1E
100
AcDbEntity
  8
0
100
AcDbLine
 10
80.0
 20
63.79999999999999
 30
0.0
 11
80.0
 21
74.29999999999999
 31
0.0
  0
LINE
  5
292
330
1E
100
AcDbEntity
  8
0
100
AcDbLine
 10
80.0
 20
63.79999999999999
 30
0.0
 11
80.0
 21
53.7
 31
0.0
  0
LINE
  5
293
330
1E
100
AcDbEntity
  8
0
100
AcDbLine
 10
80.0
 20
74.29999999999999
 30
0.0
 11
80.0
 21
85.0
 31
0.0
  0
LINE
  5
294
330
1E
100
AcDbEntity
  8
0
100
AcDbLine
 10
80.0
 20
74.29999999999999
 30
0.0
 11
80.0
 21
63.79999999999999
 31
0.0
  0
LINE
  5
295
330
1E
100
AcDbEntity
  8
0
100
AcDbLine
 10
80.0
 20
73.2
 30
0.0
 11
80.0
 21
70.8
 31
0.0
  0
LINE
  5
296
330
1E
100
AcDbEntity
  8
0
100
AcDbLine
 10
80.0
 20
73.2
 30
0.0
 11
80.0
 21
75.2
 31
0.0
  0
LINE
  5
297
330
1E
100
AcDbEntity
  8
0
100
AcDbLine
 10
80.0
 20
70.8
 30
0.0
 11
80.0
 21
68.0
 31
0.0
  0
LINE
  5
298
330
1E
100
AcDbEntity
  8
0
100
AcDbLine
 10
80.0
 20
70.8
 30
0.0
 11
80.0
 21
73.2
 31
0.0
  0
LINE
  5
299
330
1E
100
AcDbEntity
  8
0
100
AcDbLine
 10
80.0
 20
68.0
 30
0.0
 11
80.0
 21
64.90000000000001
 31
0.0
  0
LINE
  5
29A
330
1E
100
AcDbEntity
  8
0
100
AcDbLine
 10
80.0
 20
68.0
 30
0.0
 11
80.0
 21
70.8
 31
0.0
  0
LINE
  5
29B
330
1E
100
AcDbEntity
  8
0
100
AcDbLine
 10
80.0
 20
64.90000000000001
 30
0.0
 11
80.0
 21
61.7
 31
0.0
  0
LINE
  5
29C
330
1E
100
AcDbEntity
  8
0
100
AcDbLine
 10
80.0
 20
64.90000000000001
 30
0.0
 11
80.0
 21
68.0
 31
0.0
  0
LINE
  5
29D
330
1E
100
AcDbEntity
  8
0
100
AcDbLine
 10
80.0
 20
61.7
 30
0.0
 11
80.0
 21
58.2
 31
0.0
  0
LINE
  5
29E
330
1E
100
AcDbEntity
  8
0
100
AcDbLine
 10
80.0
 20
61.7
 30
0.0
 11
80.0
 21
64.90000000000001
 31
0.0
  0
LINE
  5
29F
330
1E
100
AcDbEntity
  8
0
100
AcDbLine
 10
80.0
 20
58.2
 30
0.0
 11
80.0
 21
54.6
 31
0.0
  0
LINE
  5
2A0
330
1E
100
AcDbEntity
  8
0
100
AcDbLine
 10
80.0
 20
58.2
 30
0.0
 11
80.0
 21
61.7
 31
0.0
  0
LINE
  5
2A1
330
1E
100
AcDbEntity
  8
0
100
AcDbLine
 10
80.0
 20
54.6
 30
0.0
 11
80.0
 21
51.0
 31
0.0
  0
LINE
  5
2A2
330
1E
100
AcDbEntity
  8
0
100
AcDbLine
 10
80.0
 20
54.6
 30
0.0
 11
80.0
 21
58.2
 31
0.0
  0
LINE
  5
2A3
330
1E
100
AcDbEntity
  8
0
100
AcDbLine
 10
80.0
 20
75.0
 30
0.0
 11
80.0
 21
75.2
 31
0.0
  0
LINE
  5
2A4
330
1E
100
AcDbEntity
  8
0
100
AcDbLine
 10
80.0
 20
75.2
 30
0.0
 11
80.0
 21
75.0
 31
0.0
  0
LINE
  5
2A5
330
1E
100
AcDbEntity
  8
0
100
AcDbLine
 10
80.0
 20
75.2
 30
0.0
 11
80.0
 21
76.79999999999999
 31
0.0
  0
LINE
  5
2A6
330
1E
100
AcDbEntity
  8
0
100
AcDbLine
 10
80.0
 20
75.2
 30
0.0
 11
80.0
 21
73.2
 31
0.0
  0
LINE
  5
2A7
330
1E
100
AcDbEntity
  8
0
100
AcDbLine
 10
80.0
 20
76.79999999999999
 30
0.0
 11
80.0
 21
75.2
 31
0.0
  0
LINE
  5
2A8
330
1E
100
AcDbEntity
  8
0
100
AcDbLine
 10
80.0
 20
76.79999999999999
 30
0.0
 11
80.0
 21
78.0
 31
0.0
  0
LINE
  5
2A9
330
1E
100
AcDbEntity
  8
0
100
AcDbLine
 10
80.0
 20
78.0
 30
0.0
 11
80.0
 21
76.79999999999999
 31
0.0
  0
LINE
  5
2AA
330
1E
100
AcDbEntity
  8
0
100
AcDbLine
 10
80.0
 20
78.0
 30
0.0
 11
80.0
 21
78.7
 31
0.0
  0
LINE
  5
2AB
330
1E
100
AcDbEntity
  8
0
100
AcDbLine
 10
80.0
 20
78.7
 30
0.0
 11
80.0
 21
78.0
 31
0.0
  0
LINE
  5
2AC
330
1E
100
AcDbEntity
  8
0
100
AcDbLine
 10
80.0
 20
78.7
 30
0.0
 11
80.0
 21
79.0
 31
0.0
  0
LINE
  5
2AD
330
1E
100
AcDbEntity
  8
0
100
AcDbLine
 10
80.0
 20
106.2
 30
0.0
 11
80.0
 21
116.3
 31
0.0
  0
LINE
  5
2AE
330
1E
100
AcDbEntity
  8
0
100
AcDbLine
 10
80.0
 20
106.2
 30
0.0
 11
80.0
 21
95.7
 31
0.0
  0
LINE
  5
2AF
330
1E
100
AcDbEntity
  8
0
100
AcDbLine
 10
80.0
 20
95.7
 30
0.0
 11
80.0
 21
106.2
 31
0.0
  0
LINE
  5
2B0
330
1E
100
AcDbEntity
  8
0
100
AcDbLine
 10
80.0
 20
95.7
 30
0.0
 11
80.0
 21
85.0
 31
0.0
  0
LINE
  5
2B1
330
1E
100
AcDbEntity
  8
0
100
AcDbLine
 10
80.0
 20
85.0
 30
0.0
 11
80.0
 21
95.7
 31
0.0
  0
LINE
  5
2B2
330
1E
100
AcDbEntity
  8
0
100
AcDbLine
 10
80.0
 20
85.0
 30
0.0
 11
80.0
 21
74.29999999999999
 31
0.0
  0
LINE
  5
2B3
330
1E
100
AcDbEntity
  8
0
100
AcDbLine
 10
80.0
 20
116.3
 30
0.0
 11
80.0
 21
125.8
 31
0.0
  0
LINE
  5
2B4
330
1E
100
AcDbEntity
  8
0
100
AcDbLine
 10
80.0
 20
116.3
 30
0.0
 11
80.0
 21
106.2
 31
0.0
  0
LINE
  5
2B5
330
1E
100
AcDbEntity
  8
0
100
AcDbLine
 10
80.0
 20
125.0
 30
0.0
 11
80.0
 21
120.7
 31
0.0
  0
LINE
  5
2B6
330
1E
100
AcDbEntity
  8
0
100
AcDbLine
 10
80.0
 20
125.0
 30
0.0
 11
80.0
 21
129.3
 31
0.0
  0
LINE
  5
2B7
330
1E
100
AcDbEntity
  8
0
100
AcDbLine
 10
80.0
 20
129.3
 30
0.0
 11
80.0
 21
125.0
 31
0.0
  0
LINE
  5
2B8
330
1E
100
AcDbEntity
  8
0
100
AcDbLine
 10
80.0
 20
129.3
 30
0.0
 11
80.0
 21
133.1999999999999
 31
0.0
  0
LINE
  5
2B9
330
1E
100
AcDbEntity
  8
0
100
AcDbLine
 10
80.0
 20
133.1999999999999
 30
0.0
 11
80.0
 21
129.3
 31
0.0
  0
LINE
  5
2BA
330
1E
100
AcDbEntity
  8
0
100
AcDbLine
 10
80.0
 20
133.1999999999999
 30
0.0
 11
80.0
 21
136.5999999999999
 31
0.0
  0
LINE
  5
2BB
330
1E
100
AcDbEntity
  8
0
100
AcDbLine
 10
80.0
 20
136.5999999999999
 30
0.0
 11
80.0
 21
133.1999999999999
 31
0.0
  0
LINE
  5
2BC
330
1E
100
AcDbEntity
  8
0
100
AcDbLine
 10
80.0
 20
136.5999999999999
 30
0.0
 11
80.0
 21
139.3
 31
0.0
  0
LINE
  5
2BD
330
1E
100
AcDbEntity
  8
0
100
AcDbLine
 10
80.0
 20
139.3
 30
0.0
 11
80.0
 21
136.5999999999999
 31
0.0
  0
LINE
  5
2BE
330
1E
100
AcDbEntity
  8
0
100
AcDbLine
 10
80.0
 20
139.3
 30
0.0
 11
80.0
 21
140.8999999999999
 31
0.0
  0
LINE
  5
2BF
330
1E
100
AcDbEntity
  8
0
100
AcDbLine
 10
80.0
 20
134.8
 30
0.0
 11
80.0
 21
142.9
 31
0.0
  0
LINE
  5
2C0
330
1E
100
AcDbEntity
  8
0
100
AcDbLine
 10
80.0
 20
134.8
 30
0.0
 11
80.0
 21
125.8
 31
0.0
  0
LINE
  5
2C1
330
1E
100
AcDbEntity
  8
0
100
AcDbLine
 10
80.0
 20
125.8
 30
0.0
 11
80.0
 21
134.8
 31
0.0
  0
LINE
  5
2C2
330
1E
100
AcDbEntity
  8
0
100
AcDbLine
 10
80.0
 20
125.8
 30
0.0
 11
80.0
 21
116.3
 31
0.0
  0
LINE
  5
2C3
330
1E
100
AcDbEntity
  8
0
100
AcDbLine
 10
80.0
 20
120.7
 30
0.0
 11
80.0
 21
116.7999999999999
 31
0.0
  0
LINE
  5
2C4
330
1E
100
AcDbEntity
  8
0
100
AcDbLine
 10
80.0
 20
120.7
 30
0.0
 11
80.0
 21
125.0
 31
0.0
  0
LINE
  5
2C5
330
1E
100
AcDbEntity
  8
0
100
AcDbLine
 10
80.0
 20
116.7999999999999
 30
0.0
 11
80.0
 21
113.4
 31
0.0
  0
LINE
  5
2C6
330
1E
100
AcDbEntity
  8
0
100
AcDbLine
 10
80.0
 20
116.7999999999999
 30
0.0
 11
80.0
 21
120.7
 31
0.0
  0
LINE
  5
2C7
330
1E
100
AcDbEntity
  8
0
100
AcDbLine
 10
80.0
 20
113.4
 30
0.0
 11
80.0
 21
110.6999999999999
 31
0.0
  0
LINE
  5
2C8
330
1E
100
AcDbEntity
  8
0
100
AcDbLine
 10
80.0
 20
113.4
 30
0.0
 11
80.0
 21
116.7999999999999
 31
0.0
  0
LINE
  5
2C9
330
1E
100
AcDbEntity
  8
0
100
AcDbLine
 10
80.0
 20
110.6999999999999
 30
0.0
 11
80.0
 21
109.0999999999999
 31
0.0
  0
LINE
  5
2CA
330
1E
100
AcDbEntity
  8
0
100
AcDbLine
 10
80.0
 20
110.6999999999999
 30
0.0
 11
80.0
 21
113.4
 31
0.0
  0
LINE
  5
2CB
330
1E
100
AcDbEntity
  8
0
100
AcDbLine
 10
80.0
 20
110.0
 30
0.0
 11
80.0
 21
109.0999999999999
 31
0.0
  0
LINE
  5
2CC
330
1E
100
AcDbEntity
  8
0
100
AcDbLine
 10
80.0
 20
109.0999999999999
 30
0.0
 11
80.0
 21
110.0
 31
0.0
  0
LINE
  5
2CD
330
1E
100
AcDbEntity
  8
0
100
AcDbLine
 10
80.0
 20
109.0999999999999
 30
0.0
 11
80.0
 21
108.4999999999999
 31
0.0
  0
LINE
  5
2CE
330
1E
100
AcDbEntity
  8
0
100
AcDbLine
 10
80.0
 20
109.0999999999999
 30
0.0
 11
80.0
 21
110.6999999999999
 31
0.0
  0
LINE
  5
2CF
330
1E
100
AcDbEntity
  8
0
100
AcDbLine
 10
80.0
 20
108.4999999999999
 30
0.0
 11
80.0
 21
109.0999999999999
 31
0.0
  0
LINE
  5
2D0
330
1E
100
AcDbEntity
  8
0
100
AcDbLine
 10
80.0
 20
150.0
 30
0.0
 11
80.0
 21
142.9
 31
0.0
  0
LINE
  5
2D1
330
1E
100
AcDbEntity
  8
0
100
AcDbLine
 10
80.0
 20
150.0
 30
0.0
 11
80.0
 21
156.0
 31
0.0
  0
LINE
  5
2D2
330
1E
100
AcDbEntity
  8
0
100
AcDbLine
 10
80.0
 20
156.0
 30
0.0
 11
80.0
 21
150.0
 31
0.0
  0
LINE
  5
2D3
330
1E
100
AcDbEntity
  8
0
100
AcDbLine
 10
80.0
 20
156.0
 30
0.0
 11
80.0
 21
160.5999999999999
 31
0.0
  0
LINE
  5
2D4
330
1E
100
AcDbEntity
  8
0
100
AcDbLine
 10
80.0
 20
160.5999999999999
 30
0.0
 11
80.0
 21
156.0
 31
0.0
  0
LINE
  5
2D5
330
1E
100
AcDbEntity
  8
0
100
AcDbLine
 10
80.0
 20
160.5999999999999
 30
0.0
 11
80.0
 21
164.0
 31
0.0
  0
LINE
  5
2D6
330
1E
100
AcDbEntity
  8
0
100
AcDbLine
 10
80.0
 20
164.0
 30
0.0
 11
80.0
 21
160.5999999999999
 31
0.0
  0
LINE
  5
2D7
330
1E
100
AcDbEntity
  8
0
100
AcDbLine
 10
80.0
 20
164.0
 30
0.0
 11
80.0
 21
166.1999999999999
 31
0.0
  0
LINE
  5
2D8
330
1E
100
AcDbEntity
  8
0
100
AcDbLine
 10
80.0
 20
166.1999999999999
 30
0.0
 11
80.0
 21
164.0
 31
0.0
  0
LINE
  5
2D9
330
1E
100
AcDbEntity
  8
0
100
AcDbLine
 10
80.0
 20
166.1999999999999
 30
0.0
 11
80.0
 21
167.0
 31
0.0
  0
LINE
  5
2DA
330
1E
100
AcDbEntity
  8
0
100
AcDbLine
 10
80.0
 20
142.9
 30
0.0
 11
80.0
 21
134.8
 31
0.0
  0
LINE
  5
2DB
330
1E
100
AcDbEntity
  8
0
100
AcDbLine
 10
80.0
 20
142.9
 30
0.0
 11
80.0
 21
150.0
 31
0.0
  0
LINE
  5
2DC
330
1E
100
AcDbEntity
  8
0
100
AcDbLine
 10
80.0
 20
141.5
 30
0.0
 11
80.0
 21
140.8999999999999
 31
0.0
  0
LINE
  5
2DD
330
1E
100
AcDbEntity
  8
0
100
AcDbLine
 10
80.0
 20
167.0
 30
0.0
 11
80.5
 21
168.4
 31
0.0
  0
LINE
  5
2DE
330
1E
100
AcDbEntity
  8
0
100
AcDbLine
 10
80.0
 20
167.0
 30
0.0
 11
80.0
 21
166.1999999999999
 31
0.0
  0
LINE
  5
2DF
330
1E
100
AcDbEntity
  8
0
100
AcDbLine
 10
80.0
 20
140.0
 30
0.0
 11
80.0
 21
140.8999999999999
 31
0.0
  0
LINE
  5
2E0
330
1E
100
AcDbEntity
  8
0
100
AcDbLine
 10
80.0
 20
140.8999999999999
 30
0.0
 11
80.0
 21
141.5
 31
0.0
  0
LINE
  5
2E1
330
1E
100
AcDbEntity
  8
0
100
AcDbLine
 10
80.0
 20
140.8999999999999
 30
0.0
 11
80.0
 21
140.0
 31
0.0
  0
LINE
  5
2E2
330
1E
100
AcDbEntity
  8
0
100
AcDbLine
 10
80.0
 20
140.8999999999999
 30
0.0
 11
80.0
 21
139.3
 31
0.0
  0
LINE
  5
2E3
330
1E
100
AcDbEntity
  8
0
100
AcDbLine
 10
80.0
 20
79.0
 30
0.0
 11
80.0
 21
78.7
 31
0.0
  0
LINE
  5
2E4
330
1E
100
AcDbEntity
  8
0
100
AcDbLine
 10
80.0
 20
27.0
 30
0.0
 11
80.0
 21
26.8
 31
0.0
  0
LINE
  5
2E5
330
1E
100
AcDbEntity
  8
0
100
AcDbLine
 10
80.0
 20
26.8
 30
0.0
 11
80.0
 21
27.0
 31
0.0
  0
LINE
  5
2E6
330
1E
100
AcDbEntity
  8
0
100
AcDbLine
 10
80.0
 20
26.8
 30
0.0
 11
80.0
 21
25.2
 31
0.0
  0
LINE
  5
2E7
330
1E
100
AcDbEntity
  8
0
100
AcDbLine
 10
80.0
 20
26.8
 30
0.0
 11
80.0
 21
28.8
 31
0.0
  0
LINE
  5
2E8
330
1E
100
AcDbEntity
  8
0
100
AcDbLine
 10
80.0
 20
25.2
 30
0.0
 11
80.0
 21
26.8
 31
0.0
  0
LINE
  5
2E9
330
1E
100
AcDbEntity
  8
0
100
AcDbLine
 10
80.0
 20
25.2
 30
0.0
 11
80.0
 21
24.0
 31
0.0
  0
LINE
  5
2EA
330
1E
100
AcDbEntity
  8
0
100
AcDbLine
 10
80.0
 20
24.0
 30
0.0
 11
80.0
 21
25.2
 31
0.0
  0
LINE
  5
2EB
330
1E
100
AcDbEntity
  8
0
100
AcDbLine
 10
80.0
 20
24.0
 30
0.0
 11
80.0
 21
23.3
 31
0.0
  0
LINE
  5
2EC
330
1E
100
AcDbEntity
  8
0
100
AcDbLine
 10
92.0
 20
33.3
 30
0.0
 11
92.0
 21
25.0
 31
0.0
  0
LINE
  5
2ED
330
1E
100
AcDbEntity
  8
0
100
AcDbLine
 10
92.0
 20
33.3
 30
0.0
 11
92.0
 21
42.7
 31
0.0
  0
LINE
  5
2EE
330
1E
100
AcDbEntity
  8
0
100
AcDbLine
 10
92.0
 20
42.7
 30
0.0
 11
92.0
 21
33.3
 31
0.0
  0
LINE
  5
2EF
330
1E
100
AcDbEntity
  8
0
100
AcDbLine
 10
92.0
 20
42.7
 30
0.0
 11
92.0
 21
52.5
 31
0.0
  0
LINE
  5
2F0
330
1E
100
AcDbEntity
  8
0
100
AcDbLine
 10
92.0
 20
25.0
 30
0.0
 11
92.0
 21
17.7
 31
0.0
  0
LINE
  5
2F1
330
1E
100
AcDbEntity
  8
0
100
AcDbLine
 10
92.0
 20
25.0
 30
0.0
 11
92.0
 21
33.3
 31
0.0
  0
LINE
  5
2F2
330
1E
100
AcDbEntity
  8
0
100
AcDbLine
 10
80.5
 20
168.4
 30
0.0
 11
81.6
 21
169.5
 31
0.0
  0
LINE
  5
2F3
330
1E
100
AcDbEntity
  8
0
100
AcDbLine
 10
81.6
 20
169.5
 30
0.0
 11
83.0
 21
170.0
 31
0.0
  0
LINE
  5
2F4
330
1E
100
AcDbEntity
  8
0
100
AcDbLine
 10
92.0
 20
61.29999999999999
 30
0.0
 11
92.0
 21
58.0
 31
0.0
  0
LINE
  5
2F5
330
1E
100
AcDbEntity
  8
0
100
AcDbLine
 10
92.0
 20
58.0
 30
0.0
 11
92.0
 21
54.5
 31
0.0
  0
LINE
  5
2F6
330
1E
100
AcDbEntity
  8
0
100
AcDbLine
 10
92.0
 20
63.1
 30
0.0
 11
92.0
 21
73.9
 31
0.0
  0
LINE
  5
2F7
330
1E
100
AcDbEntity
  8
0
100
AcDbLine
 10
92.0
 20
63.1
 30
0.0
 11
92.0
 21
61.29999999999999
 31
0.0
  0
LINE
  5
2F8
330
1E
100
AcDbEntity
  8
0
100
AcDbLine
 10
92.0
 20
52.5
 30
0.0
 11
92.0
 21
63.1
 31
0.0
  0
LINE
  5
2F9
330
1E
100
AcDbEntity
  8
0
100
AcDbLine
 10
92.0
 20
52.5
 30
0.0
 11
92.0
 21
42.7
 31
0.0
  0
LINE
  5
2FA
330
1E
100
AcDbEntity
  8
0
100
AcDbLine
 10
92.0
 20
73.9
 30
0.0
 11
92.0
 21
63.1
 31
0.0
  0
LINE
  5
2FB
330
1E
100
AcDbEntity
  8
0
100
AcDbLine
 10
92.0
 20
73.9
 30
0.0
 11
92.0
 21
85.0
 31
0.0
  0
LINE
  5
2FC
330
1E
100
AcDbEntity
  8
0
100
AcDbLine
 10
92.0
 20
85.0
 30
0.0
 11
92.0
 21
96.09999999999999
 31
0.0
  0
LINE
  5
2FD
330
1E
100
AcDbEntity
  8
0
100
AcDbLine
 10
92.0
 20
85.0
 30
0.0
 11
92.0
 21
73.9
 31
0.0
  0
LINE
  5
2FE
330
1E
100
AcDbEntity
  8
0
100
AcDbLine
 10
92.0
 20
152.3
 30
0.0
 11
92.0
 21
145.0
 31
0.0
  0
LINE
  5
2FF
330
1E
100
AcDbEntity
  8
0
100
AcDbLine
 10
92.0
 20
152.3
 30
0.0
 11
92.0
 21
158.6
 31
0.0
  0
LINE
  5
300
330
1E
100
AcDbEntity
  8
0
100
AcDbLine
 10
92.0
 20
158.6
 30
0.0
 11
92.0
 21
152.3
 31
0.0
  0
LINE
  5
301
330
1E
100
AcDbEntity
  8
0
100
AcDbLine
 10
92.0
 20
158.6
 30
0.0
 11
92.0
 21
163.4
 31
0.0
  0
LINE
  5
302
330
1E
100
AcDbEntity
  8
0
100
AcDbLine
 10
92.0
 20
163.4
 30
0.0
 11
92.0
 21
158.6
 31
0.0
  0
LINE
  5
303
330
1E
100
AcDbEntity
  8
0
100
AcDbLine
 10
92.0
 20
163.4
 30
0.0
 11
92.0
 21
166.9
 31
0.0
  0
LINE
  5
304
330
1E
100
AcDbEntity
  8
0
100
AcDbLine
 10
92.0
 20
166.9
 30
0.0
 11
92.0
 21
163.4
 31
0.0
  0
LINE
  5
305
330
1E
100
AcDbEntity
  8
0
100
AcDbLine
 10
92.0
 20
166.9
 30
0.0
 11
92.0
 21
169.1
 31
0.0
  0
LINE
  5
306
330
1E
100
AcDbEntity
  8
0
100
AcDbLine
 10
92.0
 20
169.1
 30
0.0
 11
92.0
 21
166.9
 31
0.0
  0
LINE
  5
307
330
1E
100
AcDbEntity
  8
0
100
AcDbLine
 10
92.0
 20
169.1
 30
0.0
 11
92.0
 21
170.0
 31
0.0
  0
LINE
  5
308
330
1E
100
AcDbEntity
  8
0
100
AcDbLine
 10
92.0
 20
170.0
 30
0.0
 11
92.0
 21
169.1
 31
0.0
  0
LINE
  5
309
330
1E
100
AcDbEntity
  8
0
100
AcDbLine
 10
92.0
 20
145.0
 30
0.0
 11
92.0
 21
136.6999999999999
 31
0.0
  0
LINE
  5
30A
330
1E
100
AcDbEntity
  8
0
100
AcDbLine
 10
92.0
 20
145.0
 30
0.0
 11
92.0
 21
152.3
 31
0.0
  0
LINE
  5
30B
330
1E
100
AcDbEntity
  8
0
100
AcDbLine
 10
92.0
 20
136.6999999999999
 30
0.0
 11
92.0
 21
127.2999999999999
 31
0.0
  0
LINE
  5
30C
330
1E
100
AcDbEntity
  8
0
100
AcDbLine
 10
92.0
 20
136.6999999999999
 30
0.0
 11
92.0
 21
145.0
 31
0.0
  0
LINE
  5
30D
330
1E
100
AcDbEntity
  8
0
100
AcDbLine
 10
92.0
 20
127.2999999999999
 30
0.0
 11
92.0
 21
117.5
 31
0.0
  0
LINE
  5
30E
330
1E
100
AcDbEntity
  8
0
100
AcDbLine
 10
92.0
 20
127.2999999999999
 30
0.0
 11
92.0
 21
136.6999999999999
 31
0.0
  0
LINE
  5
30F
330
1E
100
AcDbEntity
  8
0
100
AcDbLine
 10
92.0
 20
117.5
 30
0.0
 11
92.0
 21
106.9
 31
0.0
  0
LINE
  5
310
330
1E
100
AcDbEntity
  8
0
100
AcDbLine
 10
92.0
 20
117.5
 30
0.0
 11
92.0
 21
127.2999999999999
 31
0.0
  0
LINE
  5
311
330
1E
100
AcDbEntity
  8
0
100
AcDbLine
 10
92.0
 20
106.9
 30
0.0
 11
92.0
 21
96.09999999999999
 31
0.0
  0
LINE
  5
312
330
1E
100
AcDbEntity
  8
0
100
AcDbLine
 10
92.0
 20
106.9
 30
0.0
 11
92.0
 21
117.5
 31
0.0
  0
LINE
  5
313
330
1E
100
AcDbEntity
  8
0
100
AcDbLine
 10
92.0
 20
96.09999999999999
 30
0.0
 11
92.0
 21
85.0
 31
0.0
  0
LINE
  5
314
330
1E
100
AcDbEntity
  8
0
100
AcDbLine
 10
92.0
 20
96.09999999999999
 30
0.0
 11
92.0
 21
106.9
 31
0.0
  0
LINE
  5
315
330
1E
100
AcDbEntity
  8
0
100
AcDbLine
 10
83.0
 20
170.0
 30
0.0
 11
92.0
 21
170.0
 31
0.0
  0
LINE
  5
316
330
1E
100
AcDbEntity
  8
0
100
AcDbLine
 10
92.0
 20
51.0
 30
0.0
 11
92.0
 21
54.5
 31
0.0
  0
LINE
  5
317
330
1E
100
AcDbEntity
  8
0
100
AcDbLine
 10
80.0
 20
23.3
 30
0.0
 11
80.0
 21
24.0
 31
0.0
  0
LINE
  5
318
330
1E
100
AcDbEntity
  8
0
100
AcDbLine
 10
80.0
 20
23.3
 30
0.0
 11
80.0
 21
20.0
 31
0.0
  0
LINE
  5
319
330
1E
100
AcDbEntity
  8
0
100
AcDbLine
 10
80.0
 20
20.0
 30
0.0
 11
80.0
 21
23.3
 31
0.0
  0
LINE
  5
31A
330
1E
100
AcDbEntity
  8
0
100
AcDbLine
 10
80.0
 20
3.799999999999999
 30
0.0
 11
80.0
 21
3.0
 31
0.0
  0
LINE
  5
31B
330
1E
100
AcDbEntity
  8
0
100
AcDbLine
 10
80.0
 20
3.799999999999999
 30
0.0
 11
80.0
 21
6.0
 31
0.0
  0
LINE
  5
320
330
1E
100
AcDbEntity
  8
0
100
AcDbLine
 10
57.22100000000001
 20
153.9089999999999
 30
0.0
 11
50.01699999999999
 21
146.711
 31
0.0
  0
LINE
  5
321
330
1E
100
AcDbEntity
  8
0
100
AcDbLine
 10
41.391
 20
129.676
 30
0.0
 11
40.2725
 21
126.606
 31
0.0
  0
LINE
  5
322
330
1E
100
AcDbEntity
  8
0
100
AcDbLine
 10
41.779
 20
129.349
 30
0.0
 11
40.2725
 21
126.606
 31
0.0
  0
LINE
  5
323
330
1E
100
AcDbEntity
  8
0
100
AcDbLine
 10
40.0
 20
125.0
 30
0.0
 11
40.0941776119402
 21
125.5550431000949
 31
0.0
  0
LINE
  5
324
330
1E
100
AcDbEntity
  8
0
100
AcDbLine
 10
47.839394386019
 20
73.0536132253919
 30
0.0
 11
42.21906458722229
 21
70.84676250212119
 31
0.0
  0
LINE
  5
325
330
1E
100
AcDbEntity
  8
0
100
AcDbLine
 10
6.0
 20
62.0
 30
0.0
 11
5.5
 21
62.5
 31
0.0
  0
ENDSEC
  0
SECTION
  2
OBJECTS
  0
DICTIONARY
  5
C
330
0
100
AcDbDictionary
281
     1
  3
ACAD_GROUP
350
D
  3
ACAD_LAYOUT
350
19
  3
ACAD_MLINESTYLE
350
16
  3
ACAD_PLOTSETTINGS
350
18
  3
ACAD_PLOTSTYLENAME
350
E
  3
AcDbVariableDictionary
350
326
  0
DICTIONARY
  5
D
102
{ACAD_REACTORS
330
C
102
}
330
C
100
AcDbDictionary
281
     1
  0
DICTIONARY
  5
19
102
{ACAD_REACTORS
330
C
102
}
330
C
100
AcDbDictionary
281
     1
  3
Layout1
350
1D
  3
Model
350
21
  0
DICTIONARY
  5
16
102
{ACAD_REACTORS
330
C
102
}
330
C
100
AcDbDictionary
281
     1
  3
Standard
350
17
  0
DICTIONARY
  5
18
102
{ACAD_REACTORS
330
C
102
}
330
C
100
AcDbDictionary
281
     1
  0
ACDBDICTIONARYWDFLT
  5
E
102
{ACAD_REACTORS
330
C
102
}
330
C
100
AcDbDictionary
281
     1
  3
Normal
350
F
100
AcDbDictionaryWithDefault
340
F
  0
DICTIONARY
  5
326
102
{ACAD_REACTORS
330
C
102
}
330
C
100
AcDbDictionary
281
     1
  3
DIMASSOC
350
327
  0
LAYOUT
  5
1D
102
{ACAD_REACTORS
330
19
102
}
330
19
100
AcDbPlotSettings
  1

  2
hp deskjet 980c series
  4

  6

 40
0.0
 41
0.0
 42
0.0
 43
0.0
 44
0.0
 45
0.0
 46
0.0
 47
0.0
 48
0.0
 49
0.0
140
0.0
141
0.0
142
1.0
143
1.0
 70
   688
 72
     0
 73
     0
 74
     5
  7

 75
    16
147
1.0
148
0.0
149
0.0
100
AcDbLayout
  1
Layout1
 70
     1
 71
     1
 10
0.0
 20
0.0
 11
12.0
 21
9.0
 12
0.0
 22
0.0
 32
0.0
 14
1.000000000000000E+20
 24
1.000000000000000E+20
 34
1.000000000000000E+20
 15
-1.000000000000000E+20
 25
-1.000000000000000E+20
 35
-1.000000000000000E+20
146
0.0
 13
0.0
 23
0.0
 33
0.0
 16
1.0
 26
0.0
 36
0.0
 17
0.0
 27
1.0
 37
0.0
 76
     0
330
1A
  0
LAYOUT
  5
21
102
{ACAD_REACTORS
330
19
102
}
330
19
100
AcDbPlotSettings
  1

  2
hp deskjet 980c series
  4

  6

 40
0.0
 41
0.0
 42
0.0
 43
0.0
 44
0.0
 45
0.0
 46
0.0
 47
0.0
 48
0.0
 49
0.0
140
0.0
141
0.0
142
1.0
143
1.0
 70
  1712
 72
     0
 73
     0
 74
     0
  7

 75
     0
147
1.0
148
0.0
149
0.0
100
AcDbLayout
  1
Model
 70
     1
 71
     0
 10
0.0
 20
0.0
 11
12.0
 21
9.0
 12
0.0
 22
0.0
 32
0.0
 14
0.0
 24
0.0
 34
0.0
 15
0.0
 25
0.0
 35
0.0
146
0.0
 13
0.0
 23
0.0
 33
0.0
 16
1.0
 26
0.0
 36
0.0
 17
0.0
 27
1.0
 37
0.0
 76
     0
330
1E
  0
MLINESTYLE
  5
17
102
{ACAD_REACTORS
330
16
102
}
330
16
100
AcDbMlineStyle
  2
STANDARD
 70
     0
  3

 62
   256
 51
90.0
 52
90.0
 71
     2
 49
0.5
 62
   256
  6
BYLAYER
 49
-0.5
 62
   256
  6
BYLAYER
  0
ACDBPLACEHOLDER
  5
F
102
{ACAD_REACTORS
330
E
102
}
330
E
  0
DICTIONARYVAR
  5
327
102
{ACAD_REACTORS
330
326
102
}
330
326
100
DictionaryVariables
280
     0
  1
1
  0
ENDSEC
  0
EOF
