  0
SECTION
  2
HEADER
  9
$ACADVER
  1
AC1015
  9
$ACADMAINTVER
 70
    13
  9
$DWGCODEPAGE
  3
ANSI_1252
  9
$INSBASE
 10
0.0
 20
0.0
 30
0.0
  9
$EXTMIN
 10
-0.0000000000000339
 20
0.0169000000000054
 30
0.0
  9
$EXTMAX
 10
420.0
 20
282.9831
 30
0.0
  9
$LIMMIN
 10
0.0
 20
0.0
  9
$LIMMAX
 10
12.0
 20
9.0
  9
$ORTHOMODE
 70
     0
  9
$REGENMODE
 70
     1
  9
$FILLMODE
 70
     1
  9
$QTEXTMODE
 70
     0
  9
$MIRRTEXT
 70
     1
  9
$LTSCALE
 40
1.0
  9
$ATTMODE
 70
     1
  9
$TEXTSIZE
 40
0.2
  9
$TRACEWID
 40
0.05
  9
$TEXTSTYLE
  7
Standard
  9
$CLAYER
  8
0
  9
$CELTYPE
  6
Continuous
  9
$CECOLOR
 62
   256
  9
$CELTSCALE
 40
1.0
  9
$DISPSILH
 70
     0
  9
$DIMSCALE
 40
1.0
  9
$DIMASZ
 40
0.18
  9
$DIMEXO
 40
0.0625
  9
$DIMDLI
 40
0.38
  9
$DIMRND
 40
0.0
  9
$DIMDLE
 40
0.0
  9
$DIMEXE
 40
0.18
  9
$DIMTP
 40
0.0
  9
$DIMTM
 40
0.0
  9
$DIMTXT
 40
0.18
  9
$DIMCEN
 40
0.09
  9
$DIMTSZ
 40
0.0
  9
$DIMTOL
 70
     0
  9
$DIMLIM
 70
     0
  9
$DIMTIH
 70
     1
  9
$DIMTOH
 70
     1
  9
$DIMSE1
 70
     0
  9
$DIMSE2
 70
     0
  9
$DIMTAD
 70
     0
  9
$DIMZIN
 70
     0
  9
$DIMBLK
  1

  9
$DIMASO
 70
     1
  9
$DIMSHO
 70
     1
  9
$DIMPOST
  1

  9
$DIMAPOST
  1

  9
$DIMALT
 70
     0
  9
$DIMALTD
 70
     2
  9
$DIMALTF
 40
25.4
  9
$DIMLFAC
 40
1.0
  9
$DIMTOFL
 70
     0
  9
$DIMTVP
 40
0.0
  9
$DIMTIX
 70
     0
  9
$DIMSOXD
 70
     0
  9
$DIMSAH
 70
     0
  9
$DIMBLK1
  1

  9
$DIMBLK2
  1

  9
$DIMSTYLE
  2
Standard
  9
$DIMCLRD
 70
     0
  9
$DIMCLRE
 70
     0
  9
$DIMCLRT
 70
     0
  9
$DIMTFAC
 40
1.0
  9
$DIMGAP
 40
0.09
  9
$DIMJUST
 70
     0
  9
$DIMSD1
 70
     0
  9
$DIMSD2
 70
     0
  9
$DIMTOLJ
 70
     1
  9
$DIMTZIN
 70
     0
  9
$DIMALTZ
 70
     0
  9
$DIMALTTZ
 70
     0
  9
$DIMUPT
 70
     0
  9
$DIMDEC
 70
     4
  9
$DIMTDEC
 70
     4
  9
$DIMALTU
 70
     2
  9
$DIMALTTD
 70
     2
  9
$DIMTXSTY
  7
Standard
  9
$DIMAUNIT
 70
     0
  9
$DIMADEC
 70
     0
  9
$DIMALTRND
 40
0.0
  9
$DIMAZIN
 70
     0
  9
$DIMDSEP
 70
    46
  9
$DIMATFIT
 70
     3
  9
$DIMFRAC
 70
     0
  9
$DIMLDRBLK
  1

  9
$DIMLUNIT
 70
     2
  9
$DIMLWD
 70
    -2
  9
$DIMLWE
 70
    -2
  9
$DIMTMOVE
 70
     0
  9
$LUNITS
 70
     2
  9
$LUPREC
 70
     4
  9
$SKETCHINC
 40
0.1
  9
$FILLETRAD
 40
0.0
  9
$AUNITS
 70
     0
  9
$AUPREC
 70
     0
  9
$MENU
  1
.
  9
$ELEVATION
 40
0.0
  9
$PELEVATION
 40
0.0
  9
$THICKNESS
 40
0.0
  9
$LIMCHECK
 70
     0
  9
$CHAMFERA
 40
0.0
  9
$CHAMFERB
 40
0.0
  9
$CHAMFERC
 40
0.0
  9
$CHAMFERD
 40
0.0
  9
$SKPOLY
 70
     0
  9
$TDCREATE
 40
2454753.409584236
  9
$TDUCREATE
 40
2454753.326250902
  9
$TDUPDATE
 40
2454753.411080359
  9
$TDUUPDATE
 40
2454753.327747025
  9
$TDINDWG
 40
0.0014961227
  9
$TDUSRTIMER
 40
0.0014961227
  9
$USRTIMER
 70
     1
  9
$ANGBASE
 50
0.0
  9
$ANGDIR
 70
     0
  9
$PDMODE
 70
     0
  9
$PDSIZE
 40
0.0
  9
$PLINEWID
 40
0.0
  9
$SPLFRAME
 70
     0
  9
$SPLINETYPE
 70
     6
  9
$SPLINESEGS
 70
     8
  9
$HANDSEED
  5
391
  9
$SURFTAB1
 70
     6
  9
$SURFTAB2
 70
     6
  9
$SURFTYPE
 70
     6
  9
$SURFU
 70
     6
  9
$SURFV
 70
     6
  9
$UCSBASE
  2

  9
$UCSNAME
  2

  9
$UCSORG
 10
0.0
 20
0.0
 30
0.0
  9
$UCSXDIR
 10
1.0
 20
0.0
 30
0.0
  9
$UCSYDIR
 10
0.0
 20
1.0
 30
0.0
  9
$UCSORTHOREF
  2

  9
$UCSORTHOVIEW
 70
     1
  9
$UCSORGTOP
 10
0.0
 20
0.0
 30
0.0
  9
$UCSORGBOTTOM
 10
0.0
 20
0.0
 30
0.0
  9
$UCSORGLEFT
 10
0.0
 20
0.0
 30
0.0
  9
$UCSORGRIGHT
 10
0.0
 20
0.0
 30
0.0
  9
$UCSORGFRONT
 10
0.0
 20
0.0
 30
0.0
  9
$UCSORGBACK
 10
0.0
 20
0.0
 30
0.0
  9
$PUCSBASE
  2

  9
$PUCSNAME
  2

  9
$PUCSORG
 10
0.0
 20
0.0
 30
0.0
  9
$PUCSXDIR
 10
1.0
 20
0.0
 30
0.0
  9
$PUCSYDIR
 10
0.0
 20
1.0
 30
0.0
  9
$PUCSORTHOREF
  2

  9
$PUCSORTHOVIEW
 70
     0
  9
$PUCSORGTOP
 10
0.0
 20
0.0
 30
0.0
  9
$PUCSORGBOTTOM
 10
0.0
 20
0.0
 30
0.0
  9
$PUCSORGLEFT
 10
0.0
 20
0.0
 30
0.0
  9
$PUCSORGRIGHT
 10
0.0
 20
0.0
 30
0.0
  9
$PUCSORGFRONT
 10
0.0
 20
0.0
 30
0.0
  9
$PUCSORGBACK
 10
0.0
 20
0.0
 30
0.0
  9
$USERI1
 70
     0
  9
$USERI2
 70
     0
  9
$USERI3
 70
     0
  9
$USERI4
 70
     0
  9
$USERI5
 70
     0
  9
$USERR1
 40
0.0
  9
$USERR2
 40
0.0
  9
$USERR3
 40
0.0
  9
$USERR4
 40
0.0
  9
$USERR5
 40
0.0
  9
$WORLDVIEW
 70
     1
  9
$SHADEDGE
 70
     3
  9
$SHADEDIF
 70
    70
  9
$TILEMODE
 70
     1
  9
$MAXACTVP
 70
    64
  9
$PINSBASE
 10
0.0
 20
0.0
 30
0.0
  9
$PLIMCHECK
 70
     0
  9
$PEXTMIN
 10
1.000000000000000E+20
 20
1.000000000000000E+20
 30
1.000000000000000E+20
  9
$PEXTMAX
 10
-1.000000000000000E+20
 20
-1.000000000000000E+20
 30
-1.000000000000000E+20
  9
$PLIMMIN
 10
0.0
 20
0.0
  9
$PLIMMAX
 10
12.0
 20
9.0
  9
$UNITMODE
 70
     0
  9
$VISRETAIN
 70
     1
  9
$PLINEGEN
 70
     0
  9
$PSLTSCALE
 70
     1
  9
$TREEDEPTH
 70
  3020
  9
$CMLSTYLE
  2
Standard
  9
$CMLJUST
 70
     0
  9
$CMLSCALE
 40
1.0
  9
$PROXYGRAPHICS
 70
     1
  9
$MEASUREMENT
 70
     0
  9
$CELWEIGHT
370
    -1
  9
$ENDCAPS
280
     0
  9
$JOINSTYLE
280
     0
  9
$LWDISPLAY
290
     0
  9
$INSUNITS
 70
     0
  9
$HYPERLINKBASE
  1

  9
$STYLESHEET
  1

  9
$XEDIT
290
     1
  9
$CEPSNTYPE
380
     0
  9
$PSTYLEMODE
290
     1
  9
$FINGERPRINTGUID
  2
{ACDE3610-4520-4704-A4AB-6A84B547AA38}
  9
$VERSIONGUID
  2
{42CF8D3D-EC30-47A8-9F91-CFC5E9079BAB}
  9
$EXTNAMES
290
     1
  9
$PSVPSCALE
 40
0.0
  9
$OLESTARTUP
290
     0
  0
ENDSEC
  0
SECTION
  2
CLASSES
  0
CLASS
  1
ACDBDICTIONARYWDFLT
  2
AcDbDictionaryWithDefault
  3
AutoCAD 2000
 90
        0
280
     0
281
     0
  0
CLASS
  1
ACDBPLACEHOLDER
  2
AcDbPlaceHolder
  3
AutoCAD 2000
 90
        0
280
     0
281
     0
  0
CLASS
  1
LAYOUT
  2
AcDbLayout
  3
AutoCAD 2000
 90
        0
280
     0
281
     0
  0
CLASS
  1
DICTIONARYVAR
  2
AcDbDictionaryVar
  3
AutoCAD 2000
 90
        0
280
     0
281
     0
  0
ENDSEC
  0
SECTION
  2
TABLES
  0
TABLE
  2
VPORT
  5
8
330
0
100
AcDbSymbolTable
 70
     2
  0
VPORT
  5
390
330
8
100
AcDbSymbolTableRecord
100
AcDbViewportTableRecord
  2
*Active
 70
     0
 10
0.0
 20
0.0
 11
1.0
 21
1.0
 12
210.0
 22
141.4999999999999
 13
0.0
 23
0.0
 14
1.0
 24
1.0
 15
0.0
 25
0.0
 16
0.0
 26
0.0
 36
1.0
 17
0.0
 27
0.0
 37
0.0
 40
285.1372961636828
 41
2.078104993597951
 42
50.0
 43
0.0
 44
0.0
 50
0.0
 51
0.0
 71
     0
 72
   100
 73
     1
 74
     3
 75
     0
 76
     0
 77
     0
 78
     0
281
     0
 65
     1
110
0.0
120
0.0
130
0.0
111
1.0
121
0.0
131
0.0
112
0.0
122
1.0
132
0.0
 79
     1
146
0.0
  0
ENDTAB
  0
TABLE
  2
LTYPE
  5
5
330
0
100
AcDbSymbolTable
 70
     1
  0
LTYPE
  5
13
330
5
100
AcDbSymbolTableRecord
100
AcDbLinetypeTableRecord
  2
ByBlock
 70
     0
  3

 72
    65
 73
     0
 40
0.0
  0
LTYPE
  5
14
330
5
100
AcDbSymbolTableRecord
100
AcDbLinetypeTableRecord
  2
ByLayer
 70
     0
  3

 72
    65
 73
     0
 40
0.0
  0
LTYPE
  5
15
330
5
100
AcDbSymbolTableRecord
100
AcDbLinetypeTableRecord
  2
Continuous
 70
     0
  3
Solid line
 72
    65
 73
     0
 40
0.0
  0
ENDTAB
  0
TABLE
  2
LAYER
  5
2
330
0
100
AcDbSymbolTable
 70
     1
  0
LAYER
  5
10
330
2
100
AcDbSymbolTableRecord
100
AcDbLayerTableRecord
  2
0
 70
     0
 62
     7
  6
Continuous
370
    -3
390
F
  0
ENDTAB
  0
TABLE
  2
STYLE
  5
3
330
0
100
AcDbSymbolTable
 70
     1
  0
STYLE
  5
11
330
3
100
AcDbSymbolTableRecord
100
AcDbTextStyleTableRecord
  2
Standard
 70
     0
 40
0.0
 41
1.0
 50
0.0
 71
     0
 42
0.2
  3
txt
  4

  0
ENDTAB
  0
TABLE
  2
VIEW
  5
6
330
0
100
AcDbSymbolTable
 70
     0
  0
ENDTAB
  0
TABLE
  2
UCS
  5
7
330
0
100
AcDbSymbolTable
 70
     0
  0
ENDTAB
  0
TABLE
  2
APPID
  5
9
330
0
100
AcDbSymbolTable
 70
     1
  0
APPID
  5
12
330
9
100
AcDbSymbolTableRecord
100
AcDbRegAppTableRecord
  2
ACAD
 70
     0
  0
ENDTAB
  0
TABLE
  2
DIMSTYLE
  5
A
330
0
100
AcDbSymbolTable
 70
     1
100
AcDbDimStyleTable
 71
     0
  0
DIMSTYLE
105
381
330
A
100
AcDbSymbolTableRecord
100
AcDbDimStyleTableRecord
  2
Standard
 70
     0
340
11
  0
ENDTAB
  0
TABLE
  2
BLOCK_RECORD
  5
1
330
0
100
AcDbSymbolTable
 70
     0
  0
BLOCK_RECORD
  5
1E
330
1
100
AcDbSymbolTableRecord
100
AcDbBlockTableRecord
  2
*Model_Space
340
21
  0
BLOCK_RECORD
  5
1A
330
1
100
AcDbSymbolTableRecord
100
AcDbBlockTableRecord
  2
*Paper_Space
340
1D
  0
ENDTAB
  0
ENDSEC
  0
SECTION
  2
BLOCKS
  0
BLOCK
  5
1F
330
1E
100
AcDbEntity
  8
0
100
AcDbBlockBegin
  2
*Model_Space
 70
     0
 10
0.0
 20
0.0
 30
0.0
  3
*Model_Space
  1

  0
ENDBLK
  5
20
330
1E
100
AcDbEntity
  8
0
100
AcDbBlockEnd
  0
BLOCK
  5
1B
330
1A
100
AcDbEntity
 67
     1
  8
0
100
AcDbBlockBegin
  2
*Paper_Space
 70
     0
 10
0.0
 20
0.0
 30
0.0
  3
*Paper_Space
  1

  0
ENDBLK
  5
1C
330
1A
100
AcDbEntity
 67
     1
  8
0
100
AcDbBlockEnd
  0
ENDSEC
  0
SECTION
  2
ENTITIES
  0
LINE
  5
22
330
1E
100
AcDbEntity
  8
0
100
AcDbLine
 10
182.0
 20
0.0169000000000054
 30
0.0
 11
186.6999999999999
 21
0.6169000000000051
 31
0.0
  0
LINE
  5
23
330
1E
100
AcDbEntity
  8
0
100
AcDbLine
 10
182.0
 20
0.0169000000000054
 30
0.0
 11
186.6999999999999
 21
0.6169000000000051
 31
0.0
  0
LINE
  5
24
330
1E
100
AcDbEntity
  8
0
100
AcDbLine
 10
186.6999999999999
 20
0.6169000000000051
 30
0.0
 11
191.0
 21
2.116899999999999
 31
0.0
  0
LINE
  5
25
330
1E
100
AcDbEntity
  8
0
100
AcDbLine
 10
186.6999999999999
 20
0.6169000000000051
 30
0.0
 11
191.0
 21
2.116900000000009
 31
0.0
  0
LINE
  5
26
330
1E
100
AcDbEntity
  8
0
100
AcDbLine
 10
177.3
 20
0.6169000000000051
 30
0.0
 11
182.0
 21
0.0169000000000054
 31
0.0
  0
LINE
  5
27
330
1E
100
AcDbEntity
  8
0
100
AcDbLine
 10
177.3
 20
0.6169000000000051
 30
0.0
 11
182.0
 21
0.0169000000000054
 31
0.0
  0
LINE
  5
28
330
1E
100
AcDbEntity
  8
0
100
AcDbLine
 10
191.0
 20
2.116900000000009
 30
0.0
 11
194.6999999999999
 21
4.6169
 31
0.0
  0
LINE
  5
29
330
1E
100
AcDbEntity
  8
0
100
AcDbLine
 10
194.6999999999999
 20
4.6169
 30
0.0
 11
197.5999999999999
 21
7.816900000000009
 31
0.0
  0
LINE
  5
2A
330
1E
100
AcDbEntity
  8
0
100
AcDbLine
 10
197.5999999999999
 20
7.816900000000009
 30
0.0
 11
199.3999999999999
 21
11.61689999999999
 31
0.0
  0
LINE
  5
2B
330
1E
100
AcDbEntity
  8
0
100
AcDbLine
 10
191.0
 20
2.116900000000009
 30
0.0
 11
194.6999999999999
 21
4.6169
 31
0.0
  0
LINE
  5
2C
330
1E
100
AcDbEntity
  8
0
100
AcDbLine
 10
173.0
 20
2.116900000000009
 30
0.0
 11
177.3
 21
0.6169000000000051
 31
0.0
  0
LINE
  5
2D
330
1E
100
AcDbEntity
  8
0
100
AcDbLine
 10
173.0
 20
2.116899999999999
 30
0.0
 11
177.3
 21
0.6169000000000051
 31
0.0
  0
LINE
  5
2E
330
1E
100
AcDbEntity
  8
0
100
AcDbLine
 10
169.3
 20
4.6169
 30
0.0
 11
173.0
 21
2.116900000000009
 31
0.0
  0
LINE
  5
2F
330
1E
100
AcDbEntity
  8
0
100
AcDbLine
 10
169.3
 20
4.6169
 30
0.0
 11
173.0
 21
2.116900000000009
 31
0.0
  0
LINE
  5
30
330
1E
100
AcDbEntity
  8
0
100
AcDbLine
 10
200.0
 20
15.6169
 30
0.0
 11
200.0
 21
25.3814
 31
0.0
  0
LINE
  5
31
330
1E
100
AcDbEntity
  8
0
100
AcDbLine
 10
199.3999999999999
 20
11.61689999999999
 30
0.0
 11
200.0
 21
15.6169
 31
0.0
  0
LINE
  5
32
330
1E
100
AcDbEntity
  8
0
100
AcDbLine
 10
166.4
 20
7.816900000000009
 30
0.0
 11
169.3
 21
4.6169
 31
0.0
  0
LINE
  5
33
330
1E
100
AcDbEntity
  8
0
100
AcDbLine
 10
164.5999999999999
 20
11.61689999999999
 30
0.0
 11
166.4
 21
7.816900000000009
 31
0.0
  0
LINE
  5
34
330
1E
100
AcDbEntity
  8
0
100
AcDbLine
 10
164.0
 20
25.3814
 30
0.0
 11
164.0
 21
37.76899999999999
 31
0.0
  0
LINE
  5
35
330
1E
100
AcDbEntity
  8
0
100
AcDbLine
 10
164.0
 20
25.3814
 30
0.0
 11
164.0
 21
15.6169
 31
0.0
  0
LINE
  5
36
330
1E
100
AcDbEntity
  8
0
100
AcDbLine
 10
164.0
 20
37.76899999999999
 30
0.0
 11
164.0
 21
48.6727
 31
0.0
  0
LINE
  5
37
330
1E
100
AcDbEntity
  8
0
100
AcDbLine
 10
164.0
 20
37.76899999999999
 30
0.0
 11
164.0
 21
25.3814
 31
0.0
  0
LINE
  5
38
330
1E
100
AcDbEntity
  8
0
100
AcDbLine
 10
200.0
 20
25.3814
 30
0.0
 11
200.0
 21
37.76899999999999
 31
0.0
  0
LINE
  5
39
330
1E
100
AcDbEntity
  8
0
100
AcDbLine
 10
200.0
 20
25.3814
 30
0.0
 11
200.0
 21
15.6169
 31
0.0
  0
LINE
  5
3A
330
1E
100
AcDbEntity
  8
0
100
AcDbLine
 10
344.0
 20
44.85929999999999
 30
0.0
 11
347.3999999999999
 21
38.2019
 31
0.0
  0
LINE
  5
3B
330
1E
100
AcDbEntity
  8
0
100
AcDbLine
 10
344.0
 20
44.85929999999999
 30
0.0
 11
344.0
 21
57.128
 31
0.0
  0
LINE
  5
3C
330
1E
100
AcDbEntity
  8
0
100
AcDbLine
 10
344.0
 20
57.128
 30
0.0
 11
344.0
 21
69.3966
 31
0.0
  0
LINE
  5
3D
330
1E
100
AcDbEntity
  8
0
100
AcDbLine
 10
344.0
 20
57.128
 30
0.0
 11
344.0
 21
44.85929999999999
 31
0.0
  0
LINE
  5
3E
330
1E
100
AcDbEntity
  8
0
100
AcDbLine
 10
200.0
 20
48.6727
 30
0.0
 11
200.0
 21
37.76899999999999
 31
0.0
  0
LINE
  5
3F
330
1E
100
AcDbEntity
  8
0
100
AcDbLine
 10
200.0
 20
48.6727
 30
0.0
 11
200.0
 21
62.6743
 31
0.0
  0
LINE
  5
40
330
1E
100
AcDbEntity
  8
0
100
AcDbLine
 10
200.0
 20
37.76899999999999
 30
0.0
 11
200.0
 21
25.3814
 31
0.0
  0
LINE
  5
41
330
1E
100
AcDbEntity
  8
0
100
AcDbLine
 10
200.0
 20
37.76899999999999
 30
0.0
 11
200.0
 21
48.6727
 31
0.0
  0
LINE
  5
42
330
1E
100
AcDbEntity
  8
0
100
AcDbLine
 10
164.0
 20
48.6727
 30
0.0
 11
164.0
 21
62.6743
 31
0.0
  0
LINE
  5
43
330
1E
100
AcDbEntity
  8
0
100
AcDbLine
 10
164.0
 20
48.6727
 30
0.0
 11
164.0
 21
37.76899999999999
 31
0.0
  0
LINE
  5
44
330
1E
100
AcDbEntity
  8
0
100
AcDbLine
 10
164.0
 20
15.6169
 30
0.0
 11
164.5999999999999
 21
11.61689999999999
 31
0.0
  0
LINE
  5
45
330
1E
100
AcDbEntity
  8
0
100
AcDbLine
 10
164.0
 20
15.6169
 30
0.0
 11
164.0
 21
25.3814
 31
0.0
  0
LINE
  5
46
330
1E
100
AcDbEntity
  8
0
100
AcDbLine
 10
347.3999999999999
 20
38.2019
 30
0.0
 11
353.8
 21
30.3082
 31
0.0
  0
LINE
  5
47
330
1E
100
AcDbEntity
  8
0
100
AcDbLine
 10
345.3999999999999
 20
49.3527
 30
0.0
 11
349.1
 21
40.69809999999999
 31
0.0
  0
LINE
  5
48
330
1E
100
AcDbEntity
  8
0
100
AcDbLine
 10
164.0
 20
101.2931
 30
0.0
 11
164.0
 21
112.1971
 31
0.0
  0
LINE
  5
49
330
1E
100
AcDbEntity
  8
0
100
AcDbLine
 10
164.0
 20
101.2931
 30
0.0
 11
164.0
 21
87.2921
 31
0.0
  0
LINE
  5
4A
330
1E
100
AcDbEntity
  8
0
100
AcDbLine
 10
164.0
 20
205.7511
 30
0.0
 11
164.0
 21
184.4241
 31
0.0
  0
LINE
  5
4B
330
1E
100
AcDbEntity
  8
0
100
AcDbLine
 10
164.0
 20
205.7511
 30
0.0
 11
164.0
 21
219.1831
 31
0.0
  0
LINE
  5
4C
330
1E
100
AcDbEntity
  8
0
100
AcDbLine
 10
164.0
 20
184.4241
 30
0.0
 11
164.0
 21
158.5390999999999
 31
0.0
  0
LINE
  5
4D
330
1E
100
AcDbEntity
  8
0
100
AcDbLine
 10
164.0
 20
184.4241
 30
0.0
 11
164.0
 21
205.7511
 31
0.0
  0
LINE
  5
4E
330
1E
100
AcDbEntity
  8
0
100
AcDbLine
 10
164.0
 20
158.5390999999999
 30
0.0
 11
164.0
 21
132.0291
 31
0.0
  0
LINE
  5
4F
330
1E
100
AcDbEntity
  8
0
100
AcDbLine
 10
164.0
 20
158.5390999999999
 30
0.0
 11
164.0
 21
184.4241
 31
0.0
  0
LINE
  5
50
330
1E
100
AcDbEntity
  8
0
100
AcDbLine
 10
164.0
 20
132.0291
 30
0.0
 11
164.0
 21
112.1971
 31
0.0
  0
LINE
  5
51
330
1E
100
AcDbEntity
  8
0
100
AcDbLine
 10
164.0
 20
132.0291
 30
0.0
 11
164.0
 21
158.5390999999999
 31
0.0
  0
LINE
  5
52
330
1E
100
AcDbEntity
  8
0
100
AcDbLine
 10
164.0
 20
112.1971
 30
0.0
 11
164.0
 21
132.0291
 31
0.0
  0
LINE
  5
53
330
1E
100
AcDbEntity
  8
0
100
AcDbLine
 10
164.0
 20
112.1971
 30
0.0
 11
164.0
 21
101.2931
 31
0.0
  0
LINE
  5
54
330
1E
100
AcDbEntity
  8
0
100
AcDbLine
 10
164.0
 20
87.2921
 30
0.0
 11
164.0
 21
74.9831
 31
0.0
  0
LINE
  5
55
330
1E
100
AcDbEntity
  8
0
100
AcDbLine
 10
164.0
 20
87.2921
 30
0.0
 11
164.0
 21
101.2931
 31
0.0
  0
LINE
  5
56
330
1E
100
AcDbEntity
  8
0
100
AcDbLine
 10
164.0
 20
74.9831
 30
0.0
 11
164.0
 21
62.6743
 31
0.0
  0
LINE
  5
57
330
1E
100
AcDbEntity
  8
0
100
AcDbLine
 10
164.0
 20
74.9831
 30
0.0
 11
164.0
 21
87.2921
 31
0.0
  0
LINE
  5
58
330
1E
100
AcDbEntity
  8
0
100
AcDbLine
 10
200.0
 20
62.6743
 30
0.0
 11
200.0
 21
74.9831
 31
0.0
  0
LINE
  5
59
330
1E
100
AcDbEntity
  8
0
100
AcDbLine
 10
200.0
 20
62.6743
 30
0.0
 11
200.0
 21
48.6727
 31
0.0
  0
LINE
  5
5A
330
1E
100
AcDbEntity
  8
0
100
AcDbLine
 10
200.0
 20
101.2931
 30
0.0
 11
200.0
 21
87.2921
 31
0.0
  0
LINE
  5
5B
330
1E
100
AcDbEntity
  8
0
100
AcDbLine
 10
200.0
 20
101.2931
 30
0.0
 11
200.0
 21
112.1971
 31
0.0
  0
LINE
  5
5C
330
1E
100
AcDbEntity
  8
0
100
AcDbLine
 10
200.0
 20
87.2921
 30
0.0
 11
200.0
 21
74.9831
 31
0.0
  0
LINE
  5
5D
330
1E
100
AcDbEntity
  8
0
100
AcDbLine
 10
200.0
 20
87.2921
 30
0.0
 11
200.0
 21
101.2931
 31
0.0
  0
LINE
  5
5E
330
1E
100
AcDbEntity
  8
0
100
AcDbLine
 10
200.0
 20
74.9831
 30
0.0
 11
200.0
 21
62.6743
 31
0.0
  0
LINE
  5
5F
330
1E
100
AcDbEntity
  8
0
100
AcDbLine
 10
200.0
 20
74.9831
 30
0.0
 11
200.0
 21
87.2921
 31
0.0
  0
LINE
  5
60
330
1E
100
AcDbEntity
  8
0
100
AcDbLine
 10
200.0
 20
112.1971
 30
0.0
 11
200.0
 21
132.0291
 31
0.0
  0
LINE
  5
61
330
1E
100
AcDbEntity
  8
0
100
AcDbLine
 10
200.0
 20
112.1971
 30
0.0
 11
200.0
 21
101.2931
 31
0.0
  0
LINE
  5
62
330
1E
100
AcDbEntity
  8
0
100
AcDbLine
 10
200.0
 20
132.0291
 30
0.0
 11
200.0
 21
158.5390999999999
 31
0.0
  0
LINE
  5
63
330
1E
100
AcDbEntity
  8
0
100
AcDbLine
 10
200.0
 20
132.0291
 30
0.0
 11
200.0
 21
112.1971
 31
0.0
  0
LINE
  5
64
330
1E
100
AcDbEntity
  8
0
100
AcDbLine
 10
344.0
 20
69.3966
 30
0.0
 11
344.0
 21
57.128
 31
0.0
  0
LINE
  5
65
330
1E
100
AcDbEntity
  8
0
100
AcDbLine
 10
344.0
 20
69.3966
 30
0.0
 11
347.3999999999999
 21
76.0541
 31
0.0
  0
LINE
  5
66
330
1E
100
AcDbEntity
  8
0
100
AcDbLine
 10
200.0
 20
158.5390999999999
 30
0.0
 11
200.0
 21
184.4241
 31
0.0
  0
LINE
  5
67
330
1E
100
AcDbEntity
  8
0
100
AcDbLine
 10
200.0
 20
158.5390999999999
 30
0.0
 11
200.0
 21
132.0291
 31
0.0
  0
LINE
  5
68
330
1E
100
AcDbEntity
  8
0
100
AcDbLine
 10
200.0
 20
215.7492755361399
 30
0.0
 11
207.495
 21
221.4881
 31
0.0
  0
LINE
  5
69
330
1E
100
AcDbEntity
  8
0
100
AcDbLine
 10
200.0
 20
219.1831
 30
0.0
 11
200.0
 21
205.7511
 31
0.0
  0
LINE
  5
6A
330
1E
100
AcDbEntity
  8
0
100
AcDbLine
 10
200.0
 20
219.1831
 30
0.0
 11
200.0
 21
228.25584267821
 31
0.0
  0
LINE
  5
6B
330
1E
100
AcDbEntity
  8
0
100
AcDbLine
 10
200.0
 20
205.7511
 30
0.0
 11
200.0
 21
184.4241
 31
0.0
  0
LINE
  5
6C
330
1E
100
AcDbEntity
  8
0
100
AcDbLine
 10
200.0
 20
205.7511
 30
0.0
 11
200.0
 21
219.1831
 31
0.0
  0
LINE
  5
6D
330
1E
100
AcDbEntity
  8
0
100
AcDbLine
 10
200.0
 20
184.4241
 30
0.0
 11
200.0
 21
158.5390999999999
 31
0.0
  0
LINE
  5
6E
330
1E
100
AcDbEntity
  8
0
100
AcDbLine
 10
200.0
 20
184.4241
 30
0.0
 11
200.0
 21
205.7511
 31
0.0
  0
LINE
  5
6F
330
1E
100
AcDbEntity
  8
0
100
AcDbLine
 10
164.0
 20
62.6743
 30
0.0
 11
164.0
 21
74.9831
 31
0.0
  0
LINE
  5
70
330
1E
100
AcDbEntity
  8
0
100
AcDbLine
 10
164.0
 20
62.6743
 30
0.0
 11
164.0
 21
48.6727
 31
0.0
  0
LINE
  5
71
330
1E
100
AcDbEntity
  8
0
100
AcDbLine
 10
82.0
 20
222.9831
 30
0.0
 11
88.2
 21
223.8831
 31
0.0
  0
LINE
  5
72
330
1E
100
AcDbEntity
  8
0
100
AcDbLine
 10
82.0
 20
219.4831
 30
0.0
 11
89.1
 21
220.4830999999999
 31
0.0
  0
LINE
  5
73
330
1E
100
AcDbEntity
  8
0
100
AcDbLine
 10
89.1
 20
220.4830999999999
 30
0.0
 11
95.7
 21
223.1831
 31
0.0
  0
LINE
  5
74
330
1E
100
AcDbEntity
  8
0
100
AcDbLine
 10
95.7
 20
223.1831
 30
0.0
 11
101.4
 21
227.5831
 31
0.0
  0
LINE
  5
75
330
1E
100
AcDbEntity
  8
0
100
AcDbLine
 10
74.90000000000001
 20
220.4830999999999
 30
0.0
 11
82.0
 21
219.4831
 31
0.0
  0
LINE
  5
76
330
1E
100
AcDbEntity
  8
0
100
AcDbLine
 10
82.0
 20
224.9830999999999
 30
0.0
 11
87.70000000000001
 21
225.7830999999999
 31
0.0
  0
LINE
  5
77
330
1E
100
AcDbEntity
  8
0
100
AcDbLine
 10
87.70000000000001
 20
225.7830999999999
 30
0.0
 11
93.0
 21
227.8831
 31
0.0
  0
LINE
  5
79
330
1E
100
AcDbEntity
  8
0
100
AcDbLine
 10
76.29999999999999
 20
225.7830999999999
 30
0.0
 11
82.0
 21
224.9830999999999
 31
0.0
  0
LINE
  5
7A
330
1E
100
AcDbEntity
  8
0
100
AcDbLine
 10
88.2
 20
223.8831
 30
0.0
 11
94.0
 21
226.1830999999999
 31
0.0
  0
LINE
  5
7B
330
1E
100
AcDbEntity
  8
0
100
AcDbLine
 10
94.0
 20
226.1830999999999
 30
0.0
 11
98.9
 21
230.0831
 31
0.0
  0
LINE
  5
7C
330
1E
100
AcDbEntity
  8
0
100
AcDbLine
 10
75.8
 20
223.8831
 30
0.0
 11
82.0
 21
222.9831
 31
0.0
  0
LINE
  5
7E
330
1E
100
AcDbEntity
  8
0
100
AcDbLine
 10
66.5
 20
231.4831
 30
0.0
 11
71.0
 21
227.8831
 31
0.0
  0
LINE
  5
81
330
1E
100
AcDbEntity
  8
0
100
AcDbLine
 10
71.0
 20
227.8831
 30
0.0
 11
76.29999999999999
 21
225.7830999999999
 31
0.0
  0
LINE
  5
83
330
1E
100
AcDbEntity
  8
0
100
AcDbLine
 10
82.0
 20
226.9830999999999
 30
0.0
 11
87.2
 21
227.6831
 31
0.0
  0
LINE
  5
84
330
1E
100
AcDbEntity
  8
0
100
AcDbLine
 10
87.2
 20
227.6831
 30
0.0
 11
92.0
 21
229.6831
 31
0.0
  0
LINE
  5
86
330
1E
100
AcDbEntity
  8
0
100
AcDbLine
 10
93.0
 20
227.8831
 30
0.0
 11
97.5
 21
231.4831
 31
0.0
  0
LINE
  5
87
330
1E
100
AcDbEntity
  8
0
100
AcDbLine
 10
92.0
 20
229.6831
 30
0.0
 11
96.09999999999999
 21
232.8831
 31
0.0
  0
LINE
  5
88
330
1E
100
AcDbEntity
  8
0
100
AcDbLine
 10
101.4
 20
227.5831
 30
0.0
 11
105.8
 21
233.2831
 31
0.0
  0
LINE
  5
89
330
1E
100
AcDbEntity
  8
0
100
AcDbLine
 10
76.79999999999999
 20
227.6831
 30
0.0
 11
82.0
 21
226.9830999999999
 31
0.0
  0
LINE
  5
8B
330
1E
100
AcDbEntity
  8
0
100
AcDbLine
 10
97.5
 20
231.4831
 30
0.0
 11
101.0999999999999
 21
235.9831
 31
0.0
  0
LINE
  5
8C
330
1E
100
AcDbEntity
  8
0
100
AcDbLine
 10
96.09999999999999
 20
232.8831
 30
0.0
 11
99.29999999999999
 21
236.9831
 31
0.0
  0
LINE
  5
8D
330
1E
100
AcDbEntity
  8
0
100
AcDbLine
 10
98.9
 20
230.0831
 30
0.0
 11
102.8
 21
234.9831
 31
0.0
  0
LINE
  5
8E
330
1E
100
AcDbEntity
  8
0
100
AcDbLine
 10
105.8
 20
233.2831
 30
0.0
 11
108.4999999999999
 21
239.8831
 31
0.0
  0
LINE
  5
8F
330
1E
100
AcDbEntity
  8
0
100
AcDbLine
 10
72.0
 20
229.6831
 30
0.0
 11
76.79999999999999
 21
227.6831
 31
0.0
  0
LINE
  5
90
330
1E
100
AcDbEntity
  8
0
100
AcDbLine
 10
67.9
 20
232.8831
 30
0.0
 11
72.0
 21
229.6831
 31
0.0
  0
LINE
  5
91
330
1E
100
AcDbEntity
  8
0
100
AcDbLine
 10
70.0
 20
226.1830999999999
 30
0.0
 11
75.8
 21
223.8831
 31
0.0
  0
LINE
  5
92
330
1E
100
AcDbEntity
  8
0
100
AcDbLine
 10
65.09999999999999
 20
230.0831
 30
0.0
 11
70.0
 21
226.1830999999999
 31
0.0
  0
LINE
  5
93
330
1E
100
AcDbEntity
  8
0
100
AcDbLine
 10
68.3
 20
223.1831
 30
0.0
 11
74.90000000000001
 21
220.4830999999999
 31
0.0
  0
LINE
  5
94
330
1E
100
AcDbEntity
  8
0
100
AcDbLine
 10
62.6
 20
227.5831
 30
0.0
 11
68.3
 21
223.1831
 31
0.0
  0
LINE
  5
96
330
1E
100
AcDbEntity
  8
0
100
AcDbLine
 10
62.9
 20
235.9831
 30
0.0
 11
66.5
 21
231.4831
 31
0.0
  0
LINE
  5
97
330
1E
100
AcDbEntity
  8
0
100
AcDbLine
 10
82.0
 20
234.3831
 30
0.0
 11
85.29999999999999
 21
234.8831
 31
0.0
  0
LINE
  5
98
330
1E
100
AcDbEntity
  8
0
100
AcDbLine
 10
85.29999999999999
 20
234.8831
 30
0.0
 11
88.3
 21
236.0831
 31
0.0
  0
LINE
  5
99
330
1E
100
AcDbEntity
  8
0
100
AcDbLine
 10
82.0
 20
235.9831
 30
0.0
 11
84.8
 21
236.3831
 31
0.0
  0
LINE
  5
9A
330
1E
100
AcDbEntity
  8
0
100
AcDbLine
 10
84.8
 20
236.3831
 30
0.0
 11
87.5
 21
237.4830999999999
 31
0.0
  0
LINE
  5
9B
330
1E
100
AcDbEntity
  8
0
100
AcDbLine
 10
82.0
 20
235.4831
 30
0.0
 11
85.0
 21
235.8831
 31
0.0
  0
LINE
  5
9C
330
1E
100
AcDbEntity
  8
0
100
AcDbLine
 10
85.0
 20
235.8831
 30
0.0
 11
87.70000000000001
 21
236.9831
 31
0.0
  0
LINE
  5
9D
330
1E
100
AcDbEntity
  8
0
100
AcDbLine
 10
87.70000000000001
 20
236.9831
 30
0.0
 11
90.09999999999999
 21
238.8831
 31
0.0
  0
LINE
  5
9E
330
1E
100
AcDbEntity
  8
0
100
AcDbLine
 10
79.2
 20
236.3831
 30
0.0
 11
82.0
 21
235.9831
 31
0.0
  0
LINE
  5
9F
330
1E
100
AcDbEntity
  8
0
100
AcDbLine
 10
79.0
 20
235.8831
 30
0.0
 11
82.0
 21
235.4831
 31
0.0
  0
LINE
  5
A0
330
1E
100
AcDbEntity
  8
0
100
AcDbLine
 10
76.29999999999999
 20
236.9831
 30
0.0
 11
79.0
 21
235.8831
 31
0.0
  0
LINE
  5
A2
330
1E
100
AcDbEntity
  8
0
100
AcDbLine
 10
101.0999999999999
 20
235.9831
 30
0.0
 11
103.2
 21
241.2831
 31
0.0
  0
LINE
  5
A3
330
1E
100
AcDbEntity
  8
0
100
AcDbLine
 10
88.3
 20
236.0831
 30
0.0
 11
90.90000000000001
 21
238.0831
 31
0.0
  0
LINE
  5
A4
330
1E
100
AcDbEntity
  8
0
100
AcDbLine
 10
99.29999999999999
 20
236.9831
 30
0.0
 11
101.2999999999999
 21
241.7831
 31
0.0
  0
LINE
  5
A5
330
1E
100
AcDbEntity
  8
0
100
AcDbLine
 10
102.8
 20
234.9831
 30
0.0
 11
105.0999999999999
 21
240.7830999999999
 31
0.0
  0
LINE
  5
A6
330
1E
100
AcDbEntity
  8
0
100
AcDbLine
 10
78.7
 20
234.8831
 30
0.0
 11
82.0
 21
234.3831
 31
0.0
  0
LINE
  5
A7
330
1E
100
AcDbEntity
  8
0
100
AcDbLine
 10
75.7
 20
236.0831
 30
0.0
 11
78.7
 21
234.8831
 31
0.0
  0
LINE
  5
A8
330
1E
100
AcDbEntity
  8
0
100
AcDbLine
 10
87.5
 20
237.4830999999999
 30
0.0
 11
89.8
 21
239.1830999999999
 31
0.0
  0
LINE
  5
A9
330
1E
100
AcDbEntity
  8
0
100
AcDbLine
 10
76.5
 20
237.4830999999999
 30
0.0
 11
79.2
 21
236.3831
 31
0.0
  0
LINE
  5
AA
330
1E
100
AcDbEntity
  8
0
100
AcDbLine
 10
64.7
 20
236.9831
 30
0.0
 11
67.9
 21
232.8831
 31
0.0
  0
LINE
  5
AB
330
1E
100
AcDbEntity
  8
0
100
AcDbLine
 10
61.2
 20
234.9831
 30
0.0
 11
65.09999999999999
 21
230.0831
 31
0.0
  0
LINE
  5
AC
330
1E
100
AcDbEntity
  8
0
100
AcDbLine
 10
58.2
 20
233.2831
 30
0.0
 11
62.6
 21
227.5831
 31
0.0
  0
LINE
  5
AD
330
1E
100
AcDbEntity
  8
0
100
AcDbLine
 10
157.4492
 20
232.8190999999999
 30
0.0
 11
161.9344
 21
226.9171
 31
0.0
  0
LINE
  5
AF
330
1E
100
AcDbEntity
  8
0
100
AcDbLine
 10
161.9344
 20
226.9171
 30
0.0
 11
164.0
 21
225.347346200247
 31
0.0
  0
LINE
  5
B2
330
1E
100
AcDbEntity
  8
0
100
AcDbLine
 10
156.5048999999999
 20
221.4881
 30
0.0
 11
164.0
 21
215.749274938113
 31
0.0
  0
LINE
  5
B3
330
1E
100
AcDbEntity
  8
0
100
AcDbLine
 10
150.7213
 20
229.0421
 30
0.0
 11
156.5048999999999
 21
221.4881
 31
0.0
  0
LINE
  5
B4
330
1E
100
AcDbEntity
  8
0
100
AcDbLine
 10
90.09999999999999
 20
238.8831
 30
0.0
 11
92.0
 21
241.2831
 31
0.0
  0
LINE
  5
B5
330
1E
100
AcDbEntity
  8
0
100
AcDbLine
 10
89.8
 20
239.1830999999999
 30
0.0
 11
91.5
 21
241.4830999999999
 31
0.0
  0
LINE
  5
B6
330
1E
100
AcDbEntity
  8
0
100
AcDbLine
 10
74.2
 20
239.1830999999999
 30
0.0
 11
76.5
 21
237.4830999999999
 31
0.0
  0
LINE
  5
B7
330
1E
100
AcDbEntity
  8
0
100
AcDbLine
 10
73.9
 20
238.8831
 30
0.0
 11
76.29999999999999
 21
236.9831
 31
0.0
  0
LINE
  5
B8
330
1E
100
AcDbEntity
  8
0
100
AcDbLine
 10
154.6164
 20
239.6650999999999
 30
0.0
 11
157.4492
 21
232.8190999999999
 31
0.0
  0
LINE
  5
B9
330
1E
100
AcDbEntity
  8
0
100
AcDbLine
 10
90.90000000000001
 20
238.0831
 30
0.0
 11
92.9
 21
240.6830999999999
 31
0.0
  0
LINE
  5
BA
330
1E
100
AcDbEntity
  8
0
100
AcDbLine
 10
73.09999999999999
 20
238.0831
 30
0.0
 11
75.7
 21
236.0831
 31
0.0
  0
LINE
  5
BB
330
1E
100
AcDbEntity
  8
0
100
AcDbLine
 10
147.1802999999999
 20
237.6580999999999
 30
0.0
 11
150.7213
 21
229.0421
 31
0.0
  0
LINE
  5
BC
330
1E
100
AcDbEntity
  8
0
100
AcDbLine
 10
200.0
 20
225.3471220264319
 30
0.0
 11
202.0659999999999
 21
226.9171
 31
0.0
  0
LINE
  5
BD
330
1E
100
AcDbEntity
  8
0
100
AcDbLine
 10
202.0659999999999
 20
226.9171
 30
0.0
 11
206.5509999999999
 21
232.8190999999999
 31
0.0
  0
LINE
  5
C0
330
1E
100
AcDbEntity
  8
0
100
AcDbLine
 10
274.8999999999999
 20
220.4830999999999
 30
0.0
 11
282.0
 21
219.4831
 31
0.0
  0
LINE
  5
C1
330
1E
100
AcDbEntity
  8
0
100
AcDbLine
 10
282.0
 20
219.4831
 30
0.0
 11
289.1
 21
220.4830999999999
 31
0.0
  0
LINE
  5
C2
330
1E
100
AcDbEntity
  8
0
100
AcDbLine
 10
275.8
 20
223.8831
 30
0.0
 11
282.0
 21
222.9831
 31
0.0
  0
LINE
  5
C3
330
1E
100
AcDbEntity
  8
0
100
AcDbLine
 10
268.3
 20
223.1831
 30
0.0
 11
274.8999999999999
 21
220.4830999999999
 31
0.0
  0
LINE
  5
C4
330
1E
100
AcDbEntity
  8
0
100
AcDbLine
 10
282.0
 20
222.9831
 30
0.0
 11
288.2
 21
223.8831
 31
0.0
  0
LINE
  5
C6
330
1E
100
AcDbEntity
  8
0
100
AcDbLine
 10
276.3
 20
225.7830999999999
 30
0.0
 11
282.0
 21
224.9830999999999
 31
0.0
  0
LINE
  5
C8
330
1E
100
AcDbEntity
  8
0
100
AcDbLine
 10
282.0
 20
224.9830999999999
 30
0.0
 11
287.6999999999999
 21
225.7830999999999
 31
0.0
  0
LINE
  5
C9
330
1E
100
AcDbEntity
  8
0
100
AcDbLine
 10
270.0
 20
226.1830999999999
 30
0.0
 11
275.8
 21
223.8831
 31
0.0
  0
LINE
  5
CA
330
1E
100
AcDbEntity
  8
0
100
AcDbLine
 10
262.6
 20
227.5831
 30
0.0
 11
268.3
 21
223.1831
 31
0.0
  0
LINE
  5
CC
330
1E
100
AcDbEntity
  8
0
100
AcDbLine
 10
287.6999999999999
 20
225.7830999999999
 30
0.0
 11
293.0
 21
227.8831
 31
0.0
  0
LINE
  5
CD
330
1E
100
AcDbEntity
  8
0
100
AcDbLine
 10
282.0
 20
226.9830999999999
 30
0.0
 11
287.1999999999999
 21
227.6831
 31
0.0
  0
LINE
  5
CE
330
1E
100
AcDbEntity
  8
0
100
AcDbLine
 10
288.2
 20
223.8831
 30
0.0
 11
294.0
 21
226.1830999999999
 31
0.0
  0
LINE
  5
CF
330
1E
100
AcDbEntity
  8
0
100
AcDbLine
 10
294.0
 20
226.1830999999999
 30
0.0
 11
298.8999999999999
 21
230.0831
 31
0.0
  0
LINE
  5
D0
330
1E
100
AcDbEntity
  8
0
100
AcDbLine
 10
289.1
 20
220.4830999999999
 30
0.0
 11
295.6999999999999
 21
223.1831
 31
0.0
  0
LINE
  5
D1
330
1E
100
AcDbEntity
  8
0
100
AcDbLine
 10
295.6999999999999
 20
223.1831
 30
0.0
 11
301.3999999999999
 21
227.5831
 31
0.0
  0
LINE
  5
D2
330
1E
100
AcDbEntity
  8
0
100
AcDbLine
 10
271.0
 20
227.8831
 30
0.0
 11
276.3
 21
225.7830999999999
 31
0.0
  0
LINE
  5
D3
330
1E
100
AcDbEntity
  8
0
100
AcDbLine
 10
276.8
 20
227.6831
 30
0.0
 11
282.0
 21
226.9830999999999
 31
0.0
  0
LINE
  5
D4
330
1E
100
AcDbEntity
  8
0
100
AcDbLine
 10
293.0
 20
227.8831
 30
0.0
 11
297.5
 21
231.4831
 31
0.0
  0
LINE
  5
D5
330
1E
100
AcDbEntity
  8
0
100
AcDbLine
 10
287.1999999999999
 20
227.6831
 30
0.0
 11
292.0
 21
229.6831
 31
0.0
  0
LINE
  5
D6
330
1E
100
AcDbEntity
  8
0
100
AcDbLine
 10
301.3999999999999
 20
227.5831
 30
0.0
 11
305.8
 21
233.2831
 31
0.0
  0
LINE
  5
D7
330
1E
100
AcDbEntity
  8
0
100
AcDbLine
 10
207.495
 20
221.4881
 30
0.0
 11
213.279
 21
229.0421
 31
0.0
  0
LINE
  5
D8
330
1E
100
AcDbEntity
  8
0
100
AcDbLine
 10
206.5509999999999
 20
232.8190999999999
 30
0.0
 11
209.384
 21
239.6650999999999
 31
0.0
  0
LINE
  5
DA
330
1E
100
AcDbEntity
  8
0
100
AcDbLine
 10
200.0
 20
228.25584267821
 30
0.0
 11
204.544
 21
233.9990999999999
 31
0.0
  0
LINE
  5
DC
330
1E
100
AcDbEntity
  8
0
100
AcDbLine
 10
272.0
 20
229.6831
 30
0.0
 11
276.8
 21
227.6831
 31
0.0
  0
LINE
  5
DE
330
1E
100
AcDbEntity
  8
0
100
AcDbLine
 10
266.5
 20
231.4831
 30
0.0
 11
271.0
 21
227.8831
 31
0.0
  0
LINE
  5
DF
330
1E
100
AcDbEntity
  8
0
100
AcDbLine
 10
267.8999999999999
 20
232.8831
 30
0.0
 11
272.0
 21
229.6831
 31
0.0
  0
LINE
  5
E0
330
1E
100
AcDbEntity
  8
0
100
AcDbLine
 10
265.1
 20
230.0831
 30
0.0
 11
270.0
 21
226.1830999999999
 31
0.0
  0
LINE
  5
E3
330
1E
100
AcDbEntity
  8
0
100
AcDbLine
 10
297.5
 20
231.4831
 30
0.0
 11
301.1
 21
235.9831
 31
0.0
  0
LINE
  5
E4
330
1E
100
AcDbEntity
  8
0
100
AcDbLine
 10
292.0
 20
229.6831
 30
0.0
 11
296.1
 21
232.8831
 31
0.0
  0
LINE
  5
E5
330
1E
100
AcDbEntity
  8
0
100
AcDbLine
 10
258.1999999999999
 20
233.2831
 30
0.0
 11
262.6
 21
227.5831
 31
0.0
  0
LINE
  5
E6
330
1E
100
AcDbEntity
  8
0
100
AcDbLine
 10
296.1
 20
232.8831
 30
0.0
 11
299.3
 21
236.9831
 31
0.0
  0
LINE
  5
E7
330
1E
100
AcDbEntity
  8
0
100
AcDbLine
 10
298.8999999999999
 20
230.0831
 30
0.0
 11
302.8
 21
234.9831
 31
0.0
  0
LINE
  5
E8
330
1E
100
AcDbEntity
  8
0
100
AcDbLine
 10
305.8
 20
233.2831
 30
0.0
 11
308.4999999999999
 21
239.8831
 31
0.0
  0
LINE
  5
E9
330
1E
100
AcDbEntity
  8
0
100
AcDbLine
 10
213.279
 20
229.0421
 30
0.0
 11
216.82
 21
237.6580999999999
 31
0.0
  0
LINE
  5
EA
330
1E
100
AcDbEntity
  8
0
100
AcDbLine
 10
182.0
 20
235.1801
 30
0.0
 11
185.069
 21
235.5341
 31
0.0
  0
LINE
  5
EB
330
1E
100
AcDbEntity
  8
0
100
AcDbLine
 10
262.9
 20
235.9831
 30
0.0
 11
266.5
 21
231.4831
 31
0.0
  0
LINE
  5
EC
330
1E
100
AcDbEntity
  8
0
100
AcDbLine
 10
279.0
 20
235.8831
 30
0.0
 11
282.0
 21
235.4831
 31
0.0
  0
LINE
  5
ED
330
1E
100
AcDbEntity
  8
0
100
AcDbLine
 10
282.0
 20
235.4831
 30
0.0
 11
285.0
 21
235.8831
 31
0.0
  0
LINE
  5
EE
330
1E
100
AcDbEntity
  8
0
100
AcDbLine
 10
282.0
 20
235.9831
 30
0.0
 11
284.8
 21
236.3831
 31
0.0
  0
LINE
  5
EF
330
1E
100
AcDbEntity
  8
0
100
AcDbLine
 10
285.0
 20
235.8831
 30
0.0
 11
287.6999999999999
 21
236.9831
 31
0.0
  0
LINE
  5
F0
330
1E
100
AcDbEntity
  8
0
100
AcDbLine
 10
278.6999999999999
 20
234.8831
 30
0.0
 11
282.0
 21
234.3831
 31
0.0
  0
LINE
  5
F1
330
1E
100
AcDbEntity
  8
0
100
AcDbLine
 10
275.7
 20
236.0831
 30
0.0
 11
278.6999999999999
 21
234.8831
 31
0.0
  0
LINE
  5
F2
330
1E
100
AcDbEntity
  8
0
100
AcDbLine
 10
261.2
 20
234.9831
 30
0.0
 11
265.1
 21
230.0831
 31
0.0
  0
LINE
  5
F3
330
1E
100
AcDbEntity
  8
0
100
AcDbLine
 10
282.0
 20
234.3831
 30
0.0
 11
285.3
 21
234.8831
 31
0.0
  0
LINE
  5
F4
330
1E
100
AcDbEntity
  8
0
100
AcDbLine
 10
301.1
 20
235.9831
 30
0.0
 11
303.2
 21
241.2831
 31
0.0
  0
LINE
  5
F5
330
1E
100
AcDbEntity
  8
0
100
AcDbLine
 10
285.3
 20
234.8831
 30
0.0
 11
288.3
 21
236.0831
 31
0.0
  0
LINE
  5
F6
330
1E
100
AcDbEntity
  8
0
100
AcDbLine
 10
279.1999999999999
 20
236.3831
 30
0.0
 11
282.0
 21
235.9831
 31
0.0
  0
LINE
  5
F8
330
1E
100
AcDbEntity
  8
0
100
AcDbLine
 10
284.8
 20
236.3831
 30
0.0
 11
287.5
 21
237.4830999999999
 31
0.0
  0
LINE
  5
FA
330
1E
100
AcDbEntity
  8
0
100
AcDbLine
 10
288.3
 20
236.0831
 30
0.0
 11
290.8999999999999
 21
238.0831
 31
0.0
  0
LINE
  5
FB
330
1E
100
AcDbEntity
  8
0
100
AcDbLine
 10
302.8
 20
234.9831
 30
0.0
 11
305.1
 21
240.7830999999999
 31
0.0
  0
LINE
  5
FC
330
1E
100
AcDbEntity
  8
0
100
AcDbLine
 10
187.902
 20
236.7141
 30
0.0
 11
190.38
 21
238.6031
 31
0.0
  0
LINE
  5
FD
330
1E
100
AcDbEntity
  8
0
100
AcDbLine
 10
185.069
 20
235.5341
 30
0.0
 11
187.902
 21
236.7141
 31
0.0
  0
LINE
  5
FE
330
1E
100
AcDbEntity
  8
0
100
AcDbLine
 10
204.544
 20
233.9990999999999
 30
0.0
 11
207.023
 21
240.2550999999999
 31
0.0
  0
LINE
  5
FF
330
1E
100
AcDbEntity
  8
0
100
AcDbLine
 10
178.9310999999999
 20
235.5341
 30
0.0
 11
182.0
 21
235.1801
 31
0.0
  0
LINE
  5
100
330
1E
100
AcDbEntity
  8
0
100
AcDbLine
 10
209.384
 20
239.6650999999999
 30
0.0
 11
210.328
 21
246.9831
 31
0.0
  0
LINE
  5
101
330
1E
100
AcDbEntity
  8
0
100
AcDbLine
 10
190.38
 20
238.6031
 30
0.0
 11
192.269
 21
241.0810999999999
 31
0.0
  0
LINE
  5
102
330
1E
100
AcDbEntity
  8
0
100
AcDbLine
 10
276.3
 20
236.9831
 30
0.0
 11
279.0
 21
235.8831
 31
0.0
  0
LINE
  5
103
330
1E
100
AcDbEntity
  8
0
100
AcDbLine
 10
287.6999999999999
 20
236.9831
 30
0.0
 11
290.1
 21
238.8831
 31
0.0
  0
LINE
  5
104
330
1E
100
AcDbEntity
  8
0
100
AcDbLine
 10
264.6999999999999
 20
236.9831
 30
0.0
 11
267.8999999999999
 21
232.8831
 31
0.0
  0
LINE
  5
105
330
1E
100
AcDbEntity
  8
0
100
AcDbLine
 10
276.5
 20
237.4830999999999
 30
0.0
 11
279.1999999999999
 21
236.3831
 31
0.0
  0
LINE
  5
106
330
1E
100
AcDbEntity
  8
0
100
AcDbLine
 10
287.5
 20
237.4830999999999
 30
0.0
 11
289.8
 21
239.1830999999999
 31
0.0
  0
LINE
  5
107
330
1E
100
AcDbEntity
  8
0
100
AcDbLine
 10
274.1999999999999
 20
239.1830999999999
 30
0.0
 11
276.5
 21
237.4830999999999
 31
0.0
  0
LINE
  5
108
330
1E
100
AcDbEntity
  8
0
100
AcDbLine
 10
273.8999999999999
 20
238.8831
 30
0.0
 11
276.3
 21
236.9831
 31
0.0
  0
LINE
  5
109
330
1E
100
AcDbEntity
  8
0
100
AcDbLine
 10
289.8
 20
239.1830999999999
 30
0.0
 11
291.5
 21
241.4830999999999
 31
0.0
  0
LINE
  5
10A
330
1E
100
AcDbEntity
  8
0
100
AcDbLine
 10
290.1
 20
238.8831
 30
0.0
 11
292.0
 21
241.2831
 31
0.0
  0
LINE
  5
10B
330
1E
100
AcDbEntity
  8
0
100
AcDbLine
 10
273.1
 20
238.0831
 30
0.0
 11
275.7
 21
236.0831
 31
0.0
  0
LINE
  5
10C
330
1E
100
AcDbEntity
  8
0
100
AcDbLine
 10
290.8999999999999
 20
238.0831
 30
0.0
 11
292.8999999999999
 21
240.6830999999999
 31
0.0
  0
LINE
  5
10D
330
1E
100
AcDbEntity
  8
0
100
AcDbLine
 10
299.3
 20
236.9831
 30
0.0
 11
301.3
 21
241.7831
 31
0.0
  0
LINE
  5
10E
330
1E
100
AcDbEntity
  8
0
100
AcDbLine
 10
216.82
 20
237.6580999999999
 30
0.0
 11
218.0
 21
246.9831
 31
0.0
  0
LINE
  5
10F
330
1E
100
AcDbEntity
  8
0
100
AcDbLine
 10
176.0984
 20
236.7141
 30
0.0
 11
178.9310999999999
 21
235.5341
 31
0.0
  0
LINE
  5
110
330
1E
100
AcDbEntity
  8
0
100
AcDbLine
 10
173.6196999999999
 20
238.6031
 30
0.0
 11
176.0984
 21
236.7141
 31
0.0
  0
LINE
  5
111
330
1E
100
AcDbEntity
  8
0
100
AcDbLine
 10
200.0
 20
228.25584267821
 30
0.0
 11
200.0
 21
219.1831
 31
0.0
  0
LINE
  5
112
330
1E
100
AcDbEntity
  8
0
100
AcDbLine
 10
164.0
 20
228.255795533659
 30
0.0
 11
164.0
 21
219.1831
 31
0.0
  0
LINE
  5
113
330
1E
100
AcDbEntity
  8
0
100
AcDbLine
 10
164.0
 20
219.1831
 30
0.0
 11
164.0
 21
228.255795533659
 31
0.0
  0
LINE
  5
114
330
1E
100
AcDbEntity
  8
0
100
AcDbLine
 10
164.0
 20
219.1831
 30
0.0
 11
164.0
 21
205.7511
 31
0.0
  0
LINE
  5
115
330
1E
100
AcDbEntity
  8
0
100
AcDbLine
 10
347.021978021978
 20
239.715700732601
 30
0.0
 11
347.296
 21
237.7670999999999
 31
0.0
  0
LINE
  5
116
330
1E
100
AcDbEntity
  8
0
100
AcDbLine
 10
347.296
 20
237.7670999999999
 30
0.0
 11
350.7519999999999
 21
229.1271
 31
0.0
  0
LINE
  5
117
330
1E
100
AcDbEntity
  8
0
100
AcDbLine
 10
347.3999999999999
 20
76.0541
 30
0.0
 11
353.8
 21
83.9478
 31
0.0
  0
LINE
  5
118
330
1E
100
AcDbEntity
  8
0
100
AcDbLine
 10
345.3999999999999
 20
67.99339999999999
 30
0.0
 11
349.1
 21
76.6481
 31
0.0
  0
LINE
  5
119
330
1E
100
AcDbEntity
  8
0
100
AcDbLine
 10
344.0
 20
58.67309999999999
 30
0.0
 11
345.3999999999999
 21
67.99339999999999
 31
0.0
  0
LINE
  5
11A
330
1E
100
AcDbEntity
  8
0
100
AcDbLine
 10
344.0
 20
58.67309999999999
 30
0.0
 11
345.3999999999999
 21
49.3527
 31
0.0
  0
LINE
  5
11B
330
1E
100
AcDbEntity
  8
0
100
AcDbLine
 10
349.1
 20
40.69809999999999
 30
0.0
 11
355.2
 21
33.1848
 31
0.0
  0
LINE
  5
11C
330
1E
100
AcDbEntity
  8
0
100
AcDbLine
 10
350.7519999999999
 20
229.1271
 30
0.0
 11
356.5119999999999
 21
221.4951
 31
0.0
  0
LINE
  5
11D
330
1E
100
AcDbEntity
  8
0
100
AcDbLine
 10
349.1
 20
76.6481
 30
0.0
 11
355.2
 21
84.1614
 31
0.0
  0
LINE
  5
11E
330
1E
100
AcDbEntity
  8
0
100
AcDbLine
 10
353.8
 20
30.3082
 30
0.0
 11
362.1
 21
24.2214
 31
0.0
  0
LINE
  5
11F
330
1E
100
AcDbEntity
  8
0
100
AcDbLine
 10
353.8
 20
83.9478
 30
0.0
 11
362.1
 21
90.0346
 31
0.0
  0
LINE
  5
120
330
1E
100
AcDbEntity
  8
0
100
AcDbLine
 10
353.3999999999999
 20
230.5830999999999
 30
0.0
 11
358.6999999999999
 21
223.6831
 31
0.0
  0
LINE
  5
121
330
1E
100
AcDbEntity
  8
0
100
AcDbLine
 10
351.6999999999999
 20
229.5831
 30
0.0
 11
357.3
 21
222.2830999999999
 31
0.0
  0
LINE
  5
122
330
1E
100
AcDbEntity
  8
0
100
AcDbLine
 10
350.1999999999999
 20
238.4831
 30
0.0
 11
353.3999999999999
 21
230.5830999999999
 31
0.0
  0
LINE
  5
123
330
1E
100
AcDbEntity
  8
0
100
AcDbLine
 10
350.040189125296
 20
239.615093695824
 30
0.0
 11
350.1999999999999
 21
238.4831
 31
0.0
  0
LINE
  5
124
330
1E
100
AcDbEntity
  8
0
100
AcDbLine
 10
348.3
 20
237.9831
 30
0.0
 11
351.6999999999999
 21
229.5831
 31
0.0
  0
LINE
  5
125
330
1E
100
AcDbEntity
  8
0
100
AcDbLine
 10
348.054707852624
 20
239.6812764049129
 30
0.0
 11
348.3
 21
237.9831
 31
0.0
  0
LINE
  5
126
330
1E
100
AcDbEntity
  8
0
100
AcDbLine
 10
345.0
 20
239.7831
 30
0.0
 11
354.0
 21
239.4830999999999
 31
0.0
  0
LINE
  5
127
330
1E
100
AcDbEntity
  8
0
100
AcDbLine
 10
362.1
 20
24.2214
 30
0.0
 11
369.1
 21
20.98781
 31
0.0
  0
LINE
  5
128
330
1E
100
AcDbEntity
  8
0
100
AcDbLine
 10
363.1
 20
27.38329999999999
 30
0.0
 11
372.1999999999999
 21
23.86439999999999
 31
0.0
  0
LINE
  5
129
330
1E
100
AcDbEntity
  8
0
100
AcDbLine
 10
355.2
 20
33.1848
 30
0.0
 11
363.1
 21
27.38329999999999
 31
0.0
  0
LINE
  5
12A
330
1E
100
AcDbEntity
  8
0
100
AcDbLine
 10
356.5119999999999
 20
221.4951
 30
0.0
 11
364.144
 21
215.7350999999999
 31
0.0
  0
LINE
  5
12B
330
1E
100
AcDbEntity
  8
0
100
AcDbLine
 10
362.1
 20
90.0346
 30
0.0
 11
369.1
 21
93.2681
 31
0.0
  0
LINE
  5
12C
330
1E
100
AcDbEntity
  8
0
100
AcDbLine
 10
364.144
 20
215.7350999999999
 30
0.0
 11
370.0
 21
213.3926999999999
 31
0.0
  0
LINE
  5
12D
330
1E
100
AcDbEntity
  8
0
100
AcDbLine
 10
363.1
 20
89.9629
 30
0.0
 11
372.1999999999999
 21
93.48180000000001
 31
0.0
  0
LINE
  5
12E
330
1E
100
AcDbEntity
  8
0
100
AcDbLine
 10
355.2
 20
84.1614
 30
0.0
 11
363.1
 21
89.9629
 31
0.0
  0
LINE
  5
12F
330
1E
100
AcDbEntity
  8
0
100
AcDbLine
 10
369.1
 20
20.98781
 30
0.0
 11
382.0
 21
20.98781
 31
0.0
  0
LINE
  5
130
330
1E
100
AcDbEntity
  8
0
100
AcDbLine
 10
370.0
 20
209.9781
 30
0.0
 11
370.0
 21
209.3741
 31
0.0
  0
LINE
  5
132
330
1E
100
AcDbEntity
  8
0
100
AcDbLine
 10
370.0
 20
209.3741
 30
0.0
 11
370.3999999999999
 21
207.3161
 31
0.0
  0
LINE
  5
133
330
1E
100
AcDbEntity
  8
0
100
AcDbLine
 10
370.0
 20
209.3741
 30
0.0
 11
370.3999999999999
 21
211.4790999999999
 31
0.0
  0
LINE
  5
134
330
1E
100
AcDbEntity
  8
0
100
AcDbLine
 10
370.0
 20
209.3741
 30
0.0
 11
370.0
 21
209.9781
 31
0.0
  0
LINE
  5
135
330
1E
100
AcDbEntity
  8
0
100
AcDbLine
 10
369.1
 20
93.2681
 30
0.0
 11
372.1999999999999
 21
93.48180000000001
 31
0.0
  0
LINE
  5
137
330
1E
100
AcDbEntity
  8
0
100
AcDbLine
 10
370.3999999999999
 20
211.4790999999999
 30
0.0
 11
371.6
 21
213.4510999999999
 31
0.0
  0
LINE
  5
138
330
1E
100
AcDbEntity
  8
0
100
AcDbLine
 10
371.0
 20
206.8721
 30
0.0
 11
371.0
 21
208.8581
 31
0.0
  0
LINE
  5
139
330
1E
100
AcDbEntity
  8
0
100
AcDbLine
 10
370.8
 20
202.4301
 30
0.0
 11
370.8
 21
196.5920999999999
 31
0.0
  0
LINE
  5
13A
330
1E
100
AcDbEntity
  8
0
100
AcDbLine
 10
370.8
 20
202.4301
 30
0.0
 11
371.0
 21
206.8721
 31
0.0
  0
LINE
  5
13B
330
1E
100
AcDbEntity
  8
0
100
AcDbLine
 10
370.8
 20
196.5920999999999
 30
0.0
 11
371.0
 21
191.0901
 31
0.0
  0
LINE
  5
13C
330
1E
100
AcDbEntity
  8
0
100
AcDbLine
 10
370.8
 20
196.5920999999999
 30
0.0
 11
370.8
 21
202.4301
 31
0.0
  0
LINE
  5
13D
330
1E
100
AcDbEntity
  8
0
100
AcDbLine
 10
371.0
 20
191.0901
 30
0.0
 11
371.1999999999999
 21
184.9700999999999
 31
0.0
  0
LINE
  5
13E
330
1E
100
AcDbEntity
  8
0
100
AcDbLine
 10
371.1999999999999
 20
184.9700999999999
 30
0.0
 11
371.7
 21
178.2351
 31
0.0
  0
LINE
  5
13F
330
1E
100
AcDbEntity
  8
0
100
AcDbLine
 10
371.7
 20
178.2351
 30
0.0
 11
372.3
 21
171.3020999999999
 31
0.0
  0
LINE
  5
140
330
1E
100
AcDbEntity
  8
0
100
AcDbLine
 10
371.6
 20
213.4510999999999
 30
0.0
 11
373.4999999999999
 21
215.2070999999999
 31
0.0
  0
LINE
  5
141
330
1E
100
AcDbEntity
  8
0
100
AcDbLine
 10
371.3999999999999
 20
210.7890999999999
 30
0.0
 11
372.5
 21
212.4961
 31
0.0
  0
LINE
  5
142
330
1E
100
AcDbEntity
  8
0
100
AcDbLine
 10
371.0
 20
208.8581
 30
0.0
 11
371.3999999999999
 21
210.7890999999999
 31
0.0
  0
LINE
  5
143
330
1E
100
AcDbEntity
  8
0
100
AcDbLine
 10
371.0
 20
208.8581
 30
0.0
 11
371.0
 21
206.8721
 31
0.0
  0
LINE
  5
144
330
1E
100
AcDbEntity
  8
0
100
AcDbLine
 10
370.3999999999999
 20
207.3161
 30
0.0
 11
370.978126093346
 21
206.386280533203
 31
0.0
  0
LINE
  5
145
330
1E
100
AcDbEntity
  8
0
100
AcDbLine
 10
372.1999999999999
 20
93.48180000000001
 30
0.0
 11
374.0
 21
93.72634285714291
 31
0.0
  0
LINE
  5
146
330
1E
100
AcDbEntity
  8
0
100
AcDbLine
 10
375.1
 20
87.09889999999999
 30
0.0
 11
376.1
 21
86.0716
 31
0.0
  0
LINE
  5
147
330
1E
100
AcDbEntity
  8
0
100
AcDbLine
 10
374.3
 20
88.2545
 30
0.0
 11
375.1
 21
87.09889999999999
 31
0.0
  0
LINE
  5
148
330
1E
100
AcDbEntity
  8
0
100
AcDbLine
 10
372.3
 20
171.3020999999999
 30
0.0
 11
373.0
 21
163.7110999999999
 31
0.0
  0
LINE
  5
149
330
1E
100
AcDbEntity
  8
0
100
AcDbLine
 10
373.0
 20
163.7110999999999
 30
0.0
 11
373.4999999999999
 21
154.7250999999999
 31
0.0
  0
LINE
  5
14A
330
1E
100
AcDbEntity
  8
0
100
AcDbLine
 10
373.4999999999999
 20
154.7250999999999
 30
0.0
 11
374.0
 21
145.7170999999999
 31
0.0
  0
LINE
  5
14B
330
1E
100
AcDbEntity
  8
0
100
AcDbLine
 10
374.0
 20
145.7170999999999
 30
0.0
 11
374.0
 21
134.7060999999999
 31
0.0
  0
LINE
  5
14C
330
1E
100
AcDbEntity
  8
0
100
AcDbLine
 10
374.0
 20
134.7060999999999
 30
0.0
 11
374.0
 21
124.3141
 31
0.0
  0
LINE
  5
14D
330
1E
100
AcDbEntity
  8
0
100
AcDbLine
 10
374.0
 20
134.7060999999999
 30
0.0
 11
374.0
 21
145.7170999999999
 31
0.0
  0
LINE
  5
14E
330
1E
100
AcDbEntity
  8
0
100
AcDbLine
 10
374.0
 20
124.3141
 30
0.0
 11
374.0
 21
112.6511
 31
0.0
  0
LINE
  5
14F
330
1E
100
AcDbEntity
  8
0
100
AcDbLine
 10
374.0
 20
124.3141
 30
0.0
 11
374.0
 21
134.7060999999999
 31
0.0
  0
LINE
  5
150
330
1E
100
AcDbEntity
  8
0
100
AcDbLine
 10
372.5
 20
212.4961
 30
0.0
 11
374.1999999999999
 21
214.0760999999999
 31
0.0
  0
LINE
  5
151
330
1E
100
AcDbEntity
  8
0
100
AcDbLine
 10
374.0
 20
112.6511
 30
0.0
 11
374.0
 21
100.8871
 31
0.0
  0
LINE
  5
152
330
1E
100
AcDbEntity
  8
0
100
AcDbLine
 10
374.0
 20
112.6511
 30
0.0
 11
374.3
 21
113.7401
 31
0.0
  0
LINE
  5
153
330
1E
100
AcDbEntity
  8
0
100
AcDbLine
 10
374.0
 20
112.6511
 30
0.0
 11
374.0
 21
124.3141
 31
0.0
  0
LINE
  5
154
330
1E
100
AcDbEntity
  8
0
100
AcDbLine
 10
376.3999999999999
 20
115.7001
 30
0.0
 11
378.0
 21
116.4090999999999
 31
0.0
  0
LINE
  5
155
330
1E
100
AcDbEntity
  8
0
100
AcDbLine
 10
375.1
 20
114.8290999999999
 30
0.0
 11
376.3999999999999
 21
115.7001
 31
0.0
  0
LINE
  5
156
330
1E
100
AcDbEntity
  8
0
100
AcDbLine
 10
374.3
 20
113.7401
 30
0.0
 11
375.1
 21
114.8290999999999
 31
0.0
  0
LINE
  5
157
330
1E
100
AcDbEntity
  8
0
100
AcDbLine
 10
374.0
 20
100.8871
 30
0.0
 11
374.0
 21
89.4743
 31
0.0
  0
LINE
  5
158
330
1E
100
AcDbEntity
  8
0
100
AcDbLine
 10
374.0
 20
100.8871
 30
0.0
 11
374.0
 21
112.6511
 31
0.0
  0
LINE
  5
159
330
1E
100
AcDbEntity
  8
0
100
AcDbLine
 10
374.0
 20
89.4743
 30
0.0
 11
374.0
 21
100.8871
 31
0.0
  0
LINE
  5
15A
330
1E
100
AcDbEntity
  8
0
100
AcDbLine
 10
374.0
 20
89.4743
 30
0.0
 11
374.3
 21
88.2545
 31
0.0
  0
LINE
  5
15B
330
1E
100
AcDbEntity
  8
0
100
AcDbLine
 10
372.1999999999999
 20
23.86439999999999
 30
0.0
 11
382.0
 21
22.5328
 31
0.0
  0
LINE
  5
15E
330
1E
100
AcDbEntity
  8
0
100
AcDbLine
 10
376.5
 20
215.2581
 30
0.0
 11
379.1999999999999
 21
215.9161
 31
0.0
  0
LINE
  5
15F
330
1E
100
AcDbEntity
  8
0
100
AcDbLine
 10
376.0
 20
216.4801
 30
0.0
 11
378.8999999999999
 21
217.3111
 31
0.0
  0
LINE
  5
160
330
1E
100
AcDbEntity
  8
0
100
AcDbLine
 10
374.1999999999999
 20
214.0760999999999
 30
0.0
 11
376.5
 21
215.2581
 31
0.0
  0
LINE
  5
161
330
1E
100
AcDbEntity
  8
0
100
AcDbLine
 10
373.4999999999999
 20
215.2070999999999
 30
0.0
 11
376.0
 21
216.4801
 31
0.0
  0
LINE
  5
162
330
1E
100
AcDbEntity
  8
0
100
AcDbLine
 10
373.4999999999999
 20
217.6830999999999
 30
0.0
 11
376.0
 21
219.1831
 31
0.0
  0
LINE
  5
163
330
1E
100
AcDbEntity
  8
0
100
AcDbLine
 10
371.6
 20
215.7830999999999
 30
0.0
 11
373.4999999999999
 21
217.6830999999999
 31
0.0
  0
LINE
  5
164
330
1E
100
AcDbEntity
  8
0
100
AcDbLine
 10
370.3999999999999
 20
213.5831
 30
0.0
 11
371.6
 21
215.7830999999999
 31
0.0
  0
LINE
  5
165
330
1E
100
AcDbEntity
  8
0
100
AcDbLine
 10
370.0
 20
211.1831
 30
0.0
 11
370.0
 21
209.9781
 31
0.0
  0
LINE
  5
166
330
1E
100
AcDbEntity
  8
0
100
AcDbLine
 10
370.0
 20
211.1831
 30
0.0
 11
370.0
 21
233.0830999999999
 31
0.0
  0
LINE
  5
167
330
1E
100
AcDbEntity
  8
0
100
AcDbLine
 10
370.0
 20
211.1831
 30
0.0
 11
370.3999999999999
 21
213.5831
 31
0.0
  0
LINE
  5
168
330
1E
100
AcDbEntity
  8
0
100
AcDbLine
 10
376.0
 20
219.1831
 30
0.0
 11
378.8999999999999
 21
220.0830999999999
 31
0.0
  0
LINE
  5
169
330
1E
100
AcDbEntity
  8
0
100
AcDbLine
 10
365.6
 20
218.3831
 30
0.0
 11
370.0
 21
216.600821518987
 31
0.0
  0
LINE
  5
16A
330
1E
100
AcDbEntity
  8
0
100
AcDbLine
 10
364.6
 20
216.6831
 30
0.0
 11
370.0
 21
214.497385714286
 31
0.0
  0
LINE
  5
16B
330
1E
100
AcDbEntity
  8
0
100
AcDbLine
 10
356.081081081081
 20
239.7803972972969
 30
0.0
 11
358.6
 21
233.4831
 31
0.0
  0
LINE
  5
16C
330
1E
100
AcDbEntity
  8
0
100
AcDbLine
 10
358.6
 20
233.4831
 30
0.0
 11
362.9
 21
227.8831
 31
0.0
  0
LINE
  5
16D
330
1E
100
AcDbEntity
  8
0
100
AcDbLine
 10
362.9
 20
227.8831
 30
0.0
 11
368.5
 21
223.5831
 31
0.0
  0
LINE
  5
16E
330
1E
100
AcDbEntity
  8
0
100
AcDbLine
 10
368.5
 20
223.5831
 30
0.0
 11
370.0
 21
222.9831
 31
0.0
  0
LINE
  5
16F
330
1E
100
AcDbEntity
  8
0
100
AcDbLine
 10
371.6
 20
238.3831
 30
0.0
 11
373.4999999999999
 21
240.6830999999999
 31
0.0
  0
LINE
  5
170
330
1E
100
AcDbEntity
  8
0
100
AcDbLine
 10
370.3999999999999
 20
235.8831
 30
0.0
 11
371.6
 21
238.3831
 31
0.0
  0
LINE
  5
171
330
1E
100
AcDbEntity
  8
0
100
AcDbLine
 10
370.0
 20
233.0830999999999
 30
0.0
 11
370.0
 21
211.1831
 31
0.0
  0
LINE
  5
172
330
1E
100
AcDbEntity
  8
0
100
AcDbLine
 10
370.0
 20
233.0830999999999
 30
0.0
 11
370.3999999999999
 21
235.8831
 31
0.0
  0
LINE
  5
173
330
1E
100
AcDbEntity
  8
0
100
AcDbLine
 10
358.6999999999999
 20
223.6831
 30
0.0
 11
365.6
 21
218.3831
 31
0.0
  0
LINE
  5
174
330
1E
100
AcDbEntity
  8
0
100
AcDbLine
 10
357.3
 20
222.2830999999999
 30
0.0
 11
364.6
 21
216.6831
 31
0.0
  0
LINE
  5
175
330
1E
100
AcDbEntity
  8
0
100
AcDbLine
 10
354.0
 20
239.4830999999999
 30
0.0
 11
357.5
 21
239.9831
 31
0.0
  0
LINE
  5
176
330
1E
100
AcDbEntity
  8
0
100
AcDbLine
 10
108.4999999999999
 20
239.8831
 30
0.0
 11
109.4999999999999
 21
246.9831
 31
0.0
  0
LINE
  5
177
330
1E
100
AcDbEntity
  8
0
100
AcDbLine
 10
55.5
 20
239.8831
 30
0.0
 11
58.2
 21
233.2831
 31
0.0
  0
LINE
  5
178
330
1E
100
AcDbEntity
  8
0
100
AcDbLine
 10
255.5
 20
239.8831
 30
0.0
 11
258.1999999999999
 21
233.2831
 31
0.0
  0
LINE
  5
179
330
1E
100
AcDbEntity
  8
0
100
AcDbLine
 10
308.4999999999999
 20
239.8831
 30
0.0
 11
308.7003484320559
 21
241.305573867596
 31
0.0
  0
LINE
  5
17C
330
1E
100
AcDbEntity
  8
0
100
AcDbLine
 10
357.5
 20
239.9831
 30
0.0
 11
360.0
 21
240.9831
 31
0.0
  0
LINE
  5
17D
330
1E
100
AcDbEntity
  8
0
100
AcDbLine
 10
19.0
 20
239.7831
 30
0.0
 11
32.0
 21
240.1831
 31
0.0
  0
LINE
  5
17E
330
1E
100
AcDbEntity
  8
0
100
AcDbLine
 10
9.999999999999969
 20
239.4830999999999
 30
0.0
 11
19.0
 21
239.7831
 31
0.0
  0
LINE
  5
17F
330
1E
100
AcDbEntity
  8
0
100
AcDbLine
 10
207.023
 20
240.2550999999999
 30
0.0
 11
207.967
 21
246.9831
 31
0.0
  0
LINE
  5
180
330
1E
100
AcDbEntity
  8
0
100
AcDbLine
 10
271.1
 20
240.6830999999999
 30
0.0
 11
273.1
 21
238.0831
 31
0.0
  0
LINE
  5
181
330
1E
100
AcDbEntity
  8
0
100
AcDbLine
 10
292.8999999999999
 20
240.6830999999999
 30
0.0
 11
293.601941747573
 21
242.4379543689319
 31
0.0
  0
LINE
  5
182
330
1E
100
AcDbEntity
  8
0
100
AcDbLine
 10
92.9
 20
240.6830999999999
 30
0.0
 11
94.1
 21
243.6831
 31
0.0
  0
LINE
  5
183
330
1E
100
AcDbEntity
  8
0
100
AcDbLine
 10
258.8999999999999
 20
240.7830999999999
 30
0.0
 11
261.2
 21
234.9831
 31
0.0
  0
LINE
  5
184
330
1E
100
AcDbEntity
  8
0
100
AcDbLine
 10
305.1
 20
240.7830999999999
 30
0.0
 11
305.213801356203
 21
241.567064898285
 31
0.0
  0
LINE
  5
185
330
1E
100
AcDbEntity
  8
0
100
AcDbLine
 10
105.0999999999999
 20
240.7830999999999
 30
0.0
 11
106.0
 21
246.9831
 31
0.0
  0
LINE
  5
186
330
1E
100
AcDbEntity
  8
0
100
AcDbLine
 10
71.09999999999999
 20
240.6830999999999
 30
0.0
 11
73.09999999999999
 21
238.0831
 31
0.0
  0
LINE
  5
187
330
1E
100
AcDbEntity
  8
0
100
AcDbLine
 10
58.9
 20
240.7830999999999
 30
0.0
 11
61.2
 21
234.9831
 31
0.0
  0
LINE
  5
188
330
1E
100
AcDbEntity
  8
0
100
AcDbLine
 10
156.977
 20
240.2550999999999
 30
0.0
 11
159.4557
 21
233.9990999999999
 31
0.0
  0
LINE
  5
189
330
1E
100
AcDbEntity
  8
0
100
AcDbLine
 10
313.0
 20
240.9831
 30
0.0
 11
332.0
 21
240.1831
 31
0.0
  0
LINE
  5
18A
330
1E
100
AcDbEntity
  8
0
100
AcDbLine
 10
332.0
 20
240.1831
 30
0.0
 11
345.0
 21
239.7831
 31
0.0
  0
LINE
  5
18B
330
1E
100
AcDbEntity
  8
0
100
AcDbLine
 10
373.4999999999999
 20
240.6830999999999
 30
0.0
 11
376.0
 21
242.3831
 31
0.0
  0
LINE
  5
18C
330
1E
100
AcDbEntity
  8
0
100
AcDbLine
 10
360.0
 20
240.9831
 30
0.0
 11
362.0
 21
242.4831
 31
0.0
  0
LINE
  5
18D
330
1E
100
AcDbEntity
  8
0
100
AcDbLine
 10
92.0
 20
241.2831
 30
0.0
 11
93.1
 21
243.9831
 31
0.0
  0
LINE
  5
18E
330
1E
100
AcDbEntity
  8
0
100
AcDbLine
 10
103.2
 20
241.2831
 30
0.0
 11
104.0
 21
246.9831
 31
0.0
  0
LINE
  5
18F
330
1E
100
AcDbEntity
  8
0
100
AcDbLine
 10
72.0
 20
241.2831
 30
0.0
 11
73.9
 21
238.8831
 31
0.0
  0
LINE
  5
190
330
1E
100
AcDbEntity
  8
0
100
AcDbLine
 10
60.8
 20
241.2831
 30
0.0
 11
62.9
 21
235.9831
 31
0.0
  0
LINE
  5
192
330
1E
100
AcDbEntity
  8
0
100
AcDbLine
 10
61.7692307692307
 20
241.7907923076919
 30
0.0
 11
61.79999999999999
 21
241.5831
 31
0.0
  0
LINE
  5
193
330
1E
100
AcDbEntity
  8
0
100
AcDbLine
 10
60.7395833333333
 20
241.71356875
 30
0.0
 11
60.8
 21
241.2831
 31
0.0
  0
LINE
  5
194
330
1E
100
AcDbEntity
  8
0
100
AcDbLine
 10
91.5
 20
241.4830999999999
 30
0.0
 11
92.59999999999999
 21
244.1831
 31
0.0
  0
LINE
  5
196
330
1E
100
AcDbEntity
  8
0
100
AcDbLine
 10
72.5
 20
241.4830999999999
 30
0.0
 11
74.2
 21
239.1830999999999
 31
0.0
  0
LINE
  5
197
330
1E
100
AcDbEntity
  8
0
100
AcDbLine
 10
101.2999999999999
 20
241.7831
 30
0.0
 11
102.0
 21
246.9831
 31
0.0
  0
LINE
  5
198
330
1E
100
AcDbEntity
  8
0
100
AcDbLine
 10
62.7
 20
241.7831
 30
0.0
 11
64.7
 21
236.9831
 31
0.0
  0
LINE
  5
199
330
1E
100
AcDbEntity
  8
0
100
AcDbLine
 10
70.3980582524272
 20
242.4379543689319
 30
0.0
 11
71.09999999999999
 21
240.6830999999999
 31
0.0
  0
LINE
  5
19A
330
1E
100
AcDbEntity
  8
0
100
AcDbLine
 10
62.6896715849595
 20
241.859825368872
 30
0.0
 11
62.7
 21
241.7831
 31
0.0
  0
LINE
  5
19B
330
1E
100
AcDbEntity
  8
0
100
AcDbLine
 10
58.78619864379729
 20
241.567064898285
 30
0.0
 11
58.9
 21
240.7830999999999
 31
0.0
  0
LINE
  5
19C
330
1E
100
AcDbEntity
  8
0
100
AcDbLine
 10
55.2996515679442
 20
241.305573867596
 30
0.0
 11
55.5
 21
239.8831
 31
0.0
  0
LINE
  5
19D
330
1E
100
AcDbEntity
  8
0
100
AcDbLine
 10
272.5
 20
241.4830999999999
 30
0.0
 11
274.1999999999999
 21
239.1830999999999
 31
0.0
  0
LINE
  5
19E
330
1E
100
AcDbEntity
  8
0
100
AcDbLine
 10
272.0
 20
241.2831
 30
0.0
 11
273.8999999999999
 21
238.8831
 31
0.0
  0
LINE
  5
19F
330
1E
100
AcDbEntity
  8
0
100
AcDbLine
 10
260.8
 20
241.2831
 30
0.0
 11
262.9
 21
235.9831
 31
0.0
  0
LINE
  5
1A1
330
1E
100
AcDbEntity
  8
0
100
AcDbLine
 10
291.5
 20
241.4830999999999
 30
0.0
 11
292.6
 21
244.1831
 31
0.0
  0
LINE
  5
1A2
330
1E
100
AcDbEntity
  8
0
100
AcDbLine
 10
292.0
 20
241.2831
 30
0.0
 11
293.1
 21
243.9831
 31
0.0
  0
LINE
  5
1A3
330
1E
100
AcDbEntity
  8
0
100
AcDbLine
 10
262.6999999999999
 20
241.7831
 30
0.0
 11
264.6999999999999
 21
236.9831
 31
0.0
  0
LINE
  5
1A5
330
1E
100
AcDbEntity
  8
0
100
AcDbLine
 10
303.2
 20
241.2831
 30
0.0
 11
303.2604166666669
 21
241.71356875
 31
0.0
  0
LINE
  5
1A6
330
1E
100
AcDbEntity
  8
0
100
AcDbLine
 10
301.3
 20
241.7831
 30
0.0
 11
301.3103284150409
 21
241.859825368872
 31
0.0
  0
LINE
  5
1A7
330
1E
100
AcDbEntity
  8
0
100
AcDbLine
 10
192.269
 20
241.0810999999999
 30
0.0
 11
193.449
 21
243.9140999999999
 31
0.0
  0
LINE
  5
1A8
330
1E
100
AcDbEntity
  8
0
100
AcDbLine
 10
171.7311
 20
241.0810999999999
 30
0.0
 11
173.6196999999999
 21
238.6031
 31
0.0
  0
LINE
  5
1A9
330
1E
100
AcDbEntity
  8
0
100
AcDbLine
 10
293.5437864887409
 20
242.4423160133439
 30
0.0
 11
313.0
 21
240.9831
 31
0.0
  0
LINE
  5
1AA
330
1E
100
AcDbEntity
  8
0
100
AcDbLine
 10
376.0
 20
242.3831
 30
0.0
 11
378.8999999999999
 21
243.4830999999999
 31
0.0
  0
LINE
  5
1AB
330
1E
100
AcDbEntity
  8
0
100
AcDbLine
 10
362.0
 20
242.4831
 30
0.0
 11
363.5
 21
244.4831
 31
0.0
  0
LINE
  5
1AC
330
1E
100
AcDbEntity
  8
0
100
AcDbLine
 10
51.0
 20
240.9831
 30
0.0
 11
70.45621351125941
 21
242.4423160133439
 31
0.0
  0
LINE
  5
1AD
330
1E
100
AcDbEntity
  8
0
100
AcDbLine
 10
32.0
 20
240.1831
 30
0.0
 11
51.0
 21
240.9831
 31
0.0
  0
LINE
  5
1AE
330
1E
100
AcDbEntity
  8
0
100
AcDbLine
 10
6.499999999999969
 20
239.9831
 30
0.0
 11
9.999999999999969
 21
239.4830999999999
 31
0.0
  0
LINE
  5
1AF
330
1E
100
AcDbEntity
  8
0
100
AcDbLine
 10
3.99999999999997
 20
240.9831
 30
0.0
 11
6.499999999999969
 21
239.9831
 31
0.0
  0
LINE
  5
1B0
330
1E
100
AcDbEntity
  8
0
100
AcDbLine
 10
92.59999999999999
 20
244.1831
 30
0.0
 11
93.0
 21
246.9831
 31
0.0
  0
LINE
  5
1B1
330
1E
100
AcDbEntity
  8
0
100
AcDbLine
 10
93.1
 20
243.9831
 30
0.0
 11
93.49999999999999
 21
246.9831
 31
0.0
  0
LINE
  5
1B2
330
1E
100
AcDbEntity
  8
0
100
AcDbLine
 10
71.4
 20
244.1831
 30
0.0
 11
72.5
 21
241.4830999999999
 31
0.0
  0
LINE
  5
1B3
330
1E
100
AcDbEntity
  8
0
100
AcDbLine
 10
70.9
 20
243.9831
 30
0.0
 11
72.0
 21
241.2831
 31
0.0
  0
LINE
  5
1B4
330
1E
100
AcDbEntity
  8
0
100
AcDbLine
 10
94.1
 20
243.6831
 30
0.0
 11
94.59999999999999
 21
246.9831
 31
0.0
  0
LINE
  5
1B5
330
1E
100
AcDbEntity
  8
0
100
AcDbLine
 10
269.8999999999999
 20
243.6831
 30
0.0
 11
271.1
 21
240.6830999999999
 31
0.0
  0
LINE
  5
1B6
330
1E
100
AcDbEntity
  8
0
100
AcDbLine
 10
271.3999999999999
 20
244.1831
 30
0.0
 11
272.5
 21
241.4830999999999
 31
0.0
  0
LINE
  5
1B7
330
1E
100
AcDbEntity
  8
0
100
AcDbLine
 10
270.8999999999999
 20
243.9831
 30
0.0
 11
272.0
 21
241.2831
 31
0.0
  0
LINE
  5
1B8
330
1E
100
AcDbEntity
  8
0
100
AcDbLine
 10
292.6
 20
244.1831
 30
0.0
 11
293.0
 21
246.9831
 31
0.0
  0
LINE
  5
1B9
330
1E
100
AcDbEntity
  8
0
100
AcDbLine
 10
293.1
 20
243.9831
 30
0.0
 11
293.5
 21
246.9831
 31
0.0
  0
LINE
  5
1BA
330
1E
100
AcDbEntity
  8
0
100
AcDbLine
 10
193.449
 20
243.9140999999999
 30
0.0
 11
193.8029999999999
 21
246.9831
 31
0.0
  0
LINE
  5
1BB
330
1E
100
AcDbEntity
  8
0
100
AcDbLine
 10
170.5508
 20
243.9140999999999
 30
0.0
 11
171.7311
 21
241.0810999999999
 31
0.0
  0
LINE
  5
1BC
330
1E
100
AcDbEntity
  8
0
100
AcDbLine
 10
71.0
 20
246.9831
 30
0.0
 11
71.4
 21
244.1831
 31
0.0
  0
LINE
  5
1BD
330
1E
100
AcDbEntity
  8
0
100
AcDbLine
 10
71.0
 20
246.9831
 30
0.0
 11
71.4
 21
249.7831
 31
0.0
  0
LINE
  5
1BE
330
1E
100
AcDbEntity
  8
0
100
AcDbLine
 10
70.5
 20
246.9831
 30
0.0
 11
70.9
 21
243.9831
 31
0.0
  0
LINE
  5
1BF
330
1E
100
AcDbEntity
  8
0
100
AcDbLine
 10
70.5
 20
246.9831
 30
0.0
 11
70.9
 21
249.9830999999999
 31
0.0
  0
LINE
  5
1C0
330
1E
100
AcDbEntity
  8
0
100
AcDbLine
 10
153.6721
 20
246.9831
 30
0.0
 11
154.6164
 21
254.3010999999999
 31
0.0
  0
LINE
  5
1C1
330
1E
100
AcDbEntity
  8
0
100
AcDbLine
 10
153.6721
 20
246.9831
 30
0.0
 11
154.6164
 21
239.6650999999999
 31
0.0
  0
LINE
  5
1C4
330
1E
100
AcDbEntity
  8
0
100
AcDbLine
 10
146.0
 20
246.9831
 30
0.0
 11
147.1802999999999
 21
256.3081
 31
0.0
  0
LINE
  5
1C5
330
1E
100
AcDbEntity
  8
0
100
AcDbLine
 10
146.0
 20
246.9831
 30
0.0
 11
147.1802999999999
 21
237.6580999999999
 31
0.0
  0
LINE
  5
1C8
330
1E
100
AcDbEntity
  8
0
100
AcDbLine
 10
260.0
 20
246.9831
 30
0.0
 11
260.8
 21
241.2831
 31
0.0
  0
LINE
  5
1C9
330
1E
100
AcDbEntity
  8
0
100
AcDbLine
 10
260.0
 20
246.9831
 30
0.0
 11
260.8
 21
252.6831
 31
0.0
  0
LINE
  5
1CA
330
1E
100
AcDbEntity
  8
0
100
AcDbLine
 10
271.0
 20
246.9831
 30
0.0
 11
271.3999999999999
 21
244.1831
 31
0.0
  0
LINE
  5
1CB
330
1E
100
AcDbEntity
  8
0
100
AcDbLine
 10
271.0
 20
246.9831
 30
0.0
 11
271.3999999999999
 21
249.7831
 31
0.0
  0
LINE
  5
1CC
330
1E
100
AcDbEntity
  8
0
100
AcDbLine
 10
270.5
 20
246.9831
 30
0.0
 11
270.8999999999999
 21
243.9831
 31
0.0
  0
LINE
  5
1CD
330
1E
100
AcDbEntity
  8
0
100
AcDbLine
 10
270.5
 20
246.9831
 30
0.0
 11
270.8999999999999
 21
249.9830999999999
 31
0.0
  0
LINE
  5
1CE
330
1E
100
AcDbEntity
  8
0
100
AcDbLine
 10
269.3999999999999
 20
246.9831
 30
0.0
 11
269.8999999999999
 21
243.6831
 31
0.0
  0
LINE
  5
1CF
330
1E
100
AcDbEntity
  8
0
100
AcDbLine
 10
269.3999999999999
 20
246.9831
 30
0.0
 11
269.8999999999999
 21
250.2831
 31
0.0
  0
LINE
  5
1D0
330
1E
100
AcDbEntity
  8
0
100
AcDbLine
 10
262.0
 20
246.9831
 30
0.0
 11
262.6999999999999
 21
241.7831
 31
0.0
  0
LINE
  5
1D1
330
1E
100
AcDbEntity
  8
0
100
AcDbLine
 10
262.0
 20
246.9831
 30
0.0
 11
262.6999999999999
 21
252.1831
 31
0.0
  0
LINE
  5
1D2
330
1E
100
AcDbEntity
  8
0
100
AcDbLine
 10
258.0
 20
246.9831
 30
0.0
 11
258.8999999999999
 21
240.7830999999999
 31
0.0
  0
LINE
  5
1D3
330
1E
100
AcDbEntity
  8
0
100
AcDbLine
 10
258.0
 20
246.9831
 30
0.0
 11
258.8999999999999
 21
253.1830999999999
 31
0.0
  0
LINE
  5
1D4
330
1E
100
AcDbEntity
  8
0
100
AcDbLine
 10
254.4999999999999
 20
246.9831
 30
0.0
 11
255.5
 21
239.8831
 31
0.0
  0
LINE
  5
1D5
330
1E
100
AcDbEntity
  8
0
100
AcDbLine
 10
254.4999999999999
 20
246.9831
 30
0.0
 11
255.5
 21
254.0831
 31
0.0
  0
LINE
  5
1D6
330
1E
100
AcDbEntity
  8
0
100
AcDbLine
 10
170.1966999999999
 20
246.9831
 30
0.0
 11
170.5508
 21
250.0520999999999
 31
0.0
  0
LINE
  5
1D7
330
1E
100
AcDbEntity
  8
0
100
AcDbLine
 10
170.1966999999999
 20
246.9831
 30
0.0
 11
170.5508
 21
243.9140999999999
 31
0.0
  0
LINE
  5
1D8
330
1E
100
AcDbEntity
  8
0
100
AcDbLine
 10
156.0328
 20
246.9831
 30
0.0
 11
156.977
 21
253.7110999999999
 31
0.0
  0
LINE
  5
1D9
330
1E
100
AcDbEntity
  8
0
100
AcDbLine
 10
156.0328
 20
246.9831
 30
0.0
 11
156.977
 21
240.2550999999999
 31
0.0
  0
LINE
  5
1DA
330
1E
100
AcDbEntity
  8
0
100
AcDbLine
 10
363.5
 20
244.4831
 30
0.0
 11
364.0
 21
246.9831
 31
0.0
  0
LINE
  5
1DB
330
1E
100
AcDbEntity
  8
0
100
AcDbLine
 10
0.4999999999999661
 20
244.4831
 30
0.0
 11
1.999999999999969
 21
242.4831
 31
0.0
  0
LINE
  5
1DC
330
1E
100
AcDbEntity
  8
0
100
AcDbLine
 10
1.999999999999969
 20
242.4831
 30
0.0
 11
3.99999999999997
 21
240.9831
 31
0.0
  0
LINE
  5
1DD
330
1E
100
AcDbEntity
  8
0
100
AcDbLine
 10
0.4999999999999661
 20
244.4831
 30
0.0
 11
1.999999999999969
 21
242.4831
 31
0.0
  0
LINE
  5
1DE
330
1E
100
AcDbEntity
  8
0
100
AcDbLine
 10
0.4999999999999661
 20
249.4831
 30
0.0
 11
1.999999999999969
 21
251.4831
 31
0.0
  0
LINE
  5
1DF
330
1E
100
AcDbEntity
  8
0
100
AcDbLine
 10
71.4
 20
249.7831
 30
0.0
 11
72.5
 21
252.4831
 31
0.0
  0
LINE
  5
1E0
330
1E
100
AcDbEntity
  8
0
100
AcDbLine
 10
70.9
 20
249.9830999999999
 30
0.0
 11
72.0
 21
252.6831
 31
0.0
  0
LINE
  5
1E1
330
1E
100
AcDbEntity
  8
0
100
AcDbLine
 10
92.59999999999999
 20
249.7831
 30
0.0
 11
93.0
 21
246.9831
 31
0.0
  0
LINE
  5
1E2
330
1E
100
AcDbEntity
  8
0
100
AcDbLine
 10
93.1
 20
249.9830999999999
 30
0.0
 11
93.49999999999999
 21
246.9831
 31
0.0
  0
LINE
  5
1E3
330
1E
100
AcDbEntity
  8
0
100
AcDbLine
 10
94.1
 20
250.2831
 30
0.0
 11
94.59999999999999
 21
246.9831
 31
0.0
  0
LINE
  5
1E4
330
1E
100
AcDbEntity
  8
0
100
AcDbLine
 10
292.6
 20
249.7831
 30
0.0
 11
293.0
 21
246.9831
 31
0.0
  0
LINE
  5
1E5
330
1E
100
AcDbEntity
  8
0
100
AcDbLine
 10
293.1
 20
249.9830999999999
 30
0.0
 11
293.5
 21
246.9831
 31
0.0
  0
LINE
  5
1E6
330
1E
100
AcDbEntity
  8
0
100
AcDbLine
 10
271.3999999999999
 20
249.7831
 30
0.0
 11
272.5
 21
252.4831
 31
0.0
  0
LINE
  5
1E7
330
1E
100
AcDbEntity
  8
0
100
AcDbLine
 10
270.8999999999999
 20
249.9830999999999
 30
0.0
 11
272.0
 21
252.6831
 31
0.0
  0
LINE
  5
1E8
330
1E
100
AcDbEntity
  8
0
100
AcDbLine
 10
269.8999999999999
 20
250.2831
 30
0.0
 11
271.1
 21
253.2830999999999
 31
0.0
  0
LINE
  5
1E9
330
1E
100
AcDbEntity
  8
0
100
AcDbLine
 10
193.449
 20
250.0520999999999
 30
0.0
 11
193.8029999999999
 21
246.9831
 31
0.0
  0
LINE
  5
1EA
330
1E
100
AcDbEntity
  8
0
100
AcDbLine
 10
170.5508
 20
250.0520999999999
 30
0.0
 11
171.7311
 21
252.8850999999999
 31
0.0
  0
LINE
  5
1EB
330
1E
100
AcDbEntity
  8
0
100
AcDbLine
 10
362.0
 20
251.4831
 30
0.0
 11
363.5
 21
249.4831
 31
0.0
  0
LINE
  5
1EC
330
1E
100
AcDbEntity
  8
0
100
AcDbLine
 10
363.5
 20
249.4831
 30
0.0
 11
364.0
 21
246.9831
 31
0.0
  0
LINE
  5
1ED
330
1E
100
AcDbEntity
  8
0
100
AcDbLine
 10
70.3980582524272
 20
251.5282456310679
 30
0.0
 11
71.09999999999999
 21
253.2830999999999
 31
0.0
  0
LINE
  5
1EE
330
1E
100
AcDbEntity
  8
0
100
AcDbLine
 10
61.7692307692307
 20
252.1754076923079
 30
0.0
 11
61.79999999999999
 21
252.3831
 31
0.0
  0
LINE
  5
1F0
330
1E
100
AcDbEntity
  8
0
100
AcDbLine
 10
60.7395833333333
 20
252.25263125
 30
0.0
 11
60.8
 21
252.6831
 31
0.0
  0
LINE
  5
1F1
330
1E
100
AcDbEntity
  8
0
100
AcDbLine
 10
72.5
 20
252.4831
 30
0.0
 11
74.2
 21
254.7830999999999
 31
0.0
  0
LINE
  5
1F2
330
1E
100
AcDbEntity
  8
0
100
AcDbLine
 10
91.5
 20
252.4831
 30
0.0
 11
92.59999999999999
 21
249.7831
 31
0.0
  0
LINE
  5
1F4
330
1E
100
AcDbEntity
  8
0
100
AcDbLine
 10
101.2999999999999
 20
252.1831
 30
0.0
 11
102.0
 21
246.9831
 31
0.0
  0
LINE
  5
1F5
330
1E
100
AcDbEntity
  8
0
100
AcDbLine
 10
62.7
 20
252.1831
 30
0.0
 11
64.7
 21
256.9830999999999
 31
0.0
  0
LINE
  5
1F6
330
1E
100
AcDbEntity
  8
0
100
AcDbLine
 10
62.6896715849595
 20
252.106374631128
 30
0.0
 11
62.7
 21
252.1831
 31
0.0
  0
LINE
  5
1F7
330
1E
100
AcDbEntity
  8
0
100
AcDbLine
 10
58.78619864379729
 20
252.399135101715
 30
0.0
 11
58.9
 21
253.1830999999999
 31
0.0
  0
LINE
  5
1F8
330
1E
100
AcDbEntity
  8
0
100
AcDbLine
 10
72.0
 20
252.6831
 30
0.0
 11
73.9
 21
255.0831
 31
0.0
  0
LINE
  5
1F9
330
1E
100
AcDbEntity
  8
0
100
AcDbLine
 10
92.0
 20
252.6831
 30
0.0
 11
93.1
 21
249.9830999999999
 31
0.0
  0
LINE
  5
1FA
330
1E
100
AcDbEntity
  8
0
100
AcDbLine
 10
103.2
 20
252.6831
 30
0.0
 11
104.0
 21
246.9831
 31
0.0
  0
LINE
  5
1FB
330
1E
100
AcDbEntity
  8
0
100
AcDbLine
 10
60.8
 20
252.6831
 30
0.0
 11
62.9
 21
257.9830999999999
 31
0.0
  0
LINE
  5
1FC
330
1E
100
AcDbEntity
  8
0
100
AcDbLine
 10
55.2996515679442
 20
252.6606261324039
 30
0.0
 11
55.5
 21
254.0831
 31
0.0
  0
LINE
  5
1FD
330
1E
100
AcDbEntity
  8
0
100
AcDbLine
 10
291.5
 20
252.4831
 30
0.0
 11
292.6
 21
249.7831
 31
0.0
  0
LINE
  5
1FE
330
1E
100
AcDbEntity
  8
0
100
AcDbLine
 10
292.0
 20
252.6831
 30
0.0
 11
293.1
 21
249.9830999999999
 31
0.0
  0
LINE
  5
1FF
330
1E
100
AcDbEntity
  8
0
100
AcDbLine
 10
272.5
 20
252.4831
 30
0.0
 11
274.1999999999999
 21
254.7830999999999
 31
0.0
  0
LINE
  5
200
330
1E
100
AcDbEntity
  8
0
100
AcDbLine
 10
272.0
 20
252.6831
 30
0.0
 11
273.8999999999999
 21
255.0831
 31
0.0
  0
LINE
  5
202
330
1E
100
AcDbEntity
  8
0
100
AcDbLine
 10
260.8
 20
252.6831
 30
0.0
 11
262.9
 21
257.9830999999999
 31
0.0
  0
LINE
  5
203
330
1E
100
AcDbEntity
  8
0
100
AcDbLine
 10
262.6999999999999
 20
252.1831
 30
0.0
 11
264.6999999999999
 21
256.9830999999999
 31
0.0
  0
LINE
  5
204
330
1E
100
AcDbEntity
  8
0
100
AcDbLine
 10
192.269
 20
252.8850999999999
 30
0.0
 11
193.449
 21
250.0520999999999
 31
0.0
  0
LINE
  5
205
330
1E
100
AcDbEntity
  8
0
100
AcDbLine
 10
171.7311
 20
252.8850999999999
 30
0.0
 11
173.6196999999999
 21
255.3631
 31
0.0
  0
LINE
  5
207
330
1E
100
AcDbEntity
  8
0
100
AcDbLine
 10
303.2
 20
252.6831
 30
0.0
 11
303.2604166666669
 21
252.25263125
 31
0.0
  0
LINE
  5
208
330
1E
100
AcDbEntity
  8
0
100
AcDbLine
 10
301.3
 20
252.1831
 30
0.0
 11
301.3103284150409
 21
252.106374631128
 31
0.0
  0
LINE
  5
209
330
1E
100
AcDbEntity
  8
0
100
AcDbLine
 10
293.5437864887409
 20
251.5238839866559
 30
0.0
 11
313.0
 21
252.9831
 31
0.0
  0
LINE
  5
20A
330
1E
100
AcDbEntity
  8
0
100
AcDbLine
 10
313.0
 20
252.9831
 30
0.0
 11
332.0
 21
253.7831
 31
0.0
  0
LINE
  5
20B
330
1E
100
AcDbEntity
  8
0
100
AcDbLine
 10
360.0
 20
252.9831
 30
0.0
 11
362.0
 21
251.4831
 31
0.0
  0
LINE
  5
20C
330
1E
100
AcDbEntity
  8
0
100
AcDbLine
 10
105.0999999999999
 20
253.1830999999999
 30
0.0
 11
106.0
 21
246.9831
 31
0.0
  0
LINE
  5
20D
330
1E
100
AcDbEntity
  8
0
100
AcDbLine
 10
71.09999999999999
 20
253.2830999999999
 30
0.0
 11
73.09999999999999
 21
255.8831
 31
0.0
  0
LINE
  5
20E
330
1E
100
AcDbEntity
  8
0
100
AcDbLine
 10
92.9
 20
253.2830999999999
 30
0.0
 11
94.1
 21
250.2831
 31
0.0
  0
LINE
  5
20F
330
1E
100
AcDbEntity
  8
0
100
AcDbLine
 10
58.9
 20
253.1830999999999
 30
0.0
 11
61.2
 21
258.9830999999999
 31
0.0
  0
LINE
  5
210
330
1E
100
AcDbEntity
  8
0
100
AcDbLine
 10
292.8999999999999
 20
253.2830999999999
 30
0.0
 11
293.601941747573
 21
251.5282456310679
 31
0.0
  0
LINE
  5
211
330
1E
100
AcDbEntity
  8
0
100
AcDbLine
 10
271.1
 20
253.2830999999999
 30
0.0
 11
273.1
 21
255.8831
 31
0.0
  0
LINE
  5
212
330
1E
100
AcDbEntity
  8
0
100
AcDbLine
 10
258.8999999999999
 20
253.1830999999999
 30
0.0
 11
261.2
 21
258.9830999999999
 31
0.0
  0
LINE
  5
213
330
1E
100
AcDbEntity
  8
0
100
AcDbLine
 10
305.1
 20
253.1830999999999
 30
0.0
 11
305.213801356203
 21
252.399135101715
 31
0.0
  0
LINE
  5
214
330
1E
100
AcDbEntity
  8
0
100
AcDbLine
 10
207.023
 20
253.7110999999999
 30
0.0
 11
207.967
 21
246.9831
 31
0.0
  0
LINE
  5
215
330
1E
100
AcDbEntity
  8
0
100
AcDbLine
 10
156.977
 20
253.7110999999999
 30
0.0
 11
159.4557
 21
259.9671
 31
0.0
  0
LINE
  5
216
330
1E
100
AcDbEntity
  8
0
100
AcDbLine
 10
332.0
 20
253.7831
 30
0.0
 11
345.0
 21
254.1831
 31
0.0
  0
LINE
  5
217
330
1E
100
AcDbEntity
  8
0
100
AcDbLine
 10
357.5
 20
253.9830999999999
 30
0.0
 11
360.0
 21
252.9831
 31
0.0
  0
LINE
  5
218
330
1E
100
AcDbEntity
  8
0
100
AcDbLine
 10
51.0
 20
252.9831
 30
0.0
 11
70.45621351125941
 21
251.5238839866559
 31
0.0
  0
LINE
  5
219
330
1E
100
AcDbEntity
  8
0
100
AcDbLine
 10
32.0
 20
253.7831
 30
0.0
 11
51.0
 21
252.9831
 31
0.0
  0
LINE
  5
21B
330
1E
100
AcDbEntity
  8
0
100
AcDbLine
 10
255.5
 20
254.0831
 30
0.0
 11
258.1999999999999
 21
260.6831
 31
0.0
  0
LINE
  5
21C
330
1E
100
AcDbEntity
  8
0
100
AcDbLine
 10
308.4999999999999
 20
254.0831
 30
0.0
 11
308.7003484320559
 21
252.6606261324039
 31
0.0
  0
LINE
  5
21D
330
1E
100
AcDbEntity
  8
0
100
AcDbLine
 10
108.4999999999999
 20
254.0831
 30
0.0
 11
109.4999999999999
 21
246.9831
 31
0.0
  0
LINE
  5
21E
330
1E
100
AcDbEntity
  8
0
100
AcDbLine
 10
55.5
 20
254.0831
 30
0.0
 11
58.2
 21
260.6831
 31
0.0
  0
LINE
  5
220
330
1E
100
AcDbEntity
  8
0
100
AcDbLine
 10
345.0
 20
254.1831
 30
0.0
 11
354.0
 21
254.4831
 31
0.0
  0
LINE
  5
221
330
1E
100
AcDbEntity
  8
0
100
AcDbLine
 10
347.021978021978
 20
254.2504992673989
 30
0.0
 11
347.296
 21
256.1990999999999
 31
0.0
  0
LINE
  5
223
330
1E
100
AcDbEntity
  8
0
100
AcDbLine
 10
62.9
 20
257.9830999999999
 30
0.0
 11
66.5
 21
262.4830999999999
 31
0.0
  0
LINE
  5
224
330
1E
100
AcDbEntity
  8
0
100
AcDbLine
 10
74.2
 20
254.7830999999999
 30
0.0
 11
76.5
 21
256.4830999999999
 31
0.0
  0
LINE
  5
225
330
1E
100
AcDbEntity
  8
0
100
AcDbLine
 10
73.9
 20
255.0831
 30
0.0
 11
76.29999999999999
 21
256.9830999999999
 31
0.0
  0
LINE
  5
226
330
1E
100
AcDbEntity
  8
0
100
AcDbLine
 10
89.8
 20
254.7830999999999
 30
0.0
 11
91.5
 21
252.4831
 31
0.0
  0
LINE
  5
227
330
1E
100
AcDbEntity
  8
0
100
AcDbLine
 10
90.09999999999999
 20
255.0831
 30
0.0
 11
92.0
 21
252.6831
 31
0.0
  0
LINE
  5
228
330
1E
100
AcDbEntity
  8
0
100
AcDbLine
 10
76.5
 20
256.4830999999999
 30
0.0
 11
79.2
 21
257.5830999999999
 31
0.0
  0
LINE
  5
229
330
1E
100
AcDbEntity
  8
0
100
AcDbLine
 10
76.29999999999999
 20
256.9830999999999
 30
0.0
 11
79.0
 21
258.0830999999999
 31
0.0
  0
LINE
  5
22A
330
1E
100
AcDbEntity
  8
0
100
AcDbLine
 10
87.5
 20
256.4830999999999
 30
0.0
 11
89.8
 21
254.7830999999999
 31
0.0
  0
LINE
  5
22B
330
1E
100
AcDbEntity
  8
0
100
AcDbLine
 10
87.70000000000001
 20
256.9830999999999
 30
0.0
 11
90.09999999999999
 21
255.0831
 31
0.0
  0
LINE
  5
22C
330
1E
100
AcDbEntity
  8
0
100
AcDbLine
 10
73.09999999999999
 20
255.8831
 30
0.0
 11
75.7
 21
257.8831
 31
0.0
  0
LINE
  5
22D
330
1E
100
AcDbEntity
  8
0
100
AcDbLine
 10
90.90000000000001
 20
255.8831
 30
0.0
 11
92.9
 21
253.2830999999999
 31
0.0
  0
LINE
  5
22E
330
1E
100
AcDbEntity
  8
0
100
AcDbLine
 10
79.2
 20
257.5830999999999
 30
0.0
 11
82.0
 21
257.9830999999999
 31
0.0
  0
LINE
  5
22F
330
1E
100
AcDbEntity
  8
0
100
AcDbLine
 10
84.8
 20
257.5830999999999
 30
0.0
 11
87.5
 21
256.4830999999999
 31
0.0
  0
LINE
  5
231
330
1E
100
AcDbEntity
  8
0
100
AcDbLine
 10
75.7
 20
257.8831
 30
0.0
 11
78.7
 21
259.0831
 31
0.0
  0
LINE
  5
232
330
1E
100
AcDbEntity
  8
0
100
AcDbLine
 10
79.0
 20
258.0830999999999
 30
0.0
 11
82.0
 21
258.4830999999999
 31
0.0
  0
LINE
  5
233
330
1E
100
AcDbEntity
  8
0
100
AcDbLine
 10
82.0
 20
257.9830999999999
 30
0.0
 11
84.8
 21
257.5830999999999
 31
0.0
  0
LINE
  5
234
330
1E
100
AcDbEntity
  8
0
100
AcDbLine
 10
82.0
 20
258.4830999999999
 30
0.0
 11
85.0
 21
258.0830999999999
 31
0.0
  0
LINE
  5
235
330
1E
100
AcDbEntity
  8
0
100
AcDbLine
 10
85.0
 20
258.0830999999999
 30
0.0
 11
87.70000000000001
 21
256.9830999999999
 31
0.0
  0
LINE
  5
236
330
1E
100
AcDbEntity
  8
0
100
AcDbLine
 10
101.0999999999999
 20
257.9830999999999
 30
0.0
 11
103.2
 21
252.6831
 31
0.0
  0
LINE
  5
237
330
1E
100
AcDbEntity
  8
0
100
AcDbLine
 10
88.3
 20
257.8831
 30
0.0
 11
90.90000000000001
 21
255.8831
 31
0.0
  0
LINE
  5
238
330
1E
100
AcDbEntity
  8
0
100
AcDbLine
 10
102.8
 20
258.9830999999999
 30
0.0
 11
105.0999999999999
 21
253.1830999999999
 31
0.0
  0
LINE
  5
23A
330
1E
100
AcDbEntity
  8
0
100
AcDbLine
 10
64.7
 20
256.9830999999999
 30
0.0
 11
67.9
 21
261.0831
 31
0.0
  0
LINE
  5
23B
330
1E
100
AcDbEntity
  8
0
100
AcDbLine
 10
78.7
 20
259.0831
 30
0.0
 11
82.0
 21
259.5830999999999
 31
0.0
  0
LINE
  5
23C
330
1E
100
AcDbEntity
  8
0
100
AcDbLine
 10
82.0
 20
259.5830999999999
 30
0.0
 11
85.29999999999999
 21
259.0831
 31
0.0
  0
LINE
  5
23D
330
1E
100
AcDbEntity
  8
0
100
AcDbLine
 10
85.29999999999999
 20
259.0831
 30
0.0
 11
88.3
 21
257.8831
 31
0.0
  0
LINE
  5
23E
330
1E
100
AcDbEntity
  8
0
100
AcDbLine
 10
61.2
 20
258.9830999999999
 30
0.0
 11
65.09999999999999
 21
263.8831
 31
0.0
  0
LINE
  5
23F
330
1E
100
AcDbEntity
  8
0
100
AcDbLine
 10
154.6164
 20
254.3010999999999
 30
0.0
 11
157.4492
 21
261.1471
 31
0.0
  0
LINE
  5
240
330
1E
100
AcDbEntity
  8
0
100
AcDbLine
 10
289.8
 20
254.7830999999999
 30
0.0
 11
291.5
 21
252.4831
 31
0.0
  0
LINE
  5
241
330
1E
100
AcDbEntity
  8
0
100
AcDbLine
 10
290.1
 20
255.0831
 30
0.0
 11
292.0
 21
252.6831
 31
0.0
  0
LINE
  5
242
330
1E
100
AcDbEntity
  8
0
100
AcDbLine
 10
274.1999999999999
 20
254.7830999999999
 30
0.0
 11
276.5
 21
256.4830999999999
 31
0.0
  0
LINE
  5
243
330
1E
100
AcDbEntity
  8
0
100
AcDbLine
 10
273.8999999999999
 20
255.0831
 30
0.0
 11
276.3
 21
256.9830999999999
 31
0.0
  0
LINE
  5
244
330
1E
100
AcDbEntity
  8
0
100
AcDbLine
 10
209.384
 20
254.3010999999999
 30
0.0
 11
210.328
 21
246.9831
 31
0.0
  0
LINE
  5
245
330
1E
100
AcDbEntity
  8
0
100
AcDbLine
 10
190.38
 20
255.3631
 30
0.0
 11
192.269
 21
252.8850999999999
 31
0.0
  0
LINE
  5
246
330
1E
100
AcDbEntity
  8
0
100
AcDbLine
 10
187.902
 20
257.2521
 30
0.0
 11
190.38
 21
255.3631
 31
0.0
  0
LINE
  5
247
330
1E
100
AcDbEntity
  8
0
100
AcDbLine
 10
185.069
 20
258.4321
 30
0.0
 11
187.902
 21
257.2521
 31
0.0
  0
LINE
  5
248
330
1E
100
AcDbEntity
  8
0
100
AcDbLine
 10
290.8999999999999
 20
255.8831
 30
0.0
 11
292.8999999999999
 21
253.2830999999999
 31
0.0
  0
LINE
  5
249
330
1E
100
AcDbEntity
  8
0
100
AcDbLine
 10
287.5
 20
256.4830999999999
 30
0.0
 11
289.8
 21
254.7830999999999
 31
0.0
  0
LINE
  5
24A
330
1E
100
AcDbEntity
  8
0
100
AcDbLine
 10
287.6999999999999
 20
256.9830999999999
 30
0.0
 11
290.1
 21
255.0831
 31
0.0
  0
LINE
  5
24B
330
1E
100
AcDbEntity
  8
0
100
AcDbLine
 10
276.5
 20
256.4830999999999
 30
0.0
 11
279.1999999999999
 21
257.5830999999999
 31
0.0
  0
LINE
  5
24C
330
1E
100
AcDbEntity
  8
0
100
AcDbLine
 10
276.3
 20
256.9830999999999
 30
0.0
 11
279.0
 21
258.0830999999999
 31
0.0
  0
LINE
  5
24D
330
1E
100
AcDbEntity
  8
0
100
AcDbLine
 10
347.296
 20
256.1990999999999
 30
0.0
 11
350.7519999999999
 21
264.8390999999999
 31
0.0
  0
LINE
  5
24E
330
1E
100
AcDbEntity
  8
0
100
AcDbLine
 10
273.1
 20
255.8831
 30
0.0
 11
275.7
 21
257.8831
 31
0.0
  0
LINE
  5
24F
330
1E
100
AcDbEntity
  8
0
100
AcDbLine
 10
264.6999999999999
 20
256.9830999999999
 30
0.0
 11
267.8999999999999
 21
261.0831
 31
0.0
  0
LINE
  5
251
330
1E
100
AcDbEntity
  8
0
100
AcDbLine
 10
262.9
 20
257.9830999999999
 30
0.0
 11
266.5
 21
262.4830999999999
 31
0.0
  0
LINE
  5
252
330
1E
100
AcDbEntity
  8
0
100
AcDbLine
 10
284.8
 20
257.5830999999999
 30
0.0
 11
287.5
 21
256.4830999999999
 31
0.0
  0
LINE
  5
253
330
1E
100
AcDbEntity
  8
0
100
AcDbLine
 10
279.1999999999999
 20
257.5830999999999
 30
0.0
 11
282.0
 21
257.9830999999999
 31
0.0
  0
LINE
  5
255
330
1E
100
AcDbEntity
  8
0
100
AcDbLine
 10
282.0
 20
257.9830999999999
 30
0.0
 11
284.8
 21
257.5830999999999
 31
0.0
  0
LINE
  5
256
330
1E
100
AcDbEntity
  8
0
100
AcDbLine
 10
285.0
 20
258.0830999999999
 30
0.0
 11
287.6999999999999
 21
256.9830999999999
 31
0.0
  0
LINE
  5
257
330
1E
100
AcDbEntity
  8
0
100
AcDbLine
 10
279.0
 20
258.0830999999999
 30
0.0
 11
282.0
 21
258.4830999999999
 31
0.0
  0
LINE
  5
258
330
1E
100
AcDbEntity
  8
0
100
AcDbLine
 10
301.1
 20
257.9830999999999
 30
0.0
 11
303.2
 21
252.6831
 31
0.0
  0
LINE
  5
259
330
1E
100
AcDbEntity
  8
0
100
AcDbLine
 10
288.3
 20
257.8831
 30
0.0
 11
290.8999999999999
 21
255.8831
 31
0.0
  0
LINE
  5
25A
330
1E
100
AcDbEntity
  8
0
100
AcDbLine
 10
275.7
 20
257.8831
 30
0.0
 11
278.6999999999999
 21
259.0831
 31
0.0
  0
LINE
  5
25B
330
1E
100
AcDbEntity
  8
0
100
AcDbLine
 10
299.3
 20
256.9830999999999
 30
0.0
 11
301.3
 21
252.1831
 31
0.0
  0
LINE
  5
25C
330
1E
100
AcDbEntity
  8
0
100
AcDbLine
 10
216.82
 20
256.3081
 30
0.0
 11
218.0
 21
246.9831
 31
0.0
  0
LINE
  5
25D
330
1E
100
AcDbEntity
  8
0
100
AcDbLine
 10
182.0
 20
258.7860999999999
 30
0.0
 11
185.069
 21
258.4321
 31
0.0
  0
LINE
  5
25E
330
1E
100
AcDbEntity
  8
0
100
AcDbLine
 10
282.0
 20
258.4830999999999
 30
0.0
 11
285.0
 21
258.0830999999999
 31
0.0
  0
LINE
  5
25F
330
1E
100
AcDbEntity
  8
0
100
AcDbLine
 10
261.2
 20
258.9830999999999
 30
0.0
 11
265.1
 21
263.8831
 31
0.0
  0
LINE
  5
260
330
1E
100
AcDbEntity
  8
0
100
AcDbLine
 10
282.0
 20
259.5830999999999
 30
0.0
 11
285.3
 21
259.0831
 31
0.0
  0
LINE
  5
261
330
1E
100
AcDbEntity
  8
0
100
AcDbLine
 10
285.3
 20
259.0831
 30
0.0
 11
288.3
 21
257.8831
 31
0.0
  0
LINE
  5
262
330
1E
100
AcDbEntity
  8
0
100
AcDbLine
 10
278.6999999999999
 20
259.0831
 30
0.0
 11
282.0
 21
259.5830999999999
 31
0.0
  0
LINE
  5
263
330
1E
100
AcDbEntity
  8
0
100
AcDbLine
 10
302.8
 20
258.9830999999999
 30
0.0
 11
305.1
 21
253.1830999999999
 31
0.0
  0
LINE
  5
264
330
1E
100
AcDbEntity
  8
0
100
AcDbLine
 10
204.544
 20
259.9671
 30
0.0
 11
207.023
 21
253.7110999999999
 31
0.0
  0
LINE
  5
265
330
1E
100
AcDbEntity
  8
0
100
AcDbLine
 10
178.9310999999999
 20
258.4321
 30
0.0
 11
182.0
 21
258.7860999999999
 31
0.0
  0
LINE
  5
266
330
1E
100
AcDbEntity
  8
0
100
AcDbLine
 10
176.0984
 20
257.2521
 30
0.0
 11
178.9310999999999
 21
258.4321
 31
0.0
  0
LINE
  5
267
330
1E
100
AcDbEntity
  8
0
100
AcDbLine
 10
173.6196999999999
 20
255.3631
 30
0.0
 11
176.0984
 21
257.2521
 31
0.0
  0
LINE
  5
268
330
1E
100
AcDbEntity
  8
0
100
AcDbLine
 10
147.1802999999999
 20
256.3081
 30
0.0
 11
150.7213
 21
264.9240999999999
 31
0.0
  0
LINE
  5
269
330
1E
100
AcDbEntity
  8
0
100
AcDbLine
 10
105.8
 20
260.6831
 30
0.0
 11
108.4999999999999
 21
254.0831
 31
0.0
  0
LINE
  5
26A
330
1E
100
AcDbEntity
  8
0
100
AcDbLine
 10
96.09999999999999
 20
261.0831
 30
0.0
 11
99.29999999999999
 21
256.9830999999999
 31
0.0
  0
LINE
  5
26C
330
1E
100
AcDbEntity
  8
0
100
AcDbLine
 10
66.5
 20
262.4830999999999
 30
0.0
 11
71.0
 21
266.0830999999999
 31
0.0
  0
LINE
  5
26E
330
1E
100
AcDbEntity
  8
0
100
AcDbLine
 10
97.5
 20
262.4830999999999
 30
0.0
 11
101.0999999999999
 21
257.9830999999999
 31
0.0
  0
LINE
  5
26F
330
1E
100
AcDbEntity
  8
0
100
AcDbLine
 10
157.4492
 20
261.1471
 30
0.0
 11
161.9344
 21
267.0491
 31
0.0
  0
LINE
  5
270
330
1E
100
AcDbEntity
  8
0
100
AcDbLine
 10
98.9
 20
263.8831
 30
0.0
 11
102.8
 21
258.9830999999999
 31
0.0
  0
LINE
  5
271
330
1E
100
AcDbEntity
  8
0
100
AcDbLine
 10
92.0
 20
264.2831
 30
0.0
 11
96.09999999999999
 21
261.0831
 31
0.0
  0
LINE
  5
272
330
1E
100
AcDbEntity
  8
0
100
AcDbLine
 10
72.0
 20
264.2831
 30
0.0
 11
76.79999999999999
 21
266.2831
 31
0.0
  0
LINE
  5
273
330
1E
100
AcDbEntity
  8
0
100
AcDbLine
 10
67.9
 20
261.0831
 30
0.0
 11
72.0
 21
264.2831
 31
0.0
  0
LINE
  5
274
330
1E
100
AcDbEntity
  8
0
100
AcDbLine
 10
65.09999999999999
 20
263.8831
 30
0.0
 11
70.0
 21
267.7830999999999
 31
0.0
  0
LINE
  5
275
330
1E
100
AcDbEntity
  8
0
100
AcDbLine
 10
58.2
 20
260.6831
 30
0.0
 11
62.6
 21
266.3831
 31
0.0
  0
LINE
  5
278
330
1E
100
AcDbEntity
  8
0
100
AcDbLine
 10
71.0
 20
266.0830999999999
 30
0.0
 11
76.29999999999999
 21
268.1831
 31
0.0
  0
LINE
  5
27A
330
1E
100
AcDbEntity
  8
0
100
AcDbLine
 10
93.0
 20
266.0830999999999
 30
0.0
 11
97.5
 21
262.4830999999999
 31
0.0
  0
LINE
  5
27B
330
1E
100
AcDbEntity
  8
0
100
AcDbLine
 10
101.4
 20
266.3831
 30
0.0
 11
105.8
 21
260.6831
 31
0.0
  0
LINE
  5
27C
330
1E
100
AcDbEntity
  8
0
100
AcDbLine
 10
87.2
 20
266.2831
 30
0.0
 11
92.0
 21
264.2831
 31
0.0
  0
LINE
  5
27D
330
1E
100
AcDbEntity
  8
0
100
AcDbLine
 10
76.79999999999999
 20
266.2831
 30
0.0
 11
82.0
 21
266.9830999999999
 31
0.0
  0
LINE
  5
280
330
1E
100
AcDbEntity
  8
0
100
AcDbLine
 10
82.0
 20
268.9830999999999
 30
0.0
 11
87.70000000000001
 21
268.1831
 31
0.0
  0
LINE
  5
281
330
1E
100
AcDbEntity
  8
0
100
AcDbLine
 10
76.29999999999999
 20
268.1831
 30
0.0
 11
82.0
 21
268.9830999999999
 31
0.0
  0
LINE
  5
283
330
1E
100
AcDbEntity
  8
0
100
AcDbLine
 10
87.70000000000001
 20
268.1831
 30
0.0
 11
93.0
 21
266.0830999999999
 31
0.0
  0
LINE
  5
284
330
1E
100
AcDbEntity
  8
0
100
AcDbLine
 10
88.2
 20
270.0830999999999
 30
0.0
 11
94.0
 21
267.7830999999999
 31
0.0
  0
LINE
  5
285
330
1E
100
AcDbEntity
  8
0
100
AcDbLine
 10
94.0
 20
267.7830999999999
 30
0.0
 11
98.9
 21
263.8831
 31
0.0
  0
LINE
  5
286
330
1E
100
AcDbEntity
  8
0
100
AcDbLine
 10
82.0
 20
266.9830999999999
 30
0.0
 11
87.2
 21
266.2831
 31
0.0
  0
LINE
  5
287
330
1E
100
AcDbEntity
  8
0
100
AcDbLine
 10
82.0
 20
270.9830999999999
 30
0.0
 11
88.2
 21
270.0830999999999
 31
0.0
  0
LINE
  5
288
330
1E
100
AcDbEntity
  8
0
100
AcDbLine
 10
89.1
 20
273.4830999999999
 30
0.0
 11
95.7
 21
270.7831
 31
0.0
  0
LINE
  5
289
330
1E
100
AcDbEntity
  8
0
100
AcDbLine
 10
95.7
 20
270.7831
 30
0.0
 11
101.4
 21
266.3831
 31
0.0
  0
LINE
  5
28A
330
1E
100
AcDbEntity
  8
0
100
AcDbLine
 10
75.8
 20
270.0830999999999
 30
0.0
 11
82.0
 21
270.9830999999999
 31
0.0
  0
LINE
  5
28B
330
1E
100
AcDbEntity
  8
0
100
AcDbLine
 10
70.0
 20
267.7830999999999
 30
0.0
 11
75.8
 21
270.0830999999999
 31
0.0
  0
LINE
  5
28C
330
1E
100
AcDbEntity
  8
0
100
AcDbLine
 10
82.0
 20
274.4831
 30
0.0
 11
89.1
 21
273.4830999999999
 31
0.0
  0
LINE
  5
28D
330
1E
100
AcDbEntity
  8
0
100
AcDbLine
 10
74.90000000000001
 20
273.4830999999999
 30
0.0
 11
82.0
 21
274.4831
 31
0.0
  0
LINE
  5
28E
330
1E
100
AcDbEntity
  8
0
100
AcDbLine
 10
68.3
 20
270.7831
 30
0.0
 11
74.90000000000001
 21
273.4830999999999
 31
0.0
  0
LINE
  5
28F
330
1E
100
AcDbEntity
  8
0
100
AcDbLine
 10
62.6
 20
266.3831
 30
0.0
 11
68.3
 21
270.7831
 31
0.0
  0
LINE
  5
290
330
1E
100
AcDbEntity
  8
0
100
AcDbLine
 10
161.9344
 20
267.0491
 30
0.0
 11
167.8360999999999
 21
271.5341
 31
0.0
  0
LINE
  5
292
330
1E
100
AcDbEntity
  8
0
100
AcDbLine
 10
156.5048999999999
 20
272.4780999999999
 30
0.0
 11
164.059
 21
278.2620999999999
 31
0.0
  0
LINE
  5
293
330
1E
100
AcDbEntity
  8
0
100
AcDbLine
 10
150.7213
 20
264.9240999999999
 30
0.0
 11
156.5048999999999
 21
272.4780999999999
 31
0.0
  0
LINE
  5
294
330
1E
100
AcDbEntity
  8
0
100
AcDbLine
 10
202.0659999999999
 20
267.0491
 30
0.0
 11
206.5509999999999
 21
261.1471
 31
0.0
  0
LINE
  5
295
330
1E
100
AcDbEntity
  8
0
100
AcDbLine
 10
206.5509999999999
 20
261.1471
 30
0.0
 11
209.384
 21
254.3010999999999
 31
0.0
  0
LINE
  5
298
330
1E
100
AcDbEntity
  8
0
100
AcDbLine
 10
200.4129999999999
 20
265.3960999999999
 30
0.0
 11
204.544
 21
259.9671
 31
0.0
  0
LINE
  5
299
330
1E
100
AcDbEntity
  8
0
100
AcDbLine
 10
194.984
 20
269.5271
 30
0.0
 11
200.4129999999999
 21
265.3960999999999
 31
0.0
  0
LINE
  5
29A
330
1E
100
AcDbEntity
  8
0
100
AcDbLine
 10
258.1999999999999
 20
260.6831
 30
0.0
 11
262.6
 21
266.3831
 31
0.0
  0
LINE
  5
29C
330
1E
100
AcDbEntity
  8
0
100
AcDbLine
 10
266.5
 20
262.4830999999999
 30
0.0
 11
271.0
 21
266.0830999999999
 31
0.0
  0
LINE
  5
29D
330
1E
100
AcDbEntity
  8
0
100
AcDbLine
 10
265.1
 20
263.8831
 30
0.0
 11
270.0
 21
267.7830999999999
 31
0.0
  0
LINE
  5
29E
330
1E
100
AcDbEntity
  8
0
100
AcDbLine
 10
267.8999999999999
 20
261.0831
 30
0.0
 11
272.0
 21
264.2831
 31
0.0
  0
LINE
  5
2A0
330
1E
100
AcDbEntity
  8
0
100
AcDbLine
 10
297.5
 20
262.4830999999999
 30
0.0
 11
301.1
 21
257.9830999999999
 31
0.0
  0
LINE
  5
2A1
330
1E
100
AcDbEntity
  8
0
100
AcDbLine
 10
296.1
 20
261.0831
 30
0.0
 11
299.3
 21
256.9830999999999
 31
0.0
  0
LINE
  5
2A2
330
1E
100
AcDbEntity
  8
0
100
AcDbLine
 10
272.0
 20
264.2831
 30
0.0
 11
276.8
 21
266.2831
 31
0.0
  0
LINE
  5
2A4
330
1E
100
AcDbEntity
  8
0
100
AcDbLine
 10
271.0
 20
266.0830999999999
 30
0.0
 11
276.3
 21
268.1831
 31
0.0
  0
LINE
  5
2A5
330
1E
100
AcDbEntity
  8
0
100
AcDbLine
 10
262.6
 20
266.3831
 30
0.0
 11
268.3
 21
270.7831
 31
0.0
  0
LINE
  5
2A6
330
1E
100
AcDbEntity
  8
0
100
AcDbLine
 10
276.8
 20
266.2831
 30
0.0
 11
282.0
 21
266.9830999999999
 31
0.0
  0
LINE
  5
2A8
330
1E
100
AcDbEntity
  8
0
100
AcDbLine
 10
276.3
 20
268.1831
 30
0.0
 11
282.0
 21
268.9830999999999
 31
0.0
  0
LINE
  5
2AA
330
1E
100
AcDbEntity
  8
0
100
AcDbLine
 10
282.0
 20
268.9830999999999
 30
0.0
 11
287.6999999999999
 21
268.1831
 31
0.0
  0
LINE
  5
2AB
330
1E
100
AcDbEntity
  8
0
100
AcDbLine
 10
270.0
 20
267.7830999999999
 30
0.0
 11
275.8
 21
270.0830999999999
 31
0.0
  0
LINE
  5
2AC
330
1E
100
AcDbEntity
  8
0
100
AcDbLine
 10
282.0
 20
266.9830999999999
 30
0.0
 11
287.1999999999999
 21
266.2831
 31
0.0
  0
LINE
  5
2AF
330
1E
100
AcDbEntity
  8
0
100
AcDbLine
 10
287.6999999999999
 20
268.1831
 30
0.0
 11
293.0
 21
266.0830999999999
 31
0.0
  0
LINE
  5
2B0
330
1E
100
AcDbEntity
  8
0
100
AcDbLine
 10
293.0
 20
266.0830999999999
 30
0.0
 11
297.5
 21
262.4830999999999
 31
0.0
  0
LINE
  5
2B1
330
1E
100
AcDbEntity
  8
0
100
AcDbLine
 10
287.1999999999999
 20
266.2831
 30
0.0
 11
292.0
 21
264.2831
 31
0.0
  0
LINE
  5
2B2
330
1E
100
AcDbEntity
  8
0
100
AcDbLine
 10
292.0
 20
264.2831
 30
0.0
 11
296.1
 21
261.0831
 31
0.0
  0
LINE
  5
2B3
330
1E
100
AcDbEntity
  8
0
100
AcDbLine
 10
294.0
 20
267.7830999999999
 30
0.0
 11
298.8999999999999
 21
263.8831
 31
0.0
  0
LINE
  5
2B4
330
1E
100
AcDbEntity
  8
0
100
AcDbLine
 10
298.8999999999999
 20
263.8831
 30
0.0
 11
302.8
 21
258.9830999999999
 31
0.0
  0
LINE
  5
2B5
330
1E
100
AcDbEntity
  8
0
100
AcDbLine
 10
301.3999999999999
 20
266.3831
 30
0.0
 11
305.8
 21
260.6831
 31
0.0
  0
LINE
  5
2B6
330
1E
100
AcDbEntity
  8
0
100
AcDbLine
 10
305.8
 20
260.6831
 30
0.0
 11
308.4999999999999
 21
254.0831
 31
0.0
  0
LINE
  5
2B7
330
1E
100
AcDbEntity
  8
0
100
AcDbLine
 10
213.279
 20
264.9240999999999
 30
0.0
 11
216.82
 21
256.3081
 31
0.0
  0
LINE
  5
2B8
330
1E
100
AcDbEntity
  8
0
100
AcDbLine
 10
167.8360999999999
 20
271.5341
 30
0.0
 11
174.682
 21
274.3670999999999
 31
0.0
  0
LINE
  5
2B9
330
1E
100
AcDbEntity
  8
0
100
AcDbLine
 10
174.682
 20
274.3670999999999
 30
0.0
 11
182.0
 21
275.3111
 31
0.0
  0
LINE
  5
2BC
330
1E
100
AcDbEntity
  8
0
100
AcDbLine
 10
172.6753999999999
 20
281.8030999999999
 30
0.0
 11
182.0
 21
282.9831
 31
0.0
  0
LINE
  5
2BD
330
1E
100
AcDbEntity
  8
0
100
AcDbLine
 10
164.059
 20
278.2620999999999
 30
0.0
 11
172.6753999999999
 21
281.8030999999999
 31
0.0
  0
LINE
  5
2BE
330
1E
100
AcDbEntity
  8
0
100
AcDbLine
 10
275.8
 20
270.0830999999999
 30
0.0
 11
282.0
 21
270.9830999999999
 31
0.0
  0
LINE
  5
2BF
330
1E
100
AcDbEntity
  8
0
100
AcDbLine
 10
288.2
 20
270.0830999999999
 30
0.0
 11
294.0
 21
267.7830999999999
 31
0.0
  0
LINE
  5
2C0
330
1E
100
AcDbEntity
  8
0
100
AcDbLine
 10
268.3
 20
270.7831
 30
0.0
 11
274.8999999999999
 21
273.4830999999999
 31
0.0
  0
LINE
  5
2C1
330
1E
100
AcDbEntity
  8
0
100
AcDbLine
 10
196.164
 20
271.5341
 30
0.0
 11
202.0659999999999
 21
267.0491
 31
0.0
  0
LINE
  5
2C2
330
1E
100
AcDbEntity
  8
0
100
AcDbLine
 10
282.0
 20
270.9830999999999
 30
0.0
 11
288.2
 21
270.0830999999999
 31
0.0
  0
LINE
  5
2C3
330
1E
100
AcDbEntity
  8
0
100
AcDbLine
 10
295.6999999999999
 20
270.7831
 30
0.0
 11
301.3999999999999
 21
266.3831
 31
0.0
  0
LINE
  5
2C5
330
1E
100
AcDbEntity
  8
0
100
AcDbLine
 10
188.7279999999999
 20
272.0061
 30
0.0
 11
194.984
 21
269.5271
 31
0.0
  0
LINE
  5
2C6
330
1E
100
AcDbEntity
  8
0
100
AcDbLine
 10
182.0
 20
275.3111
 30
0.0
 11
189.3179999999999
 21
274.3670999999999
 31
0.0
  0
LINE
  5
2C8
330
1E
100
AcDbEntity
  8
0
100
AcDbLine
 10
189.3179999999999
 20
274.3670999999999
 30
0.0
 11
196.164
 21
271.5341
 31
0.0
  0
LINE
  5
2CA
330
1E
100
AcDbEntity
  8
0
100
AcDbLine
 10
191.3249999999999
 20
281.8030999999999
 30
0.0
 11
199.9409999999999
 21
278.2620999999999
 31
0.0
  0
LINE
  5
2CB
330
1E
100
AcDbEntity
  8
0
100
AcDbLine
 10
182.0
 20
282.9831
 30
0.0
 11
191.3249999999999
 21
281.8030999999999
 31
0.0
  0
LINE
  5
2CC
330
1E
100
AcDbEntity
  8
0
100
AcDbLine
 10
182.0
 20
272.9501
 30
0.0
 11
188.7279999999999
 21
272.0061
 31
0.0
  0
LINE
  5
2CD
330
1E
100
AcDbEntity
  8
0
100
AcDbLine
 10
274.8999999999999
 20
273.4830999999999
 30
0.0
 11
282.0
 21
274.4831
 31
0.0
  0
LINE
  5
2CE
330
1E
100
AcDbEntity
  8
0
100
AcDbLine
 10
282.0
 20
274.4831
 30
0.0
 11
289.1
 21
273.4830999999999
 31
0.0
  0
LINE
  5
2CF
330
1E
100
AcDbEntity
  8
0
100
AcDbLine
 10
289.1
 20
273.4830999999999
 30
0.0
 11
295.6999999999999
 21
270.7831
 31
0.0
  0
LINE
  5
2D0
330
1E
100
AcDbEntity
  8
0
100
AcDbLine
 10
199.9409999999999
 20
278.2620999999999
 30
0.0
 11
207.495
 21
272.4780999999999
 31
0.0
  0
LINE
  5
2D1
330
1E
100
AcDbEntity
  8
0
100
AcDbLine
 10
207.495
 20
272.4780999999999
 30
0.0
 11
213.279
 21
264.9240999999999
 31
0.0
  0
LINE
  5
2D2
330
1E
100
AcDbEntity
  8
0
100
AcDbLine
 10
175.2721
 20
272.0061
 30
0.0
 11
182.0
 21
272.9501
 31
0.0
  0
LINE
  5
2D3
330
1E
100
AcDbEntity
  8
0
100
AcDbLine
 10
169.0164
 20
269.5271
 30
0.0
 11
175.2721
 21
272.0061
 31
0.0
  0
LINE
  5
2D4
330
1E
100
AcDbEntity
  8
0
100
AcDbLine
 10
163.5869
 20
265.3960999999999
 30
0.0
 11
169.0164
 21
269.5271
 31
0.0
  0
LINE
  5
2D5
330
1E
100
AcDbEntity
  8
0
100
AcDbLine
 10
159.4557
 20
259.9671
 30
0.0
 11
163.5869
 21
265.3960999999999
 31
0.0
  0
LINE
  5
2D6
330
1E
100
AcDbEntity
  8
0
100
AcDbLine
 10
353.3999999999999
 20
263.3831
 30
0.0
 11
358.6999999999999
 21
270.2830999999999
 31
0.0
  0
LINE
  5
2D7
330
1E
100
AcDbEntity
  8
0
100
AcDbLine
 10
350.1999999999999
 20
255.4831
 30
0.0
 11
353.3999999999999
 21
263.3831
 31
0.0
  0
LINE
  5
2D8
330
1E
100
AcDbEntity
  8
0
100
AcDbLine
 10
350.040189125296
 20
254.351106304177
 30
0.0
 11
350.1999999999999
 21
255.4831
 31
0.0
  0
LINE
  5
2D9
330
1E
100
AcDbEntity
  8
0
100
AcDbLine
 10
350.7519999999999
 20
264.8390999999999
 30
0.0
 11
356.5119999999999
 21
272.4710999999999
 31
0.0
  0
LINE
  5
2DA
330
1E
100
AcDbEntity
  8
0
100
AcDbLine
 10
351.6999999999999
 20
264.3831
 30
0.0
 11
357.3
 21
271.6831
 31
0.0
  0
LINE
  5
2DB
330
1E
100
AcDbEntity
  8
0
100
AcDbLine
 10
348.3
 20
255.9830999999999
 30
0.0
 11
351.6999999999999
 21
264.3831
 31
0.0
  0
LINE
  5
2DC
330
1E
100
AcDbEntity
  8
0
100
AcDbLine
 10
348.054707852624
 20
254.284923595087
 30
0.0
 11
348.3
 21
255.9830999999999
 31
0.0
  0
LINE
  5
2DD
330
1E
100
AcDbEntity
  8
0
100
AcDbLine
 10
358.6
 20
260.4830999999999
 30
0.0
 11
362.9
 21
266.0830999999999
 31
0.0
  0
LINE
  5
2DE
330
1E
100
AcDbEntity
  8
0
100
AcDbLine
 10
356.081081081081
 20
254.185802702703
 30
0.0
 11
358.6
 21
260.4830999999999
 31
0.0
  0
LINE
  5
2DF
330
1E
100
AcDbEntity
  8
0
100
AcDbLine
 10
368.5
 20
270.3831
 30
0.0
 11
375.0
 21
272.9830999999999
 31
0.0
  0
LINE
  5
2E0
330
1E
100
AcDbEntity
  8
0
100
AcDbLine
 10
362.9
 20
266.0830999999999
 30
0.0
 11
368.5
 21
270.3831
 31
0.0
  0
LINE
  5
2E1
330
1E
100
AcDbEntity
  8
0
100
AcDbLine
 10
358.6999999999999
 20
270.2830999999999
 30
0.0
 11
365.6
 21
275.5831
 31
0.0
  0
LINE
  5
2E2
330
1E
100
AcDbEntity
  8
0
100
AcDbLine
 10
364.144
 20
278.2311
 30
0.0
 11
372.784
 21
281.6870999999999
 31
0.0
  0
LINE
  5
2E3
330
1E
100
AcDbEntity
  8
0
100
AcDbLine
 10
356.5119999999999
 20
272.4710999999999
 30
0.0
 11
364.144
 21
278.2311
 31
0.0
  0
LINE
  5
2E4
330
1E
100
AcDbEntity
  8
0
100
AcDbLine
 10
375.0
 20
272.9830999999999
 30
0.0
 11
382.0
 21
273.9830999999999
 31
0.0
  0
LINE
  5
2E5
330
1E
100
AcDbEntity
  8
0
100
AcDbLine
 10
373.4999999999999
 20
278.7831
 30
0.0
 11
382.0
 21
279.9830999999999
 31
0.0
  0
LINE
  5
2E6
330
1E
100
AcDbEntity
  8
0
100
AcDbLine
 10
365.6
 20
275.5831
 30
0.0
 11
373.4999999999999
 21
278.7831
 31
0.0
  0
LINE
  5
2E7
330
1E
100
AcDbEntity
  8
0
100
AcDbLine
 10
372.784
 20
281.6870999999999
 30
0.0
 11
382.0
 21
282.9831
 31
0.0
  0
LINE
  5
2E8
330
1E
100
AcDbEntity
  8
0
100
AcDbLine
 10
373.0
 20
280.6831
 30
0.0
 11
382.0
 21
281.9830999999999
 31
0.0
  0
LINE
  5
2E9
330
1E
100
AcDbEntity
  8
0
100
AcDbLine
 10
364.6
 20
277.2831
 30
0.0
 11
373.0
 21
280.6831
 31
0.0
  0
LINE
  5
2EA
330
1E
100
AcDbEntity
  8
0
100
AcDbLine
 10
357.3
 20
271.6831
 30
0.0
 11
364.6
 21
277.2831
 31
0.0
  0
LINE
  5
2EB
330
1E
100
AcDbEntity
  8
0
100
AcDbLine
 10
354.0
 20
254.4831
 30
0.0
 11
357.5
 21
253.9830999999999
 31
0.0
  0
LINE
  5
2EC
330
1E
100
AcDbEntity
  8
0
100
AcDbLine
 10
19.0
 20
254.1831
 30
0.0
 11
32.0
 21
253.7831
 31
0.0
  0
LINE
  5
2ED
330
1E
100
AcDbEntity
  8
0
100
AcDbLine
 10
9.999999999999969
 20
254.4831
 30
0.0
 11
19.0
 21
254.1831
 31
0.0
  0
LINE
  5
2EE
330
1E
100
AcDbEntity
  8
0
100
AcDbLine
 10
6.499999999999969
 20
253.9830999999999
 30
0.0
 11
9.999999999999969
 21
254.4831
 31
0.0
  0
LINE
  5
2EF
330
1E
100
AcDbEntity
  8
0
100
AcDbLine
 10
3.99999999999997
 20
252.9831
 30
0.0
 11
6.499999999999969
 21
253.9830999999999
 31
0.0
  0
LINE
  5
2F0
330
1E
100
AcDbEntity
  8
0
100
AcDbLine
 10
1.999999999999969
 20
251.4831
 30
0.0
 11
3.99999999999997
 21
252.9831
 31
0.0
  0
LINE
  5
2F1
330
1E
100
AcDbEntity
  8
0
100
AcDbLine
 10
0.4999999999999661
 20
249.4831
 30
0.0
 11
1.999999999999969
 21
251.4831
 31
0.0
  0
LINE
  5
2F2
330
1E
100
AcDbEntity
  8
0
100
AcDbLine
 10
-0.0000000000000339
 20
246.9831
 30
0.0
 11
0.4999999999999661
 21
244.4831
 31
0.0
  0
LINE
  5
2F3
330
1E
100
AcDbEntity
  8
0
100
AcDbLine
 10
-0.0000000000000339
 20
246.9831
 30
0.0
 11
0.4999999999999661
 21
249.4831
 31
0.0
  0
LINE
  5
2F4
330
1E
100
AcDbEntity
  8
0
100
AcDbLine
 10
382.0
 20
20.98781
 30
0.0
 11
394.8999999999999
 21
20.98781
 31
0.0
  0
LINE
  5
2F5
330
1E
100
AcDbEntity
  8
0
100
AcDbLine
 10
382.0
 20
22.5328
 30
0.0
 11
391.8
 21
23.86439999999999
 31
0.0
  0
LINE
  5
2F6
330
1E
100
AcDbEntity
  8
0
100
AcDbLine
 10
387.8999999999999
 20
86.0716
 30
0.0
 11
388.8999999999999
 21
87.09889999999999
 31
0.0
  0
LINE
  5
2F7
330
1E
100
AcDbEntity
  8
0
100
AcDbLine
 10
388.8999999999999
 20
87.09889999999999
 30
0.0
 11
389.6999999999999
 21
88.2545
 31
0.0
  0
LINE
  5
2F8
330
1E
100
AcDbEntity
  8
0
100
AcDbLine
 10
390.0
 20
89.4743
 30
0.0
 11
390.0
 21
100.8871
 31
0.0
  0
LINE
  5
2F9
330
1E
100
AcDbEntity
  8
0
100
AcDbLine
 10
389.6999999999999
 20
88.2545
 30
0.0
 11
390.0
 21
89.4743
 31
0.0
  0
LINE
  5
2FA
330
1E
100
AcDbEntity
  8
0
100
AcDbLine
 10
384.1
 20
116.8441
 30
0.0
 11
386.0
 21
116.4090999999999
 31
0.0
  0
LINE
  5
2FB
330
1E
100
AcDbEntity
  8
0
100
AcDbLine
 10
386.0
 20
116.4090999999999
 30
0.0
 11
387.6
 21
115.7001
 31
0.0
  0
LINE
  5
2FC
330
1E
100
AcDbEntity
  8
0
100
AcDbLine
 10
387.6
 20
115.7001
 30
0.0
 11
388.8999999999999
 21
114.8290999999999
 31
0.0
  0
LINE
  5
2FD
330
1E
100
AcDbEntity
  8
0
100
AcDbLine
 10
388.8999999999999
 20
114.8290999999999
 30
0.0
 11
389.6999999999999
 21
113.7401
 31
0.0
  0
LINE
  5
2FE
330
1E
100
AcDbEntity
  8
0
100
AcDbLine
 10
389.6999999999999
 20
113.7401
 30
0.0
 11
390.0
 21
112.6511
 31
0.0
  0
LINE
  5
2FF
330
1E
100
AcDbEntity
  8
0
100
AcDbLine
 10
390.0
 20
112.6511
 30
0.0
 11
390.0
 21
100.8871
 31
0.0
  0
LINE
  5
300
330
1E
100
AcDbEntity
  8
0
100
AcDbLine
 10
390.0
 20
112.6511
 30
0.0
 11
390.0
 21
124.3141
 31
0.0
  0
LINE
  5
301
330
1E
100
AcDbEntity
  8
0
100
AcDbLine
 10
390.0
 20
100.8871
 30
0.0
 11
390.0
 21
89.4743
 31
0.0
  0
LINE
  5
302
330
1E
100
AcDbEntity
  8
0
100
AcDbLine
 10
390.0
 20
100.8871
 30
0.0
 11
390.0
 21
112.6511
 31
0.0
  0
LINE
  5
303
330
1E
100
AcDbEntity
  8
0
100
AcDbLine
 10
390.0
 20
93.72634285714291
 30
0.0
 11
391.8
 21
93.48180000000001
 31
0.0
  0
LINE
  5
304
330
1E
100
AcDbEntity
  8
0
100
AcDbLine
 10
391.8
 20
23.86439999999999
 30
0.0
 11
400.8999999999999
 21
27.38329999999999
 31
0.0
  0
LINE
  5
305
330
1E
100
AcDbEntity
  8
0
100
AcDbLine
 10
391.8
 20
93.48180000000001
 30
0.0
 11
400.8999999999999
 21
89.9629
 31
0.0
  0
LINE
  5
306
330
1E
100
AcDbEntity
  8
0
100
AcDbLine
 10
391.8
 20
93.48180000000001
 30
0.0
 11
394.8999999999999
 21
93.2681
 31
0.0
  0
LINE
  5
307
330
1E
100
AcDbEntity
  8
0
100
AcDbLine
 10
390.0
 20
145.7170999999999
 30
0.0
 11
390.0
 21
134.7060999999999
 31
0.0
  0
LINE
  5
308
330
1E
100
AcDbEntity
  8
0
100
AcDbLine
 10
390.0
 20
145.7170999999999
 30
0.0
 11
390.5
 21
154.7250999999999
 31
0.0
  0
LINE
  5
309
330
1E
100
AcDbEntity
  8
0
100
AcDbLine
 10
390.0
 20
134.7060999999999
 30
0.0
 11
390.0
 21
124.3141
 31
0.0
  0
LINE
  5
30A
330
1E
100
AcDbEntity
  8
0
100
AcDbLine
 10
390.0
 20
134.7060999999999
 30
0.0
 11
390.0
 21
145.7170999999999
 31
0.0
  0
LINE
  5
30B
330
1E
100
AcDbEntity
  8
0
100
AcDbLine
 10
393.2
 20
196.5920999999999
 30
0.0
 11
393.2
 21
202.4301
 31
0.0
  0
LINE
  5
30C
330
1E
100
AcDbEntity
  8
0
100
AcDbLine
 10
393.2
 20
202.4301
 30
0.0
 11
393.2
 21
196.5920999999999
 31
0.0
  0
LINE
  5
30D
330
1E
100
AcDbEntity
  8
0
100
AcDbLine
 10
393.0
 20
191.0901
 30
0.0
 11
393.2
 21
196.5920999999999
 31
0.0
  0
LINE
  5
30E
330
1E
100
AcDbEntity
  8
0
100
AcDbLine
 10
392.8
 20
184.9700999999999
 30
0.0
 11
393.0
 21
191.0901
 31
0.0
  0
LINE
  5
30F
330
1E
100
AcDbEntity
  8
0
100
AcDbLine
 10
392.3
 20
178.2351
 30
0.0
 11
392.8
 21
184.9700999999999
 31
0.0
  0
LINE
  5
310
330
1E
100
AcDbEntity
  8
0
100
AcDbLine
 10
391.6999999999999
 20
171.3020999999999
 30
0.0
 11
392.3
 21
178.2351
 31
0.0
  0
LINE
  5
311
330
1E
100
AcDbEntity
  8
0
100
AcDbLine
 10
391.0
 20
163.7110999999999
 30
0.0
 11
391.6999999999999
 21
171.3020999999999
 31
0.0
  0
LINE
  5
312
330
1E
100
AcDbEntity
  8
0
100
AcDbLine
 10
390.5
 20
154.7250999999999
 30
0.0
 11
391.0
 21
163.7110999999999
 31
0.0
  0
LINE
  5
313
330
1E
100
AcDbEntity
  8
0
100
AcDbLine
 10
390.0
 20
124.3141
 30
0.0
 11
390.0
 21
112.6511
 31
0.0
  0
LINE
  5
314
330
1E
100
AcDbEntity
  8
0
100
AcDbLine
 10
390.0
 20
124.3141
 30
0.0
 11
390.0
 21
134.7060999999999
 31
0.0
  0
LINE
  5
315
330
1E
100
AcDbEntity
  8
0
100
AcDbLine
 10
393.0
 20
208.8581
 30
0.0
 11
393.0
 21
206.8721
 31
0.0
  0
LINE
  5
316
330
1E
100
AcDbEntity
  8
0
100
AcDbLine
 10
393.0
 20
206.8721
 30
0.0
 11
393.2
 21
202.4301
 31
0.0
  0
LINE
  5
317
330
1E
100
AcDbEntity
  8
0
100
AcDbLine
 10
393.0
 20
206.8721
 30
0.0
 11
393.0
 21
208.8581
 31
0.0
  0
LINE
  5
319
330
1E
100
AcDbEntity
  8
0
100
AcDbLine
 10
392.3999999999999
 20
213.4510999999999
 30
0.0
 11
393.6
 21
211.4790999999999
 31
0.0
  0
LINE
  5
31A
330
1E
100
AcDbEntity
  8
0
100
AcDbLine
 10
391.5
 20
212.4961
 30
0.0
 11
392.6
 21
210.7890999999999
 31
0.0
  0
LINE
  5
31B
330
1E
100
AcDbEntity
  8
0
100
AcDbLine
 10
393.6
 20
211.4790999999999
 30
0.0
 11
394.0
 21
209.3741
 31
0.0
  0
LINE
  5
31C
330
1E
100
AcDbEntity
  8
0
100
AcDbLine
 10
392.6
 20
210.7890999999999
 30
0.0
 11
393.0
 21
208.8581
 31
0.0
  0
LINE
  5
31D
330
1E
100
AcDbEntity
  8
0
100
AcDbLine
 10
393.6
 20
207.3161
 30
0.0
 11
394.0
 21
209.3741
 31
0.0
  0
LINE
  5
31E
330
1E
100
AcDbEntity
  8
0
100
AcDbLine
 10
393.0218739066549
 20
206.386280533203
 30
0.0
 11
393.6
 21
207.3161
 31
0.0
  0
LINE
  5
31F
330
1E
100
AcDbEntity
  8
0
100
AcDbLine
 10
382.0
 20
117.0080999999999
 30
0.0
 11
384.1
 21
116.8441
 31
0.0
  0
LINE
  5
320
330
1E
100
AcDbEntity
  8
0
100
AcDbLine
 10
379.8999999999999
 20
116.8441
 30
0.0
 11
382.0
 21
117.0080999999999
 31
0.0
  0
LINE
  5
321
330
1E
100
AcDbEntity
  8
0
100
AcDbLine
 10
378.0
 20
116.4090999999999
 30
0.0
 11
379.8999999999999
 21
116.8441
 31
0.0
  0
LINE
  5
322
330
1E
100
AcDbEntity
  8
0
100
AcDbLine
 10
384.8
 20
215.9161
 30
0.0
 11
387.5
 21
215.2581
 31
0.0
  0
LINE
  5
323
330
1E
100
AcDbEntity
  8
0
100
AcDbLine
 10
387.5
 20
215.2581
 30
0.0
 11
389.8
 21
214.0760999999999
 31
0.0
  0
LINE
  5
326
330
1E
100
AcDbEntity
  8
0
100
AcDbLine
 10
390.5
 20
215.2070999999999
 30
0.0
 11
392.3999999999999
 21
213.4510999999999
 31
0.0
  0
LINE
  5
327
330
1E
100
AcDbEntity
  8
0
100
AcDbLine
 10
389.8
 20
214.0760999999999
 30
0.0
 11
391.5
 21
212.4961
 31
0.0
  0
LINE
  5
328
330
1E
100
AcDbEntity
  8
0
100
AcDbLine
 10
382.0
 20
216.2240999999999
 30
0.0
 11
384.8
 21
215.9161
 31
0.0
  0
LINE
  5
329
330
1E
100
AcDbEntity
  8
0
100
AcDbLine
 10
388.0
 20
216.4801
 30
0.0
 11
390.5
 21
215.2070999999999
 31
0.0
  0
LINE
  5
32A
330
1E
100
AcDbEntity
  8
0
100
AcDbLine
 10
379.1999999999999
 20
215.9161
 30
0.0
 11
382.0
 21
216.2240999999999
 31
0.0
  0
LINE
  5
32B
330
1E
100
AcDbEntity
  8
0
100
AcDbLine
 10
392.3999999999999
 20
215.7830999999999
 30
0.0
 11
393.6
 21
213.5831
 31
0.0
  0
LINE
  5
32C
330
1E
100
AcDbEntity
  8
0
100
AcDbLine
 10
393.6
 20
213.5831
 30
0.0
 11
394.0
 21
211.1831
 31
0.0
  0
LINE
  5
32D
330
1E
100
AcDbEntity
  8
0
100
AcDbLine
 10
394.0
 20
209.3741
 30
0.0
 11
394.0
 21
209.9781
 31
0.0
  0
LINE
  5
32E
330
1E
100
AcDbEntity
  8
0
100
AcDbLine
 10
394.0
 20
209.9781
 30
0.0
 11
394.0
 21
209.3741
 31
0.0
  0
LINE
  5
32F
330
1E
100
AcDbEntity
  8
0
100
AcDbLine
 10
394.0
 20
213.3926999999999
 30
0.0
 11
399.8559999999999
 21
215.7350999999999
 31
0.0
  0
LINE
  5
330
330
1E
100
AcDbEntity
  8
0
100
AcDbLine
 10
394.0
 20
211.1831
 30
0.0
 11
394.0
 21
233.0830999999999
 31
0.0
  0
LINE
  5
331
330
1E
100
AcDbEntity
  8
0
100
AcDbLine
 10
394.0
 20
209.9781
 30
0.0
 11
394.0
 21
211.1831
 31
0.0
  0
LINE
  5
332
330
1E
100
AcDbEntity
  8
0
100
AcDbLine
 10
394.0
 20
216.600821518987
 30
0.0
 11
398.3999999999999
 21
218.3831
 31
0.0
  0
LINE
  5
333
330
1E
100
AcDbEntity
  8
0
100
AcDbLine
 10
394.8999999999999
 20
20.98781
 30
0.0
 11
401.9
 21
24.2214
 31
0.0
  0
LINE
  5
334
330
1E
100
AcDbEntity
  8
0
100
AcDbLine
 10
401.9
 20
24.2214
 30
0.0
 11
410.2
 21
30.3082
 31
0.0
  0
LINE
  5
335
330
1E
100
AcDbEntity
  8
0
100
AcDbLine
 10
400.8999999999999
 20
27.38329999999999
 30
0.0
 11
408.8
 21
33.1848
 31
0.0
  0
LINE
  5
336
330
1E
100
AcDbEntity
  8
0
100
AcDbLine
 10
399.8559999999999
 20
215.7350999999999
 30
0.0
 11
407.488
 21
221.4951
 31
0.0
  0
LINE
  5
337
330
1E
100
AcDbEntity
  8
0
100
AcDbLine
 10
394.8999999999999
 20
93.2681
 30
0.0
 11
401.9
 21
90.0346
 31
0.0
  0
LINE
  5
338
330
1E
100
AcDbEntity
  8
0
100
AcDbLine
 10
401.9
 20
90.0346
 30
0.0
 11
410.2
 21
83.9478
 31
0.0
  0
LINE
  5
339
330
1E
100
AcDbEntity
  8
0
100
AcDbLine
 10
400.8999999999999
 20
89.9629
 30
0.0
 11
408.8
 21
84.1614
 31
0.0
  0
LINE
  5
33A
330
1E
100
AcDbEntity
  8
0
100
AcDbLine
 10
394.0
 20
214.497385714286
 30
0.0
 11
399.3999999999999
 21
216.6831
 31
0.0
  0
LINE
  5
33C
330
1E
100
AcDbEntity
  8
0
100
AcDbLine
 10
385.1
 20
217.3111
 30
0.0
 11
388.0
 21
216.4801
 31
0.0
  0
LINE
  5
33D
330
1E
100
AcDbEntity
  8
0
100
AcDbLine
 10
382.0
 20
217.5301
 30
0.0
 11
385.1
 21
217.3111
 31
0.0
  0
LINE
  5
33E
330
1E
100
AcDbEntity
  8
0
100
AcDbLine
 10
378.8999999999999
 20
217.3111
 30
0.0
 11
382.0
 21
217.5301
 31
0.0
  0
LINE
  5
33F
330
1E
100
AcDbEntity
  8
0
100
AcDbLine
 10
390.5
 20
217.6830999999999
 30
0.0
 11
392.3999999999999
 21
215.7830999999999
 31
0.0
  0
LINE
  5
340
330
1E
100
AcDbEntity
  8
0
100
AcDbLine
 10
382.0
 20
220.3831
 30
0.0
 11
385.1
 21
220.0830999999999
 31
0.0
  0
LINE
  5
341
330
1E
100
AcDbEntity
  8
0
100
AcDbLine
 10
385.1
 20
220.0830999999999
 30
0.0
 11
388.0
 21
219.1831
 31
0.0
  0
LINE
  5
342
330
1E
100
AcDbEntity
  8
0
100
AcDbLine
 10
394.0
 20
222.9831
 30
0.0
 11
395.5
 21
223.5831
 31
0.0
  0
LINE
  5
343
330
1E
100
AcDbEntity
  8
0
100
AcDbLine
 10
388.0
 20
219.1831
 30
0.0
 11
390.5
 21
217.6830999999999
 31
0.0
  0
LINE
  5
344
330
1E
100
AcDbEntity
  8
0
100
AcDbLine
 10
401.1
 20
227.8831
 30
0.0
 11
405.4
 21
233.4831
 31
0.0
  0
LINE
  5
345
330
1E
100
AcDbEntity
  8
0
100
AcDbLine
 10
395.5
 20
223.5831
 30
0.0
 11
401.1
 21
227.8831
 31
0.0
  0
LINE
  5
346
330
1E
100
AcDbEntity
  8
0
100
AcDbLine
 10
378.8999999999999
 20
220.0830999999999
 30
0.0
 11
382.0
 21
220.3831
 31
0.0
  0
LINE
  5
347
330
1E
100
AcDbEntity
  8
0
100
AcDbLine
 10
398.3999999999999
 20
218.3831
 30
0.0
 11
405.2999999999999
 21
223.6831
 31
0.0
  0
LINE
  5
348
330
1E
100
AcDbEntity
  8
0
100
AcDbLine
 10
405.2999999999999
 20
223.6831
 30
0.0
 11
410.5999999999999
 21
230.5830999999999
 31
0.0
  0
LINE
  5
349
330
1E
100
AcDbEntity
  8
0
100
AcDbLine
 10
399.3999999999999
 20
216.6831
 30
0.0
 11
406.7
 21
222.2830999999999
 31
0.0
  0
LINE
  5
34A
330
1E
100
AcDbEntity
  8
0
100
AcDbLine
 10
410.2
 20
30.3082
 30
0.0
 11
416.6
 21
38.2019
 31
0.0
  0
LINE
  5
34B
330
1E
100
AcDbEntity
  8
0
100
AcDbLine
 10
410.2
 20
83.9478
 30
0.0
 11
416.6
 21
76.0541
 31
0.0
  0
LINE
  5
34C
330
1E
100
AcDbEntity
  8
0
100
AcDbLine
 10
408.8
 20
33.1848
 30
0.0
 11
414.9
 21
40.69809999999999
 31
0.0
  0
LINE
  5
34D
330
1E
100
AcDbEntity
  8
0
100
AcDbLine
 10
407.488
 20
221.4951
 30
0.0
 11
413.248
 21
229.1271
 31
0.0
  0
LINE
  5
34E
330
1E
100
AcDbEntity
  8
0
100
AcDbLine
 10
413.248
 20
229.1271
 30
0.0
 11
416.704
 21
237.7670999999999
 31
0.0
  0
LINE
  5
34F
330
1E
100
AcDbEntity
  8
0
100
AcDbLine
 10
408.8
 20
84.1614
 30
0.0
 11
414.9
 21
76.6481
 31
0.0
  0
LINE
  5
350
330
1E
100
AcDbEntity
  8
0
100
AcDbLine
 10
406.7
 20
222.2830999999999
 30
0.0
 11
412.3
 21
229.5831
 31
0.0
  0
LINE
  5
351
330
1E
100
AcDbEntity
  8
0
100
AcDbLine
 10
394.0
 20
233.0830999999999
 30
0.0
 11
394.0
 21
211.1831
 31
0.0
  0
LINE
  5
352
330
1E
100
AcDbEntity
  8
0
100
AcDbLine
 10
405.4
 20
233.4831
 30
0.0
 11
408.0
 21
239.9831
 31
0.0
  0
LINE
  5
353
330
1E
100
AcDbEntity
  8
0
100
AcDbLine
 10
382.0
 20
243.8830999999999
 30
0.0
 11
385.1
 21
243.4830999999999
 31
0.0
  0
LINE
  5
354
330
1E
100
AcDbEntity
  8
0
100
AcDbLine
 10
385.1
 20
243.4830999999999
 30
0.0
 11
388.0
 21
242.3831
 31
0.0
  0
LINE
  5
355
330
1E
100
AcDbEntity
  8
0
100
AcDbLine
 10
388.0
 20
242.3831
 30
0.0
 11
390.5
 21
240.6830999999999
 31
0.0
  0
LINE
  5
356
330
1E
100
AcDbEntity
  8
0
100
AcDbLine
 10
390.5
 20
240.6830999999999
 30
0.0
 11
392.3999999999999
 21
238.3831
 31
0.0
  0
LINE
  5
357
330
1E
100
AcDbEntity
  8
0
100
AcDbLine
 10
408.0
 20
253.9830999999999
 30
0.0
 11
409.0
 21
246.9831
 31
0.0
  0
LINE
  5
358
330
1E
100
AcDbEntity
  8
0
100
AcDbLine
 10
408.0
 20
239.9831
 30
0.0
 11
409.0
 21
246.9831
 31
0.0
  0
LINE
  5
359
330
1E
100
AcDbEntity
  8
0
100
AcDbLine
 10
392.3999999999999
 20
238.3831
 30
0.0
 11
393.6
 21
235.8831
 31
0.0
  0
LINE
  5
35A
330
1E
100
AcDbEntity
  8
0
100
AcDbLine
 10
393.6
 20
235.8831
 30
0.0
 11
394.0
 21
233.0830999999999
 31
0.0
  0
LINE
  5
35B
330
1E
100
AcDbEntity
  8
0
100
AcDbLine
 10
378.8999999999999
 20
243.4830999999999
 30
0.0
 11
382.0
 21
243.8830999999999
 31
0.0
  0
LINE
  5
35C
330
1E
100
AcDbEntity
  8
0
100
AcDbLine
 10
410.5999999999999
 20
230.5830999999999
 30
0.0
 11
413.7999999999999
 21
238.4831
 31
0.0
  0
LINE
  5
35D
330
1E
100
AcDbEntity
  8
0
100
AcDbLine
 10
413.7999999999999
 20
238.4831
 30
0.0
 11
415.0
 21
246.9831
 31
0.0
  0
LINE
  5
35E
330
1E
100
AcDbEntity
  8
0
100
AcDbLine
 10
412.3
 20
229.5831
 30
0.0
 11
415.7
 21
237.9831
 31
0.0
  0
LINE
  5
35F
330
1E
100
AcDbEntity
  8
0
100
AcDbLine
 10
416.6
 20
38.2019
 30
0.0
 11
420.0
 21
44.85929999999999
 31
0.0
  0
LINE
  5
360
330
1E
100
AcDbEntity
  8
0
100
AcDbLine
 10
416.6
 20
76.0541
 30
0.0
 11
420.0
 21
69.3966
 31
0.0
  0
LINE
  5
361
330
1E
100
AcDbEntity
  8
0
100
AcDbLine
 10
414.9
 20
40.69809999999999
 30
0.0
 11
418.5999999999999
 21
49.3527
 31
0.0
  0
LINE
  5
362
330
1E
100
AcDbEntity
  8
0
100
AcDbLine
 10
418.5999999999999
 20
49.3527
 30
0.0
 11
420.0
 21
58.67309999999999
 31
0.0
  0
LINE
  5
363
330
1E
100
AcDbEntity
  8
0
100
AcDbLine
 10
416.704
 20
237.7670999999999
 30
0.0
 11
418.0
 21
246.9831
 31
0.0
  0
LINE
  5
364
330
1E
100
AcDbEntity
  8
0
100
AcDbLine
 10
414.9
 20
76.6481
 30
0.0
 11
418.5999999999999
 21
67.99339999999999
 31
0.0
  0
LINE
  5
365
330
1E
100
AcDbEntity
  8
0
100
AcDbLine
 10
420.0
 20
57.128
 30
0.0
 11
420.0
 21
44.85929999999999
 31
0.0
  0
LINE
  5
366
330
1E
100
AcDbEntity
  8
0
100
AcDbLine
 10
420.0
 20
44.85929999999999
 30
0.0
 11
420.0
 21
69.3966
 31
0.0
  0
LINE
  5
367
330
1E
100
AcDbEntity
  8
0
100
AcDbLine
 10
418.5999999999999
 20
67.99339999999999
 30
0.0
 11
420.0
 21
58.67309999999999
 31
0.0
  0
LINE
  5
368
330
1E
100
AcDbEntity
  8
0
100
AcDbLine
 10
415.7
 20
237.9831
 30
0.0
 11
417.0
 21
246.9831
 31
0.0
  0
LINE
  5
369
330
1E
100
AcDbEntity
  8
0
100
AcDbLine
 10
413.7999999999999
 20
255.4831
 30
0.0
 11
415.0
 21
246.9831
 31
0.0
  0
LINE
  5
36A
330
1E
100
AcDbEntity
  8
0
100
AcDbLine
 10
401.1
 20
266.0830999999999
 30
0.0
 11
405.4
 21
260.4830999999999
 31
0.0
  0
LINE
  5
36B
330
1E
100
AcDbEntity
  8
0
100
AcDbLine
 10
405.4
 20
260.4830999999999
 30
0.0
 11
408.0
 21
253.9830999999999
 31
0.0
  0
LINE
  5
36C
330
1E
100
AcDbEntity
  8
0
100
AcDbLine
 10
395.5
 20
270.3831
 30
0.0
 11
401.1
 21
266.0830999999999
 31
0.0
  0
LINE
  5
36D
330
1E
100
AcDbEntity
  8
0
100
AcDbLine
 10
405.2999999999999
 20
270.2830999999999
 30
0.0
 11
410.5999999999999
 21
263.3831
 31
0.0
  0
LINE
  5
36E
330
1E
100
AcDbEntity
  8
0
100
AcDbLine
 10
410.5999999999999
 20
263.3831
 30
0.0
 11
413.7999999999999
 21
255.4831
 31
0.0
  0
LINE
  5
36F
330
1E
100
AcDbEntity
  8
0
100
AcDbLine
 10
382.0
 20
273.9830999999999
 30
0.0
 11
389.0
 21
272.9830999999999
 31
0.0
  0
LINE
  5
370
330
1E
100
AcDbEntity
  8
0
100
AcDbLine
 10
389.0
 20
272.9830999999999
 30
0.0
 11
395.5
 21
270.3831
 31
0.0
  0
LINE
  5
371
330
1E
100
AcDbEntity
  8
0
100
AcDbLine
 10
382.0
 20
279.9830999999999
 30
0.0
 11
390.5
 21
278.7831
 31
0.0
  0
LINE
  5
372
330
1E
100
AcDbEntity
  8
0
100
AcDbLine
 10
390.5
 20
278.7831
 30
0.0
 11
398.3999999999999
 21
275.5831
 31
0.0
  0
LINE
  5
373
330
1E
100
AcDbEntity
  8
0
100
AcDbLine
 10
398.3999999999999
 20
275.5831
 30
0.0
 11
405.2999999999999
 21
270.2830999999999
 31
0.0
  0
LINE
  5
374
330
1E
100
AcDbEntity
  8
0
100
AcDbLine
 10
382.0
 20
282.9831
 30
0.0
 11
391.216
 21
281.6870999999999
 31
0.0
  0
LINE
  5
375
330
1E
100
AcDbEntity
  8
0
100
AcDbLine
 10
391.216
 20
281.6870999999999
 30
0.0
 11
399.8559999999999
 21
278.2311
 31
0.0
  0
LINE
  5
376
330
1E
100
AcDbEntity
  8
0
100
AcDbLine
 10
382.0
 20
281.9830999999999
 30
0.0
 11
391.0
 21
280.6831
 31
0.0
  0
LINE
  5
377
330
1E
100
AcDbEntity
  8
0
100
AcDbLine
 10
391.0
 20
280.6831
 30
0.0
 11
399.3999999999999
 21
277.2831
 31
0.0
  0
LINE
  5
378
330
1E
100
AcDbEntity
  8
0
100
AcDbLine
 10
399.8559999999999
 20
278.2311
 30
0.0
 11
407.488
 21
272.4710999999999
 31
0.0
  0
LINE
  5
379
330
1E
100
AcDbEntity
  8
0
100
AcDbLine
 10
407.488
 20
272.4710999999999
 30
0.0
 11
413.248
 21
264.8390999999999
 31
0.0
  0
LINE
  5
37A
330
1E
100
AcDbEntity
  8
0
100
AcDbLine
 10
399.3999999999999
 20
277.2831
 30
0.0
 11
406.7
 21
271.6831
 31
0.0
  0
LINE
  5
37B
330
1E
100
AcDbEntity
  8
0
100
AcDbLine
 10
406.7
 20
271.6831
 30
0.0
 11
412.3
 21
264.3831
 31
0.0
  0
LINE
  5
37C
330
1E
100
AcDbEntity
  8
0
100
AcDbLine
 10
413.248
 20
264.8390999999999
 30
0.0
 11
416.704
 21
256.1990999999999
 31
0.0
  0
LINE
  5
37D
330
1E
100
AcDbEntity
  8
0
100
AcDbLine
 10
416.704
 20
256.1990999999999
 30
0.0
 11
418.0
 21
246.9831
 31
0.0
  0
LINE
  5
37E
330
1E
100
AcDbEntity
  8
0
100
AcDbLine
 10
412.3
 20
264.3831
 30
0.0
 11
415.7
 21
255.9830999999999
 31
0.0
  0
LINE
  5
37F
330
1E
100
AcDbEntity
  8
0
100
AcDbLine
 10
415.7
 20
255.9830999999999
 30
0.0
 11
417.0
 21
246.9831
 31
0.0
  0
LINE
  5
385
330
1E
100
AcDbEntity
  8
0
100
AcDbLine
 10
99.29999999999999
 20
256.9830999999999
 30
0.0
 11
101.2999999999999
 21
252.1831
 31
0.0
  0
LINE
  5
386
330
1E
100
AcDbEntity
  8
0
100
AcDbLine
 10
164.0
 20
228.255795533659
 30
0.0
 11
159.4557
 21
233.9990999999999
 31
0.0
  0
LINE
  5
387
330
1E
100
AcDbEntity
  8
0
100
AcDbLine
 10
376.1
 20
86.0716
 30
0.0
 11
377.3965678478557
 21
85.26394077214252
 31
0.0
  0
LINE
  5
388
330
1E
100
AcDbEntity
  8
0
100
AcDbLine
 10
377.3965678478557
 20
85.26394077214252
 30
0.0
 11
378.7599179049782
 21
84.82035404918111
 31
0.0
  0
LINE
  5
389
330
1E
100
AcDbEntity
  8
0
100
AcDbLine
 10
378.7599179049782
 20
84.82035404918111
 30
0.0
 11
380.6305609103588
 21
84.56687601661554
 31
0.0
  0
LINE
  5
38A
330
1E
100
AcDbEntity
  8
0
100
AcDbLine
 10
380.6305609103588
 20
84.56687601661554
 30
0.0
 11
382.8816732820257
 21
84.53519134553074
 31
0.0
  0
LINE
  5
38B
330
1E
100
AcDbEntity
  8
0
100
AcDbLine
 10
382.8816732820257
 20
84.53519134553074
 30
0.0
 11
385.1961974446783
 21
84.85203872026591
 31
0.0
  0
LINE
  5
38C
330
1E
100
AcDbEntity
  8
0
100
AcDbLine
 10
385.1961974446783
 20
84.85203872026591
 30
0.0
 11
386.8766050771018
 21
85.45404946253848
 31
0.0
  0
LINE
  5
38D
330
1E
100
AcDbEntity
  8
0
100
AcDbLine
 10
386.8766050771018
 20
85.45404946253848
 30
0.0
 11
387.8999999999999
 21
86.0716
 31
0.0
  0
ENDSEC
  0
SECTION
  2
OBJECTS
  0
DICTIONARY
  5
C
330
0
100
AcDbDictionary
281
     1
  3
ACAD_GROUP
350
D
  3
ACAD_LAYOUT
350
19
  3
ACAD_MLINESTYLE
350
16
  3
ACAD_PLOTSETTINGS
350
18
  3
ACAD_PLOTSTYLENAME
350
E
  3
AcDbVariableDictionary
350
38E
  0
DICTIONARY
  5
D
102
{ACAD_REACTORS
330
C
102
}
330
C
100
AcDbDictionary
281
     1
  0
DICTIONARY
  5
19
102
{ACAD_REACTORS
330
C
102
}
330
C
100
AcDbDictionary
281
     1
  3
Layout1
350
1D
  3
Model
350
21
  0
DICTIONARY
  5
16
102
{ACAD_REACTORS
330
C
102
}
330
C
100
AcDbDictionary
281
     1
  3
Standard
350
17
  0
DICTIONARY
  5
18
102
{ACAD_REACTORS
330
C
102
}
330
C
100
AcDbDictionary
281
     1
  0
ACDBDICTIONARYWDFLT
  5
E
102
{ACAD_REACTORS
330
C
102
}
330
C
100
AcDbDictionary
281
     1
  3
Normal
350
F
100
AcDbDictionaryWithDefault
340
F
  0
DICTIONARY
  5
38E
102
{ACAD_REACTORS
330
C
102
}
330
C
100
AcDbDictionary
281
     1
  3
DIMASSOC
350
38F
  0
LAYOUT
  5
1D
102
{ACAD_REACTORS
330
19
102
}
330
19
100
AcDbPlotSettings
  1

  2
hp deskjet 980c series
  4

  6

 40
0.0
 41
0.0
 42
0.0
 43
0.0
 44
0.0
 45
0.0
 46
0.0
 47
0.0
 48
0.0
 49
0.0
140
0.0
141
0.0
142
1.0
143
1.0
 70
   688
 72
     0
 73
     0
 74
     5
  7

 75
    16
147
1.0
148
0.0
149
0.0
100
AcDbLayout
  1
Layout1
 70
     1
 71
     1
 10
0.0
 20
0.0
 11
12.0
 21
9.0
 12
0.0
 22
0.0
 32
0.0
 14
1.000000000000000E+20
 24
1.000000000000000E+20
 34
1.000000000000000E+20
 15
-1.000000000000000E+20
 25
-1.000000000000000E+20
 35
-1.000000000000000E+20
146
0.0
 13
0.0
 23
0.0
 33
0.0
 16
1.0
 26
0.0
 36
0.0
 17
0.0
 27
1.0
 37
0.0
 76
     0
330
1A
  0
LAYOUT
  5
21
102
{ACAD_REACTORS
330
19
102
}
330
19
100
AcDbPlotSettings
  1

  2
hp deskjet 980c series
  4

  6

 40
0.0
 41
0.0
 42
0.0
 43
0.0
 44
0.0
 45
0.0
 46
0.0
 47
0.0
 48
0.0
 49
0.0
140
0.0
141
0.0
142
1.0
143
1.0
 70
  1712
 72
     0
 73
     0
 74
     0
  7

 75
     0
147
1.0
148
0.0
149
0.0
100
AcDbLayout
  1
Model
 70
     1
 71
     0
 10
0.0
 20
0.0
 11
12.0
 21
9.0
 12
0.0
 22
0.0
 32
0.0
 14
0.0
 24
0.0
 34
0.0
 15
0.0
 25
0.0
 35
0.0
146
0.0
 13
0.0
 23
0.0
 33
0.0
 16
1.0
 26
0.0
 36
0.0
 17
0.0
 27
1.0
 37
0.0
 76
     0
330
1E
  0
MLINESTYLE
  5
17
102
{ACAD_REACTORS
330
16
102
}
330
16
100
AcDbMlineStyle
  2
STANDARD
 70
     0
  3

 62
   256
 51
90.0
 52
90.0
 71
     2
 49
0.5
 62
   256
  6
BYLAYER
 49
-0.5
 62
   256
  6
BYLAYER
  0
ACDBPLACEHOLDER
  5
F
102
{ACAD_REACTORS
330
E
102
}
330
E
  0
DICTIONARYVAR
  5
38F
102
{ACAD_REACTORS
330
38E
102
}
330
38E
100
DictionaryVariables
280
     0
  1
1
  0
ENDSEC
  0
EOF
