  0
SECTION
  2
HEADER
  9
$ACADVER
  1
AC1015
  9
$ACADMAINTVER
 70
    13
  9
$DWGCODEPAGE
  3
ANSI_1252
  9
$INSBASE
 10
0.0
 20
0.0
 30
0.0
  9
$EXTMIN
 10
0.0169000000000054
 20
-0.0000000000000043
 30
0.0
  9
$EXTMAX
 10
282.9831
 20
200.0
 30
0.0
  9
$LIMMIN
 10
0.0
 20
0.0
  9
$LIMMAX
 10
12.0
 20
9.0
  9
$ORTHOMODE
 70
     0
  9
$REGENMODE
 70
     1
  9
$FILLMODE
 70
     1
  9
$QTEXTMODE
 70
     0
  9
$MIRRTEXT
 70
     1
  9
$LTSCALE
 40
1.0
  9
$ATTMODE
 70
     1
  9
$TEXTSIZE
 40
0.2
  9
$TRACEWID
 40
0.05
  9
$TEXTSTYLE
  7
Standard
  9
$CLAYER
  8
0
  9
$CELTYPE
  6
Continuous
  9
$CECOLOR
 62
   256
  9
$CELTSCALE
 40
1.0
  9
$DISPSILH
 70
     0
  9
$DIMSCALE
 40
1.0
  9
$DIMASZ
 40
0.18
  9
$DIMEXO
 40
0.0625
  9
$DIMDLI
 40
0.38
  9
$DIMRND
 40
0.0
  9
$DIMDLE
 40
0.0
  9
$DIMEXE
 40
0.18
  9
$DIMTP
 40
0.0
  9
$DIMTM
 40
0.0
  9
$DIMTXT
 40
0.18
  9
$DIMCEN
 40
0.09
  9
$DIMTSZ
 40
0.0
  9
$DIMTOL
 70
     0
  9
$DIMLIM
 70
     0
  9
$DIMTIH
 70
     1
  9
$DIMTOH
 70
     1
  9
$DIMSE1
 70
     0
  9
$DIMSE2
 70
     0
  9
$DIMTAD
 70
     0
  9
$DIMZIN
 70
     0
  9
$DIMBLK
  1

  9
$DIMASO
 70
     1
  9
$DIMSHO
 70
     1
  9
$DIMPOST
  1

  9
$DIMAPOST
  1

  9
$DIMALT
 70
     0
  9
$DIMALTD
 70
     2
  9
$DIMALTF
 40
25.4
  9
$DIMLFAC
 40
1.0
  9
$DIMTOFL
 70
     0
  9
$DIMTVP
 40
0.0
  9
$DIMTIX
 70
     0
  9
$DIMSOXD
 70
     0
  9
$DIMSAH
 70
     0
  9
$DIMBLK1
  1

  9
$DIMBLK2
  1

  9
$DIMSTYLE
  2
Standard
  9
$DIMCLRD
 70
     0
  9
$DIMCLRE
 70
     0
  9
$DIMCLRT
 70
     0
  9
$DIMTFAC
 40
1.0
  9
$DIMGAP
 40
0.09
  9
$DIMJUST
 70
     0
  9
$DIMSD1
 70
     0
  9
$DIMSD2
 70
     0
  9
$DIMTOLJ
 70
     1
  9
$DIMTZIN
 70
     0
  9
$DIMALTZ
 70
     0
  9
$DIMALTTZ
 70
     0
  9
$DIMUPT
 70
     0
  9
$DIMDEC
 70
     4
  9
$DIMTDEC
 70
     4
  9
$DIMALTU
 70
     2
  9
$DIMALTTD
 70
     2
  9
$DIMTXSTY
  7
Standard
  9
$DIMAUNIT
 70
     0
  9
$DIMADEC
 70
     0
  9
$DIMALTRND
 40
0.0
  9
$DIMAZIN
 70
     0
  9
$DIMDSEP
 70
    46
  9
$DIMATFIT
 70
     3
  9
$DIMFRAC
 70
     0
  9
$DIMLDRBLK
  1

  9
$DIMLUNIT
 70
     2
  9
$DIMLWD
 70
    -2
  9
$DIMLWE
 70
    -2
  9
$DIMTMOVE
 70
     0
  9
$LUNITS
 70
     2
  9
$LUPREC
 70
     4
  9
$SKETCHINC
 40
0.1
  9
$FILLETRAD
 40
0.0
  9
$AUNITS
 70
     0
  9
$AUPREC
 70
     0
  9
$MENU
  1
.
  9
$ELEVATION
 40
0.0
  9
$PELEVATION
 40
0.0
  9
$THICKNESS
 40
0.0
  9
$LIMCHECK
 70
     0
  9
$CHAMFERA
 40
0.0
  9
$CHAMFERB
 40
0.0
  9
$CHAMFERC
 40
0.0
  9
$CHAMFERD
 40
0.0
  9
$SKPOLY
 70
     0
  9
$TDCREATE
 40
2454753.409574826
  9
$TDUCREATE
 40
2454753.326241493
  9
$TDUPDATE
 40
2454753.416417824
  9
$TDUUPDATE
 40
2454753.333084490
  9
$TDINDWG
 40
0.0068429977
  9
$TDUSRTIMER
 40
0.0068429977
  9
$USRTIMER
 70
     1
  9
$ANGBASE
 50
0.0
  9
$ANGDIR
 70
     0
  9
$PDMODE
 70
     0
  9
$PDSIZE
 40
0.0
  9
$PLINEWID
 40
0.0
  9
$SPLFRAME
 70
     0
  9
$SPLINETYPE
 70
     6
  9
$SPLINESEGS
 70
     8
  9
$HANDSEED
  5
29E
  9
$SURFTAB1
 70
     6
  9
$SURFTAB2
 70
     6
  9
$SURFTYPE
 70
     6
  9
$SURFU
 70
     6
  9
$SURFV
 70
     6
  9
$UCSBASE
  2

  9
$UCSNAME
  2

  9
$UCSORG
 10
0.0
 20
0.0
 30
0.0
  9
$UCSXDIR
 10
1.0
 20
0.0
 30
0.0
  9
$UCSYDIR
 10
0.0
 20
1.0
 30
0.0
  9
$UCSORTHOREF
  2

  9
$UCSORTHOVIEW
 70
     1
  9
$UCSORGTOP
 10
0.0
 20
0.0
 30
0.0
  9
$UCSORGBOTTOM
 10
0.0
 20
0.0
 30
0.0
  9
$UCSORGLEFT
 10
0.0
 20
0.0
 30
0.0
  9
$UCSORGRIGHT
 10
0.0
 20
0.0
 30
0.0
  9
$UCSORGFRONT
 10
0.0
 20
0.0
 30
0.0
  9
$UCSORGBACK
 10
0.0
 20
0.0
 30
0.0
  9
$PUCSBASE
  2

  9
$PUCSNAME
  2

  9
$PUCSORG
 10
0.0
 20
0.0
 30
0.0
  9
$PUCSXDIR
 10
1.0
 20
0.0
 30
0.0
  9
$PUCSYDIR
 10
0.0
 20
1.0
 30
0.0
  9
$PUCSORTHOREF
  2

  9
$PUCSORTHOVIEW
 70
     0
  9
$PUCSORGTOP
 10
0.0
 20
0.0
 30
0.0
  9
$PUCSORGBOTTOM
 10
0.0
 20
0.0
 30
0.0
  9
$PUCSORGLEFT
 10
0.0
 20
0.0
 30
0.0
  9
$PUCSORGRIGHT
 10
0.0
 20
0.0
 30
0.0
  9
$PUCSORGFRONT
 10
0.0
 20
0.0
 30
0.0
  9
$PUCSORGBACK
 10
0.0
 20
0.0
 30
0.0
  9
$USERI1
 70
     0
  9
$USERI2
 70
     0
  9
$USERI3
 70
     0
  9
$USERI4
 70
     0
  9
$USERI5
 70
     0
  9
$USERR1
 40
0.0
  9
$USERR2
 40
0.0
  9
$USERR3
 40
0.0
  9
$USERR4
 40
0.0
  9
$USERR5
 40
0.0
  9
$WORLDVIEW
 70
     1
  9
$SHADEDGE
 70
     3
  9
$SHADEDIF
 70
    70
  9
$TILEMODE
 70
     1
  9
$MAXACTVP
 70
    64
  9
$PINSBASE
 10
0.0
 20
0.0
 30
0.0
  9
$PLIMCHECK
 70
     0
  9
$PEXTMIN
 10
1.000000000000000E+20
 20
1.000000000000000E+20
 30
1.000000000000000E+20
  9
$PEXTMAX
 10
-1.000000000000000E+20
 20
-1.000000000000000E+20
 30
-1.000000000000000E+20
  9
$PLIMMIN
 10
0.0
 20
0.0
  9
$PLIMMAX
 10
12.0
 20
9.0
  9
$UNITMODE
 70
     0
  9
$VISRETAIN
 70
     1
  9
$PLINEGEN
 70
     0
  9
$PSLTSCALE
 70
     1
  9
$TREEDEPTH
 70
  3020
  9
$CMLSTYLE
  2
Standard
  9
$CMLJUST
 70
     0
  9
$CMLSCALE
 40
1.0
  9
$PROXYGRAPHICS
 70
     1
  9
$MEASUREMENT
 70
     0
  9
$CELWEIGHT
370
    -1
  9
$ENDCAPS
280
     0
  9
$JOINSTYLE
280
     0
  9
$LWDISPLAY
290
     0
  9
$INSUNITS
 70
     0
  9
$HYPERLINKBASE
  1

  9
$STYLESHEET
  1

  9
$XEDIT
290
     1
  9
$CEPSNTYPE
380
     0
  9
$PSTYLEMODE
290
     1
  9
$FINGERPRINTGUID
  2
{3194E7B6-024C-402C-99E8-1C4A13DAA0F3}
  9
$VERSIONGUID
  2
{401311D1-664F-4D4D-87B7-B9AFF3541534}
  9
$EXTNAMES
290
     1
  9
$PSVPSCALE
 40
0.0
  9
$OLESTARTUP
290
     0
  0
ENDSEC
  0
SECTION
  2
CLASSES
  0
CLASS
  1
ACDBDICTIONARYWDFLT
  2
AcDbDictionaryWithDefault
  3
AutoCAD 2000
 90
        0
280
     0
281
     0
  0
CLASS
  1
ACDBPLACEHOLDER
  2
AcDbPlaceHolder
  3
AutoCAD 2000
 90
        0
280
     0
281
     0
  0
CLASS
  1
LAYOUT
  2
AcDbLayout
  3
AutoCAD 2000
 90
        0
280
     0
281
     0
  0
CLASS
  1
DICTIONARYVAR
  2
AcDbDictionaryVar
  3
AutoCAD 2000
 90
        0
280
     0
281
     0
  0
ENDSEC
  0
SECTION
  2
TABLES
  0
TABLE
  2
VPORT
  5
8
330
0
100
AcDbSymbolTable
 70
     2
  0
VPORT
  5
29D
330
8
100
AcDbSymbolTableRecord
100
AcDbViewportTableRecord
  2
*Active
 70
     0
 10
0.0
 20
0.0
 11
1.0
 21
1.0
 12
141.4999999999999
 22
100.0
 13
0.0
 23
0.0
 14
1.0
 24
1.0
 15
0.0
 25
0.0
 16
0.0
 26
0.0
 36
1.0
 17
0.0
 27
0.0
 37
0.0
 40
201.5345268542199
 41
2.078104993597951
 42
50.0
 43
0.0
 44
0.0
 50
0.0
 51
0.0
 71
     0
 72
   100
 73
     1
 74
     3
 75
     0
 76
     0
 77
     0
 78
     0
281
     0
 65
     1
110
0.0
120
0.0
130
0.0
111
1.0
121
0.0
131
0.0
112
0.0
122
1.0
132
0.0
 79
     1
146
0.0
  0
ENDTAB
  0
TABLE
  2
LTYPE
  5
5
330
0
100
AcDbSymbolTable
 70
     1
  0
LTYPE
  5
13
330
5
100
AcDbSymbolTableRecord
100
AcDbLinetypeTableRecord
  2
ByBlock
 70
     0
  3

 72
    65
 73
     0
 40
0.0
  0
LTYPE
  5
14
330
5
100
AcDbSymbolTableRecord
100
AcDbLinetypeTableRecord
  2
ByLayer
 70
     0
  3

 72
    65
 73
     0
 40
0.0
  0
LTYPE
  5
15
330
5
100
AcDbSymbolTableRecord
100
AcDbLinetypeTableRecord
  2
Continuous
 70
     0
  3
Solid line
 72
    65
 73
     0
 40
0.0
  0
ENDTAB
  0
TABLE
  2
LAYER
  5
2
330
0
100
AcDbSymbolTable
 70
     1
  0
LAYER
  5
10
330
2
100
AcDbSymbolTableRecord
100
AcDbLayerTableRecord
  2
0
 70
     0
 62
     7
  6
Continuous
370
    -3
390
F
  0
ENDTAB
  0
TABLE
  2
STYLE
  5
3
330
0
100
AcDbSymbolTable
 70
     1
  0
STYLE
  5
11
330
3
100
AcDbSymbolTableRecord
100
AcDbTextStyleTableRecord
  2
Standard
 70
     0
 40
0.0
 41
1.0
 50
0.0
 71
     0
 42
0.2
  3
txt
  4

  0
ENDTAB
  0
TABLE
  2
VIEW
  5
6
330
0
100
AcDbSymbolTable
 70
     0
  0
ENDTAB
  0
TABLE
  2
UCS
  5
7
330
0
100
AcDbSymbolTable
 70
     0
  0
ENDTAB
  0
TABLE
  2
APPID
  5
9
330
0
100
AcDbSymbolTable
 70
     1
  0
APPID
  5
12
330
9
100
AcDbSymbolTableRecord
100
AcDbRegAppTableRecord
  2
ACAD
 70
     0
  0
ENDTAB
  0
TABLE
  2
DIMSTYLE
  5
A
330
0
100
AcDbSymbolTable
 70
     1
100
AcDbDimStyleTable
 71
     0
  0
DIMSTYLE
105
293
330
A
100
AcDbSymbolTableRecord
100
AcDbDimStyleTableRecord
  2
Standard
 70
     0
340
11
  0
ENDTAB
  0
TABLE
  2
BLOCK_RECORD
  5
1
330
0
100
AcDbSymbolTable
 70
     0
  0
BLOCK_RECORD
  5
1E
330
1
100
AcDbSymbolTableRecord
100
AcDbBlockTableRecord
  2
*Model_Space
340
21
  0
BLOCK_RECORD
  5
1A
330
1
100
AcDbSymbolTableRecord
100
AcDbBlockTableRecord
  2
*Paper_Space
340
1D
  0
ENDTAB
  0
ENDSEC
  0
SECTION
  2
BLOCKS
  0
BLOCK
  5
1F
330
1E
100
AcDbEntity
  8
0
100
AcDbBlockBegin
  2
*Model_Space
 70
     0
 10
0.0
 20
0.0
 30
0.0
  3
*Model_Space
  1

  0
ENDBLK
  5
20
330
1E
100
AcDbEntity
  8
0
100
AcDbBlockEnd
  0
BLOCK
  5
1B
330
1A
100
AcDbEntity
 67
     1
  8
0
100
AcDbBlockBegin
  2
*Paper_Space
 70
     0
 10
0.0
 20
0.0
 30
0.0
  3
*Paper_Space
  1

  0
ENDBLK
  5
1C
330
1A
100
AcDbEntity
 67
     1
  8
0
100
AcDbBlockEnd
  0
ENDSEC
  0
SECTION
  2
ENTITIES
  0
LINE
  5
24
330
1E
100
AcDbEntity
  8
0
100
AcDbLine
 10
21.63013999999999
 20
130.891
 30
0.0
 11
25.1491
 21
129.7479999999999
 31
0.0
  0
LINE
  5
25
330
1E
100
AcDbEntity
  8
0
100
AcDbLine
 10
25.1491
 20
129.7479999999999
 30
0.0
 11
30.7603
 21
127.9249999999999
 31
0.0
  0
LINE
  5
26
330
1E
100
AcDbEntity
  8
0
100
AcDbLine
 10
30.7603
 20
127.9249999999999
 30
0.0
 11
38.08339999999999
 21
125.5449999999999
 31
0.0
  0
LINE
  5
27
330
1E
100
AcDbEntity
  8
0
100
AcDbLine
 10
26.79009999999999
 20
121.8539999999999
 30
0.0
 11
35.8613
 21
114.175
 31
0.0
  0
LINE
  5
28
330
1E
100
AcDbEntity
  8
0
100
AcDbLine
 10
20.3441
 20
145.106
 30
0.0
 11
21.2968
 21
144.556
 31
0.0
  0
LINE
  5
29
330
1E
100
AcDbEntity
  8
0
100
AcDbLine
 10
18.8719
 20
145.956
 30
0.0
 11
20.3441
 21
145.106
 31
0.0
  0
LINE
  5
2A
330
1E
100
AcDbEntity
  8
0
100
AcDbLine
 10
21.6432
 20
144.3559999999999
 30
0.0
 11
24.3752
 21
145.0879999999999
 31
0.0
  0
LINE
  5
2B
330
1E
100
AcDbEntity
  8
0
100
AcDbLine
 10
21.2968
 20
144.556
 30
0.0
 11
21.6432
 21
144.3559999999999
 31
0.0
  0
LINE
  5
2C
330
1E
100
AcDbEntity
  8
0
100
AcDbLine
 10
20.98781
 20
136.3569999999999
 30
0.0
 11
22.5328
 21
141.1129999999999
 31
0.0
  0
LINE
  5
2D
330
1E
100
AcDbEntity
  8
0
100
AcDbLine
 10
20.98781
 20
136.3569999999999
 30
0.0
 11
24.2214
 21
135.306
 31
0.0
  0
LINE
  5
2E
330
1E
100
AcDbEntity
  8
0
100
AcDbLine
 10
24.2214
 20
135.306
 30
0.0
 11
30.3082
 21
133.328
 31
0.0
  0
LINE
  5
2F
330
1E
100
AcDbEntity
  8
0
100
AcDbLine
 10
30.3082
 20
133.328
 30
0.0
 11
38.2019
 21
130.764
 31
0.0
  0
LINE
  5
30
330
1E
100
AcDbEntity
  8
0
100
AcDbLine
 10
23.9422
 20
145.3379999999999
 30
0.0
 11
24.3752
 21
145.0879999999999
 31
0.0
  0
LINE
  5
31
330
1E
100
AcDbEntity
  8
0
100
AcDbLine
 10
22.903
 20
145.9379999999999
 30
0.0
 11
23.9422
 21
145.3379999999999
 31
0.0
  0
LINE
  5
32
330
1E
100
AcDbEntity
  8
0
100
AcDbLine
 10
24.3752
 20
145.0879999999999
 30
0.0
 11
25.84611491505899
 21
147.635624632882
 31
0.0
  0
LINE
  5
33
330
1E
100
AcDbEntity
  8
0
100
AcDbLine
 10
23.86439999999999
 20
140.68
 30
0.0
 11
27.38329999999999
 21
139.5359999999999
 31
0.0
  0
LINE
  5
34
330
1E
100
AcDbEntity
  8
0
100
AcDbLine
 10
27.38329999999999
 20
139.5359999999999
 30
0.0
 11
33.1848
 21
137.651
 31
0.0
  0
LINE
  5
35
330
1E
100
AcDbEntity
  8
0
100
AcDbLine
 10
33.1848
 20
137.651
 30
0.0
 11
40.69809999999999
 21
135.21
 31
0.0
  0
LINE
  5
36
330
1E
100
AcDbEntity
  8
0
100
AcDbLine
 10
22.5328
 20
141.1129999999999
 30
0.0
 11
28.2149
 21
146.626
 31
0.0
  0
LINE
  5
37
330
1E
100
AcDbEntity
  8
0
100
AcDbLine
 10
22.5328
 20
141.1129999999999
 30
0.0
 11
23.86439999999999
 21
140.68
 31
0.0
  0
LINE
  5
38
330
1E
100
AcDbEntity
  8
0
100
AcDbLine
 10
2.291600000000009
 20
157.8379999999999
 30
0.0
 11
3.330800000000009
 21
157.238
 31
0.0
  0
LINE
  5
39
330
1E
100
AcDbEntity
  8
0
100
AcDbLine
 10
1.858600000000009
 20
158.088
 30
0.0
 11
2.590599999999999
 21
155.356
 31
0.0
  0
LINE
  5
3A
330
1E
100
AcDbEntity
  8
0
100
AcDbLine
 10
1.858600000000009
 20
158.088
 30
0.0
 11
3.342121837820919
 21
160.6574598231059
 31
0.0
  0
LINE
  5
3B
330
1E
100
AcDbEntity
  8
0
100
AcDbLine
 10
1.858600000000009
 20
158.088
 30
0.0
 11
2.291600000000009
 21
157.8379999999999
 31
0.0
  0
LINE
  5
3C
330
1E
100
AcDbEntity
  8
0
100
AcDbLine
 10
2.590599999999999
 20
155.356
 30
0.0
 11
2.937100000000009
 21
155.156
 31
0.0
  0
LINE
  5
3D
330
1E
100
AcDbEntity
  8
0
100
AcDbLine
 10
2.616900000000009
 20
161.086
 30
0.0
 11
4.816900000000009
 21
159.786
 31
0.0
  0
LINE
  5
3E
330
1E
100
AcDbEntity
  8
0
100
AcDbLine
 10
1.21690000000001
 20
161.8859999999999
 30
0.0
 11
2.891899999998769
 21
160.9235000000009
 31
0.0
  0
LINE
  5
3F
330
1E
100
AcDbEntity
  8
0
100
AcDbLine
 10
1.21690000000001
 20
161.8859999999999
 30
0.0
 11
2.616900000000009
 21
161.086
 31
0.0
  0
LINE
  5
40
330
1E
100
AcDbEntity
  8
0
100
AcDbLine
 10
1.21690000000001
 20
161.8859999999999
 30
0.0
 11
2.891899999998799
 21
160.9235000000009
 31
0.0
  0
LINE
  5
41
330
1E
100
AcDbEntity
  8
0
100
AcDbLine
 10
0.0169000000000055
 20
164.8859999999999
 30
0.0
 11
13.31
 21
177.5179999999999
 31
0.0
  0
LINE
  5
42
330
1E
100
AcDbEntity
  8
0
100
AcDbLine
 10
0.6169000000000051
 20
164.5859999999999
 30
0.0
 11
2.116899999999999
 21
163.686
 31
0.0
  0
LINE
  5
43
330
1E
100
AcDbEntity
  8
0
100
AcDbLine
 10
2.116900000000009
 20
163.686
 30
0.0
 11
4.6169
 21
162.286
 31
0.0
  0
LINE
  5
44
330
1E
100
AcDbEntity
  8
0
100
AcDbLine
 10
2.116900000000009
 20
163.686
 30
0.0
 11
4.6169
 21
162.286
 31
0.0
  0
LINE
  5
45
330
1E
100
AcDbEntity
  8
0
100
AcDbLine
 10
0.6169000000000051
 20
164.5859999999999
 30
0.0
 11
2.116900000000009
 21
163.686
 31
0.0
  0
LINE
  5
46
330
1E
100
AcDbEntity
  8
0
100
AcDbLine
 10
0.0169000000000054
 20
164.8859999999999
 30
0.0
 11
13.31
 21
177.5179999999999
 31
0.0
  0
LINE
  5
47
330
1E
100
AcDbEntity
  8
0
100
AcDbLine
 10
0.0169000000000054
 20
164.8859999999999
 30
0.0
 11
0.6169000000000051
 21
164.5859999999999
 31
0.0
  0
LINE
  5
48
330
1E
100
AcDbEntity
  8
0
100
AcDbLine
 10
0.0169000000000054
 20
164.8859999999999
 30
0.0
 11
0.716900000000006
 21
162.186
 31
0.0
  0
LINE
  5
49
330
1E
100
AcDbEntity
  8
0
100
AcDbLine
 10
0.0169000000000054
 20
164.8859999999999
 30
0.0
 11
0.716900000000006
 21
162.186
 31
0.0
  0
LINE
  5
4A
330
1E
100
AcDbEntity
  8
0
100
AcDbLine
 10
0.0169000000000054
 20
164.8859999999999
 30
0.0
 11
0.6169000000000051
 21
164.5859999999999
 31
0.0
  0
LINE
  5
4B
330
1E
100
AcDbEntity
  8
0
100
AcDbLine
 10
0.716900000000006
 20
162.186
 30
0.0
 11
1.21690000000001
 21
161.8859999999999
 31
0.0
  0
LINE
  5
4C
330
1E
100
AcDbEntity
  8
0
100
AcDbLine
 10
21.08429999999999
 20
146.988
 30
0.0
 11
22.903
 21
145.9379999999999
 31
0.0
  0
LINE
  5
4D
330
1E
100
AcDbEntity
  8
0
100
AcDbLine
 10
16.87999999999999
 20
147.106
 30
0.0
 11
18.8719
 21
145.956
 31
0.0
  0
LINE
  5
4E
330
1E
100
AcDbEntity
  8
0
100
AcDbLine
 10
26.6169
 20
147.186
 30
0.0
 11
27.9858346275404
 21
146.403751641406
 31
0.0
  0
LINE
  5
4F
330
1E
100
AcDbEntity
  8
0
100
AcDbLine
 10
18.74609999999999
 20
148.3379999999999
 30
0.0
 11
21.08429999999999
 21
146.988
 31
0.0
  0
LINE
  5
50
330
1E
100
AcDbEntity
  8
0
100
AcDbLine
 10
14.5418
 20
148.456
 30
0.0
 11
16.87999999999999
 21
147.106
 31
0.0
  0
LINE
  5
51
330
1E
100
AcDbEntity
  8
0
100
AcDbLine
 10
16.06139999999999
 20
149.8879999999999
 30
0.0
 11
18.74609999999999
 21
148.3379999999999
 31
0.0
  0
LINE
  5
52
330
1E
100
AcDbEntity
  8
0
100
AcDbLine
 10
12.11689999999999
 20
149.8559999999999
 30
0.0
 11
14.5418
 21
148.456
 31
0.0
  0
LINE
  5
53
330
1E
100
AcDbEntity
  8
0
100
AcDbLine
 10
24.3777084653038
 20
148.4921950619059
 30
0.0
 11
26.6169
 21
147.186
 31
0.0
  0
LINE
  5
54
330
1E
100
AcDbEntity
  8
0
100
AcDbLine
 10
3.330800000000009
 20
157.238
 30
0.0
 11
5.149500000000009
 21
156.1879999999999
 31
0.0
  0
LINE
  5
55
330
1E
100
AcDbEntity
  8
0
100
AcDbLine
 10
3.889699999999999
 20
154.6059999999999
 30
0.0
 11
5.361900000000009
 21
153.756
 31
0.0
  0
LINE
  5
56
330
1E
100
AcDbEntity
  8
0
100
AcDbLine
 10
2.937100000000009
 20
155.156
 30
0.0
 11
3.889699999999999
 21
154.6059999999999
 31
0.0
  0
LINE
  5
57
330
1E
100
AcDbEntity
  8
0
100
AcDbLine
 10
4.6169
 20
162.286
 30
0.0
 11
7.816900000000009
 21
160.386
 31
0.0
  0
LINE
  5
58
330
1E
100
AcDbEntity
  8
0
100
AcDbLine
 10
5.149500000000009
 20
156.1879999999999
 30
0.0
 11
7.487800000000009
 21
154.8379999999999
 31
0.0
  0
LINE
  5
59
330
1E
100
AcDbEntity
  8
0
100
AcDbLine
 10
5.361900000000009
 20
153.756
 30
0.0
 11
7.353800000000009
 21
152.606
 31
0.0
  0
LINE
  5
5A
330
1E
100
AcDbEntity
  8
0
100
AcDbLine
 10
7.487800000000009
 20
154.8379999999999
 30
0.0
 11
10.17239999999999
 21
153.2879999999999
 31
0.0
  0
LINE
  5
5B
330
1E
100
AcDbEntity
  8
0
100
AcDbLine
 10
10.17239999999999
 20
153.2879999999999
 30
0.0
 11
13.1169
 21
151.5879999999999
 31
0.0
  0
LINE
  5
5C
330
1E
100
AcDbEntity
  8
0
100
AcDbLine
 10
7.353800000000009
 20
152.606
 30
0.0
 11
9.692100000000008
 21
151.256
 31
0.0
  0
LINE
  5
5D
330
1E
100
AcDbEntity
  8
0
100
AcDbLine
 10
9.692100000000008
 20
151.256
 30
0.0
 11
12.11689999999999
 21
149.8559999999999
 31
0.0
  0
LINE
  5
5E
330
1E
100
AcDbEntity
  8
0
100
AcDbLine
 10
13.1169
 20
151.5879999999999
 30
0.0
 11
16.06139999999999
 21
149.8879999999999
 31
0.0
  0
LINE
  5
5F
330
1E
100
AcDbEntity
  8
0
100
AcDbLine
 10
11.61689999999999
 20
158.1859999999999
 30
0.0
 11
15.6169
 21
155.8859999999999
 31
0.0
  0
LINE
  5
60
330
1E
100
AcDbEntity
  8
0
100
AcDbLine
 10
11.0169
 20
156.186
 30
0.0
 11
14.61689999999999
 21
154.1859999999999
 31
0.0
  0
LINE
  5
61
330
1E
100
AcDbEntity
  8
0
100
AcDbLine
 10
7.08237893161404
 20
158.536080589454
 30
0.0
 11
8.28293339350195
 21
157.842949458484
 31
0.0
  0
LINE
  5
62
330
1E
100
AcDbEntity
  8
0
100
AcDbLine
 10
7.716900000000009
 20
158.1859999999999
 30
0.0
 11
11.0169
 21
156.186
 31
0.0
  0
LINE
  5
63
330
1E
100
AcDbEntity
  8
0
100
AcDbLine
 10
15.6169
 20
155.8859999999999
 30
0.0
 11
19.6169
 21
153.686
 31
0.0
  0
LINE
  5
64
330
1E
100
AcDbEntity
  8
0
100
AcDbLine
 10
19.6169
 20
153.686
 30
0.0
 11
30.20030904792122
 21
147.7692820850585
 31
0.0
  0
LINE
  5
65
330
1E
100
AcDbEntity
  8
0
100
AcDbLine
 10
18.2169
 20
152.086
 30
0.0
 11
21.51689999999999
 21
150.186
 31
0.0
  0
LINE
  5
66
330
1E
100
AcDbEntity
  8
0
100
AcDbLine
 10
14.61689999999999
 20
154.1859999999999
 30
0.0
 11
18.2169
 21
152.086
 31
0.0
  0
LINE
  5
67
330
1E
100
AcDbEntity
  8
0
100
AcDbLine
 10
7.816900000000009
 20
160.386
 30
0.0
 11
11.61689999999999
 21
158.1859999999999
 31
0.0
  0
LINE
  5
68
330
1E
100
AcDbEntity
  8
0
100
AcDbLine
 10
4.816900000000009
 20
159.786
 30
0.0
 11
6.660906193684419
 21
158.732282175038
 31
0.0
  0
LINE
  5
69
330
1E
100
AcDbEntity
  8
0
100
AcDbLine
 10
4.816900000000009
 20
159.786
 30
0.0
 11
7.716900000000009
 21
158.1859999999999
 31
0.0
  0
LINE
  5
6A
330
1E
100
AcDbEntity
  8
0
100
AcDbLine
 10
4.8169
 20
159.786
 30
0.0
 11
6.660906193684419
 21
158.732282175038
 31
0.0
  0
LINE
  5
6B
330
1E
100
AcDbEntity
  8
0
100
AcDbLine
 10
21.51689999999999
 20
150.186
 30
0.0
 11
24.41689999999999
 21
148.4859999999999
 31
0.0
  0
LINE
  5
6C
330
1E
100
AcDbEntity
  8
0
100
AcDbLine
 10
24.41689999999999
 20
148.4859999999999
 30
0.0
 11
26.6169
 21
147.186
 31
0.0
  0
LINE
  5
6D
330
1E
100
AcDbEntity
  8
0
100
AcDbLine
 10
13.31
 20
177.5179999999999
 30
0.0
 11
28.0285
 21
186.935
 31
0.0
  0
LINE
  5
6E
330
1E
100
AcDbEntity
  8
0
100
AcDbLine
 10
28.0285
 20
186.935
 30
0.0
 11
41.58529999999999
 21
193.3009999999999
 31
0.0
  0
LINE
  5
6F
330
1E
100
AcDbEntity
  8
0
100
AcDbLine
 10
25.84611491505899
 20
147.635624632882
 30
0.0
 11
26.6169
 21
147.186
 31
0.0
  0
LINE
  5
70
330
1E
100
AcDbEntity
  8
0
100
AcDbLine
 10
2.891899999998769
 20
160.9235000000009
 30
0.0
 11
3.342121837820919
 21
160.6574598231059
 31
0.0
  0
LINE
  5
71
330
1E
100
AcDbEntity
  8
0
100
AcDbLine
 10
28.2149
 20
146.626
 30
0.0
 11
35.704
 21
151.553
 31
0.0
  0
LINE
  5
72
330
1E
100
AcDbEntity
  8
0
100
AcDbLine
 10
35.704
 20
151.553
 30
0.0
 11
44.8813
 21
154.8799999999999
 31
0.0
  0
LINE
  5
73
330
1E
100
AcDbEntity
  8
0
100
AcDbLine
 10
20.39376
 20
131.293
 30
0.0
 11
26.79009999999999
 21
121.8539999999999
 31
0.0
  0
LINE
  5
74
330
1E
100
AcDbEntity
  8
0
100
AcDbLine
 10
20.39376
 20
131.293
 30
0.0
 11
21.63013999999999
 21
130.891
 31
0.0
  0
LINE
  5
75
330
1E
100
AcDbEntity
  8
0
100
AcDbLine
 10
45.7049
 20
108.874
 30
0.0
 11
45.895
 21
108.812
 31
0.0
  0
LINE
  5
76
330
1E
100
AcDbEntity
  8
0
100
AcDbLine
 10
38.2019
 20
130.764
 30
0.0
 11
44.85929999999999
 21
128.6
 31
0.0
  0
LINE
  5
77
330
1E
100
AcDbEntity
  8
0
100
AcDbLine
 10
43.7255453616207
 20
154.461010135673
 30
0.0
 11
47.50939999999999
 21
156.661
 31
0.0
  0
LINE
  5
78
330
1E
100
AcDbEntity
  8
0
100
AcDbLine
 10
40.69809999999999
 20
135.21
 30
0.0
 11
49.3527
 21
132.3979999999999
 31
0.0
  0
LINE
  5
79
330
1E
100
AcDbEntity
  8
0
100
AcDbLine
 10
47.50939999999999
 20
156.661
 30
0.0
 11
55.76
 21
160.209
 31
0.0
  0
LINE
  5
7A
330
1E
100
AcDbEntity
  8
0
100
AcDbLine
 10
41.58529999999999
 20
193.3009999999999
 30
0.0
 11
58.7715
 21
197.844
 31
0.0
  0
LINE
  5
7B
330
1E
100
AcDbEntity
  8
0
100
AcDbLine
 10
44.8813
 20
154.8799999999999
 30
0.0
 11
62.74869999999999
 21
154.859
 31
0.0
  0
LINE
  5
7C
330
1E
100
AcDbEntity
  8
0
100
AcDbLine
 10
38.08339999999999
 20
125.5449999999999
 30
0.0
 11
46.4528
 21
122.825
 31
0.0
  0
LINE
  5
7D
330
1E
100
AcDbEntity
  8
0
100
AcDbLine
 10
46.4528
 20
122.825
 30
0.0
 11
55.5829
 21
119.859
 31
0.0
  0
LINE
  5
7E
330
1E
100
AcDbEntity
  8
0
100
AcDbLine
 10
35.8613
 20
114.175
 30
0.0
 11
45.7049
 21
108.874
 31
0.0
  0
LINE
  5
80
330
1E
100
AcDbEntity
  8
0
100
AcDbLine
 10
49.3527
 20
132.3979999999999
 30
0.0
 11
58.67309999999999
 21
129.37
 31
0.0
  0
LINE
  5
83
330
1E
100
AcDbEntity
  8
0
100
AcDbLine
 10
57.1175
 20
105.166
 30
0.0
 11
68.1971
 21
103.668
 31
0.0
  0
LINE
  5
84
330
1E
100
AcDbEntity
  8
0
100
AcDbLine
 10
73.0823
 20
114.1729999999999
 30
0.0
 11
80.4054
 21
111.7939999999999
 31
0.0
  0
LINE
  5
85
330
1E
100
AcDbEntity
  8
0
100
AcDbLine
 10
58.67309999999999
 20
129.37
 30
0.0
 11
67.99339999999999
 21
126.341
 31
0.0
  0
LINE
  5
86
330
1E
100
AcDbEntity
  8
0
100
AcDbLine
 10
55.76
 20
160.209
 30
0.0
 11
66.577
 21
162.6999999999999
 31
0.0
  0
LINE
  5
87
330
1E
100
AcDbEntity
  8
0
100
AcDbLine
 10
58.7715
 20
197.844
 30
0.0
 11
74.9831
 21
200.0
 31
0.0
  0
LINE
  5
88
330
1E
100
AcDbEntity
  8
0
100
AcDbLine
 10
66.577
 20
162.6999999999999
 30
0.0
 11
74.9831
 21
164.0
 31
0.0
  0
LINE
  5
89
330
1E
100
AcDbEntity
  8
0
100
AcDbLine
 10
62.74869999999999
 20
154.859
 30
0.0
 11
66.70749999999999
 21
154.097
 31
0.0
  0
LINE
  5
8A
330
1E
100
AcDbEntity
  8
0
100
AcDbLine
 10
76.0541
 20
118.4649999999999
 30
0.0
 11
83.9478
 21
115.9
 31
0.0
  0
LINE
  5
8B
330
1E
100
AcDbEntity
  8
0
100
AcDbLine
 10
69.3966
 20
120.6279999999999
 30
0.0
 11
76.0541
 21
118.4649999999999
 31
0.0
  0
LINE
  5
8C
330
1E
100
AcDbEntity
  8
0
100
AcDbLine
 10
76.6481
 20
123.53
 30
0.0
 11
84.1614
 21
121.0879999999999
 31
0.0
  0
LINE
  5
8D
330
1E
100
AcDbEntity
  8
0
100
AcDbLine
 10
67.99339999999999
 20
126.341
 30
0.0
 11
76.6481
 21
123.53
 31
0.0
  0
LINE
  5
8E
330
1E
100
AcDbEntity
  8
0
100
AcDbLine
 10
74.9831
 20
200.0
 30
0.0
 11
91.1951
 21
197.844
 31
0.0
  0
LINE
  5
8F
330
1E
100
AcDbEntity
  8
0
100
AcDbLine
 10
74.9831
 20
164.0
 30
0.0
 11
83.3891
 21
162.6999999999999
 31
0.0
  0
LINE
  5
90
330
1E
100
AcDbEntity
  8
0
100
AcDbLine
 10
70.3573
 20
152.3859999999999
 30
0.0
 11
84.65909999999999
 21
143.007
 31
0.0
  0
LINE
  5
91
330
1E
100
AcDbEntity
  8
0
100
AcDbLine
 10
66.70749999999999
 20
154.097
 30
0.0
 11
70.3573
 21
152.3859999999999
 31
0.0
  0
LINE
  5
92
330
1E
100
AcDbEntity
  8
0
100
AcDbLine
 10
64.71309999999999
 20
116.892
 30
0.0
 11
73.0823
 21
114.1729999999999
 31
0.0
  0
LINE
  5
93
330
1E
100
AcDbEntity
  8
0
100
AcDbLine
 10
55.5829
 20
119.859
 30
0.0
 11
64.71309999999999
 21
116.892
 31
0.0
  0
LINE
  5
94
330
1E
100
AcDbEntity
  8
0
100
AcDbLine
 10
56.9273
 20
105.227
 30
0.0
 11
57.1175
 21
105.166
 31
0.0
  0
LINE
  5
96
330
1E
100
AcDbEntity
  8
0
100
AcDbLine
 10
68.1971
 20
103.668
 30
0.0
 11
80.04940000000001
 21
104.55
 31
0.0
  0
LINE
  5
97
330
1E
100
AcDbEntity
  8
0
100
AcDbLine
 10
90.77200000000001
 20
108.4249999999999
 30
0.0
 11
93.2681
 21
112.872
 31
0.0
  0
LINE
  5
98
330
1E
100
AcDbEntity
  8
0
100
AcDbLine
 10
221.4951
 20
-0.0000000000000006
 30
0.0
 11
229.1271
 21
-0.000000000000001
 31
0.0
  0
LINE
  5
99
330
1E
100
AcDbEntity
  8
0
100
AcDbLine
 10
212.2790999999999
 20
0.0
 30
0.0
 11
215.7350999999999
 21
-0.0000000000000002
 31
0.0
  0
LINE
  5
9A
330
1E
100
AcDbEntity
  8
0
100
AcDbLine
 10
210.9831
 20
0.0000000000000001
 30
0.0
 11
212.2790999999999
 21
0.0
 31
0.0
  0
LINE
  5
9B
330
1E
100
AcDbEntity
  8
0
100
AcDbLine
 10
210.9831
 20
1.0
 30
0.0
 11
210.9831
 21
0.0
 31
0.0
  0
LINE
  5
9C
330
1E
100
AcDbEntity
  8
0
100
AcDbLine
 10
210.9831
 20
1.0
 30
0.0
 11
212.2790999999999
 21
1.0
 31
0.0
  0
LINE
  5
9D
330
1E
100
AcDbEntity
  8
0
100
AcDbLine
 10
210.9831
 20
0.0000000000000001
 30
0.0
 11
212.2790999999999
 21
0.0
 31
0.0
  0
LINE
  5
9E
330
1E
100
AcDbEntity
  8
0
100
AcDbLine
 10
210.9831
 20
0.0000000000000001
 30
0.0
 11
210.9831
 21
1.0
 31
0.0
  0
LINE
  5
9F
330
1E
100
AcDbEntity
  8
0
100
AcDbLine
 10
212.2790999999999
 20
0.0
 30
0.0
 11
215.7350999999999
 21
-0.0000000000000002
 31
0.0
  0
LINE
  5
A0
330
1E
100
AcDbEntity
  8
0
100
AcDbLine
 10
211.5702367298809
 20
1.0
 30
0.0
 11
211.9831
 21
1.703180790960469
 31
0.0
  0
LINE
  5
A1
330
1E
100
AcDbEntity
  8
0
100
AcDbLine
 10
212.2790999999999
 20
1.0
 30
0.0
 11
213.2830999999999
 21
1.0
 31
0.0
  0
LINE
  5
A2
330
1E
100
AcDbEntity
  8
0
100
AcDbLine
 10
212.2790999999999
 20
1.0
 30
0.0
 11
215.7350999999999
 21
1.0
 31
0.0
  0
LINE
  5
A3
330
1E
100
AcDbEntity
  8
0
100
AcDbLine
 10
211.9831
 20
9.0
 30
0.0
 11
213.2830999999999
 21
9.0
 31
0.0
  0
LINE
  5
A4
330
1E
100
AcDbEntity
  8
0
100
AcDbLine
 10
211.9831
 20
9.0
 30
0.0
 11
213.9831
 21
11.0
 31
0.0
  0
LINE
  5
A5
330
1E
100
AcDbEntity
  8
0
100
AcDbLine
 10
211.9831
 20
9.0
 30
0.0
 11
211.9831
 21
1.0
 31
0.0
  0
LINE
  5
A6
330
1E
100
AcDbEntity
  8
0
100
AcDbLine
 10
211.9831
 20
1.0
 30
0.0
 11
211.9831
 21
9.0
 31
0.0
  0
LINE
  5
A7
330
1E
100
AcDbEntity
  8
0
100
AcDbLine
 10
215.7350999999999
 20
-0.0000000000000002
 30
0.0
 11
221.4951
 21
-0.0000000000000006
 31
0.0
  0
LINE
  5
A8
330
1E
100
AcDbEntity
  8
0
100
AcDbLine
 10
215.7350999999999
 20
1.0
 30
0.0
 11
221.4951
 21
1.0
 31
0.0
  0
LINE
  5
A9
330
1E
100
AcDbEntity
  8
0
100
AcDbLine
 10
221.4951
 20
1.0
 30
0.0
 11
229.1271
 21
0.9999999999999989
 31
0.0
  0
LINE
  5
AA
330
1E
100
AcDbEntity
  8
0
100
AcDbLine
 10
215.7040999999999
 20
-0.0000000000000002
 30
0.0
 11
219.4831
 21
-0.0000000000000005
 31
0.0
  0
LINE
  5
AB
330
1E
100
AcDbEntity
  8
0
100
AcDbLine
 10
213.2830999999999
 20
9.0
 30
0.0
 11
216.6831
 21
9.0
 31
0.0
  0
LINE
  5
AC
330
1E
100
AcDbEntity
  8
0
100
AcDbLine
 10
213.9831
 20
11.0
 30
0.0
 11
215.1831
 21
11.0
 31
0.0
  0
LINE
  5
AD
330
1E
100
AcDbEntity
  8
0
100
AcDbLine
 10
201.7800999999999
 20
42.40619999999999
 30
0.0
 11
203.2078947567776
 21
41.71873395693717
 31
0.0
  0
LINE
  5
AE
330
1E
100
AcDbEntity
  8
0
100
AcDbLine
 10
201.7800999999999
 20
42.40619999999999
 30
0.0
 11
201.2650999999999
 21
43.1967
 31
0.0
  0
LINE
  5
B0
330
1E
100
AcDbEntity
  8
0
100
AcDbLine
 10
201.2650999999999
 20
43.1967
 30
0.0
 11
201.3591
 21
44.5858
 31
0.0
  0
LINE
  5
C1
330
1E
100
AcDbEntity
  8
0
100
AcDbLine
 10
201.9830999999999
 20
40.6
 30
0.0
 11
222.2830999999999
 21
16.39999999999999
 31
0.0
  0
LINE
  5
C2
330
1E
100
AcDbEntity
  8
0
100
AcDbLine
 10
201.9830999999999
 20
40.6
 30
0.0
 11
220.0830999999999
 21
55.7
 31
0.0
  0
LINE
  5
C3
330
1E
100
AcDbEntity
  8
0
100
AcDbLine
 10
215.1831
 20
11.0
 30
0.0
 11
218.3831
 21
11.0
 31
0.0
  0
LINE
  5
C6
330
1E
100
AcDbEntity
  8
0
100
AcDbLine
 10
222.2830999999999
 20
16.39999999999999
 30
0.0
 11
222.6831
 21
16.6
 31
0.0
  0
LINE
  5
C7
330
1E
100
AcDbEntity
  8
0
100
AcDbLine
 10
219.9831
 20
11.0
 30
0.0
 11
222.2830999999999
 21
16.39999999999999
 31
0.0
  0
LINE
  5
C8
330
1E
100
AcDbEntity
  8
0
100
AcDbLine
 10
218.3831
 20
11.0
 30
0.0
 11
223.6831
 21
11.0
 31
0.0
  0
LINE
  5
C9
330
1E
100
AcDbEntity
  8
0
100
AcDbLine
 10
216.6831
 20
9.0
 30
0.0
 11
222.2830999999999
 21
9.0
 31
0.0
  0
LINE
  5
CA
330
1E
100
AcDbEntity
  8
0
100
AcDbLine
 10
222.6831
 20
16.6
 30
0.0
 11
223.6831
 21
17.19999999999999
 31
0.0
  0
LINE
  5
CB
330
1E
100
AcDbEntity
  8
0
100
AcDbLine
 10
222.2830999999999
 20
9.0
 30
0.0
 11
229.5831
 21
9.0
 31
0.0
  0
LINE
  5
CC
330
1E
100
AcDbEntity
  8
0
100
AcDbLine
 10
221.4951
 20
-0.0000000000000006
 30
0.0
 11
223.1831
 21
-0.0000000000000007
 31
0.0
  0
LINE
  5
CD
330
1E
100
AcDbEntity
  8
0
100
AcDbLine
 10
264.8390999999999
 20
-0.0000000000000032
 30
0.0
 11
272.4710999999999
 21
-0.0000000000000037
 31
0.0
  0
LINE
  5
CE
330
1E
100
AcDbEntity
  8
0
100
AcDbLine
 10
256.1990999999999
 20
-0.0000000000000027
 30
0.0
 11
264.8390999999999
 21
-0.0000000000000032
 31
0.0
  0
LINE
  5
CF
330
1E
100
AcDbEntity
  8
0
100
AcDbLine
 10
260.6831
 20
-0.000000000000003
 30
0.0
 11
266.3831
 21
-0.0000000000000033
 31
0.0
  0
LINE
  5
D0
330
1E
100
AcDbEntity
  8
0
100
AcDbLine
 10
272.4710999999999
 20
-0.0000000000000037
 30
0.0
 11
278.2311
 21
-0.0000000000000041
 31
0.0
  0
LINE
  5
D1
330
1E
100
AcDbEntity
  8
0
100
AcDbLine
 10
282.9831
 20
-0.0000000000000043
 30
0.0
 11
282.9831
 21
0.999999999999996
 31
0.0
  0
LINE
  5
D2
330
1E
100
AcDbEntity
  8
0
100
AcDbLine
 10
281.6870999999999
 20
-0.0000000000000043
 30
0.0
 11
282.9831
 21
-0.0000000000000043
 31
0.0
  0
LINE
  5
D3
330
1E
100
AcDbEntity
  8
0
100
AcDbLine
 10
278.2311
 20
-0.0000000000000041
 30
0.0
 11
281.6870999999999
 21
-0.0000000000000043
 31
0.0
  0
LINE
  5
D4
330
1E
100
AcDbEntity
  8
0
100
AcDbLine
 10
278.2620999999999
 20
-0.0000000000000041
 30
0.0
 11
281.6870999999999
 21
-0.0000000000000043
 31
0.0
  0
LINE
  5
D5
330
1E
100
AcDbEntity
  8
0
100
AcDbLine
 10
272.4780999999999
 20
-0.0000000000000037
 30
0.0
 11
278.2620999999999
 21
-0.0000000000000041
 31
0.0
  0
LINE
  5
D6
330
1E
100
AcDbEntity
  8
0
100
AcDbLine
 10
270.7831
 20
-0.0000000000000036
 30
0.0
 11
272.4780999999999
 21
-0.0000000000000037
 31
0.0
  0
LINE
  5
D7
330
1E
100
AcDbEntity
  8
0
100
AcDbLine
 10
270.7831
 20
-0.0000000000000036
 30
0.0
 11
273.4830999999999
 21
-0.0000000000000038
 31
0.0
  0
LINE
  5
D8
330
1E
100
AcDbEntity
  8
0
100
AcDbLine
 10
266.3831
 20
-0.0000000000000033
 30
0.0
 11
270.7831
 21
-0.0000000000000036
 31
0.0
  0
LINE
  5
D9
330
1E
100
AcDbEntity
  8
0
100
AcDbLine
 10
229.1271
 20
-0.000000000000001
 30
0.0
 11
237.7670999999999
 21
-0.0000000000000016
 31
0.0
  0
LINE
  5
DA
330
1E
100
AcDbEntity
  8
0
100
AcDbLine
 10
229.1271
 20
0.9999999999999989
 30
0.0
 11
229.5831
 21
0.9999999999999989
 31
0.0
  0
LINE
  5
DB
330
1E
100
AcDbEntity
  8
0
100
AcDbLine
 10
229.1271
 20
0.9999999999999989
 30
0.0
 11
237.7670999999999
 21
0.9999999999999978
 31
0.0
  0
LINE
  5
DC
330
1E
100
AcDbEntity
  8
0
100
AcDbLine
 10
229.5831
 20
0.9999999999999989
 30
0.0
 11
237.9831
 21
0.9999999999999978
 31
0.0
  0
LINE
  5
DD
330
1E
100
AcDbEntity
  8
0
100
AcDbLine
 10
230.2830999999999
 20
20.69999999999999
 30
0.0
 11
233.0830999999999
 21
22.2
 31
0.0
  0
LINE
  5
DE
330
1E
100
AcDbEntity
  8
0
100
AcDbLine
 10
227.6831
 20
19.3
 30
0.0
 11
230.2830999999999
 21
20.69999999999999
 31
0.0
  0
LINE
  5
DF
330
1E
100
AcDbEntity
  8
0
100
AcDbLine
 10
225.3831
 20
18.1
 30
0.0
 11
227.6831
 21
19.3
 31
0.0
  0
LINE
  5
E0
330
1E
100
AcDbEntity
  8
0
100
AcDbLine
 10
223.6831
 20
17.19999999999999
 30
0.0
 11
225.3831
 21
18.1
 31
0.0
  0
LINE
  5
E1
330
1E
100
AcDbEntity
  8
0
100
AcDbLine
 10
223.6831
 20
11.0
 30
0.0
 11
230.5830999999999
 21
11.0
 31
0.0
  0
LINE
  5
E2
330
1E
100
AcDbEntity
  8
0
100
AcDbLine
 10
233.0830999999999
 20
22.2
 30
0.0
 11
235.8831
 21
23.7
 31
0.0
  0
LINE
  5
E3
330
1E
100
AcDbEntity
  8
0
100
AcDbLine
 10
230.5830999999999
 20
11.0
 30
0.0
 11
238.4831
 21
11.0
 31
0.0
  0
LINE
  5
E4
330
1E
100
AcDbEntity
  8
0
100
AcDbLine
 10
229.5831
 20
9.0
 30
0.0
 11
237.9831
 21
9.0
 31
0.0
  0
LINE
  5
E5
330
1E
100
AcDbEntity
  8
0
100
AcDbLine
 10
236.9831
 20
39.0
 30
0.0
 11
237.9831
 21
40.0
 31
0.0
  0
LINE
  5
E6
330
1E
100
AcDbEntity
  8
0
100
AcDbLine
 10
236.9831
 20
39.0
 30
0.0
 11
236.9831
 21
38.0
 31
0.0
  0
LINE
  5
E8
330
1E
100
AcDbEntity
  8
0
100
AcDbLine
 10
236.9831
 20
38.0
 30
0.0
 11
237.9831
 21
37.0
 31
0.0
  0
LINE
  5
E9
330
1E
100
AcDbEntity
  8
0
100
AcDbLine
 10
236.9831
 20
38.0
 30
0.0
 11
236.9831
 21
39.0
 31
0.0
  0
LINE
  5
EB
330
1E
100
AcDbEntity
  8
0
100
AcDbLine
 10
235.8831
 20
23.7
 30
0.0
 11
238.3831
 21
25.1
 31
0.0
  0
LINE
  5
EC
330
1E
100
AcDbEntity
  8
0
100
AcDbLine
 10
233.2831
 20
-0.0000000000000013
 30
0.0
 11
239.8831
 21
-0.0000000000000017
 31
0.0
  0
LINE
  5
ED
330
1E
100
AcDbEntity
  8
0
100
AcDbLine
 10
230.025904428044
 20
44.5107011070111
 30
0.0
 11
231.9831
 21
45.0
 31
0.0
  0
LINE
  5
EE
330
1E
100
AcDbEntity
  8
0
100
AcDbLine
 10
235.9831
 20
43.0
 30
0.0
 11
237.9831
 21
40.0
 31
0.0
  0
LINE
  5
EF
330
1E
100
AcDbEntity
  8
0
100
AcDbLine
 10
237.7670999999999
 20
0.9999999999999978
 30
0.0
 11
246.9831
 21
0.9999999999999978
 31
0.0
  0
LINE
  5
F0
330
1E
100
AcDbEntity
  8
0
100
AcDbLine
 10
237.7670999999999
 20
-0.0000000000000016
 30
0.0
 11
246.9831
 21
-0.0000000000000021
 31
0.0
  0
LINE
  5
F1
330
1E
100
AcDbEntity
  8
0
100
AcDbLine
 10
237.9831
 20
9.0
 30
0.0
 11
246.9831
 21
9.0
 31
0.0
  0
LINE
  5
F2
330
1E
100
AcDbEntity
  8
0
100
AcDbLine
 10
237.9831
 20
37.0
 30
0.0
 11
238.2830999999999
 21
37.0
 31
0.0
  0
LINE
  5
F3
330
1E
100
AcDbEntity
  8
0
100
AcDbLine
 10
238.3831
 20
25.1
 30
0.0
 11
240.6830999999999
 21
26.3
 31
0.0
  0
LINE
  5
F4
330
1E
100
AcDbEntity
  8
0
100
AcDbLine
 10
238.4831
 20
11.0
 30
0.0
 11
246.9831
 21
11.0
 31
0.0
  0
LINE
  5
F5
330
1E
100
AcDbEntity
  8
0
100
AcDbLine
 10
238.2830999999999
 20
37.0
 30
0.0
 11
239.1830999999999
 21
37.0
 31
0.0
  0
LINE
  5
F6
330
1E
100
AcDbEntity
  8
0
100
AcDbLine
 10
239.1830999999999
 20
37.0
 30
0.0
 11
240.5831
 21
37.0
 31
0.0
  0
LINE
  5
F7
330
1E
100
AcDbEntity
  8
0
100
AcDbLine
 10
243.4830999999999
 20
27.8
 30
0.0
 11
243.8830999999999
 21
28.0
 31
0.0
  0
LINE
  5
F8
330
1E
100
AcDbEntity
  8
0
100
AcDbLine
 10
242.3831
 20
27.2
 30
0.0
 11
243.4830999999999
 21
27.8
 31
0.0
  0
LINE
  5
F9
330
1E
100
AcDbEntity
  8
0
100
AcDbLine
 10
240.6830999999999
 20
26.3
 30
0.0
 11
242.3831
 21
27.2
 31
0.0
  0
LINE
  5
FA
330
1E
100
AcDbEntity
  8
0
100
AcDbLine
 10
243.8830999999999
 20
28.0
 30
0.0
 11
246.9831
 21
28.0
 31
0.0
  0
LINE
  5
FB
330
1E
100
AcDbEntity
  8
0
100
AcDbLine
 10
240.5831
 20
37.0
 30
0.0
 11
242.4831
 21
37.0
 31
0.0
  0
LINE
  5
100
330
1E
100
AcDbEntity
  8
0
100
AcDbLine
 10
237.9831
 20
40.0
 30
0.0
 11
238.2830999999999
 21
40.0
 31
0.0
  0
LINE
  5
103
330
1E
100
AcDbEntity
  8
0
100
AcDbLine
 10
238.2830999999999
 20
40.0
 30
0.0
 11
239.1830999999999
 21
40.0
 31
0.0
  0
LINE
  5
104
330
1E
100
AcDbEntity
  8
0
100
AcDbLine
 10
239.1830999999999
 20
40.0
 30
0.0
 11
240.5831
 21
40.0
 31
0.0
  0
LINE
  5
109
330
1E
100
AcDbEntity
  8
0
100
AcDbLine
 10
240.5831
 20
40.0
 30
0.0
 11
242.4831
 21
40.0
 31
0.0
  0
LINE
  5
10A
330
1E
100
AcDbEntity
  8
0
100
AcDbLine
 10
243.1830999999999
 20
44.5
 30
0.0
 11
244.9831
 21
43.79999999999999
 31
0.0
  0
LINE
  5
10B
330
1E
100
AcDbEntity
  8
0
100
AcDbLine
 10
242.4831
 20
40.0
 30
0.0
 11
244.6830999999999
 21
40.0
 31
0.0
  0
LINE
  5
10C
330
1E
100
AcDbEntity
  8
0
100
AcDbLine
 10
244.6830999999999
 20
40.0
 30
0.0
 11
246.9831
 21
40.0
 31
0.0
  0
LINE
  5
10D
330
1E
100
AcDbEntity
  8
0
100
AcDbLine
 10
242.4831
 20
37.0
 30
0.0
 11
244.6830999999999
 21
37.0
 31
0.0
  0
LINE
  5
10E
330
1E
100
AcDbEntity
  8
0
100
AcDbLine
 10
246.9831
 20
0.9999999999999978
 30
0.0
 11
256.1990999999999
 21
0.9999999999999969
 31
0.0
  0
LINE
  5
10F
330
1E
100
AcDbEntity
  8
0
100
AcDbLine
 10
246.9831
 20
11.0
 30
0.0
 11
255.4831
 21
11.0
 31
0.0
  0
LINE
  5
110
330
1E
100
AcDbEntity
  8
0
100
AcDbLine
 10
246.9831
 20
11.0
 30
0.0
 11
253.9830999999999
 21
11.0
 31
0.0
  0
LINE
  5
111
330
1E
100
AcDbEntity
  8
0
100
AcDbLine
 10
264.3831
 20
0.9999999999999969
 30
0.0
 11
264.8390999999999
 21
0.9999999999999969
 31
0.0
  0
LINE
  5
112
330
1E
100
AcDbEntity
  8
0
100
AcDbLine
 10
272.4710999999999
 20
0.999999999999996
 30
0.0
 11
278.2311
 21
0.999999999999996
 31
0.0
  0
LINE
  5
113
330
1E
100
AcDbEntity
  8
0
100
AcDbLine
 10
264.8390999999999
 20
0.9999999999999969
 30
0.0
 11
272.4710999999999
 21
0.999999999999996
 31
0.0
  0
LINE
  5
114
330
1E
100
AcDbEntity
  8
0
100
AcDbLine
 10
281.6870999999999
 20
0.999999999999996
 30
0.0
 11
282.9831
 21
0.999999999999996
 31
0.0
  0
LINE
  5
115
330
1E
100
AcDbEntity
  8
0
100
AcDbLine
 10
282.9831
 20
0.999999999999996
 30
0.0
 11
282.9831
 21
-0.0000000000000043
 31
0.0
  0
LINE
  5
116
330
1E
100
AcDbEntity
  8
0
100
AcDbLine
 10
281.9830999999999
 20
0.999999999999996
 30
0.0
 11
281.9830999999999
 21
8.999999999999991
 31
0.0
  0
LINE
  5
117
330
1E
100
AcDbEntity
  8
0
100
AcDbLine
 10
278.2311
 20
0.999999999999996
 30
0.0
 11
281.6870999999999
 21
0.999999999999996
 31
0.0
  0
LINE
  5
118
330
1E
100
AcDbEntity
  8
0
100
AcDbLine
 10
281.9830999999999
 20
1.70221908526255
 30
0.0
 11
282.395631554453
 21
0.999999999999996
 31
0.0
  0
LINE
  5
119
330
1E
100
AcDbEntity
  8
0
100
AcDbLine
 10
281.9830999999999
 20
1.70221908526255
 30
0.0
 11
282.395631554453
 21
0.999999999999996
 31
0.0
  0
LINE
  5
11A
330
1E
100
AcDbEntity
  8
0
100
AcDbLine
 10
280.6831
 20
8.999999999999991
 30
0.0
 11
281.9830999999999
 21
8.999999999999991
 31
0.0
  0
LINE
  5
11B
330
1E
100
AcDbEntity
  8
0
100
AcDbLine
 10
281.9830999999999
 20
8.999999999999991
 30
0.0
 11
281.9830999999999
 21
0.9999999999999948
 31
0.0
  0
LINE
  5
11C
330
1E
100
AcDbEntity
  8
0
100
AcDbLine
 10
280.6831
 20
0.999999999999996
 30
0.0
 11
281.6870999999999
 21
0.999999999999996
 31
0.0
  0
LINE
  5
11D
330
1E
100
AcDbEntity
  8
0
100
AcDbLine
 10
277.2831
 20
8.999999999999991
 30
0.0
 11
280.6831
 21
8.999999999999991
 31
0.0
  0
LINE
  5
11E
330
1E
100
AcDbEntity
  8
0
100
AcDbLine
 10
271.6831
 20
9.0
 30
0.0
 11
277.2831
 21
8.999999999999991
 31
0.0
  0
LINE
  5
11F
330
1E
100
AcDbEntity
  8
0
100
AcDbLine
 10
264.3831
 20
0.9999999999999969
 30
0.0
 11
264.8390999999999
 21
0.9999999999999969
 31
0.0
  0
LINE
  5
120
330
1E
100
AcDbEntity
  8
0
100
AcDbLine
 10
264.3831
 20
9.0
 30
0.0
 11
271.6831
 21
9.0
 31
0.0
  0
LINE
  5
121
330
1E
100
AcDbEntity
  8
0
100
AcDbLine
 10
256.1990999999999
 20
0.9999999999999969
 30
0.0
 11
264.3831
 21
0.9999999999999969
 31
0.0
  0
LINE
  5
122
330
1E
100
AcDbEntity
  8
0
100
AcDbLine
 10
256.1990999999999
 20
0.9999999999999969
 30
0.0
 11
264.8390999999999
 21
0.9999999999999969
 31
0.0
  0
LINE
  5
123
330
1E
100
AcDbEntity
  8
0
100
AcDbLine
 10
253.9830999999999
 20
11.0
 30
0.0
 11
255.4831
 21
11.0
 31
0.0
  0
LINE
  5
124
330
1E
100
AcDbEntity
  8
0
100
AcDbLine
 10
278.7831
 20
11.0
 30
0.0
 11
279.9830999999999
 21
11.0
 31
0.0
  0
LINE
  5
125
330
1E
100
AcDbEntity
  8
0
100
AcDbLine
 10
279.9830999999999
 20
11.0
 30
0.0
 11
281.9830999999999
 21
8.999999999999991
 31
0.0
  0
LINE
  5
126
330
1E
100
AcDbEntity
  8
0
100
AcDbLine
 10
275.5831
 20
11.0
 30
0.0
 11
278.7831
 21
11.0
 31
0.0
  0
LINE
  5
127
330
1E
100
AcDbEntity
  8
0
100
AcDbLine
 10
270.2830999999999
 20
11.0
 30
0.0
 11
275.5831
 21
11.0
 31
0.0
  0
LINE
  5
128
330
1E
100
AcDbEntity
  8
0
100
AcDbLine
 10
270.2830999999999
 20
11.0
 30
0.0
 11
270.3831
 21
11.0
 31
0.0
  0
LINE
  5
129
330
1E
100
AcDbEntity
  8
0
100
AcDbLine
 10
265.9831
 20
22.0
 30
0.0
 11
271.9830999999999
 21
16.0
 31
0.0
  0
LINE
  5
12A
330
1E
100
AcDbEntity
  8
0
100
AcDbLine
 10
272.9501
 20
13.5825000000001
 30
0.0
 11
272.9501
 21
43.502475
 31
0.0
  0
LINE
  5
12B
330
1E
100
AcDbEntity
  8
0
100
AcDbLine
 10
271.9830999999999
 20
16.0
 30
0.0
 11
273.9830999999999
 21
11.0
 31
0.0
  0
LINE
  5
12C
330
1E
100
AcDbEntity
  8
0
100
AcDbLine
 10
263.3831
 20
11.0
 30
0.0
 11
270.2830999999999
 21
11.0
 31
0.0
  0
LINE
  5
12D
330
1E
100
AcDbEntity
  8
0
100
AcDbLine
 10
255.4831
 20
11.0
 30
0.0
 11
263.3831
 21
11.0
 31
0.0
  0
LINE
  5
12E
330
1E
100
AcDbEntity
  8
0
100
AcDbLine
 10
255.9830999999999
 20
9.0
 30
0.0
 11
264.3831
 21
9.0
 31
0.0
  0
LINE
  5
12F
330
1E
100
AcDbEntity
  8
0
100
AcDbLine
 10
246.9831
 20
9.0
 30
0.0
 11
255.9830999999999
 21
9.0
 31
0.0
  0
LINE
  5
130
330
1E
100
AcDbEntity
  8
0
100
AcDbLine
 10
246.9831
 20
28.0
 30
0.0
 11
253.9830999999999
 21
27.5
 31
0.0
  0
LINE
  5
131
330
1E
100
AcDbEntity
  8
0
100
AcDbLine
 10
253.9830999999999
 20
27.5
 30
0.0
 11
265.9831
 21
22.0
 31
0.0
  0
LINE
  5
132
330
1E
100
AcDbEntity
  8
0
100
AcDbLine
 10
255.6830999999999
 20
37.0
 30
0.0
 11
255.9830999999999
 21
37.0
 31
0.0
  0
LINE
  5
133
330
1E
100
AcDbEntity
  8
0
100
AcDbLine
 10
254.7830999999999
 20
37.0
 30
0.0
 11
255.6830999999999
 21
37.0
 31
0.0
  0
LINE
  5
134
330
1E
100
AcDbEntity
  8
0
100
AcDbLine
 10
253.3831
 20
37.0
 30
0.0
 11
254.7830999999999
 21
37.0
 31
0.0
  0
LINE
  5
135
330
1E
100
AcDbEntity
  8
0
100
AcDbLine
 10
251.4831
 20
37.0
 30
0.0
 11
253.3831
 21
37.0
 31
0.0
  0
LINE
  5
136
330
1E
100
AcDbEntity
  8
0
100
AcDbLine
 10
249.2830999999999
 20
37.0
 30
0.0
 11
251.4831
 21
37.0
 31
0.0
  0
LINE
  5
139
330
1E
100
AcDbEntity
  8
0
100
AcDbLine
 10
246.9831
 20
43.5
 30
0.0
 11
248.9831
 21
43.79999999999999
 31
0.0
  0
LINE
  5
13A
330
1E
100
AcDbEntity
  8
0
100
AcDbLine
 10
244.9831
 20
43.79999999999999
 30
0.0
 11
246.9831
 21
43.5
 31
0.0
  0
LINE
  5
143
330
1E
100
AcDbEntity
  8
0
100
AcDbLine
 10
255.6830999999999
 20
40.0
 30
0.0
 11
255.9830999999999
 21
40.0
 31
0.0
  0
LINE
  5
144
330
1E
100
AcDbEntity
  8
0
100
AcDbLine
 10
255.9830999999999
 20
40.0
 30
0.0
 11
257.9830999999999
 21
43.0
 31
0.0
  0
LINE
  5
145
330
1E
100
AcDbEntity
  8
0
100
AcDbLine
 10
255.9830999999999
 20
40.0
 30
0.0
 11
256.9830999999999
 21
39.0
 31
0.0
  0
LINE
  5
146
330
1E
100
AcDbEntity
  8
0
100
AcDbLine
 10
254.7830999999999
 20
40.0
 30
0.0
 11
255.6830999999999
 21
40.0
 31
0.0
  0
LINE
  5
147
330
1E
100
AcDbEntity
  8
0
100
AcDbLine
 10
253.3831
 20
40.0
 30
0.0
 11
254.7830999999999
 21
40.0
 31
0.0
  0
LINE
  5
148
330
1E
100
AcDbEntity
  8
0
100
AcDbLine
 10
251.4831
 20
40.0
 30
0.0
 11
253.3831
 21
40.0
 31
0.0
  0
LINE
  5
149
330
1E
100
AcDbEntity
  8
0
100
AcDbLine
 10
248.9831
 20
43.79999999999999
 30
0.0
 11
250.7830999999999
 21
44.5
 31
0.0
  0
LINE
  5
14A
330
1E
100
AcDbEntity
  8
0
100
AcDbLine
 10
250.7830999999999
 20
44.5
 30
0.0
 11
252.2831
 21
45.7
 31
0.0
  0
LINE
  5
14B
330
1E
100
AcDbEntity
  8
0
100
AcDbLine
 10
249.2830999999999
 20
40.0
 30
0.0
 11
251.4831
 21
40.0
 31
0.0
  0
LINE
  5
14C
330
1E
100
AcDbEntity
  8
0
100
AcDbLine
 10
246.9831
 20
40.0
 30
0.0
 11
249.2830999999999
 21
40.0
 31
0.0
  0
LINE
  5
14D
330
1E
100
AcDbEntity
  8
0
100
AcDbLine
 10
246.9831
 20
37.0
 30
0.0
 11
249.2830999999999
 21
37.0
 31
0.0
  0
LINE
  5
14F
330
1E
100
AcDbEntity
  8
0
100
AcDbLine
 10
256.9830999999999
 20
39.0
 30
0.0
 11
256.9830999999999
 21
38.0
 31
0.0
  0
LINE
  5
150
330
1E
100
AcDbEntity
  8
0
100
AcDbLine
 10
256.9830999999999
 20
38.0
 30
0.0
 11
256.9830999999999
 21
39.0
 31
0.0
  0
LINE
  5
152
330
1E
100
AcDbEntity
  8
0
100
AcDbLine
 10
257.9830999999999
 20
43.0
 30
0.0
 11
258.9830999999999
 21
46.0
 31
0.0
  0
LINE
  5
153
330
1E
100
AcDbEntity
  8
0
100
AcDbLine
 10
255.9830999999999
 20
37.0
 30
0.0
 11
258.9830999999999
 21
34.0
 31
0.0
  0
LINE
  5
154
330
1E
100
AcDbEntity
  8
0
100
AcDbLine
 10
255.9830999999999
 20
37.0
 30
0.0
 11
256.9830999999999
 21
38.0
 31
0.0
  0
LINE
  5
155
330
1E
100
AcDbEntity
  8
0
100
AcDbLine
 10
258.9830999999999
 20
34.0
 30
0.0
 11
261.4830999999999
 21
29.0
 31
0.0
  0
LINE
  5
156
330
1E
100
AcDbEntity
  8
0
100
AcDbLine
 10
272.9501
 20
43.502475
 30
0.0
 11
272.9501
 21
13.5825000000001
 31
0.0
  0
LINE
  5
157
330
1E
100
AcDbEntity
  8
0
100
AcDbLine
 10
268.9830999999999
 20
43.79999999999999
 30
0.0
 11
272.9830999999999
 21
43.5
 31
0.0
  0
LINE
  5
158
330
1E
100
AcDbEntity
  8
0
100
AcDbLine
 10
272.9830999999999
 20
43.5
 30
0.0
 11
276.4831
 21
44.0
 31
0.0
  0
LINE
  5
159
330
1E
100
AcDbEntity
  8
0
100
AcDbLine
 10
265.9831
 20
44.0
 30
0.0
 11
268.9830999999999
 21
43.79999999999999
 31
0.0
  0
LINE
  5
15A
330
1E
100
AcDbEntity
  8
0
100
AcDbLine
 10
276.4831
 20
44.0
 30
0.0
 11
278.9830999999999
 21
45.0
 31
0.0
  0
LINE
  5
15B
330
1E
100
AcDbEntity
  8
0
100
AcDbLine
 10
261.4830999999999
 20
29.0
 30
0.0
 11
263.9831
 21
23.0
 31
0.0
  0
LINE
  5
15C
330
1E
100
AcDbEntity
  8
0
100
AcDbLine
 10
263.9831
 20
23.0
 30
0.0
 11
264.012950746269
 21
22.9029850746269
 31
0.0
  0
LINE
  5
15D
330
1E
100
AcDbEntity
  8
0
100
AcDbLine
 10
244.6830999999999
 20
37.0
 30
0.0
 11
246.9831
 21
37.0
 31
0.0
  0
LINE
  5
15E
330
1E
100
AcDbEntity
  8
0
100
AcDbLine
 10
239.8831
 20
-0.0000000000000017
 30
0.0
 11
246.9831
 21
-0.0000000000000021
 31
0.0
  0
LINE
  5
15F
330
1E
100
AcDbEntity
  8
0
100
AcDbLine
 10
237.084070873786
 20
36.10097087378639
 30
0.0
 11
237.9831
 21
37.0
 31
0.0
  0
LINE
  5
160
330
1E
100
AcDbEntity
  8
0
100
AcDbLine
 10
246.9831
 20
-0.0000000000000021
 30
0.0
 11
254.0831
 21
-0.0000000000000026
 31
0.0
  0
LINE
  5
161
330
1E
100
AcDbEntity
  8
0
100
AcDbLine
 10
246.9831
 20
-0.0000000000000021
 30
0.0
 11
256.1990999999999
 21
-0.0000000000000027
 31
0.0
  0
LINE
  5
162
330
1E
100
AcDbEntity
  8
0
100
AcDbLine
 10
223.1831
 20
-0.0000000000000007
 30
0.0
 11
227.5831
 21
-0.000000000000001
 31
0.0
  0
LINE
  5
166
330
1E
100
AcDbEntity
  8
0
100
AcDbLine
 10
231.9831
 20
45.0
 30
0.0
 11
234.9831
 21
46.12499999999999
 31
0.0
  0
LINE
  5
176
330
1E
100
AcDbEntity
  8
0
100
AcDbLine
 10
234.9634921568629
 20
46.11764705882349
 30
0.0
 11
234.9831
 21
46.0
 31
0.0
  0
LINE
  5
177
330
1E
100
AcDbEntity
  8
0
100
AcDbLine
 10
252.2831
 20
45.7
 30
0.0
 11
253.4831
 21
47.2
 31
0.0
  0
LINE
  5
178
330
1E
100
AcDbEntity
  8
0
100
AcDbLine
 10
241.6831
 20
45.7
 30
0.0
 11
243.1830999999999
 21
44.5
 31
0.0
  0
LINE
  5
179
330
1E
100
AcDbEntity
  8
0
100
AcDbLine
 10
261.9831
 20
45.0
 30
0.0
 11
265.9831
 21
44.0
 31
0.0
  0
LINE
  5
17A
330
1E
100
AcDbEntity
  8
0
100
AcDbLine
 10
278.9830999999999
 20
45.0
 30
0.0
 11
280.9830999999999
 21
46.5
 31
0.0
  0
LINE
  5
17B
330
1E
100
AcDbEntity
  8
0
100
AcDbLine
 10
259.0027078431369
 20
46.11764705882349
 30
0.0
 11
261.9831
 21
45.0
 31
0.0
  0
LINE
  5
17C
330
1E
100
AcDbEntity
  8
0
100
AcDbLine
 10
253.4831
 20
47.2
 30
0.0
 11
254.1831
 21
49.0
 31
0.0
  0
LINE
  5
17D
330
1E
100
AcDbEntity
  8
0
100
AcDbLine
 10
254.1831
 20
49.0
 30
0.0
 11
254.4831
 21
51.0
 31
0.0
  0
LINE
  5
17E
330
1E
100
AcDbEntity
  8
0
100
AcDbLine
 10
240.4831
 20
47.2
 30
0.0
 11
241.6831
 21
45.7
 31
0.0
  0
LINE
  5
17F
330
1E
100
AcDbEntity
  8
0
100
AcDbLine
 10
239.7831
 20
49.0
 30
0.0
 11
240.4831
 21
47.2
 31
0.0
  0
LINE
  5
180
330
1E
100
AcDbEntity
  8
0
100
AcDbLine
 10
239.4830999999999
 20
51.0
 30
0.0
 11
239.7831
 21
49.0
 31
0.0
  0
LINE
  5
181
330
1E
100
AcDbEntity
  8
0
100
AcDbLine
 10
239.4830999999999
 20
51.0
 30
0.0
 11
239.7831
 21
53.0
 31
0.0
  0
LINE
  5
182
330
1E
100
AcDbEntity
  8
0
100
AcDbLine
 10
280.9830999999999
 20
46.5
 30
0.0
 11
282.4830999999999
 21
48.5
 31
0.0
  0
LINE
  5
183
330
1E
100
AcDbEntity
  8
0
100
AcDbLine
 10
282.4830999999999
 20
48.5
 30
0.0
 11
282.9831
 21
51.0
 31
0.0
  0
LINE
  5
184
330
1E
100
AcDbEntity
  8
0
100
AcDbLine
 10
258.9830999999999
 20
46.0
 30
0.0
 11
259.0027078431369
 21
46.11764705882349
 31
0.0
  0
LINE
  5
185
330
1E
100
AcDbEntity
  8
0
100
AcDbLine
 10
234.9831
 20
46.0
 30
0.0
 11
235.9831
 21
43.0
 31
0.0
  0
LINE
  5
186
330
1E
100
AcDbEntity
  8
0
100
AcDbLine
 10
201.3541
 20
44.5656
 30
0.0
 11
215.9161
 21
54.808
 31
0.0
  0
LINE
  5
187
330
1E
100
AcDbEntity
  8
0
100
AcDbLine
 10
199.4450999999999
 20
46.40109999999999
 30
0.0
 11
201.3541
 21
44.5656
 31
0.0
  0
LINE
  5
18D
330
1E
100
AcDbEntity
  8
0
100
AcDbLine
 10
215.9161
 20
54.808
 30
0.0
 11
216.2240999999999
 21
54.9959
 31
0.0
  0
LINE
  5
191
330
1E
100
AcDbEntity
  8
0
100
AcDbLine
 10
217.5301
 20
54.7203
 30
0.0
 11
218.0297105192449
 21
54.0340363098681
 31
0.0
  0
LINE
  5
192
330
1E
100
AcDbEntity
  8
0
100
AcDbLine
 10
216.2240999999999
 20
54.9959
 30
0.0
 11
217.5301
 21
54.7203
 31
0.0
  0
LINE
  5
196
330
1E
100
AcDbEntity
  8
0
100
AcDbLine
 10
220.0830999999999
 20
55.7
 30
0.0
 11
220.3831
 21
56.0
 31
0.0
  0
LINE
  5
198
330
1E
100
AcDbEntity
  8
0
100
AcDbLine
 10
220.3831
 20
56.0
 30
0.0
 11
243.8830999999999
 21
28.0
 31
0.0
  0
LINE
  5
19B
330
1E
100
AcDbEntity
  8
0
100
AcDbLine
 10
231.9831
 20
57.0
 30
0.0
 11
234.9634921568629
 21
55.8823529411765
 31
0.0
  0
LINE
  5
19C
330
1E
100
AcDbEntity
  8
0
100
AcDbLine
 10
227.9831
 20
58.0
 30
0.0
 11
231.9831
 21
57.0
 31
0.0
  0
LINE
  5
19D
330
1E
100
AcDbEntity
  8
0
100
AcDbLine
 10
224.9830999999999
 20
58.2
 30
0.0
 11
227.9831
 21
58.0
 31
0.0
  0
LINE
  5
19E
330
1E
100
AcDbEntity
  8
0
100
AcDbLine
 10
220.9831
 20
58.5
 30
0.0
 11
224.9830999999999
 21
58.2
 31
0.0
  0
LINE
  5
19F
330
1E
100
AcDbEntity
  8
0
100
AcDbLine
 10
217.4831
 20
58.0
 30
0.0
 11
220.9831
 21
58.5
 31
0.0
  0
LINE
  5
1A0
330
1E
100
AcDbEntity
  8
0
100
AcDbLine
 10
214.9831
 20
57.0
 30
0.0
 11
217.4831
 21
58.0
 31
0.0
  0
LINE
  5
1A1
330
1E
100
AcDbEntity
  8
0
100
AcDbLine
 10
214.546654158151
 20
56.67266561861339
 30
0.0
 11
214.9831
 21
57.0
 31
0.0
  0
LINE
  5
1A2
330
1E
100
AcDbEntity
  8
0
100
AcDbLine
 10
253.4831
 20
54.8
 30
0.0
 11
254.1831
 21
53.0
 31
0.0
  0
LINE
  5
1A3
330
1E
100
AcDbEntity
  8
0
100
AcDbLine
 10
254.1831
 20
53.0
 30
0.0
 11
254.4831
 21
51.0
 31
0.0
  0
LINE
  5
1A4
330
1E
100
AcDbEntity
  8
0
100
AcDbLine
 10
240.4831
 20
54.8
 30
0.0
 11
241.6831
 21
56.29999999999999
 31
0.0
  0
LINE
  5
1A5
330
1E
100
AcDbEntity
  8
0
100
AcDbLine
 10
239.7831
 20
53.0
 30
0.0
 11
240.4831
 21
54.8
 31
0.0
  0
LINE
  5
1A6
330
1E
100
AcDbEntity
  8
0
100
AcDbLine
 10
258.9830999999999
 20
55.875
 30
0.0
 11
261.9831
 21
57.0
 31
0.0
  0
LINE
  5
1A7
330
1E
100
AcDbEntity
  8
0
100
AcDbLine
 10
280.9830999999999
 20
55.5
 30
0.0
 11
282.4830999999999
 21
53.5
 31
0.0
  0
LINE
  5
1A8
330
1E
100
AcDbEntity
  8
0
100
AcDbLine
 10
282.4830999999999
 20
53.5
 30
0.0
 11
282.9831
 21
51.0
 31
0.0
  0
LINE
  5
1A9
330
1E
100
AcDbEntity
  8
0
100
AcDbLine
 10
258.9830999999999
 20
56.0
 30
0.0
 11
259.0027078431369
 21
55.8823529411765
 31
0.0
  0
LINE
  5
1AA
330
1E
100
AcDbEntity
  8
0
100
AcDbLine
 10
252.2831
 20
56.29999999999999
 30
0.0
 11
253.4831
 21
54.8
 31
0.0
  0
LINE
  5
1AB
330
1E
100
AcDbEntity
  8
0
100
AcDbLine
 10
241.6831
 20
56.29999999999999
 30
0.0
 11
243.1830999999999
 21
57.5
 31
0.0
  0
LINE
  5
1AC
330
1E
100
AcDbEntity
  8
0
100
AcDbLine
 10
250.7830999999999
 20
57.5
 30
0.0
 11
252.2831
 21
56.29999999999999
 31
0.0
  0
LINE
  5
1AD
330
1E
100
AcDbEntity
  8
0
100
AcDbLine
 10
243.1830999999999
 20
57.5
 30
0.0
 11
244.9831
 21
58.2
 31
0.0
  0
LINE
  5
1AE
330
1E
100
AcDbEntity
  8
0
100
AcDbLine
 10
261.9831
 20
57.0
 30
0.0
 11
265.9831
 21
58.0
 31
0.0
  0
LINE
  5
1AF
330
1E
100
AcDbEntity
  8
0
100
AcDbLine
 10
265.9831
 20
58.0
 30
0.0
 11
268.9830999999999
 21
58.2
 31
0.0
  0
LINE
  5
1B0
330
1E
100
AcDbEntity
  8
0
100
AcDbLine
 10
248.9831
 20
58.2
 30
0.0
 11
250.7830999999999
 21
57.5
 31
0.0
  0
LINE
  5
1B1
330
1E
100
AcDbEntity
  8
0
100
AcDbLine
 10
246.9831
 20
58.5
 30
0.0
 11
248.9831
 21
58.2
 31
0.0
  0
LINE
  5
1B2
330
1E
100
AcDbEntity
  8
0
100
AcDbLine
 10
244.9831
 20
58.2
 30
0.0
 11
246.9831
 21
58.5
 31
0.0
  0
LINE
  5
1B3
330
1E
100
AcDbEntity
  8
0
100
AcDbLine
 10
272.9501
 20
58.49752500000001
 30
0.0
 11
272.9501
 21
65.3171
 31
0.0
  0
LINE
  5
1B4
330
1E
100
AcDbEntity
  8
0
100
AcDbLine
 10
268.9830999999999
 20
58.2
 30
0.0
 11
272.9830999999999
 21
58.5
 31
0.0
  0
LINE
  5
1B5
330
1E
100
AcDbEntity
  8
0
100
AcDbLine
 10
276.4831
 20
58.0
 30
0.0
 11
278.9830999999999
 21
57.0
 31
0.0
  0
LINE
  5
1B6
330
1E
100
AcDbEntity
  8
0
100
AcDbLine
 10
278.9830999999999
 20
57.0
 30
0.0
 11
280.9830999999999
 21
55.5
 31
0.0
  0
LINE
  5
1B7
330
1E
100
AcDbEntity
  8
0
100
AcDbLine
 10
234.9831
 20
56.0
 30
0.0
 11
235.9831
 21
59.0
 31
0.0
  0
LINE
  5
1B8
330
1E
100
AcDbEntity
  8
0
100
AcDbLine
 10
234.9634921568629
 20
55.8823529411765
 30
0.0
 11
234.9831
 21
56.0
 31
0.0
  0
LINE
  5
1B9
330
1E
100
AcDbEntity
  8
0
100
AcDbLine
 10
235.9831
 20
59.0
 30
0.0
 11
236.3831
 21
59.0
 31
0.0
  0
LINE
  5
1BA
330
1E
100
AcDbEntity
  8
0
100
AcDbLine
 10
236.3831
 20
59.0
 30
0.0
 11
237.4830999999999
 21
59.0
 31
0.0
  0
LINE
  5
1BB
330
1E
100
AcDbEntity
  8
0
100
AcDbLine
 10
237.4830999999999
 20
59.0
 30
0.0
 11
239.1830999999999
 21
59.0
 31
0.0
  0
LINE
  5
1BC
330
1E
100
AcDbEntity
  8
0
100
AcDbLine
 10
239.1830999999999
 20
59.0
 30
0.0
 11
241.4830999999999
 21
59.0
 31
0.0
  0
LINE
  5
1BD
330
1E
100
AcDbEntity
  8
0
100
AcDbLine
 10
235.4831
 20
60.5
 30
0.0
 11
235.9831
 21
61.0
 31
0.0
  0
LINE
  5
1BE
330
1E
100
AcDbEntity
  8
0
100
AcDbLine
 10
235.4831
 20
60.5
 30
0.0
 11
235.4831
 21
59.5
 31
0.0
  0
LINE
  5
1CA
330
1E
100
AcDbEntity
  8
0
100
AcDbLine
 10
235.4831
 20
59.5
 30
0.0
 11
235.9831
 21
59.0
 31
0.0
  0
LINE
  5
1CB
330
1E
100
AcDbEntity
  8
0
100
AcDbLine
 10
235.4831
 20
59.5
 30
0.0
 11
235.4831
 21
60.5
 31
0.0
  0
LINE
  5
1CD
330
1E
100
AcDbEntity
  8
0
100
AcDbLine
 10
241.4830999999999
 20
59.0
 30
0.0
 11
244.1831
 21
59.0
 31
0.0
  0
LINE
  5
1CE
330
1E
100
AcDbEntity
  8
0
100
AcDbLine
 10
257.5830999999999
 20
59.0
 30
0.0
 11
257.9830999999999
 21
59.0
 31
0.0
  0
LINE
  5
1CF
330
1E
100
AcDbEntity
  8
0
100
AcDbLine
 10
257.9830999999999
 20
59.0
 30
0.0
 11
258.9830999999999
 21
56.0
 31
0.0
  0
LINE
  5
1D0
330
1E
100
AcDbEntity
  8
0
100
AcDbLine
 10
257.9830999999999
 20
59.0
 30
0.0
 11
258.4830999999999
 21
59.5
 31
0.0
  0
LINE
  5
1D1
330
1E
100
AcDbEntity
  8
0
100
AcDbLine
 10
256.4830999999999
 20
59.0
 30
0.0
 11
257.5830999999999
 21
59.0
 31
0.0
  0
LINE
  5
1D2
330
1E
100
AcDbEntity
  8
0
100
AcDbLine
 10
254.7830999999999
 20
59.0
 30
0.0
 11
256.4830999999999
 21
59.0
 31
0.0
  0
LINE
  5
1D3
330
1E
100
AcDbEntity
  8
0
100
AcDbLine
 10
252.4831
 20
59.0
 30
0.0
 11
254.7830999999999
 21
59.0
 31
0.0
  0
LINE
  5
1D4
330
1E
100
AcDbEntity
  8
0
100
AcDbLine
 10
249.7831
 20
59.0
 30
0.0
 11
252.4831
 21
59.0
 31
0.0
  0
LINE
  5
1D6
330
1E
100
AcDbEntity
  8
0
100
AcDbLine
 10
258.4830999999999
 20
59.5
 30
0.0
 11
258.4830999999999
 21
60.5
 31
0.0
  0
LINE
  5
1DB
330
1E
100
AcDbEntity
  8
0
100
AcDbLine
 10
258.4830999999999
 20
60.5
 30
0.0
 11
258.4830999999999
 21
59.5
 31
0.0
  0
LINE
  5
1E3
330
1E
100
AcDbEntity
  8
0
100
AcDbLine
 10
246.9831
 20
59.0
 30
0.0
 11
249.7831
 21
59.0
 31
0.0
  0
LINE
  5
1E4
330
1E
100
AcDbEntity
  8
0
100
AcDbLine
 10
244.1831
 20
59.0
 30
0.0
 11
246.9831
 21
59.0
 31
0.0
  0
LINE
  5
1E5
330
1E
100
AcDbEntity
  8
0
100
AcDbLine
 10
272.9830999999999
 20
58.5
 30
0.0
 11
276.4831
 21
58.0
 31
0.0
  0
LINE
  5
1E6
330
1E
100
AcDbEntity
  8
0
100
AcDbLine
 10
214.4360999999999
 20
56.8166
 30
0.0
 11
215.9588486746659
 21
54.8340794674344
 31
0.0
  0
LINE
  5
1E7
330
1E
100
AcDbEntity
  8
0
100
AcDbLine
 10
194.3491
 20
51.3893
 30
0.0
 11
199.4450999999999
 21
46.40109999999999
 31
0.0
  0
LINE
  5
1E8
330
1E
100
AcDbEntity
  8
0
100
AcDbLine
 10
188.8260999999999
 20
55.9693
 30
0.0
 11
194.3491
 21
51.3893
 31
0.0
  0
LINE
  5
1E9
330
1E
100
AcDbEntity
  8
0
100
AcDbLine
 10
235.9831
 20
61.0
 30
0.0
 11
236.3831
 21
61.0
 31
0.0
  0
LINE
  5
1EA
330
1E
100
AcDbEntity
  8
0
100
AcDbLine
 10
235.9831
 20
61.0
 30
0.0
 11
239.7831
 21
63.5
 31
0.0
  0
LINE
  5
1EB
330
1E
100
AcDbEntity
  8
0
100
AcDbLine
 10
236.3831
 20
61.0
 30
0.0
 11
237.4830999999999
 21
61.0
 31
0.0
  0
LINE
  5
1EC
330
1E
100
AcDbEntity
  8
0
100
AcDbLine
 10
237.4830999999999
 20
61.0
 30
0.0
 11
239.1830999999999
 21
61.0
 31
0.0
  0
LINE
  5
1ED
330
1E
100
AcDbEntity
  8
0
100
AcDbLine
 10
239.1830999999999
 20
61.0
 30
0.0
 11
241.4830999999999
 21
61.0
 31
0.0
  0
LINE
  5
1EE
330
1E
100
AcDbEntity
  8
0
100
AcDbLine
 10
241.4830999999999
 20
61.0
 30
0.0
 11
244.1831
 21
61.0
 31
0.0
  0
LINE
  5
1EF
330
1E
100
AcDbEntity
  8
0
100
AcDbLine
 10
257.9830999999999
 20
61.0
 30
0.0
 11
258.4830999999999
 21
60.5
 31
0.0
  0
LINE
  5
1F0
330
1E
100
AcDbEntity
  8
0
100
AcDbLine
 10
257.5830999999999
 20
61.0
 30
0.0
 11
257.9830999999999
 21
61.0
 31
0.0
  0
LINE
  5
1F1
330
1E
100
AcDbEntity
  8
0
100
AcDbLine
 10
256.4830999999999
 20
61.0
 30
0.0
 11
257.5830999999999
 21
61.0
 31
0.0
  0
LINE
  5
1F2
330
1E
100
AcDbEntity
  8
0
100
AcDbLine
 10
254.7830999999999
 20
61.0
 30
0.0
 11
256.4830999999999
 21
61.0
 31
0.0
  0
LINE
  5
1F3
330
1E
100
AcDbEntity
  8
0
100
AcDbLine
 10
252.4831
 20
61.0
 30
0.0
 11
254.7830999999999
 21
61.0
 31
0.0
  0
LINE
  5
1F4
330
1E
100
AcDbEntity
  8
0
100
AcDbLine
 10
249.7831
 20
61.0
 30
0.0
 11
252.4831
 21
61.0
 31
0.0
  0
LINE
  5
1F5
330
1E
100
AcDbEntity
  8
0
100
AcDbLine
 10
246.9831
 20
61.0
 30
0.0
 11
249.7831
 21
61.0
 31
0.0
  0
LINE
  5
1F6
330
1E
100
AcDbEntity
  8
0
100
AcDbLine
 10
244.1831
 20
61.0
 30
0.0
 11
246.9831
 21
61.0
 31
0.0
  0
LINE
  5
1F7
330
1E
100
AcDbEntity
  8
0
100
AcDbLine
 10
250.2831
 20
64.8
 30
0.0
 11
254.1831
 21
63.5
 31
0.0
  0
LINE
  5
1F8
330
1E
100
AcDbEntity
  8
0
100
AcDbLine
 10
254.1831
 20
63.5
 30
0.0
 11
257.9830999999999
 21
61.0
 31
0.0
  0
LINE
  5
1F9
330
1E
100
AcDbEntity
  8
0
100
AcDbLine
 10
272.0061
 20
70.9444
 30
0.0
 11
272.9501
 21
65.3171
 31
0.0
  0
LINE
  5
1FA
330
1E
100
AcDbEntity
  8
0
100
AcDbLine
 10
272.9501
 20
65.3171
 30
0.0
 11
272.9501
 21
58.49752500000001
 31
0.0
  0
LINE
  5
1FB
330
1E
100
AcDbEntity
  8
0
100
AcDbLine
 10
246.9831
 20
65.0
 30
0.0
 11
250.2831
 21
64.8
 31
0.0
  0
LINE
  5
1FC
330
1E
100
AcDbEntity
  8
0
100
AcDbLine
 10
243.6831
 20
64.8
 30
0.0
 11
246.9831
 21
65.0
 31
0.0
  0
LINE
  5
1FD
330
1E
100
AcDbEntity
  8
0
100
AcDbLine
 10
239.7831
 20
63.5
 30
0.0
 11
243.6831
 21
64.8
 31
0.0
  0
LINE
  5
1FE
330
1E
100
AcDbEntity
  8
0
100
AcDbLine
 10
209.8190999999999
 20
62.558
 30
0.0
 11
214.4360999999999
 21
56.8166
 31
0.0
  0
LINE
  5
1FF
330
1E
100
AcDbEntity
  8
0
100
AcDbLine
 10
204.4210999999999
 20
68.5673
 30
0.0
 11
209.8190999999999
 21
62.558
 31
0.0
  0
LINE
  5
200
330
1E
100
AcDbEntity
  8
0
100
AcDbLine
 10
182.3131
 20
60.9941
 30
0.0
 11
188.8260999999999
 21
55.9693
 31
0.0
  0
LINE
  5
201
330
1E
100
AcDbEntity
  8
0
100
AcDbLine
 10
176.0771
 20
65.9915
 30
0.0
 11
182.3131
 21
60.9941
 31
0.0
  0
LINE
  5
202
330
1E
100
AcDbEntity
  8
0
100
AcDbLine
 10
265.2781
 20
80.8927
 30
0.0
 11
269.4091
 21
76.2702
 31
0.0
  0
LINE
  5
203
330
1E
100
AcDbEntity
  8
0
100
AcDbLine
 10
269.4091
 20
76.2702
 30
0.0
 11
272.0061
 21
70.9444
 31
0.0
  0
LINE
  5
204
330
1E
100
AcDbEntity
  8
0
100
AcDbLine
 10
198.9721
 20
74.13249999999999
 30
0.0
 11
204.4210999999999
 21
68.5673
 31
0.0
  0
LINE
  5
205
330
1E
100
AcDbEntity
  8
0
100
AcDbLine
 10
192.3251
 20
80.2382
 30
0.0
 11
198.9721
 21
74.13249999999999
 31
0.0
  0
LINE
  5
206
330
1E
100
AcDbEntity
  8
0
100
AcDbLine
 10
169.5301
 20
71.00509999999999
 30
0.0
 11
176.0771
 21
65.9915
 31
0.0
  0
LINE
  5
207
330
1E
100
AcDbEntity
  8
0
100
AcDbLine
 10
162.8711
 20
76.6661
 30
0.0
 11
169.5301
 21
71.00509999999999
 31
0.0
  0
LINE
  5
208
330
1E
100
AcDbEntity
  8
0
100
AcDbLine
 10
234.1171
 20
84.40980000000001
 30
0.0
 11
236.9501
 21
85.9171
 31
0.0
  0
LINE
  5
209
330
1E
100
AcDbEntity
  8
0
100
AcDbLine
 10
232.682786187542
 20
83.48060031132892
 30
0.0
 11
234.1171
 21
84.40980000000001
 31
0.0
  0
LINE
  5
20A
330
1E
100
AcDbEntity
  8
0
100
AcDbLine
 10
256.6621
 20
85.9171
 30
0.0
 11
257.0161
 21
85.9171
 31
0.0
  0
LINE
  5
20B
330
1E
100
AcDbEntity
  8
0
100
AcDbLine
 10
255.7170999999999
 20
85.9171
 30
0.0
 11
256.6621
 21
85.9171
 31
0.0
  0
LINE
  5
20C
330
1E
100
AcDbEntity
  8
0
100
AcDbLine
 10
236.9501
 20
85.9171
 30
0.0
 11
237.3041
 21
85.9171
 31
0.0
  0
LINE
  5
20F
330
1E
100
AcDbEntity
  8
0
100
AcDbLine
 10
236.3601
 20
86.41949999999999
 30
0.0
 11
236.9501
 21
85.9171
 31
0.0
  0
LINE
  5
210
330
1E
100
AcDbEntity
  8
0
100
AcDbLine
 10
236.3601
 20
86.41949999999999
 30
0.0
 11
236.3601
 21
87.4244
 31
0.0
  0
LINE
  5
212
330
1E
100
AcDbEntity
  8
0
100
AcDbLine
 10
237.3041
 20
85.9171
 30
0.0
 11
238.2490999999999
 21
85.9171
 31
0.0
  0
LINE
  5
213
330
1E
100
AcDbEntity
  8
0
100
AcDbLine
 10
239.9011
 20
85.9171
 30
0.0
 11
242.0260999999999
 21
85.9171
 31
0.0
  0
LINE
  5
214
330
1E
100
AcDbEntity
  8
0
100
AcDbLine
 10
251.9401
 20
85.9171
 30
0.0
 11
254.0650999999999
 21
85.9171
 31
0.0
  0
LINE
  5
215
330
1E
100
AcDbEntity
  8
0
100
AcDbLine
 10
246.9831
 20
85.9171
 30
0.0
 11
249.5800999999999
 21
85.9171
 31
0.0
  0
LINE
  5
216
330
1E
100
AcDbEntity
  8
0
100
AcDbLine
 10
249.5800999999999
 20
85.9171
 30
0.0
 11
251.9401
 21
85.9171
 31
0.0
  0
LINE
  5
217
330
1E
100
AcDbEntity
  8
0
100
AcDbLine
 10
242.0260999999999
 20
85.9171
 30
0.0
 11
244.3861
 21
85.9171
 31
0.0
  0
LINE
  5
220
330
1E
100
AcDbEntity
  8
0
100
AcDbLine
 10
244.3861
 20
85.9171
 30
0.0
 11
246.9831
 21
85.9171
 31
0.0
  0
LINE
  5
221
330
1E
100
AcDbEntity
  8
0
100
AcDbLine
 10
238.2490999999999
 20
85.9171
 30
0.0
 11
239.9011
 21
85.9171
 31
0.0
  0
LINE
  5
222
330
1E
100
AcDbEntity
  8
0
100
AcDbLine
 10
254.0650999999999
 20
85.9171
 30
0.0
 11
255.7170999999999
 21
85.9171
 31
0.0
  0
LINE
  5
223
330
1E
100
AcDbEntity
  8
0
100
AcDbLine
 10
257.6061
 20
86.41949999999999
 30
0.0
 11
257.6061
 21
87.4244
 31
0.0
  0
LINE
  5
225
330
1E
100
AcDbEntity
  8
0
100
AcDbLine
 10
257.0161
 20
85.9171
 30
0.0
 11
259.8491
 21
84.40980000000001
 31
0.0
  0
LINE
  5
226
330
1E
100
AcDbEntity
  8
0
100
AcDbLine
 10
257.0161
 20
85.9171
 30
0.0
 11
257.6061
 21
86.41949999999999
 31
0.0
  0
LINE
  5
227
330
1E
100
AcDbEntity
  8
0
100
AcDbLine
 10
259.8491
 20
84.40980000000001
 30
0.0
 11
265.2781
 21
80.8927
 31
0.0
  0
LINE
  5
228
330
1E
100
AcDbEntity
  8
0
100
AcDbLine
 10
231.8831
 20
84.40000000000001
 30
0.0
 11
232.682786187542
 21
83.48060031132892
 31
0.0
  0
LINE
  5
22A
330
1E
100
AcDbEntity
  8
0
100
AcDbLine
 10
236.3601
 20
87.4244
 30
0.0
 11
236.9501
 21
87.9268
 31
0.0
  0
LINE
  5
22B
330
1E
100
AcDbEntity
  8
0
100
AcDbLine
 10
236.3601
 20
87.4244
 30
0.0
 11
236.3601
 21
86.41949999999999
 31
0.0
  0
LINE
  5
22D
330
1E
100
AcDbEntity
  8
0
100
AcDbLine
 10
236.9501
 20
87.9268
 30
0.0
 11
237.3041
 21
87.9268
 31
0.0
  0
LINE
  5
233
330
1E
100
AcDbEntity
  8
0
100
AcDbLine
 10
244.3861
 20
87.9268
 30
0.0
 11
246.9831
 21
87.9268
 31
0.0
  0
LINE
  5
234
330
1E
100
AcDbEntity
  8
0
100
AcDbLine
 10
242.0260999999999
 20
87.9268
 30
0.0
 11
244.3861
 21
87.9268
 31
0.0
  0
LINE
  5
235
330
1E
100
AcDbEntity
  8
0
100
AcDbLine
 10
239.9011
 20
87.9268
 30
0.0
 11
242.0260999999999
 21
87.9268
 31
0.0
  0
LINE
  5
238
330
1E
100
AcDbEntity
  8
0
100
AcDbLine
 10
249.5800999999999
 20
87.9268
 30
0.0
 11
251.9401
 21
87.9268
 31
0.0
  0
LINE
  5
239
330
1E
100
AcDbEntity
  8
0
100
AcDbLine
 10
246.9831
 20
87.9268
 30
0.0
 11
249.5800999999999
 21
87.9268
 31
0.0
  0
LINE
  5
23A
330
1E
100
AcDbEntity
  8
0
100
AcDbLine
 10
251.9401
 20
87.9268
 30
0.0
 11
254.0650999999999
 21
87.9268
 31
0.0
  0
LINE
  5
23B
330
1E
100
AcDbEntity
  8
0
100
AcDbLine
 10
237.3041
 20
87.9268
 30
0.0
 11
238.2490999999999
 21
87.9268
 31
0.0
  0
LINE
  5
23C
330
1E
100
AcDbEntity
  8
0
100
AcDbLine
 10
238.2490999999999
 20
87.9268
 30
0.0
 11
239.9011
 21
87.9268
 31
0.0
  0
LINE
  5
23F
330
1E
100
AcDbEntity
  8
0
100
AcDbLine
 10
256.6621
 20
87.9268
 30
0.0
 11
257.0161
 21
87.9268
 31
0.0
  0
LINE
  5
240
330
1E
100
AcDbEntity
  8
0
100
AcDbLine
 10
255.7170999999999
 20
87.9268
 30
0.0
 11
256.6621
 21
87.9268
 31
0.0
  0
LINE
  5
241
330
1E
100
AcDbEntity
  8
0
100
AcDbLine
 10
254.0650999999999
 20
87.9268
 30
0.0
 11
255.7170999999999
 21
87.9268
 31
0.0
  0
LINE
  5
242
330
1E
100
AcDbEntity
  8
0
100
AcDbLine
 10
235.6520999999999
 20
95.46339999999998
 30
0.0
 11
236.9501
 21
97.87510000000001
 31
0.0
  0
LINE
  5
243
330
1E
100
AcDbEntity
  8
0
100
AcDbLine
 10
235.1801
 20
92.9512
 30
0.0
 11
235.6520999999999
 21
90.43899999999998
 31
0.0
  0
LINE
  5
244
330
1E
100
AcDbEntity
  8
0
100
AcDbLine
 10
235.1801
 20
92.9512
 30
0.0
 11
235.6520999999999
 21
95.46339999999998
 31
0.0
  0
LINE
  5
245
330
1E
100
AcDbEntity
  8
0
100
AcDbLine
 10
235.6520999999999
 20
90.43899999999998
 30
0.0
 11
236.9501
 21
87.9268
 31
0.0
  0
LINE
  5
247
330
1E
100
AcDbEntity
  8
0
100
AcDbLine
 10
257.6061
 20
87.4244
 30
0.0
 11
257.6061
 21
86.41949999999999
 31
0.0
  0
LINE
  5
248
330
1E
100
AcDbEntity
  8
0
100
AcDbLine
 10
258.3140999999999
 20
95.46339999999998
 30
0.0
 11
258.7860999999999
 21
92.9512
 31
0.0
  0
LINE
  5
249
330
1E
100
AcDbEntity
  8
0
100
AcDbLine
 10
258.3140999999999
 20
90.43899999999998
 30
0.0
 11
258.7860999999999
 21
92.9512
 31
0.0
  0
LINE
  5
24A
330
1E
100
AcDbEntity
  8
0
100
AcDbLine
 10
257.0161
 20
87.9268
 30
0.0
 11
258.3140999999999
 21
90.43899999999998
 31
0.0
  0
LINE
  5
24B
330
1E
100
AcDbEntity
  8
0
100
AcDbLine
 10
257.0161
 20
87.9268
 30
0.0
 11
257.6061
 21
87.4244
 31
0.0
  0
LINE
  5
24C
330
1E
100
AcDbEntity
  8
0
100
AcDbLine
 10
184.7860999999999
 20
86.8041
 30
0.0
 11
192.3251
 21
80.2382
 31
0.0
  0
LINE
  5
24D
330
1E
100
AcDbEntity
  8
0
100
AcDbLine
 10
177.0771
 20
93.4791
 30
0.0
 11
184.7860999999999
 21
86.8041
 31
0.0
  0
LINE
  5
24E
330
1E
100
AcDbEntity
  8
0
100
AcDbLine
 10
156.0380999999999
 20
82.5182
 30
0.0
 11
162.8711
 21
76.6661
 31
0.0
  0
LINE
  5
24F
330
1E
100
AcDbEntity
  8
0
100
AcDbLine
 10
148.3351
 20
89.2415
 30
0.0
 11
156.0380999999999
 21
82.5182
 31
0.0
  0
LINE
  5
250
330
1E
100
AcDbEntity
  8
0
100
AcDbLine
 10
236.9501
 20
97.87510000000001
 30
0.0
 11
238.7211
 21
99.9854
 31
0.0
  0
LINE
  5
251
330
1E
100
AcDbEntity
  8
0
100
AcDbLine
 10
257.0161
 20
97.87510000000001
 30
0.0
 11
258.3140999999999
 21
95.46339999999998
 31
0.0
  0
LINE
  5
252
330
1E
100
AcDbEntity
  8
0
100
AcDbLine
 10
218.8960999999999
 20
98.5081
 30
0.0
 11
231.8831
 21
84.40000000000001
 31
0.0
  0
LINE
  5
253
330
1E
100
AcDbEntity
  8
0
100
AcDbLine
 10
241.1990999999999
 20
101.5929999999999
 30
0.0
 11
244.0321
 21
102.598
 31
0.0
  0
LINE
  5
254
330
1E
100
AcDbEntity
  8
0
100
AcDbLine
 10
238.7211
 20
99.9854
 30
0.0
 11
241.1990999999999
 21
101.5929999999999
 31
0.0
  0
LINE
  5
255
330
1E
100
AcDbEntity
  8
0
100
AcDbLine
 10
244.0321
 20
102.598
 30
0.0
 11
246.9831
 21
103.0
 31
0.0
  0
LINE
  5
256
330
1E
100
AcDbEntity
  8
0
100
AcDbLine
 10
246.9831
 20
103.0
 30
0.0
 11
249.9341
 21
102.598
 31
0.0
  0
LINE
  5
257
330
1E
100
AcDbEntity
  8
0
100
AcDbLine
 10
249.9341
 20
102.598
 30
0.0
 11
252.7671
 21
101.5929999999999
 31
0.0
  0
LINE
  5
258
330
1E
100
AcDbEntity
  8
0
100
AcDbLine
 10
252.7671
 20
101.5929999999999
 30
0.0
 11
255.2451
 21
99.9854
 31
0.0
  0
LINE
  5
259
330
1E
100
AcDbEntity
  8
0
100
AcDbLine
 10
255.2451
 20
99.9854
 30
0.0
 11
257.0161
 21
97.87510000000001
 31
0.0
  0
LINE
  5
25A
330
1E
100
AcDbEntity
  8
0
100
AcDbLine
 10
168.9580999999999
 20
99.7056
 30
0.0
 11
177.0771
 21
93.4791
 31
0.0
  0
LINE
  5
25B
330
1E
100
AcDbEntity
  8
0
100
AcDbLine
 10
159.5270999999999
 20
106.665
 30
0.0
 11
168.9580999999999
 21
99.7056
 31
0.0
  0
LINE
  5
25C
330
1E
100
AcDbEntity
  8
0
100
AcDbLine
 10
139.6420999999999
 20
96.77570000000001
 30
0.0
 11
148.3351
 21
89.2415
 31
0.0
  0
LINE
  5
25D
330
1E
100
AcDbEntity
  8
0
100
AcDbLine
 10
129.3401
 20
104.807
 30
0.0
 11
139.6420999999999
 21
96.77570000000001
 31
0.0
  0
LINE
  5
25E
330
1E
100
AcDbEntity
  8
0
100
AcDbLine
 10
119.6341
 20
111.68
 30
0.0
 11
129.3401
 21
104.807
 31
0.0
  0
LINE
  5
25F
330
1E
100
AcDbEntity
  8
0
100
AcDbLine
 10
89.53560000000001
 20
108.827
 30
0.0
 11
90.77200000000001
 21
108.4249999999999
 31
0.0
  0
LINE
  5
260
330
1E
100
AcDbEntity
  8
0
100
AcDbLine
 10
86.01679999999999
 20
109.97
 30
0.0
 11
89.53560000000001
 21
108.827
 31
0.0
  0
LINE
  5
261
330
1E
100
AcDbEntity
  8
0
100
AcDbLine
 10
83.9478
 20
115.9
 30
0.0
 11
90.0346
 21
113.922
 31
0.0
  0
LINE
  5
262
330
1E
100
AcDbEntity
  8
0
100
AcDbLine
 10
90.0346
 20
113.922
 30
0.0
 11
93.2681
 21
112.872
 31
0.0
  0
LINE
  5
263
330
1E
100
AcDbEntity
  8
0
100
AcDbLine
 10
93.2681
 20
112.872
 30
0.0
 11
94.8132
 21
117.627
 31
0.0
  0
LINE
  5
264
330
1E
100
AcDbEntity
  8
0
100
AcDbLine
 10
93.48180000000001
 20
118.06
 30
0.0
 11
94.8132
 21
117.627
 31
0.0
  0
LINE
  5
265
330
1E
100
AcDbEntity
  8
0
100
AcDbLine
 10
89.9629
 20
119.2029999999999
 30
0.0
 11
93.48180000000001
 21
118.06
 31
0.0
  0
LINE
  5
266
330
1E
100
AcDbEntity
  8
0
100
AcDbLine
 10
84.1614
 20
121.0879999999999
 30
0.0
 11
89.9629
 21
119.2029999999999
 31
0.0
  0
LINE
  5
267
330
1E
100
AcDbEntity
  8
0
100
AcDbLine
 10
98.56940000000001
 20
122.7149999999999
 30
0.0
 11
108.2935999999999
 21
118.4739999999999
 31
0.0
  0
LINE
  5
268
330
1E
100
AcDbEntity
  8
0
100
AcDbLine
 10
83.3891
 20
162.6999999999999
 30
0.0
 11
94.20610000000001
 21
160.209
 31
0.0
  0
LINE
  5
269
330
1E
100
AcDbEntity
  8
0
100
AcDbLine
 10
88.2545
 20
135.9499999999999
 30
0.0
 11
89.4743
 21
133.556
 31
0.0
  0
LINE
  5
26A
330
1E
100
AcDbEntity
  8
0
100
AcDbLine
 10
94.16119999999999
 20
124.3579999999999
 30
0.0
 11
94.28969999999999
 21
124.106
 31
0.0
  0
LINE
  5
26B
330
1E
100
AcDbEntity
  8
0
100
AcDbLine
 10
93.6476
 20
125.3659999999999
 30
0.0
 11
94.16119999999999
 21
124.3579999999999
 31
0.0
  0
LINE
  5
26C
330
1E
100
AcDbEntity
  8
0
100
AcDbLine
 10
92.8772
 20
126.8779999999999
 30
0.0
 11
93.6476
 21
125.3659999999999
 31
0.0
  0
LINE
  5
26D
330
1E
100
AcDbEntity
  8
0
100
AcDbLine
 10
91.91419999999999
 20
128.7679999999999
 30
0.0
 11
92.8772
 21
126.8779999999999
 31
0.0
  0
LINE
  5
26E
330
1E
100
AcDbEntity
  8
0
100
AcDbLine
 10
90.7585
 20
131.037
 30
0.0
 11
91.91419999999999
 21
128.7679999999999
 31
0.0
  0
LINE
  5
26F
330
1E
100
AcDbEntity
  8
0
100
AcDbLine
 10
89.4743
 20
133.556
 30
0.0
 11
90.7585
 21
131.037
 31
0.0
  0
LINE
  5
270
330
1E
100
AcDbEntity
  8
0
100
AcDbLine
 10
86.0716
 20
140.235
 30
0.0
 11
87.09889999999999
 21
138.2179999999999
 31
0.0
  0
LINE
  5
271
330
1E
100
AcDbEntity
  8
0
100
AcDbLine
 10
91.1951
 20
197.844
 30
0.0
 11
108.3811
 21
193.3009999999999
 31
0.0
  0
LINE
  5
272
330
1E
100
AcDbEntity
  8
0
100
AcDbLine
 10
94.20610000000001
 20
160.209
 30
0.0
 11
102.4570999999999
 21
156.661
 31
0.0
  0
LINE
  5
273
330
1E
100
AcDbEntity
  8
0
100
AcDbLine
 10
102.4570999999999
 20
156.661
 30
0.0
 11
120.8311
 21
143.984
 31
0.0
  0
LINE
  5
274
330
1E
100
AcDbEntity
  8
0
100
AcDbLine
 10
87.09889999999999
 20
138.2179999999999
 30
0.0
 11
88.2545
 21
135.9499999999999
 31
0.0
  0
LINE
  5
275
330
1E
100
AcDbEntity
  8
0
100
AcDbLine
 10
103.2046999999999
 20
136.982
 30
0.0
 11
117.0080999999999
 21
131.892
 31
0.0
  0
LINE
  5
276
330
1E
100
AcDbEntity
  8
0
100
AcDbLine
 10
84.65909999999999
 20
143.007
 30
0.0
 11
103.2046999999999
 21
136.982
 31
0.0
  0
LINE
  5
277
330
1E
100
AcDbEntity
  8
0
100
AcDbLine
 10
94.28969999999999
 20
124.106
 30
0.0
 11
98.56940000000001
 21
122.7149999999999
 31
0.0
  0
LINE
  5
278
330
1E
100
AcDbEntity
  8
0
100
AcDbLine
 10
94.28969999999999
 20
124.106
 30
0.0
 11
94.8132
 21
117.627
 31
0.0
  0
LINE
  5
279
330
1E
100
AcDbEntity
  8
0
100
AcDbLine
 10
116.8441
 20
131.6409999999999
 30
0.0
 11
117.0080999999999
 21
131.892
 31
0.0
  0
LINE
  5
27A
330
1E
100
AcDbEntity
  8
0
100
AcDbLine
 10
116.4090999999999
 20
130.97
 30
0.0
 11
116.8441
 21
131.6409999999999
 31
0.0
  0
LINE
  5
27B
330
1E
100
AcDbEntity
  8
0
100
AcDbLine
 10
115.7001
 20
129.8789999999999
 30
0.0
 11
116.4090999999999
 21
130.97
 31
0.0
  0
LINE
  5
27C
330
1E
100
AcDbEntity
  8
0
100
AcDbLine
 10
114.8290999999999
 20
128.5379999999999
 30
0.0
 11
115.7001
 21
129.8789999999999
 31
0.0
  0
LINE
  5
27D
330
1E
100
AcDbEntity
  8
0
100
AcDbLine
 10
113.7401
 20
126.8599999999999
 30
0.0
 11
114.8290999999999
 21
128.5379999999999
 31
0.0
  0
LINE
  5
27E
330
1E
100
AcDbEntity
  8
0
100
AcDbLine
 10
112.6511
 20
125.1829999999999
 30
0.0
 11
113.7401
 21
126.8599999999999
 31
0.0
  0
LINE
  5
27F
330
1E
100
AcDbEntity
  8
0
100
AcDbLine
 10
111.5069
 20
123.422
 30
0.0
 11
112.6511
 21
125.1829999999999
 31
0.0
  0
LINE
  5
280
330
1E
100
AcDbEntity
  8
0
100
AcDbLine
 10
110.4721
 20
121.8289999999999
 30
0.0
 11
111.5069
 21
123.422
 31
0.0
  0
LINE
  5
281
330
1E
100
AcDbEntity
  8
0
100
AcDbLine
 10
109.5461999999999
 20
120.4029999999999
 30
0.0
 11
110.4721
 21
121.8289999999999
 31
0.0
  0
LINE
  5
282
330
1E
100
AcDbEntity
  8
0
100
AcDbLine
 10
108.8926
 20
119.396
 30
0.0
 11
109.5461999999999
 21
120.4029999999999
 31
0.0
  0
LINE
  5
283
330
1E
100
AcDbEntity
  8
0
100
AcDbLine
 10
108.457
 20
118.7259999999999
 30
0.0
 11
108.8926
 21
119.396
 31
0.0
  0
LINE
  5
284
330
1E
100
AcDbEntity
  8
0
100
AcDbLine
 10
150.2380999999999
 20
113.2929999999999
 30
0.0
 11
159.5270999999999
 21
106.665
 31
0.0
  0
LINE
  5
285
330
1E
100
AcDbEntity
  8
0
100
AcDbLine
 10
197.3301
 20
121.9689999999999
 30
0.0
 11
218.8960999999999
 21
98.5081
 31
0.0
  0
LINE
  5
286
330
1E
100
AcDbEntity
  8
0
100
AcDbLine
 10
146.7000999999999
 20
121.352
 30
0.0
 11
167.725374711585
 21
100.615262641522
 31
0.0
  0
LINE
  5
287
330
1E
100
AcDbEntity
  8
0
100
AcDbLine
 10
139.1720999999999
 20
120.122
 30
0.0
 11
150.2380999999999
 21
113.2929999999999
 31
0.0
  0
LINE
  5
288
330
1E
100
AcDbEntity
  8
0
100
AcDbLine
 10
128.6721
 20
125.987
 30
0.0
 11
139.1720999999999
 21
120.122
 31
0.0
  0
LINE
  5
289
330
1E
100
AcDbEntity
  8
0
100
AcDbLine
 10
120.8311
 20
143.984
 30
0.0
 11
146.7000999999999
 21
121.352
 31
0.0
  0
LINE
  5
28A
330
1E
100
AcDbEntity
  8
0
100
AcDbLine
 10
108.3811
 20
193.3009999999999
 30
0.0
 11
121.9381
 21
186.935
 31
0.0
  0
LINE
  5
28B
330
1E
100
AcDbEntity
  8
0
100
AcDbLine
 10
170.3781
 20
148.4699999999999
 30
0.0
 11
197.3301
 21
121.9689999999999
 31
0.0
  0
LINE
  5
28C
330
1E
100
AcDbEntity
  8
0
100
AcDbLine
 10
143.2261
 20
172.1709999999999
 30
0.0
 11
170.3781
 21
148.4699999999999
 31
0.0
  0
LINE
  5
28D
330
1E
100
AcDbEntity
  8
0
100
AcDbLine
 10
121.9381
 20
186.935
 30
0.0
 11
143.2261
 21
172.1709999999999
 31
0.0
  0
LINE
  5
28E
330
1E
100
AcDbEntity
  8
0
100
AcDbLine
 10
117.0080999999999
 20
131.892
 30
0.0
 11
128.6721
 21
125.987
 31
0.0
  0
LINE
  5
28F
330
1E
100
AcDbEntity
  8
0
100
AcDbLine
 10
108.2935999999999
 20
118.4739999999999
 30
0.0
 11
119.6341
 21
111.68
 31
0.0
  0
LINE
  5
290
330
1E
100
AcDbEntity
  8
0
100
AcDbLine
 10
108.2935999999999
 20
118.4739999999999
 30
0.0
 11
108.457
 21
118.7259999999999
 31
0.0
  0
LINE
  5
291
330
1E
100
AcDbEntity
  8
0
100
AcDbLine
 10
80.4054
 20
111.7939999999999
 30
0.0
 11
86.01679999999999
 21
109.97
 31
0.0
  0
LINE
  5
292
330
1E
100
AcDbEntity
  8
0
100
AcDbLine
 10
80.04940000000001
 20
104.55
 30
0.0
 11
90.77200000000001
 21
108.4249999999999
 31
0.0
  0
LINE
  5
297
330
1E
100
AcDbEntity
  8
0
100
AcDbLine
 10
69.3966
 20
120.6279999999999
 30
0.0
 11
44.85929999999999
 21
128.6
 31
0.0
  0
LINE
  5
298
330
1E
100
AcDbEntity
  8
0
100
AcDbLine
 10
20.39376
 20
131.293
 30
0.0
 11
20.98781
 21
136.3569999999999
 31
0.0
  0
LINE
  5
299
330
1E
100
AcDbEntity
  8
0
100
AcDbLine
 10
57.1175
 20
105.166
 30
0.0
 11
45.895
 21
108.812
 31
0.0
  0
LINE
  5
29A
330
1E
100
AcDbEntity
  8
0
100
AcDbLine
 10
86.0716
 20
140.235
 30
0.0
 11
84.65909999999999
 21
143.007
 31
0.0
  0
ENDSEC
  0
SECTION
  2
OBJECTS
  0
DICTIONARY
  5
C
330
0
100
AcDbDictionary
281
     1
  3
ACAD_GROUP
350
D
  3
ACAD_LAYOUT
350
19
  3
ACAD_MLINESTYLE
350
16
  3
ACAD_PLOTSETTINGS
350
18
  3
ACAD_PLOTSTYLENAME
350
E
  3
AcDbVariableDictionary
350
29B
  0
DICTIONARY
  5
D
102
{ACAD_REACTORS
330
C
102
}
330
C
100
AcDbDictionary
281
     1
  0
DICTIONARY
  5
19
102
{ACAD_REACTORS
330
C
102
}
330
C
100
AcDbDictionary
281
     1
  3
Layout1
350
1D
  3
Model
350
21
  0
DICTIONARY
  5
16
102
{ACAD_REACTORS
330
C
102
}
330
C
100
AcDbDictionary
281
     1
  3
Standard
350
17
  0
DICTIONARY
  5
18
102
{ACAD_REACTORS
330
C
102
}
330
C
100
AcDbDictionary
281
     1
  0
ACDBDICTIONARYWDFLT
  5
E
102
{ACAD_REACTORS
330
C
102
}
330
C
100
AcDbDictionary
281
     1
  3
Normal
350
F
100
AcDbDictionaryWithDefault
340
F
  0
DICTIONARY
  5
29B
102
{ACAD_REACTORS
330
C
102
}
330
C
100
AcDbDictionary
281
     1
  3
DIMASSOC
350
29C
  0
LAYOUT
  5
1D
102
{ACAD_REACTORS
330
19
102
}
330
19
100
AcDbPlotSettings
  1

  2
hp deskjet 980c series
  4

  6

 40
0.0
 41
0.0
 42
0.0
 43
0.0
 44
0.0
 45
0.0
 46
0.0
 47
0.0
 48
0.0
 49
0.0
140
0.0
141
0.0
142
1.0
143
1.0
 70
   688
 72
     0
 73
     0
 74
     5
  7

 75
    16
147
1.0
148
0.0
149
0.0
100
AcDbLayout
  1
Layout1
 70
     1
 71
     1
 10
0.0
 20
0.0
 11
12.0
 21
9.0
 12
0.0
 22
0.0
 32
0.0
 14
1.000000000000000E+20
 24
1.000000000000000E+20
 34
1.000000000000000E+20
 15
-1.000000000000000E+20
 25
-1.000000000000000E+20
 35
-1.000000000000000E+20
146
0.0
 13
0.0
 23
0.0
 33
0.0
 16
1.0
 26
0.0
 36
0.0
 17
0.0
 27
1.0
 37
0.0
 76
     0
330
1A
  0
LAYOUT
  5
21
102
{ACAD_REACTORS
330
19
102
}
330
19
100
AcDbPlotSettings
  1

  2
hp deskjet 980c series
  4

  6

 40
0.0
 41
0.0
 42
0.0
 43
0.0
 44
0.0
 45
0.0
 46
0.0
 47
0.0
 48
0.0
 49
0.0
140
0.0
141
0.0
142
1.0
143
1.0
 70
  1712
 72
     0
 73
     0
 74
     0
  7

 75
     0
147
1.0
148
0.0
149
0.0
100
AcDbLayout
  1
Model
 70
     1
 71
     0
 10
0.0
 20
0.0
 11
12.0
 21
9.0
 12
0.0
 22
0.0
 32
0.0
 14
0.0
 24
0.0
 34
0.0
 15
0.0
 25
0.0
 35
0.0
146
0.0
 13
0.0
 23
0.0
 33
0.0
 16
1.0
 26
0.0
 36
0.0
 17
0.0
 27
1.0
 37
0.0
 76
     0
330
1E
  0
MLINESTYLE
  5
17
102
{ACAD_REACTORS
330
16
102
}
330
16
100
AcDbMlineStyle
  2
STANDARD
 70
     0
  3

 62
   256
 51
90.0
 52
90.0
 71
     2
 49
0.5
 62
   256
  6
BYLAYER
 49
-0.5
 62
   256
  6
BYLAYER
  0
ACDBPLACEHOLDER
  5
F
102
{ACAD_REACTORS
330
E
102
}
330
E
  0
DICTIONARYVAR
  5
29C
102
{ACAD_REACTORS
330
29B
102
}
330
29B
100
DictionaryVariables
280
     0
  1
1
  0
ENDSEC
  0
EOF
