  0
SECTION
  2
HEADER
  9
$ACADVER
  1
AC1015
  9
$ACADMAINTVER
 70
    13
  9
$DWGCODEPAGE
  3
ANSI_1252
  9
$INSBASE
 10
0.0
 20
0.0
 30
0.0
  9
$EXTMIN
 10
-0.0000000000000339
 20
0.7993800000000051
 30
0.0
  9
$EXTMAX
 10
420.0
 20
262.7946699999999
 30
0.0
  9
$LIMMIN
 10
0.0
 20
0.0
  9
$LIMMAX
 10
12.0
 20
9.0
  9
$ORTHOMODE
 70
     0
  9
$REGENMODE
 70
     1
  9
$FILLMODE
 70
     1
  9
$QTEXTMODE
 70
     0
  9
$MIRRTEXT
 70
     1
  9
$LTSCALE
 40
1.0
  9
$ATTMODE
 70
     1
  9
$TEXTSIZE
 40
0.2
  9
$TRACEWID
 40
0.05
  9
$TEXTSTYLE
  7
Standard
  9
$CLAYER
  8
0
  9
$CELTYPE
  6
Continuous
  9
$CECOLOR
 62
   256
  9
$CELTSCALE
 40
1.0
  9
$DISPSILH
 70
     0
  9
$DIMSCALE
 40
1.0
  9
$DIMASZ
 40
0.18
  9
$DIMEXO
 40
0.0625
  9
$DIMDLI
 40
0.38
  9
$DIMRND
 40
0.0
  9
$DIMDLE
 40
0.0
  9
$DIMEXE
 40
0.18
  9
$DIMTP
 40
0.0
  9
$DIMTM
 40
0.0
  9
$DIMTXT
 40
0.18
  9
$DIMCEN
 40
0.09
  9
$DIMTSZ
 40
0.0
  9
$DIMTOL
 70
     0
  9
$DIMLIM
 70
     0
  9
$DIMTIH
 70
     1
  9
$DIMTOH
 70
     1
  9
$DIMSE1
 70
     0
  9
$DIMSE2
 70
     0
  9
$DIMTAD
 70
     0
  9
$DIMZIN
 70
     0
  9
$DIMBLK
  1

  9
$DIMASO
 70
     1
  9
$DIMSHO
 70
     1
  9
$DIMPOST
  1

  9
$DIMAPOST
  1

  9
$DIMALT
 70
     0
  9
$DIMALTD
 70
     2
  9
$DIMALTF
 40
25.4
  9
$DIMLFAC
 40
1.0
  9
$DIMTOFL
 70
     0
  9
$DIMTVP
 40
0.0
  9
$DIMTIX
 70
     0
  9
$DIMSOXD
 70
     0
  9
$DIMSAH
 70
     0
  9
$DIMBLK1
  1

  9
$DIMBLK2
  1

  9
$DIMSTYLE
  2
Standard
  9
$DIMCLRD
 70
     0
  9
$DIMCLRE
 70
     0
  9
$DIMCLRT
 70
     0
  9
$DIMTFAC
 40
1.0
  9
$DIMGAP
 40
0.09
  9
$DIMJUST
 70
     0
  9
$DIMSD1
 70
     0
  9
$DIMSD2
 70
     0
  9
$DIMTOLJ
 70
     1
  9
$DIMTZIN
 70
     0
  9
$DIMALTZ
 70
     0
  9
$DIMALTTZ
 70
     0
  9
$DIMUPT
 70
     0
  9
$DIMDEC
 70
     4
  9
$DIMTDEC
 70
     4
  9
$DIMALTU
 70
     2
  9
$DIMALTTD
 70
     2
  9
$DIMTXSTY
  7
Standard
  9
$DIMAUNIT
 70
     0
  9
$DIMADEC
 70
     0
  9
$DIMALTRND
 40
0.0
  9
$DIMAZIN
 70
     0
  9
$DIMDSEP
 70
    46
  9
$DIMATFIT
 70
     3
  9
$DIMFRAC
 70
     0
  9
$DIMLDRBLK
  1

  9
$DIMLUNIT
 70
     2
  9
$DIMLWD
 70
    -2
  9
$DIMLWE
 70
    -2
  9
$DIMTMOVE
 70
     0
  9
$LUNITS
 70
     2
  9
$LUPREC
 70
     4
  9
$SKETCHINC
 40
0.1
  9
$FILLETRAD
 40
0.0
  9
$AUNITS
 70
     0
  9
$AUPREC
 70
     0
  9
$MENU
  1
.
  9
$ELEVATION
 40
0.0
  9
$PELEVATION
 40
0.0
  9
$THICKNESS
 40
0.0
  9
$LIMCHECK
 70
     0
  9
$CHAMFERA
 40
0.0
  9
$CHAMFERB
 40
0.0
  9
$CHAMFERC
 40
0.0
  9
$CHAMFERD
 40
0.0
  9
$SKPOLY
 70
     0
  9
$TDCREATE
 40
2454753.396525787
  9
$TDUCREATE
 40
2454753.313192453
  9
$TDUPDATE
 40
2454753.398129699
  9
$TDUUPDATE
 40
2454753.314796366
  9
$TDINDWG
 40
0.0016040856
  9
$TDUSRTIMER
 40
0.0016040856
  9
$USRTIMER
 70
     1
  9
$ANGBASE
 50
0.0
  9
$ANGDIR
 70
     0
  9
$PDMODE
 70
     0
  9
$PDSIZE
 40
0.0
  9
$PLINEWID
 40
0.0
  9
$SPLFRAME
 70
     0
  9
$SPLINETYPE
 70
     6
  9
$SPLINESEGS
 70
     8
  9
$HANDSEED
  5
37F
  9
$SURFTAB1
 70
     6
  9
$SURFTAB2
 70
     6
  9
$SURFTYPE
 70
     6
  9
$SURFU
 70
     6
  9
$SURFV
 70
     6
  9
$UCSBASE
  2

  9
$UCSNAME
  2

  9
$UCSORG
 10
0.0
 20
0.0
 30
0.0
  9
$UCSXDIR
 10
1.0
 20
0.0
 30
0.0
  9
$UCSYDIR
 10
0.0
 20
1.0
 30
0.0
  9
$UCSORTHOREF
  2

  9
$UCSORTHOVIEW
 70
     1
  9
$UCSORGTOP
 10
0.0
 20
0.0
 30
0.0
  9
$UCSORGBOTTOM
 10
0.0
 20
0.0
 30
0.0
  9
$UCSORGLEFT
 10
0.0
 20
0.0
 30
0.0
  9
$UCSORGRIGHT
 10
0.0
 20
0.0
 30
0.0
  9
$UCSORGFRONT
 10
0.0
 20
0.0
 30
0.0
  9
$UCSORGBACK
 10
0.0
 20
0.0
 30
0.0
  9
$PUCSBASE
  2

  9
$PUCSNAME
  2

  9
$PUCSORG
 10
0.0
 20
0.0
 30
0.0
  9
$PUCSXDIR
 10
1.0
 20
0.0
 30
0.0
  9
$PUCSYDIR
 10
0.0
 20
1.0
 30
0.0
  9
$PUCSORTHOREF
  2

  9
$PUCSORTHOVIEW
 70
     0
  9
$PUCSORGTOP
 10
0.0
 20
0.0
 30
0.0
  9
$PUCSORGBOTTOM
 10
0.0
 20
0.0
 30
0.0
  9
$PUCSORGLEFT
 10
0.0
 20
0.0
 30
0.0
  9
$PUCSORGRIGHT
 10
0.0
 20
0.0
 30
0.0
  9
$PUCSORGFRONT
 10
0.0
 20
0.0
 30
0.0
  9
$PUCSORGBACK
 10
0.0
 20
0.0
 30
0.0
  9
$USERI1
 70
     0
  9
$USERI2
 70
     0
  9
$USERI3
 70
     0
  9
$USERI4
 70
     0
  9
$USERI5
 70
     0
  9
$USERR1
 40
0.0
  9
$USERR2
 40
0.0
  9
$USERR3
 40
0.0
  9
$USERR4
 40
0.0
  9
$USERR5
 40
0.0
  9
$WORLDVIEW
 70
     1
  9
$SHADEDGE
 70
     3
  9
$SHADEDIF
 70
    70
  9
$TILEMODE
 70
     1
  9
$MAXACTVP
 70
    64
  9
$PINSBASE
 10
0.0
 20
0.0
 30
0.0
  9
$PLIMCHECK
 70
     0
  9
$PEXTMIN
 10
1.000000000000000E+20
 20
1.000000000000000E+20
 30
1.000000000000000E+20
  9
$PEXTMAX
 10
-1.000000000000000E+20
 20
-1.000000000000000E+20
 30
-1.000000000000000E+20
  9
$PLIMMIN
 10
0.0
 20
0.0
  9
$PLIMMAX
 10
12.0
 20
9.0
  9
$UNITMODE
 70
     0
  9
$VISRETAIN
 70
     1
  9
$PLINEGEN
 70
     0
  9
$PSLTSCALE
 70
     1
  9
$TREEDEPTH
 70
  3020
  9
$CMLSTYLE
  2
Standard
  9
$CMLJUST
 70
     0
  9
$CMLSCALE
 40
1.0
  9
$PROXYGRAPHICS
 70
     1
  9
$MEASUREMENT
 70
     0
  9
$CELWEIGHT
370
    -1
  9
$ENDCAPS
280
     0
  9
$JOINSTYLE
280
     0
  9
$LWDISPLAY
290
     0
  9
$INSUNITS
 70
     0
  9
$HYPERLINKBASE
  1

  9
$STYLESHEET
  1

  9
$XEDIT
290
     1
  9
$CEPSNTYPE
380
     0
  9
$PSTYLEMODE
290
     1
  9
$FINGERPRINTGUID
  2
{DBAAF043-68C0-422B-B8E5-2A09401DC907}
  9
$VERSIONGUID
  2
{2C812760-A58A-491F-B512-AB2230C15662}
  9
$EXTNAMES
290
     1
  9
$PSVPSCALE
 40
0.0
  9
$OLESTARTUP
290
     0
  0
ENDSEC
  0
SECTION
  2
CLASSES
  0
CLASS
  1
ACDBDICTIONARYWDFLT
  2
AcDbDictionaryWithDefault
  3
AutoCAD 2000
 90
        0
280
     0
281
     0
  0
CLASS
  1
ACDBPLACEHOLDER
  2
AcDbPlaceHolder
  3
AutoCAD 2000
 90
        0
280
     0
281
     0
  0
CLASS
  1
LAYOUT
  2
AcDbLayout
  3
AutoCAD 2000
 90
        0
280
     0
281
     0
  0
CLASS
  1
DICTIONARYVAR
  2
AcDbDictionaryVar
  3
AutoCAD 2000
 90
        0
280
     0
281
     0
  0
ENDSEC
  0
SECTION
  2
TABLES
  0
TABLE
  2
VPORT
  5
8
330
0
100
AcDbSymbolTable
 70
     2
  0
VPORT
  5
37E
330
8
100
AcDbSymbolTableRecord
100
AcDbViewportTableRecord
  2
*Active
 70
     0
 10
0.0
 20
0.0
 11
1.0
 21
1.0
 12
210.0
 22
131.797025
 13
0.0
 23
0.0
 14
1.0
 24
1.0
 15
0.0
 25
0.0
 16
0.0
 26
0.0
 36
1.0
 17
0.0
 27
0.0
 37
0.0
 40
264.0054840409207
 41
2.078104993597951
 42
50.0
 43
0.0
 44
0.0
 50
0.0
 51
0.0
 71
     0
 72
   100
 73
     1
 74
     3
 75
     0
 76
     0
 77
     0
 78
     0
281
     0
 65
     1
110
0.0
120
0.0
130
0.0
111
1.0
121
0.0
131
0.0
112
0.0
122
1.0
132
0.0
 79
     1
146
0.0
  0
ENDTAB
  0
TABLE
  2
LTYPE
  5
5
330
0
100
AcDbSymbolTable
 70
     1
  0
LTYPE
  5
13
330
5
100
AcDbSymbolTableRecord
100
AcDbLinetypeTableRecord
  2
ByBlock
 70
     0
  3

 72
    65
 73
     0
 40
0.0
  0
LTYPE
  5
14
330
5
100
AcDbSymbolTableRecord
100
AcDbLinetypeTableRecord
  2
ByLayer
 70
     0
  3

 72
    65
 73
     0
 40
0.0
  0
LTYPE
  5
15
330
5
100
AcDbSymbolTableRecord
100
AcDbLinetypeTableRecord
  2
Continuous
 70
     0
  3
Solid line
 72
    65
 73
     0
 40
0.0
  0
ENDTAB
  0
TABLE
  2
LAYER
  5
2
330
0
100
AcDbSymbolTable
 70
     1
  0
LAYER
  5
10
330
2
100
AcDbSymbolTableRecord
100
AcDbLayerTableRecord
  2
0
 70
     0
 62
     7
  6
Continuous
370
    -3
390
F
  0
ENDTAB
  0
TABLE
  2
STYLE
  5
3
330
0
100
AcDbSymbolTable
 70
     1
  0
STYLE
  5
11
330
3
100
AcDbSymbolTableRecord
100
AcDbTextStyleTableRecord
  2
Standard
 70
     0
 40
0.0
 41
1.0
 50
0.0
 71
     0
 42
0.2
  3
txt
  4

  0
ENDTAB
  0
TABLE
  2
VIEW
  5
6
330
0
100
AcDbSymbolTable
 70
     0
  0
ENDTAB
  0
TABLE
  2
UCS
  5
7
330
0
100
AcDbSymbolTable
 70
     0
  0
ENDTAB
  0
TABLE
  2
APPID
  5
9
330
0
100
AcDbSymbolTable
 70
     1
  0
APPID
  5
12
330
9
100
AcDbSymbolTableRecord
100
AcDbRegAppTableRecord
  2
ACAD
 70
     0
  0
ENDTAB
  0
TABLE
  2
DIMSTYLE
  5
A
330
0
100
AcDbSymbolTable
 70
     1
100
AcDbDimStyleTable
 71
     0
  0
DIMSTYLE
105
36D
330
A
100
AcDbSymbolTableRecord
100
AcDbDimStyleTableRecord
  2
Standard
 70
     0
340
11
  0
ENDTAB
  0
TABLE
  2
BLOCK_RECORD
  5
1
330
0
100
AcDbSymbolTable
 70
     0
  0
BLOCK_RECORD
  5
1E
330
1
100
AcDbSymbolTableRecord
100
AcDbBlockTableRecord
  2
*Model_Space
340
21
  0
BLOCK_RECORD
  5
1A
330
1
100
AcDbSymbolTableRecord
100
AcDbBlockTableRecord
  2
*Paper_Space
340
1D
  0
ENDTAB
  0
ENDSEC
  0
SECTION
  2
BLOCKS
  0
BLOCK
  5
1F
330
1E
100
AcDbEntity
  8
0
100
AcDbBlockBegin
  2
*Model_Space
 70
     0
 10
0.0
 20
0.0
 30
0.0
  3
*Model_Space
  1

  0
ENDBLK
  5
20
330
1E
100
AcDbEntity
  8
0
100
AcDbBlockEnd
  0
BLOCK
  5
1B
330
1A
100
AcDbEntity
 67
     1
  8
0
100
AcDbBlockBegin
  2
*Paper_Space
 70
     0
 10
0.0
 20
0.0
 30
0.0
  3
*Paper_Space
  1

  0
ENDBLK
  5
1C
330
1A
100
AcDbEntity
 67
     1
  8
0
100
AcDbBlockEnd
  0
ENDSEC
  0
SECTION
  2
ENTITIES
  0
LINE
  5
22
330
1E
100
AcDbEntity
  8
0
100
AcDbLine
 10
164.0
 20
72.55386999999998
 30
0.0
 11
164.0
 21
79.48057
 31
0.0
  0
LINE
  5
23
330
1E
100
AcDbEntity
  8
0
100
AcDbLine
 10
164.0
 20
72.55386999999998
 30
0.0
 11
164.0
 21
68.69136999999999
 31
0.0
  0
LINE
  5
24
330
1E
100
AcDbEntity
  8
0
100
AcDbLine
 10
164.0
 20
79.48057
 30
0.0
 11
164.0
 21
90.38427
 31
0.0
  0
LINE
  5
25
330
1E
100
AcDbEntity
  8
0
100
AcDbLine
 10
164.0
 20
79.48057
 30
0.0
 11
164.0
 21
72.55386999999998
 31
0.0
  0
LINE
  5
26
330
1E
100
AcDbEntity
  8
0
100
AcDbLine
 10
164.0
 20
90.38427
 30
0.0
 11
164.0
 21
104.3856699999999
 31
0.0
  0
LINE
  5
27
330
1E
100
AcDbEntity
  8
0
100
AcDbLine
 10
164.0
 20
90.38427
 30
0.0
 11
164.0
 21
79.48057
 31
0.0
  0
LINE
  5
28
330
1E
100
AcDbEntity
  8
0
100
AcDbLine
 10
82.0
 20
202.79467
 30
0.0
 11
88.2
 21
203.69467
 31
0.0
  0
LINE
  5
29
330
1E
100
AcDbEntity
  8
0
100
AcDbLine
 10
82.0
 20
199.29467
 30
0.0
 11
89.1
 21
200.2946699999999
 31
0.0
  0
LINE
  5
2A
330
1E
100
AcDbEntity
  8
0
100
AcDbLine
 10
89.1
 20
200.2946699999999
 30
0.0
 11
95.7
 21
202.9946699999999
 31
0.0
  0
LINE
  5
2B
330
1E
100
AcDbEntity
  8
0
100
AcDbLine
 10
95.7
 20
202.9946699999999
 30
0.0
 11
101.4
 21
207.39467
 31
0.0
  0
LINE
  5
2C
330
1E
100
AcDbEntity
  8
0
100
AcDbLine
 10
74.90000000000001
 20
200.2946699999999
 30
0.0
 11
82.0
 21
199.29467
 31
0.0
  0
LINE
  5
2D
330
1E
100
AcDbEntity
  8
0
100
AcDbLine
 10
82.0
 20
204.7946699999999
 30
0.0
 11
87.70000000000001
 21
205.59467
 31
0.0
  0
LINE
  5
2E
330
1E
100
AcDbEntity
  8
0
100
AcDbLine
 10
87.70000000000001
 20
205.59467
 30
0.0
 11
93.0
 21
207.69467
 31
0.0
  0
LINE
  5
30
330
1E
100
AcDbEntity
  8
0
100
AcDbLine
 10
76.29999999999999
 20
205.59467
 30
0.0
 11
82.0
 21
204.7946699999999
 31
0.0
  0
LINE
  5
31
330
1E
100
AcDbEntity
  8
0
100
AcDbLine
 10
88.2
 20
203.69467
 30
0.0
 11
94.0
 21
205.9946699999999
 31
0.0
  0
LINE
  5
32
330
1E
100
AcDbEntity
  8
0
100
AcDbLine
 10
94.0
 20
205.9946699999999
 30
0.0
 11
98.9
 21
209.89467
 31
0.0
  0
LINE
  5
33
330
1E
100
AcDbEntity
  8
0
100
AcDbLine
 10
75.8
 20
203.69467
 30
0.0
 11
82.0
 21
202.79467
 31
0.0
  0
LINE
  5
35
330
1E
100
AcDbEntity
  8
0
100
AcDbLine
 10
66.5
 20
211.29467
 30
0.0
 11
71.0
 21
207.69467
 31
0.0
  0
LINE
  5
38
330
1E
100
AcDbEntity
  8
0
100
AcDbLine
 10
71.0
 20
207.69467
 30
0.0
 11
76.29999999999999
 21
205.59467
 31
0.0
  0
LINE
  5
3A
330
1E
100
AcDbEntity
  8
0
100
AcDbLine
 10
82.0
 20
206.7946699999999
 30
0.0
 11
87.2
 21
207.4946699999999
 31
0.0
  0
LINE
  5
3B
330
1E
100
AcDbEntity
  8
0
100
AcDbLine
 10
87.2
 20
207.4946699999999
 30
0.0
 11
92.0
 21
209.4946699999999
 31
0.0
  0
LINE
  5
3D
330
1E
100
AcDbEntity
  8
0
100
AcDbLine
 10
93.0
 20
207.69467
 30
0.0
 11
97.5
 21
211.29467
 31
0.0
  0
LINE
  5
3E
330
1E
100
AcDbEntity
  8
0
100
AcDbLine
 10
92.0
 20
209.4946699999999
 30
0.0
 11
96.09999999999999
 21
212.69467
 31
0.0
  0
LINE
  5
3F
330
1E
100
AcDbEntity
  8
0
100
AcDbLine
 10
101.4
 20
207.39467
 30
0.0
 11
105.8
 21
213.0946699999999
 31
0.0
  0
LINE
  5
40
330
1E
100
AcDbEntity
  8
0
100
AcDbLine
 10
76.79999999999999
 20
207.4946699999999
 30
0.0
 11
82.0
 21
206.7946699999999
 31
0.0
  0
LINE
  5
42
330
1E
100
AcDbEntity
  8
0
100
AcDbLine
 10
97.5
 20
211.29467
 30
0.0
 11
101.0999999999999
 21
215.79467
 31
0.0
  0
LINE
  5
43
330
1E
100
AcDbEntity
  8
0
100
AcDbLine
 10
96.09999999999999
 20
212.69467
 30
0.0
 11
99.29999999999999
 21
216.79467
 31
0.0
  0
LINE
  5
44
330
1E
100
AcDbEntity
  8
0
100
AcDbLine
 10
98.9
 20
209.89467
 30
0.0
 11
102.8
 21
214.79467
 31
0.0
  0
LINE
  5
45
330
1E
100
AcDbEntity
  8
0
100
AcDbLine
 10
105.8
 20
213.0946699999999
 30
0.0
 11
108.4999999999999
 21
219.69467
 31
0.0
  0
LINE
  5
46
330
1E
100
AcDbEntity
  8
0
100
AcDbLine
 10
72.0
 20
209.4946699999999
 30
0.0
 11
76.79999999999999
 21
207.4946699999999
 31
0.0
  0
LINE
  5
47
330
1E
100
AcDbEntity
  8
0
100
AcDbLine
 10
67.9
 20
212.69467
 30
0.0
 11
72.0
 21
209.4946699999999
 31
0.0
  0
LINE
  5
48
330
1E
100
AcDbEntity
  8
0
100
AcDbLine
 10
70.0
 20
205.9946699999999
 30
0.0
 11
75.8
 21
203.69467
 31
0.0
  0
LINE
  5
49
330
1E
100
AcDbEntity
  8
0
100
AcDbLine
 10
65.09999999999999
 20
209.89467
 30
0.0
 11
70.0
 21
205.9946699999999
 31
0.0
  0
LINE
  5
4A
330
1E
100
AcDbEntity
  8
0
100
AcDbLine
 10
68.3
 20
202.9946699999999
 30
0.0
 11
74.90000000000001
 21
200.2946699999999
 31
0.0
  0
LINE
  5
4B
330
1E
100
AcDbEntity
  8
0
100
AcDbLine
 10
62.6
 20
207.39467
 30
0.0
 11
68.3
 21
202.9946699999999
 31
0.0
  0
LINE
  5
4D
330
1E
100
AcDbEntity
  8
0
100
AcDbLine
 10
62.9
 20
215.79467
 30
0.0
 11
66.5
 21
211.29467
 31
0.0
  0
LINE
  5
4E
330
1E
100
AcDbEntity
  8
0
100
AcDbLine
 10
82.0
 20
214.19467
 30
0.0
 11
85.29999999999999
 21
214.69467
 31
0.0
  0
LINE
  5
4F
330
1E
100
AcDbEntity
  8
0
100
AcDbLine
 10
85.29999999999999
 20
214.69467
 30
0.0
 11
88.3
 21
215.89467
 31
0.0
  0
LINE
  5
50
330
1E
100
AcDbEntity
  8
0
100
AcDbLine
 10
82.0
 20
215.79467
 30
0.0
 11
84.8
 21
216.19467
 31
0.0
  0
LINE
  5
51
330
1E
100
AcDbEntity
  8
0
100
AcDbLine
 10
84.8
 20
216.19467
 30
0.0
 11
87.5
 21
217.29467
 31
0.0
  0
LINE
  5
52
330
1E
100
AcDbEntity
  8
0
100
AcDbLine
 10
82.0
 20
215.29467
 30
0.0
 11
85.0
 21
215.69467
 31
0.0
  0
LINE
  5
53
330
1E
100
AcDbEntity
  8
0
100
AcDbLine
 10
85.0
 20
215.69467
 30
0.0
 11
87.70000000000001
 21
216.79467
 31
0.0
  0
LINE
  5
54
330
1E
100
AcDbEntity
  8
0
100
AcDbLine
 10
87.70000000000001
 20
216.79467
 30
0.0
 11
90.09999999999999
 21
218.69467
 31
0.0
  0
LINE
  5
55
330
1E
100
AcDbEntity
  8
0
100
AcDbLine
 10
79.2
 20
216.19467
 30
0.0
 11
82.0
 21
215.79467
 31
0.0
  0
LINE
  5
56
330
1E
100
AcDbEntity
  8
0
100
AcDbLine
 10
79.0
 20
215.69467
 30
0.0
 11
82.0
 21
215.29467
 31
0.0
  0
LINE
  5
57
330
1E
100
AcDbEntity
  8
0
100
AcDbLine
 10
76.29999999999999
 20
216.79467
 30
0.0
 11
79.0
 21
215.69467
 31
0.0
  0
LINE
  5
59
330
1E
100
AcDbEntity
  8
0
100
AcDbLine
 10
101.0999999999999
 20
215.79467
 30
0.0
 11
103.2
 21
221.09467
 31
0.0
  0
LINE
  5
5A
330
1E
100
AcDbEntity
  8
0
100
AcDbLine
 10
88.3
 20
215.89467
 30
0.0
 11
90.90000000000001
 21
217.89467
 31
0.0
  0
LINE
  5
5B
330
1E
100
AcDbEntity
  8
0
100
AcDbLine
 10
99.29999999999999
 20
216.79467
 30
0.0
 11
101.2999999999999
 21
221.5946699999999
 31
0.0
  0
LINE
  5
5C
330
1E
100
AcDbEntity
  8
0
100
AcDbLine
 10
102.8
 20
214.79467
 30
0.0
 11
105.0999999999999
 21
220.59467
 31
0.0
  0
LINE
  5
5D
330
1E
100
AcDbEntity
  8
0
100
AcDbLine
 10
78.7
 20
214.69467
 30
0.0
 11
82.0
 21
214.19467
 31
0.0
  0
LINE
  5
5E
330
1E
100
AcDbEntity
  8
0
100
AcDbLine
 10
75.7
 20
215.89467
 30
0.0
 11
78.7
 21
214.69467
 31
0.0
  0
LINE
  5
5F
330
1E
100
AcDbEntity
  8
0
100
AcDbLine
 10
87.5
 20
217.29467
 30
0.0
 11
89.8
 21
218.99467
 31
0.0
  0
LINE
  5
60
330
1E
100
AcDbEntity
  8
0
100
AcDbLine
 10
76.5
 20
217.29467
 30
0.0
 11
79.2
 21
216.19467
 31
0.0
  0
LINE
  5
61
330
1E
100
AcDbEntity
  8
0
100
AcDbLine
 10
89.8
 20
218.99467
 30
0.0
 11
91.5
 21
221.29467
 31
0.0
  0
LINE
  5
62
330
1E
100
AcDbEntity
  8
0
100
AcDbLine
 10
90.09999999999999
 20
218.69467
 30
0.0
 11
92.0
 21
221.09467
 31
0.0
  0
LINE
  5
63
330
1E
100
AcDbEntity
  8
0
100
AcDbLine
 10
74.2
 20
218.99467
 30
0.0
 11
76.5
 21
217.29467
 31
0.0
  0
LINE
  5
64
330
1E
100
AcDbEntity
  8
0
100
AcDbLine
 10
73.9
 20
218.69467
 30
0.0
 11
76.29999999999999
 21
216.79467
 31
0.0
  0
LINE
  5
65
330
1E
100
AcDbEntity
  8
0
100
AcDbLine
 10
90.90000000000001
 20
217.89467
 30
0.0
 11
92.9
 21
220.49467
 31
0.0
  0
LINE
  5
66
330
1E
100
AcDbEntity
  8
0
100
AcDbLine
 10
73.09999999999999
 20
217.89467
 30
0.0
 11
75.7
 21
215.89467
 31
0.0
  0
LINE
  5
67
330
1E
100
AcDbEntity
  8
0
100
AcDbLine
 10
64.7
 20
216.79467
 30
0.0
 11
67.9
 21
212.69467
 31
0.0
  0
LINE
  5
68
330
1E
100
AcDbEntity
  8
0
100
AcDbLine
 10
61.2
 20
214.79467
 30
0.0
 11
65.09999999999999
 21
209.89467
 31
0.0
  0
LINE
  5
69
330
1E
100
AcDbEntity
  8
0
100
AcDbLine
 10
58.2
 20
213.0946699999999
 30
0.0
 11
62.6
 21
207.39467
 31
0.0
  0
LINE
  5
6A
330
1E
100
AcDbEntity
  8
0
100
AcDbLine
 10
164.0
 20
179.7046699999999
 30
0.0
 11
164.0
 21
163.74867
 31
0.0
  0
LINE
  5
6B
330
1E
100
AcDbEntity
  8
0
100
AcDbLine
 10
164.0
 20
179.7046699999999
 30
0.0
 11
164.0
 21
195.1256699999999
 31
0.0
  0
LINE
  5
6C
330
1E
100
AcDbEntity
  8
0
100
AcDbLine
 10
163.6065999999999
 20
208.4016699999999
 30
0.0
 11
164.0
 21
208.102645858627
 31
0.0
  0
LINE
  5
6D
330
1E
100
AcDbEntity
  8
0
100
AcDbLine
 10
164.0
 20
195.1256699999999
 30
0.0
 11
164.0
 21
211.389358267448
 31
0.0
  0
LINE
  5
6E
330
1E
100
AcDbEntity
  8
0
100
AcDbLine
 10
164.0
 20
195.1256699999999
 30
0.0
 11
164.0
 21
179.7046699999999
 31
0.0
  0
LINE
  5
6F
330
1E
100
AcDbEntity
  8
0
100
AcDbLine
 10
164.0
 20
163.74867
 30
0.0
 11
164.0
 21
148.1736699999999
 31
0.0
  0
LINE
  5
70
330
1E
100
AcDbEntity
  8
0
100
AcDbLine
 10
164.0
 20
163.74867
 30
0.0
 11
164.0
 21
179.7046699999999
 31
0.0
  0
LINE
  5
71
330
1E
100
AcDbEntity
  8
0
100
AcDbLine
 10
164.0
 20
148.1736699999999
 30
0.0
 11
164.0
 21
130.82667
 31
0.0
  0
LINE
  5
72
330
1E
100
AcDbEntity
  8
0
100
AcDbLine
 10
164.0
 20
148.1736699999999
 30
0.0
 11
164.0
 21
163.74867
 31
0.0
  0
LINE
  5
73
330
1E
100
AcDbEntity
  8
0
100
AcDbLine
 10
158.6294999999999
 20
203.4246699999999
 30
0.0
 11
164.0
 21
199.312607064957
 31
0.0
  0
LINE
  5
74
330
1E
100
AcDbEntity
  8
0
100
AcDbLine
 10
159.4951
 20
213.81067
 30
0.0
 11
163.6065999999999
 21
208.4016699999999
 31
0.0
  0
LINE
  5
75
330
1E
100
AcDbEntity
  8
0
100
AcDbLine
 10
164.0
 20
211.389358267448
 30
0.0
 11
164.0
 21
195.1256699999999
 31
0.0
  0
LINE
  5
77
330
1E
100
AcDbEntity
  8
0
100
AcDbLine
 10
153.3279
 20
210.34867
 30
0.0
 11
158.6294999999999
 21
203.4246699999999
 31
0.0
  0
LINE
  5
78
330
1E
100
AcDbEntity
  8
0
100
AcDbLine
 10
150.082
 20
218.24667
 30
0.0
 11
153.3279
 21
210.34867
 31
0.0
  0
LINE
  5
79
330
1E
100
AcDbEntity
  8
0
100
AcDbLine
 10
164.0
 20
130.82667
 30
0.0
 11
164.0
 21
116.69467
 31
0.0
  0
LINE
  5
7A
330
1E
100
AcDbEntity
  8
0
100
AcDbLine
 10
164.0
 20
130.82667
 30
0.0
 11
164.0
 21
148.1736699999999
 31
0.0
  0
LINE
  5
7B
330
1E
100
AcDbEntity
  8
0
100
AcDbLine
 10
164.0
 20
116.69467
 30
0.0
 11
164.0
 21
104.3856699999999
 31
0.0
  0
LINE
  5
7C
330
1E
100
AcDbEntity
  8
0
100
AcDbLine
 10
164.0
 20
116.69467
 30
0.0
 11
164.0
 21
130.82667
 31
0.0
  0
LINE
  5
7D
330
1E
100
AcDbEntity
  8
0
100
AcDbLine
 10
164.0
 20
104.3856699999999
 30
0.0
 11
164.0
 21
116.69467
 31
0.0
  0
LINE
  5
7E
330
1E
100
AcDbEntity
  8
0
100
AcDbLine
 10
164.0
 20
104.3856699999999
 30
0.0
 11
164.0
 21
90.38427
 31
0.0
  0
LINE
  5
7F
330
1E
100
AcDbEntity
  8
0
100
AcDbLine
 10
182.0
 20
53.09136999999999
 30
0.0
 11
186.6999999999999
 21
53.69136999999999
 31
0.0
  0
LINE
  5
80
330
1E
100
AcDbEntity
  8
0
100
AcDbLine
 10
344.0
 20
24.67087
 30
0.0
 11
347.3999999999999
 21
18.01347
 31
0.0
  0
LINE
  5
81
330
1E
100
AcDbEntity
  8
0
100
AcDbLine
 10
344.0
 20
24.67087
 30
0.0
 11
344.0
 21
36.93957
 31
0.0
  0
LINE
  5
82
330
1E
100
AcDbEntity
  8
0
100
AcDbLine
 10
344.0
 20
36.93957
 30
0.0
 11
344.0
 21
49.20817
 31
0.0
  0
LINE
  5
83
330
1E
100
AcDbEntity
  8
0
100
AcDbLine
 10
344.0
 20
36.93957
 30
0.0
 11
344.0
 21
24.67087
 31
0.0
  0
LINE
  5
84
330
1E
100
AcDbEntity
  8
0
100
AcDbLine
 10
353.8
 20
10.11976999999999
 30
0.0
 11
362.1
 21
4.032969999999999
 31
0.0
  0
LINE
  5
85
330
1E
100
AcDbEntity
  8
0
100
AcDbLine
 10
353.8
 20
10.11976999999999
 30
0.0
 11
362.1
 21
4.032969999999999
 31
0.0
  0
LINE
  5
86
330
1E
100
AcDbEntity
  8
0
100
AcDbLine
 10
347.3999999999999
 20
18.01347
 30
0.0
 11
353.8
 21
10.11976999999999
 31
0.0
  0
LINE
  5
87
330
1E
100
AcDbEntity
  8
0
100
AcDbLine
 10
349.1
 20
20.50966999999999
 30
0.0
 11
355.2
 21
12.99636999999999
 31
0.0
  0
LINE
  5
88
330
1E
100
AcDbEntity
  8
0
100
AcDbLine
 10
345.3999999999999
 20
29.16427
 30
0.0
 11
349.1
 21
20.50966999999999
 31
0.0
  0
LINE
  5
89
330
1E
100
AcDbEntity
  8
0
100
AcDbLine
 10
344.0
 20
49.20817
 30
0.0
 11
344.0
 21
36.93957
 31
0.0
  0
LINE
  5
8A
330
1E
100
AcDbEntity
  8
0
100
AcDbLine
 10
344.0
 20
49.20817
 30
0.0
 11
347.3999999999999
 21
55.86566999999999
 31
0.0
  0
LINE
  5
8B
330
1E
100
AcDbEntity
  8
0
100
AcDbLine
 10
345.3999999999999
 20
47.80497
 30
0.0
 11
349.1
 21
56.45966999999999
 31
0.0
  0
LINE
  5
8C
330
1E
100
AcDbEntity
  8
0
100
AcDbLine
 10
344.0
 20
38.48467
 30
0.0
 11
345.3999999999999
 21
47.80497
 31
0.0
  0
LINE
  5
8D
330
1E
100
AcDbEntity
  8
0
100
AcDbLine
 10
344.0
 20
38.48467
 30
0.0
 11
345.3999999999999
 21
29.16427
 31
0.0
  0
LINE
  5
8E
330
1E
100
AcDbEntity
  8
0
100
AcDbLine
 10
186.6999999999999
 20
53.69136999999999
 30
0.0
 11
191.0
 21
55.19136999999999
 31
0.0
  0
LINE
  5
8F
330
1E
100
AcDbEntity
  8
0
100
AcDbLine
 10
191.0
 20
55.19136999999999
 30
0.0
 11
194.6999999999999
 21
57.69136999999999
 31
0.0
  0
LINE
  5
90
330
1E
100
AcDbEntity
  8
0
100
AcDbLine
 10
347.3999999999999
 20
55.86566999999999
 30
0.0
 11
353.8
 21
63.75937
 31
0.0
  0
LINE
  5
91
330
1E
100
AcDbEntity
  8
0
100
AcDbLine
 10
349.1
 20
56.45966999999999
 30
0.0
 11
355.2
 21
63.97297
 31
0.0
  0
LINE
  5
92
330
1E
100
AcDbEntity
  8
0
100
AcDbLine
 10
194.6999999999999
 20
57.69136999999999
 30
0.0
 11
197.5999999999999
 21
60.89137
 31
0.0
  0
LINE
  5
93
330
1E
100
AcDbEntity
  8
0
100
AcDbLine
 10
177.3
 20
53.69136999999999
 30
0.0
 11
182.0
 21
53.09136999999999
 31
0.0
  0
LINE
  5
94
330
1E
100
AcDbEntity
  8
0
100
AcDbLine
 10
173.0
 20
55.19136999999999
 30
0.0
 11
177.3
 21
53.69136999999999
 31
0.0
  0
LINE
  5
95
330
1E
100
AcDbEntity
  8
0
100
AcDbLine
 10
197.5999999999999
 20
60.89137
 30
0.0
 11
199.3999999999999
 21
64.69136999999999
 31
0.0
  0
LINE
  5
96
330
1E
100
AcDbEntity
  8
0
100
AcDbLine
 10
353.8
 20
63.75937
 30
0.0
 11
362.1
 21
69.84617
 31
0.0
  0
LINE
  5
97
330
1E
100
AcDbEntity
  8
0
100
AcDbLine
 10
199.3999999999999
 20
64.69136999999999
 30
0.0
 11
200.0
 21
68.69136999999999
 31
0.0
  0
LINE
  5
98
330
1E
100
AcDbEntity
  8
0
100
AcDbLine
 10
169.3
 20
57.69136999999999
 30
0.0
 11
173.0
 21
55.19136999999999
 31
0.0
  0
LINE
  5
99
330
1E
100
AcDbEntity
  8
0
100
AcDbLine
 10
166.4
 20
60.89137
 30
0.0
 11
169.3
 21
57.69136999999999
 31
0.0
  0
LINE
  5
9A
330
1E
100
AcDbEntity
  8
0
100
AcDbLine
 10
200.0
 20
116.69467
 30
0.0
 11
200.0
 21
130.82667
 31
0.0
  0
LINE
  5
9B
330
1E
100
AcDbEntity
  8
0
100
AcDbLine
 10
200.0
 20
116.69467
 30
0.0
 11
200.0
 21
104.3856699999999
 31
0.0
  0
LINE
  5
9C
330
1E
100
AcDbEntity
  8
0
100
AcDbLine
 10
200.0
 20
148.1736699999999
 30
0.0
 11
200.0
 21
163.74867
 31
0.0
  0
LINE
  5
9D
330
1E
100
AcDbEntity
  8
0
100
AcDbLine
 10
200.0
 20
148.1736699999999
 30
0.0
 11
200.0
 21
130.82667
 31
0.0
  0
LINE
  5
9E
330
1E
100
AcDbEntity
  8
0
100
AcDbLine
 10
200.0
 20
195.1256699999999
 30
0.0
 11
200.0
 21
179.7046699999999
 31
0.0
  0
LINE
  5
9F
330
1E
100
AcDbEntity
  8
0
100
AcDbLine
 10
200.0
 20
195.1256699999999
 30
0.0
 11
200.0
 21
211.3889250831789
 31
0.0
  0
LINE
  5
A0
330
1E
100
AcDbEntity
  8
0
100
AcDbLine
 10
200.0
 20
163.74867
 30
0.0
 11
200.0
 21
179.7046699999999
 31
0.0
  0
LINE
  5
A1
330
1E
100
AcDbEntity
  8
0
100
AcDbLine
 10
200.0
 20
163.74867
 30
0.0
 11
200.0
 21
148.1736699999999
 31
0.0
  0
LINE
  5
A2
330
1E
100
AcDbEntity
  8
0
100
AcDbLine
 10
200.0
 20
179.7046699999999
 30
0.0
 11
200.0
 21
163.74867
 31
0.0
  0
LINE
  5
A3
330
1E
100
AcDbEntity
  8
0
100
AcDbLine
 10
200.0
 20
179.7046699999999
 30
0.0
 11
200.0
 21
195.1256699999999
 31
0.0
  0
LINE
  5
A4
330
1E
100
AcDbEntity
  8
0
100
AcDbLine
 10
200.0
 20
130.82667
 30
0.0
 11
200.0
 21
116.69467
 31
0.0
  0
LINE
  5
A5
330
1E
100
AcDbEntity
  8
0
100
AcDbLine
 10
200.0
 20
130.82667
 30
0.0
 11
200.0
 21
148.1736699999999
 31
0.0
  0
LINE
  5
A6
330
1E
100
AcDbEntity
  8
0
100
AcDbLine
 10
200.0
 20
104.3856699999999
 30
0.0
 11
200.0
 21
90.38427
 31
0.0
  0
LINE
  5
A7
330
1E
100
AcDbEntity
  8
0
100
AcDbLine
 10
200.0
 20
104.3856699999999
 30
0.0
 11
200.0
 21
116.69467
 31
0.0
  0
LINE
  5
A8
330
1E
100
AcDbEntity
  8
0
100
AcDbLine
 10
200.0
 20
90.38427
 30
0.0
 11
200.0
 21
79.48057
 31
0.0
  0
LINE
  5
A9
330
1E
100
AcDbEntity
  8
0
100
AcDbLine
 10
200.0
 20
90.38427
 30
0.0
 11
200.0
 21
104.3856699999999
 31
0.0
  0
LINE
  5
AA
330
1E
100
AcDbEntity
  8
0
100
AcDbLine
 10
200.0
 20
79.48057
 30
0.0
 11
200.0
 21
72.55386999999998
 31
0.0
  0
LINE
  5
AB
330
1E
100
AcDbEntity
  8
0
100
AcDbLine
 10
200.0
 20
79.48057
 30
0.0
 11
200.0
 21
90.38427
 31
0.0
  0
LINE
  5
AC
330
1E
100
AcDbEntity
  8
0
100
AcDbLine
 10
200.0
 20
208.1029057182469
 30
0.0
 11
200.3929999999999
 21
208.4016699999999
 31
0.0
  0
LINE
  5
AD
330
1E
100
AcDbEntity
  8
0
100
AcDbLine
 10
184.8129999999999
 20
216.29967
 30
0.0
 11
187.41
 21
217.38167
 31
0.0
  0
LINE
  5
AE
330
1E
100
AcDbEntity
  8
0
100
AcDbLine
 10
182.0
 20
215.97467
 30
0.0
 11
184.8129999999999
 21
216.29967
 31
0.0
  0
LINE
  5
B0
330
1E
100
AcDbEntity
  8
0
100
AcDbLine
 10
200.0
 20
199.3126336048529
 30
0.0
 11
205.37
 21
203.4246699999999
 31
0.0
  0
LINE
  5
B1
330
1E
100
AcDbEntity
  8
0
100
AcDbLine
 10
200.0
 20
211.3889250831789
 30
0.0
 11
202.666
 21
214.89267
 31
0.0
  0
LINE
  5
B2
330
1E
100
AcDbEntity
  8
0
100
AcDbLine
 10
200.0
 20
211.3889250831789
 30
0.0
 11
200.0
 21
195.1256699999999
 31
0.0
  0
LINE
  5
B3
330
1E
100
AcDbEntity
  8
0
100
AcDbLine
 10
200.0
 20
68.69136999999999
 30
0.0
 11
200.0
 21
72.55386999999998
 31
0.0
  0
LINE
  5
B4
330
1E
100
AcDbEntity
  8
0
100
AcDbLine
 10
274.8999999999999
 20
200.2946699999999
 30
0.0
 11
282.0
 21
199.29467
 31
0.0
  0
LINE
  5
B5
330
1E
100
AcDbEntity
  8
0
100
AcDbLine
 10
282.0
 20
199.29467
 30
0.0
 11
289.1
 21
200.2946699999999
 31
0.0
  0
LINE
  5
B6
330
1E
100
AcDbEntity
  8
0
100
AcDbLine
 10
268.3
 20
202.9946699999999
 30
0.0
 11
274.8999999999999
 21
200.2946699999999
 31
0.0
  0
LINE
  5
B7
330
1E
100
AcDbEntity
  8
0
100
AcDbLine
 10
282.0
 20
202.79467
 30
0.0
 11
288.2
 21
203.69467
 31
0.0
  0
LINE
  5
B8
330
1E
100
AcDbEntity
  8
0
100
AcDbLine
 10
289.1
 20
200.2946699999999
 30
0.0
 11
295.6999999999999
 21
202.9946699999999
 31
0.0
  0
LINE
  5
B9
330
1E
100
AcDbEntity
  8
0
100
AcDbLine
 10
295.6999999999999
 20
202.9946699999999
 30
0.0
 11
301.3999999999999
 21
207.39467
 31
0.0
  0
LINE
  5
BA
330
1E
100
AcDbEntity
  8
0
100
AcDbLine
 10
200.3929999999999
 20
208.4016699999999
 30
0.0
 11
204.5049999999999
 21
213.81067
 31
0.0
  0
LINE
  5
BB
330
1E
100
AcDbEntity
  8
0
100
AcDbLine
 10
275.8
 20
203.69467
 30
0.0
 11
282.0
 21
202.79467
 31
0.0
  0
LINE
  5
BD
330
1E
100
AcDbEntity
  8
0
100
AcDbLine
 10
276.3
 20
205.59467
 30
0.0
 11
282.0
 21
204.7946699999999
 31
0.0
  0
LINE
  5
BF
330
1E
100
AcDbEntity
  8
0
100
AcDbLine
 10
282.0
 20
204.7946699999999
 30
0.0
 11
287.6999999999999
 21
205.59467
 31
0.0
  0
LINE
  5
C0
330
1E
100
AcDbEntity
  8
0
100
AcDbLine
 10
270.0
 20
205.9946699999999
 30
0.0
 11
275.8
 21
203.69467
 31
0.0
  0
LINE
  5
C1
330
1E
100
AcDbEntity
  8
0
100
AcDbLine
 10
262.6
 20
207.39467
 30
0.0
 11
268.3
 21
202.9946699999999
 31
0.0
  0
LINE
  5
C3
330
1E
100
AcDbEntity
  8
0
100
AcDbLine
 10
287.6999999999999
 20
205.59467
 30
0.0
 11
293.0
 21
207.69467
 31
0.0
  0
LINE
  5
C4
330
1E
100
AcDbEntity
  8
0
100
AcDbLine
 10
282.0
 20
206.7946699999999
 30
0.0
 11
287.1999999999999
 21
207.4946699999999
 31
0.0
  0
LINE
  5
C5
330
1E
100
AcDbEntity
  8
0
100
AcDbLine
 10
288.2
 20
203.69467
 30
0.0
 11
294.0
 21
205.9946699999999
 31
0.0
  0
LINE
  5
C6
330
1E
100
AcDbEntity
  8
0
100
AcDbLine
 10
294.0
 20
205.9946699999999
 30
0.0
 11
298.8999999999999
 21
209.89467
 31
0.0
  0
LINE
  5
C8
330
1E
100
AcDbEntity
  8
0
100
AcDbLine
 10
271.0
 20
207.69467
 30
0.0
 11
276.3
 21
205.59467
 31
0.0
  0
LINE
  5
C9
330
1E
100
AcDbEntity
  8
0
100
AcDbLine
 10
276.8
 20
207.4946699999999
 30
0.0
 11
282.0
 21
206.7946699999999
 31
0.0
  0
LINE
  5
CA
330
1E
100
AcDbEntity
  8
0
100
AcDbLine
 10
272.0
 20
209.4946699999999
 30
0.0
 11
276.8
 21
207.4946699999999
 31
0.0
  0
LINE
  5
CC
330
1E
100
AcDbEntity
  8
0
100
AcDbLine
 10
293.0
 20
207.69467
 30
0.0
 11
297.5
 21
211.29467
 31
0.0
  0
LINE
  5
CD
330
1E
100
AcDbEntity
  8
0
100
AcDbLine
 10
287.1999999999999
 20
207.4946699999999
 30
0.0
 11
292.0
 21
209.4946699999999
 31
0.0
  0
LINE
  5
CE
330
1E
100
AcDbEntity
  8
0
100
AcDbLine
 10
265.1
 20
209.89467
 30
0.0
 11
270.0
 21
205.9946699999999
 31
0.0
  0
LINE
  5
CF
330
1E
100
AcDbEntity
  8
0
100
AcDbLine
 10
292.0
 20
209.4946699999999
 30
0.0
 11
296.1
 21
212.69467
 31
0.0
  0
LINE
  5
D0
330
1E
100
AcDbEntity
  8
0
100
AcDbLine
 10
350.7519999999999
 20
208.9386699999999
 30
0.0
 11
356.5119999999999
 21
201.3066699999999
 31
0.0
  0
LINE
  5
D1
330
1E
100
AcDbEntity
  8
0
100
AcDbLine
 10
298.8999999999999
 20
209.89467
 30
0.0
 11
302.8
 21
214.79467
 31
0.0
  0
LINE
  5
D2
330
1E
100
AcDbEntity
  8
0
100
AcDbLine
 10
301.3999999999999
 20
207.39467
 30
0.0
 11
305.8
 21
213.0946699999999
 31
0.0
  0
LINE
  5
D3
330
1E
100
AcDbEntity
  8
0
100
AcDbLine
 10
351.6999999999999
 20
209.39467
 30
0.0
 11
357.3
 21
202.09467
 31
0.0
  0
LINE
  5
D5
330
1E
100
AcDbEntity
  8
0
100
AcDbLine
 10
266.5
 20
211.29467
 30
0.0
 11
271.0
 21
207.69467
 31
0.0
  0
LINE
  5
D6
330
1E
100
AcDbEntity
  8
0
100
AcDbLine
 10
267.8999999999999
 20
212.69467
 30
0.0
 11
272.0
 21
209.4946699999999
 31
0.0
  0
LINE
  5
D7
330
1E
100
AcDbEntity
  8
0
100
AcDbLine
 10
258.1999999999999
 20
213.0946699999999
 30
0.0
 11
262.6
 21
207.39467
 31
0.0
  0
LINE
  5
D9
330
1E
100
AcDbEntity
  8
0
100
AcDbLine
 10
297.5
 20
211.29467
 30
0.0
 11
301.1
 21
215.79467
 31
0.0
  0
LINE
  5
DA
330
1E
100
AcDbEntity
  8
0
100
AcDbLine
 10
296.1
 20
212.69467
 30
0.0
 11
299.3
 21
216.79467
 31
0.0
  0
LINE
  5
DB
330
1E
100
AcDbEntity
  8
0
100
AcDbLine
 10
204.5049999999999
 20
213.81067
 30
0.0
 11
207.1019999999999
 21
220.08667
 31
0.0
  0
LINE
  5
DC
330
1E
100
AcDbEntity
  8
0
100
AcDbLine
 10
262.9
 20
215.79467
 30
0.0
 11
266.5
 21
211.29467
 31
0.0
  0
LINE
  5
DD
330
1E
100
AcDbEntity
  8
0
100
AcDbLine
 10
279.0
 20
215.69467
 30
0.0
 11
282.0
 21
215.29467
 31
0.0
  0
LINE
  5
DE
330
1E
100
AcDbEntity
  8
0
100
AcDbLine
 10
282.0
 20
215.29467
 30
0.0
 11
285.0
 21
215.69467
 31
0.0
  0
LINE
  5
DF
330
1E
100
AcDbEntity
  8
0
100
AcDbLine
 10
282.0
 20
215.79467
 30
0.0
 11
284.8
 21
216.19467
 31
0.0
  0
LINE
  5
E0
330
1E
100
AcDbEntity
  8
0
100
AcDbLine
 10
285.0
 20
215.69467
 30
0.0
 11
287.6999999999999
 21
216.79467
 31
0.0
  0
LINE
  5
E1
330
1E
100
AcDbEntity
  8
0
100
AcDbLine
 10
278.6999999999999
 20
214.69467
 30
0.0
 11
282.0
 21
214.19467
 31
0.0
  0
LINE
  5
E2
330
1E
100
AcDbEntity
  8
0
100
AcDbLine
 10
275.7
 20
215.89467
 30
0.0
 11
278.6999999999999
 21
214.69467
 31
0.0
  0
LINE
  5
E3
330
1E
100
AcDbEntity
  8
0
100
AcDbLine
 10
261.2
 20
214.79467
 30
0.0
 11
265.1
 21
209.89467
 31
0.0
  0
LINE
  5
E4
330
1E
100
AcDbEntity
  8
0
100
AcDbLine
 10
282.0
 20
214.19467
 30
0.0
 11
285.3
 21
214.69467
 31
0.0
  0
LINE
  5
E5
330
1E
100
AcDbEntity
  8
0
100
AcDbLine
 10
301.1
 20
215.79467
 30
0.0
 11
303.2
 21
221.09467
 31
0.0
  0
LINE
  5
E6
330
1E
100
AcDbEntity
  8
0
100
AcDbLine
 10
285.3
 20
214.69467
 30
0.0
 11
288.3
 21
215.89467
 31
0.0
  0
LINE
  5
E7
330
1E
100
AcDbEntity
  8
0
100
AcDbLine
 10
279.1999999999999
 20
216.19467
 30
0.0
 11
282.0
 21
215.79467
 31
0.0
  0
LINE
  5
E9
330
1E
100
AcDbEntity
  8
0
100
AcDbLine
 10
284.8
 20
216.19467
 30
0.0
 11
287.5
 21
217.29467
 31
0.0
  0
LINE
  5
EB
330
1E
100
AcDbEntity
  8
0
100
AcDbLine
 10
288.3
 20
215.89467
 30
0.0
 11
290.8999999999999
 21
217.89467
 31
0.0
  0
LINE
  5
EC
330
1E
100
AcDbEntity
  8
0
100
AcDbLine
 10
302.8
 20
214.79467
 30
0.0
 11
305.1
 21
220.59467
 31
0.0
  0
LINE
  5
ED
330
1E
100
AcDbEntity
  8
0
100
AcDbLine
 10
305.8
 20
213.0946699999999
 30
0.0
 11
308.4999999999999
 21
219.69467
 31
0.0
  0
LINE
  5
EE
330
1E
100
AcDbEntity
  8
0
100
AcDbLine
 10
353.3999999999999
 20
210.39467
 30
0.0
 11
358.6999999999999
 21
203.4946699999999
 31
0.0
  0
LINE
  5
EF
330
1E
100
AcDbEntity
  8
0
100
AcDbLine
 10
210.672
 20
210.34867
 30
0.0
 11
213.918
 21
218.24667
 31
0.0
  0
LINE
  5
F1
330
1E
100
AcDbEntity
  8
0
100
AcDbLine
 10
205.37
 20
203.4246699999999
 30
0.0
 11
210.672
 21
210.34867
 31
0.0
  0
LINE
  5
F2
330
1E
100
AcDbEntity
  8
0
100
AcDbLine
 10
200.0
 20
72.55386999999998
 30
0.0
 11
200.0
 21
68.69136999999999
 31
0.0
  0
LINE
  5
F3
330
1E
100
AcDbEntity
  8
0
100
AcDbLine
 10
200.0
 20
72.55386999999998
 30
0.0
 11
200.0
 21
79.48057
 31
0.0
  0
LINE
  5
F4
330
1E
100
AcDbEntity
  8
0
100
AcDbLine
 10
187.41
 20
217.38167
 30
0.0
 11
189.682
 21
219.11267
 31
0.0
  0
LINE
  5
F5
330
1E
100
AcDbEntity
  8
0
100
AcDbLine
 10
189.682
 20
219.11267
 30
0.0
 11
191.4129999999999
 21
221.38467
 31
0.0
  0
LINE
  5
F6
330
1E
100
AcDbEntity
  8
0
100
AcDbLine
 10
276.3
 20
216.79467
 30
0.0
 11
279.0
 21
215.69467
 31
0.0
  0
LINE
  5
F7
330
1E
100
AcDbEntity
  8
0
100
AcDbLine
 10
287.6999999999999
 20
216.79467
 30
0.0
 11
290.1
 21
218.69467
 31
0.0
  0
LINE
  5
F8
330
1E
100
AcDbEntity
  8
0
100
AcDbLine
 10
276.5
 20
217.29467
 30
0.0
 11
279.1999999999999
 21
216.19467
 31
0.0
  0
LINE
  5
F9
330
1E
100
AcDbEntity
  8
0
100
AcDbLine
 10
287.5
 20
217.29467
 30
0.0
 11
289.8
 21
218.99467
 31
0.0
  0
LINE
  5
FA
330
1E
100
AcDbEntity
  8
0
100
AcDbLine
 10
264.6999999999999
 20
216.79467
 30
0.0
 11
267.8999999999999
 21
212.69467
 31
0.0
  0
LINE
  5
FB
330
1E
100
AcDbEntity
  8
0
100
AcDbLine
 10
347.296
 20
217.57867
 30
0.0
 11
350.7519999999999
 21
208.9386699999999
 31
0.0
  0
LINE
  5
FC
330
1E
100
AcDbEntity
  8
0
100
AcDbLine
 10
299.3
 20
216.79467
 30
0.0
 11
301.3
 21
221.5946699999999
 31
0.0
  0
LINE
  5
FD
330
1E
100
AcDbEntity
  8
0
100
AcDbLine
 10
273.1
 20
217.89467
 30
0.0
 11
275.7
 21
215.89467
 31
0.0
  0
LINE
  5
FE
330
1E
100
AcDbEntity
  8
0
100
AcDbLine
 10
274.1999999999999
 20
218.99467
 30
0.0
 11
276.5
 21
217.29467
 31
0.0
  0
LINE
  5
FF
330
1E
100
AcDbEntity
  8
0
100
AcDbLine
 10
273.8999999999999
 20
218.69467
 30
0.0
 11
276.3
 21
216.79467
 31
0.0
  0
LINE
  5
100
330
1E
100
AcDbEntity
  8
0
100
AcDbLine
 10
289.8
 20
218.99467
 30
0.0
 11
291.5
 21
221.29467
 31
0.0
  0
LINE
  5
101
330
1E
100
AcDbEntity
  8
0
100
AcDbLine
 10
290.1
 20
218.69467
 30
0.0
 11
292.0
 21
221.09467
 31
0.0
  0
LINE
  5
102
330
1E
100
AcDbEntity
  8
0
100
AcDbLine
 10
290.8999999999999
 20
217.89467
 30
0.0
 11
292.8999999999999
 21
220.49467
 31
0.0
  0
LINE
  5
103
330
1E
100
AcDbEntity
  8
0
100
AcDbLine
 10
350.1999999999999
 20
218.29467
 30
0.0
 11
353.3999999999999
 21
210.39467
 31
0.0
  0
LINE
  5
104
330
1E
100
AcDbEntity
  8
0
100
AcDbLine
 10
348.3
 20
217.79467
 30
0.0
 11
351.6999999999999
 21
209.39467
 31
0.0
  0
LINE
  5
105
330
1E
100
AcDbEntity
  8
0
100
AcDbLine
 10
213.918
 20
218.24667
 30
0.0
 11
215.0
 21
226.79467
 31
0.0
  0
LINE
  5
106
330
1E
100
AcDbEntity
  8
0
100
AcDbLine
 10
179.1869
 20
216.29967
 30
0.0
 11
182.0
 21
215.97467
 31
0.0
  0
LINE
  5
107
330
1E
100
AcDbEntity
  8
0
100
AcDbLine
 10
176.5902
 20
217.38167
 30
0.0
 11
179.1869
 21
216.29967
 31
0.0
  0
LINE
  5
108
330
1E
100
AcDbEntity
  8
0
100
AcDbLine
 10
347.021978021978
 20
219.527270732601
 30
0.0
 11
347.296
 21
217.57867
 31
0.0
  0
LINE
  5
109
330
1E
100
AcDbEntity
  8
0
100
AcDbLine
 10
350.040189125296
 20
219.4266636958229
 30
0.0
 11
350.1999999999999
 21
218.29467
 31
0.0
  0
LINE
  5
10A
330
1E
100
AcDbEntity
  8
0
100
AcDbLine
 10
348.054707852624
 20
219.492846404913
 30
0.0
 11
348.3
 21
217.79467
 31
0.0
  0
LINE
  5
10B
330
1E
100
AcDbEntity
  8
0
100
AcDbLine
 10
174.3179999999999
 20
219.11267
 30
0.0
 11
176.5902
 21
217.38167
 31
0.0
  0
LINE
  5
10D
330
1E
100
AcDbEntity
  8
0
100
AcDbLine
 10
164.5999999999999
 20
64.69136999999999
 30
0.0
 11
166.4
 21
60.89137
 31
0.0
  0
LINE
  5
10E
330
1E
100
AcDbEntity
  8
0
100
AcDbLine
 10
164.0
 20
68.69136999999999
 30
0.0
 11
164.5999999999999
 21
64.69136999999999
 31
0.0
  0
LINE
  5
10F
330
1E
100
AcDbEntity
  8
0
100
AcDbLine
 10
164.0
 20
68.69136999999999
 30
0.0
 11
164.0
 21
72.55386999999998
 31
0.0
  0
LINE
  5
110
330
1E
100
AcDbEntity
  8
0
100
AcDbLine
 10
345.0
 20
219.5946699999999
 30
0.0
 11
354.0
 21
219.29467
 31
0.0
  0
LINE
  5
111
330
1E
100
AcDbEntity
  8
0
100
AcDbLine
 10
362.1
 20
4.032969999999999
 30
0.0
 11
369.1
 21
0.7993800000000051
 31
0.0
  0
LINE
  5
112
330
1E
100
AcDbEntity
  8
0
100
AcDbLine
 10
363.1
 20
7.194870000000009
 30
0.0
 11
372.1999999999999
 21
3.675970000000009
 31
0.0
  0
LINE
  5
113
330
1E
100
AcDbEntity
  8
0
100
AcDbLine
 10
355.2
 20
12.99636999999999
 30
0.0
 11
363.1
 21
7.194870000000009
 31
0.0
  0
LINE
  5
114
330
1E
100
AcDbEntity
  8
0
100
AcDbLine
 10
356.5119999999999
 20
201.3066699999999
 30
0.0
 11
364.144
 21
195.54667
 31
0.0
  0
LINE
  5
115
330
1E
100
AcDbEntity
  8
0
100
AcDbLine
 10
362.1
 20
69.84617
 30
0.0
 11
369.1
 21
73.07966999999999
 31
0.0
  0
LINE
  5
116
330
1E
100
AcDbEntity
  8
0
100
AcDbLine
 10
364.144
 20
195.54667
 30
0.0
 11
370.0
 21
193.20427
 31
0.0
  0
LINE
  5
117
330
1E
100
AcDbEntity
  8
0
100
AcDbLine
 10
363.1
 20
69.77446999999999
 30
0.0
 11
372.1999999999999
 21
73.29336999999999
 31
0.0
  0
LINE
  5
118
330
1E
100
AcDbEntity
  8
0
100
AcDbLine
 10
355.2
 20
63.97297
 30
0.0
 11
363.1
 21
69.77446999999999
 31
0.0
  0
LINE
  5
119
330
1E
100
AcDbEntity
  8
0
100
AcDbLine
 10
369.1
 20
0.7993800000000051
 30
0.0
 11
382.0
 21
0.7993800000000051
 31
0.0
  0
LINE
  5
11A
330
1E
100
AcDbEntity
  8
0
100
AcDbLine
 10
370.0
 20
189.78967
 30
0.0
 11
370.0
 21
189.1856699999999
 31
0.0
  0
LINE
  5
11C
330
1E
100
AcDbEntity
  8
0
100
AcDbLine
 10
370.0
 20
189.1856699999999
 30
0.0
 11
370.3999999999999
 21
187.1276699999999
 31
0.0
  0
LINE
  5
11D
330
1E
100
AcDbEntity
  8
0
100
AcDbLine
 10
370.0
 20
189.1856699999999
 30
0.0
 11
370.3999999999999
 21
191.29067
 31
0.0
  0
LINE
  5
11E
330
1E
100
AcDbEntity
  8
0
100
AcDbLine
 10
370.0
 20
189.1856699999999
 30
0.0
 11
370.0
 21
189.78967
 31
0.0
  0
LINE
  5
11F
330
1E
100
AcDbEntity
  8
0
100
AcDbLine
 10
369.1
 20
73.07966999999999
 30
0.0
 11
372.1999999999999
 21
73.29336999999999
 31
0.0
  0
LINE
  5
121
330
1E
100
AcDbEntity
  8
0
100
AcDbLine
 10
370.3999999999999
 20
191.29067
 30
0.0
 11
371.6
 21
193.2626699999999
 31
0.0
  0
LINE
  5
122
330
1E
100
AcDbEntity
  8
0
100
AcDbLine
 10
371.0
 20
186.68367
 30
0.0
 11
371.0
 21
188.6696699999999
 31
0.0
  0
LINE
  5
123
330
1E
100
AcDbEntity
  8
0
100
AcDbLine
 10
370.8
 20
182.2416699999999
 30
0.0
 11
370.8
 21
176.40367
 31
0.0
  0
LINE
  5
124
330
1E
100
AcDbEntity
  8
0
100
AcDbLine
 10
370.8
 20
182.2416699999999
 30
0.0
 11
371.0
 21
186.68367
 31
0.0
  0
LINE
  5
125
330
1E
100
AcDbEntity
  8
0
100
AcDbLine
 10
370.8
 20
176.40367
 30
0.0
 11
371.0
 21
170.90167
 31
0.0
  0
LINE
  5
126
330
1E
100
AcDbEntity
  8
0
100
AcDbLine
 10
370.8
 20
176.40367
 30
0.0
 11
370.8
 21
182.2416699999999
 31
0.0
  0
LINE
  5
127
330
1E
100
AcDbEntity
  8
0
100
AcDbLine
 10
371.0
 20
170.90167
 30
0.0
 11
371.1999999999999
 21
164.7816699999999
 31
0.0
  0
LINE
  5
128
330
1E
100
AcDbEntity
  8
0
100
AcDbLine
 10
371.1999999999999
 20
164.7816699999999
 30
0.0
 11
371.7
 21
158.04667
 31
0.0
  0
LINE
  5
129
330
1E
100
AcDbEntity
  8
0
100
AcDbLine
 10
371.7
 20
158.04667
 30
0.0
 11
372.3
 21
151.1136699999999
 31
0.0
  0
LINE
  5
12A
330
1E
100
AcDbEntity
  8
0
100
AcDbLine
 10
371.6
 20
193.2626699999999
 30
0.0
 11
373.4999999999999
 21
195.0186699999999
 31
0.0
  0
LINE
  5
12B
330
1E
100
AcDbEntity
  8
0
100
AcDbLine
 10
371.3999999999999
 20
190.60067
 30
0.0
 11
372.5
 21
192.30767
 31
0.0
  0
LINE
  5
12C
330
1E
100
AcDbEntity
  8
0
100
AcDbLine
 10
371.0
 20
188.6696699999999
 30
0.0
 11
371.3999999999999
 21
190.60067
 31
0.0
  0
LINE
  5
12D
330
1E
100
AcDbEntity
  8
0
100
AcDbLine
 10
371.0
 20
188.6696699999999
 30
0.0
 11
371.0
 21
186.68367
 31
0.0
  0
LINE
  5
12E
330
1E
100
AcDbEntity
  8
0
100
AcDbLine
 10
370.3999999999999
 20
187.1276699999999
 30
0.0
 11
370.978126093346
 21
186.197850533203
 31
0.0
  0
LINE
  5
12F
330
1E
100
AcDbEntity
  8
0
100
AcDbLine
 10
372.1999999999999
 20
73.29336999999999
 30
0.0
 11
374.0
 21
73.5379128571429
 31
0.0
  0
LINE
  5
130
330
1E
100
AcDbEntity
  8
0
100
AcDbLine
 10
375.1
 20
66.91046999999999
 30
0.0
 11
376.1
 21
65.88316999999999
 31
0.0
  0
LINE
  5
131
330
1E
100
AcDbEntity
  8
0
100
AcDbLine
 10
374.3
 20
68.06606999999999
 30
0.0
 11
375.1
 21
66.91046999999999
 31
0.0
  0
LINE
  5
132
330
1E
100
AcDbEntity
  8
0
100
AcDbLine
 10
372.3
 20
151.1136699999999
 30
0.0
 11
373.0
 21
143.52267
 31
0.0
  0
LINE
  5
133
330
1E
100
AcDbEntity
  8
0
100
AcDbLine
 10
373.0
 20
143.52267
 30
0.0
 11
373.4999999999999
 21
134.5366699999999
 31
0.0
  0
LINE
  5
134
330
1E
100
AcDbEntity
  8
0
100
AcDbLine
 10
373.4999999999999
 20
134.5366699999999
 30
0.0
 11
374.0
 21
125.5286699999999
 31
0.0
  0
LINE
  5
135
330
1E
100
AcDbEntity
  8
0
100
AcDbLine
 10
374.0
 20
125.5286699999999
 30
0.0
 11
374.0
 21
114.5176699999999
 31
0.0
  0
LINE
  5
136
330
1E
100
AcDbEntity
  8
0
100
AcDbLine
 10
374.0
 20
114.5176699999999
 30
0.0
 11
374.0
 21
104.1256699999999
 31
0.0
  0
LINE
  5
137
330
1E
100
AcDbEntity
  8
0
100
AcDbLine
 10
374.0
 20
114.5176699999999
 30
0.0
 11
374.0
 21
125.5286699999999
 31
0.0
  0
LINE
  5
138
330
1E
100
AcDbEntity
  8
0
100
AcDbLine
 10
374.0
 20
104.1256699999999
 30
0.0
 11
374.0
 21
92.46266999999999
 31
0.0
  0
LINE
  5
139
330
1E
100
AcDbEntity
  8
0
100
AcDbLine
 10
374.0
 20
104.1256699999999
 30
0.0
 11
374.0
 21
114.5176699999999
 31
0.0
  0
LINE
  5
13A
330
1E
100
AcDbEntity
  8
0
100
AcDbLine
 10
372.5
 20
192.30767
 30
0.0
 11
374.1999999999999
 21
193.8876699999999
 31
0.0
  0
LINE
  5
13B
330
1E
100
AcDbEntity
  8
0
100
AcDbLine
 10
374.0
 20
92.46266999999999
 30
0.0
 11
374.0
 21
80.69867
 31
0.0
  0
LINE
  5
13C
330
1E
100
AcDbEntity
  8
0
100
AcDbLine
 10
374.0
 20
92.46266999999999
 30
0.0
 11
374.3
 21
93.55166999999999
 31
0.0
  0
LINE
  5
13D
330
1E
100
AcDbEntity
  8
0
100
AcDbLine
 10
374.0
 20
92.46266999999999
 30
0.0
 11
374.0
 21
104.1256699999999
 31
0.0
  0
LINE
  5
13E
330
1E
100
AcDbEntity
  8
0
100
AcDbLine
 10
376.3999999999999
 20
95.51166999999999
 30
0.0
 11
378.0
 21
96.22067000000001
 31
0.0
  0
LINE
  5
13F
330
1E
100
AcDbEntity
  8
0
100
AcDbLine
 10
375.1
 20
94.64067
 30
0.0
 11
376.3999999999999
 21
95.51166999999999
 31
0.0
  0
LINE
  5
140
330
1E
100
AcDbEntity
  8
0
100
AcDbLine
 10
374.3
 20
93.55166999999999
 30
0.0
 11
375.1
 21
94.64067
 31
0.0
  0
LINE
  5
141
330
1E
100
AcDbEntity
  8
0
100
AcDbLine
 10
374.0
 20
80.69867
 30
0.0
 11
374.0
 21
69.28586999999999
 31
0.0
  0
LINE
  5
142
330
1E
100
AcDbEntity
  8
0
100
AcDbLine
 10
374.0
 20
80.69867
 30
0.0
 11
374.0
 21
92.46266999999999
 31
0.0
  0
LINE
  5
143
330
1E
100
AcDbEntity
  8
0
100
AcDbLine
 10
374.0
 20
69.28586999999999
 30
0.0
 11
374.0
 21
80.69867
 31
0.0
  0
LINE
  5
144
330
1E
100
AcDbEntity
  8
0
100
AcDbLine
 10
374.0
 20
69.28586999999999
 30
0.0
 11
374.3
 21
68.06606999999999
 31
0.0
  0
LINE
  5
145
330
1E
100
AcDbEntity
  8
0
100
AcDbLine
 10
372.1999999999999
 20
3.675970000000009
 30
0.0
 11
382.0
 21
2.344370000000009
 31
0.0
  0
LINE
  5
148
330
1E
100
AcDbEntity
  8
0
100
AcDbLine
 10
373.4999999999999
 20
195.0186699999999
 30
0.0
 11
376.0
 21
196.2916699999999
 31
0.0
  0
LINE
  5
149
330
1E
100
AcDbEntity
  8
0
100
AcDbLine
 10
376.5
 20
195.06967
 30
0.0
 11
379.1999999999999
 21
195.7276699999999
 31
0.0
  0
LINE
  5
14A
330
1E
100
AcDbEntity
  8
0
100
AcDbLine
 10
376.0
 20
196.2916699999999
 30
0.0
 11
378.8999999999999
 21
197.12267
 31
0.0
  0
LINE
  5
14B
330
1E
100
AcDbEntity
  8
0
100
AcDbLine
 10
374.1999999999999
 20
193.8876699999999
 30
0.0
 11
376.5
 21
195.06967
 31
0.0
  0
LINE
  5
14C
330
1E
100
AcDbEntity
  8
0
100
AcDbLine
 10
373.4999999999999
 20
197.4946699999999
 30
0.0
 11
376.0
 21
198.9946699999999
 31
0.0
  0
LINE
  5
14D
330
1E
100
AcDbEntity
  8
0
100
AcDbLine
 10
371.6
 20
195.59467
 30
0.0
 11
373.4999999999999
 21
197.4946699999999
 31
0.0
  0
LINE
  5
14E
330
1E
100
AcDbEntity
  8
0
100
AcDbLine
 10
370.3999999999999
 20
193.3946699999999
 30
0.0
 11
371.6
 21
195.59467
 31
0.0
  0
LINE
  5
14F
330
1E
100
AcDbEntity
  8
0
100
AcDbLine
 10
370.0
 20
190.9946699999999
 30
0.0
 11
370.0
 21
189.78967
 31
0.0
  0
LINE
  5
150
330
1E
100
AcDbEntity
  8
0
100
AcDbLine
 10
370.0
 20
190.9946699999999
 30
0.0
 11
370.0
 21
212.89467
 31
0.0
  0
LINE
  5
151
330
1E
100
AcDbEntity
  8
0
100
AcDbLine
 10
370.0
 20
190.9946699999999
 30
0.0
 11
370.3999999999999
 21
193.3946699999999
 31
0.0
  0
LINE
  5
152
330
1E
100
AcDbEntity
  8
0
100
AcDbLine
 10
376.0
 20
198.9946699999999
 30
0.0
 11
378.8999999999999
 21
199.8946699999999
 31
0.0
  0
LINE
  5
153
330
1E
100
AcDbEntity
  8
0
100
AcDbLine
 10
365.6
 20
198.19467
 30
0.0
 11
370.0
 21
196.4123915189869
 31
0.0
  0
LINE
  5
154
330
1E
100
AcDbEntity
  8
0
100
AcDbLine
 10
364.6
 20
196.4946699999999
 30
0.0
 11
370.0
 21
194.308955714286
 31
0.0
  0
LINE
  5
155
330
1E
100
AcDbEntity
  8
0
100
AcDbLine
 10
356.081081081081
 20
219.5919672972969
 30
0.0
 11
358.6
 21
213.29467
 31
0.0
  0
LINE
  5
156
330
1E
100
AcDbEntity
  8
0
100
AcDbLine
 10
358.6
 20
213.29467
 30
0.0
 11
362.9
 21
207.69467
 31
0.0
  0
LINE
  5
157
330
1E
100
AcDbEntity
  8
0
100
AcDbLine
 10
362.9
 20
207.69467
 30
0.0
 11
368.5
 21
203.3946699999999
 31
0.0
  0
LINE
  5
158
330
1E
100
AcDbEntity
  8
0
100
AcDbLine
 10
368.5
 20
203.3946699999999
 30
0.0
 11
370.0
 21
202.79467
 31
0.0
  0
LINE
  5
159
330
1E
100
AcDbEntity
  8
0
100
AcDbLine
 10
371.6
 20
218.19467
 30
0.0
 11
373.4999999999999
 21
220.49467
 31
0.0
  0
LINE
  5
15A
330
1E
100
AcDbEntity
  8
0
100
AcDbLine
 10
370.3999999999999
 20
215.69467
 30
0.0
 11
371.6
 21
218.19467
 31
0.0
  0
LINE
  5
15B
330
1E
100
AcDbEntity
  8
0
100
AcDbLine
 10
370.0
 20
212.89467
 30
0.0
 11
370.0
 21
190.9946699999999
 31
0.0
  0
LINE
  5
15C
330
1E
100
AcDbEntity
  8
0
100
AcDbLine
 10
370.0
 20
212.89467
 30
0.0
 11
370.3999999999999
 21
215.69467
 31
0.0
  0
LINE
  5
15D
330
1E
100
AcDbEntity
  8
0
100
AcDbLine
 10
358.6999999999999
 20
203.4946699999999
 30
0.0
 11
365.6
 21
198.19467
 31
0.0
  0
LINE
  5
15E
330
1E
100
AcDbEntity
  8
0
100
AcDbLine
 10
357.3
 20
202.09467
 30
0.0
 11
364.6
 21
196.4946699999999
 31
0.0
  0
LINE
  5
15F
330
1E
100
AcDbEntity
  8
0
100
AcDbLine
 10
354.0
 20
219.29467
 30
0.0
 11
357.5
 21
219.79467
 31
0.0
  0
LINE
  5
160
330
1E
100
AcDbEntity
  8
0
100
AcDbLine
 10
255.5
 20
219.69467
 30
0.0
 11
258.1999999999999
 21
213.0946699999999
 31
0.0
  0
LINE
  5
161
330
1E
100
AcDbEntity
  8
0
100
AcDbLine
 10
308.4999999999999
 20
219.69467
 30
0.0
 11
308.7003484320559
 21
221.117143867596
 31
0.0
  0
LINE
  5
162
330
1E
100
AcDbEntity
  8
0
100
AcDbLine
 10
108.4999999999999
 20
219.69467
 30
0.0
 11
109.4999999999999
 21
226.79467
 31
0.0
  0
LINE
  5
163
330
1E
100
AcDbEntity
  8
0
100
AcDbLine
 10
55.5
 20
219.69467
 30
0.0
 11
58.2
 21
213.0946699999999
 31
0.0
  0
LINE
  5
164
330
1E
100
AcDbEntity
  8
0
100
AcDbLine
 10
357.5
 20
219.79467
 30
0.0
 11
360.0
 21
220.79467
 31
0.0
  0
LINE
  5
165
330
1E
100
AcDbEntity
  8
0
100
AcDbLine
 10
19.0
 20
219.5946699999999
 30
0.0
 11
32.0
 21
219.99467
 31
0.0
  0
LINE
  5
166
330
1E
100
AcDbEntity
  8
0
100
AcDbLine
 10
9.999999999999969
 20
219.29467
 30
0.0
 11
19.0
 21
219.5946699999999
 31
0.0
  0
LINE
  5
167
330
1E
100
AcDbEntity
  8
0
100
AcDbLine
 10
156.8984
 20
220.08667
 30
0.0
 11
159.4951
 21
213.81067
 31
0.0
  0
LINE
  5
168
330
1E
100
AcDbEntity
  8
0
100
AcDbLine
 10
92.9
 20
220.49467
 30
0.0
 11
94.1
 21
223.49467
 31
0.0
  0
LINE
  5
169
330
1E
100
AcDbEntity
  8
0
100
AcDbLine
 10
105.0999999999999
 20
220.59467
 30
0.0
 11
106.0
 21
226.79467
 31
0.0
  0
LINE
  5
16A
330
1E
100
AcDbEntity
  8
0
100
AcDbLine
 10
71.09999999999999
 20
220.49467
 30
0.0
 11
73.09999999999999
 21
217.89467
 31
0.0
  0
LINE
  5
16B
330
1E
100
AcDbEntity
  8
0
100
AcDbLine
 10
58.9
 20
220.59467
 30
0.0
 11
61.2
 21
214.79467
 31
0.0
  0
LINE
  5
16C
330
1E
100
AcDbEntity
  8
0
100
AcDbLine
 10
207.1019999999999
 20
220.08667
 30
0.0
 11
207.967
 21
226.79467
 31
0.0
  0
LINE
  5
16D
330
1E
100
AcDbEntity
  8
0
100
AcDbLine
 10
271.1
 20
220.49467
 30
0.0
 11
273.1
 21
217.89467
 31
0.0
  0
LINE
  5
16E
330
1E
100
AcDbEntity
  8
0
100
AcDbLine
 10
258.8999999999999
 20
220.59467
 30
0.0
 11
261.2
 21
214.79467
 31
0.0
  0
LINE
  5
16F
330
1E
100
AcDbEntity
  8
0
100
AcDbLine
 10
292.8999999999999
 20
220.49467
 30
0.0
 11
293.601941747573
 21
222.2495243689319
 31
0.0
  0
LINE
  5
170
330
1E
100
AcDbEntity
  8
0
100
AcDbLine
 10
305.1
 20
220.59467
 30
0.0
 11
305.213801356203
 21
221.3786348982849
 31
0.0
  0
LINE
  5
172
330
1E
100
AcDbEntity
  8
0
100
AcDbLine
 10
204.9379999999999
 20
220.62767
 30
0.0
 11
205.803
 21
226.79467
 31
0.0
  0
LINE
  5
174
330
1E
100
AcDbEntity
  8
0
100
AcDbLine
 10
159.0622999999999
 20
220.62767
 30
0.0
 11
161.3343999999999
 21
214.89267
 31
0.0
  0
LINE
  5
175
330
1E
100
AcDbEntity
  8
0
100
AcDbLine
 10
313.0
 20
220.79467
 30
0.0
 11
332.0
 21
219.99467
 31
0.0
  0
LINE
  5
176
330
1E
100
AcDbEntity
  8
0
100
AcDbLine
 10
332.0
 20
219.99467
 30
0.0
 11
345.0
 21
219.5946699999999
 31
0.0
  0
LINE
  5
177
330
1E
100
AcDbEntity
  8
0
100
AcDbLine
 10
373.4999999999999
 20
220.49467
 30
0.0
 11
376.0
 21
222.19467
 31
0.0
  0
LINE
  5
178
330
1E
100
AcDbEntity
  8
0
100
AcDbLine
 10
360.0
 20
220.79467
 30
0.0
 11
362.0
 21
222.29467
 31
0.0
  0
LINE
  5
179
330
1E
100
AcDbEntity
  8
0
100
AcDbLine
 10
92.0
 20
221.09467
 30
0.0
 11
93.1
 21
223.79467
 31
0.0
  0
LINE
  5
17A
330
1E
100
AcDbEntity
  8
0
100
AcDbLine
 10
103.2
 20
221.09467
 30
0.0
 11
104.0
 21
226.79467
 31
0.0
  0
LINE
  5
17B
330
1E
100
AcDbEntity
  8
0
100
AcDbLine
 10
72.0
 20
221.09467
 30
0.0
 11
73.9
 21
218.69467
 31
0.0
  0
LINE
  5
17C
330
1E
100
AcDbEntity
  8
0
100
AcDbLine
 10
60.8
 20
221.09467
 30
0.0
 11
62.9
 21
215.79467
 31
0.0
  0
LINE
  5
17F
330
1E
100
AcDbEntity
  8
0
100
AcDbLine
 10
60.7395833333333
 20
221.5251387499999
 30
0.0
 11
60.8
 21
221.09467
 31
0.0
  0
LINE
  5
180
330
1E
100
AcDbEntity
  8
0
100
AcDbLine
 10
91.5
 20
221.29467
 30
0.0
 11
92.59999999999999
 21
223.99467
 31
0.0
  0
LINE
  5
182
330
1E
100
AcDbEntity
  8
0
100
AcDbLine
 10
72.5
 20
221.29467
 30
0.0
 11
74.2
 21
218.99467
 31
0.0
  0
LINE
  5
183
330
1E
100
AcDbEntity
  8
0
100
AcDbLine
 10
101.2999999999999
 20
221.5946699999999
 30
0.0
 11
102.0
 21
226.79467
 31
0.0
  0
LINE
  5
184
330
1E
100
AcDbEntity
  8
0
100
AcDbLine
 10
62.7
 20
221.5946699999999
 30
0.0
 11
64.7
 21
216.79467
 31
0.0
  0
LINE
  5
185
330
1E
100
AcDbEntity
  8
0
100
AcDbLine
 10
70.3980582524272
 20
222.2495243689319
 30
0.0
 11
71.09999999999999
 21
220.49467
 31
0.0
  0
LINE
  5
186
330
1E
100
AcDbEntity
  8
0
100
AcDbLine
 10
62.6896715849595
 20
221.6713953688719
 30
0.0
 11
62.7
 21
221.5946699999999
 31
0.0
  0
LINE
  5
187
330
1E
100
AcDbEntity
  8
0
100
AcDbLine
 10
58.78619864379729
 20
221.3786348982849
 30
0.0
 11
58.9
 21
220.59467
 31
0.0
  0
LINE
  5
188
330
1E
100
AcDbEntity
  8
0
100
AcDbLine
 10
55.2996515679442
 20
221.117143867596
 30
0.0
 11
55.5
 21
219.69467
 31
0.0
  0
LINE
  5
189
330
1E
100
AcDbEntity
  8
0
100
AcDbLine
 10
272.0
 20
221.09467
 30
0.0
 11
273.8999999999999
 21
218.69467
 31
0.0
  0
LINE
  5
18A
330
1E
100
AcDbEntity
  8
0
100
AcDbLine
 10
260.8
 20
221.09467
 30
0.0
 11
262.9
 21
215.79467
 31
0.0
  0
LINE
  5
18B
330
1E
100
AcDbEntity
  8
0
100
AcDbLine
 10
272.5
 20
221.29467
 30
0.0
 11
274.1999999999999
 21
218.99467
 31
0.0
  0
LINE
  5
18C
330
1E
100
AcDbEntity
  8
0
100
AcDbLine
 10
291.5
 20
221.29467
 30
0.0
 11
292.6
 21
223.99467
 31
0.0
  0
LINE
  5
18D
330
1E
100
AcDbEntity
  8
0
100
AcDbLine
 10
292.0
 20
221.09467
 30
0.0
 11
293.1
 21
223.79467
 31
0.0
  0
LINE
  5
18E
330
1E
100
AcDbEntity
  8
0
100
AcDbLine
 10
303.2
 20
221.09467
 30
0.0
 11
303.2604166666669
 21
221.5251387499999
 31
0.0
  0
LINE
  5
190
330
1E
100
AcDbEntity
  8
0
100
AcDbLine
 10
262.6999999999999
 20
221.5946699999999
 30
0.0
 11
264.6999999999999
 21
216.79467
 31
0.0
  0
LINE
  5
191
330
1E
100
AcDbEntity
  8
0
100
AcDbLine
 10
302.1999999999999
 20
221.39467
 30
0.0
 11
302.2307692307689
 21
221.602362307692
 31
0.0
  0
LINE
  5
192
330
1E
100
AcDbEntity
  8
0
100
AcDbLine
 10
301.3
 20
221.5946699999999
 30
0.0
 11
301.3103284150409
 21
221.6713953688719
 31
0.0
  0
LINE
  5
193
330
1E
100
AcDbEntity
  8
0
100
AcDbLine
 10
191.4129999999999
 20
221.38467
 30
0.0
 11
192.495
 21
223.9816699999999
 31
0.0
  0
LINE
  5
194
330
1E
100
AcDbEntity
  8
0
100
AcDbLine
 10
172.5869
 20
221.38467
 30
0.0
 11
174.3179999999999
 21
219.11267
 31
0.0
  0
LINE
  5
195
330
1E
100
AcDbEntity
  8
0
100
AcDbLine
 10
293.5437864887409
 20
222.253886013344
 30
0.0
 11
313.0
 21
220.79467
 31
0.0
  0
LINE
  5
196
330
1E
100
AcDbEntity
  8
0
100
AcDbLine
 10
376.0
 20
222.19467
 30
0.0
 11
378.8999999999999
 21
223.29467
 31
0.0
  0
LINE
  5
197
330
1E
100
AcDbEntity
  8
0
100
AcDbLine
 10
362.0
 20
222.29467
 30
0.0
 11
363.5
 21
224.29467
 31
0.0
  0
LINE
  5
198
330
1E
100
AcDbEntity
  8
0
100
AcDbLine
 10
51.0
 20
220.79467
 30
0.0
 11
70.45621351125941
 21
222.253886013344
 31
0.0
  0
LINE
  5
199
330
1E
100
AcDbEntity
  8
0
100
AcDbLine
 10
32.0
 20
219.99467
 30
0.0
 11
51.0
 21
220.79467
 31
0.0
  0
LINE
  5
19A
330
1E
100
AcDbEntity
  8
0
100
AcDbLine
 10
6.499999999999969
 20
219.79467
 30
0.0
 11
9.999999999999969
 21
219.29467
 31
0.0
  0
LINE
  5
19B
330
1E
100
AcDbEntity
  8
0
100
AcDbLine
 10
3.99999999999997
 20
220.79467
 30
0.0
 11
6.499999999999969
 21
219.79467
 31
0.0
  0
LINE
  5
19C
330
1E
100
AcDbEntity
  8
0
100
AcDbLine
 10
92.59999999999999
 20
223.99467
 30
0.0
 11
93.0
 21
226.79467
 31
0.0
  0
LINE
  5
19D
330
1E
100
AcDbEntity
  8
0
100
AcDbLine
 10
93.1
 20
223.79467
 30
0.0
 11
93.49999999999999
 21
226.79467
 31
0.0
  0
LINE
  5
19E
330
1E
100
AcDbEntity
  8
0
100
AcDbLine
 10
71.4
 20
223.99467
 30
0.0
 11
72.5
 21
221.29467
 31
0.0
  0
LINE
  5
19F
330
1E
100
AcDbEntity
  8
0
100
AcDbLine
 10
70.9
 20
223.79467
 30
0.0
 11
72.0
 21
221.09467
 31
0.0
  0
LINE
  5
1A0
330
1E
100
AcDbEntity
  8
0
100
AcDbLine
 10
94.1
 20
223.49467
 30
0.0
 11
94.59999999999999
 21
226.79467
 31
0.0
  0
LINE
  5
1A1
330
1E
100
AcDbEntity
  8
0
100
AcDbLine
 10
270.8999999999999
 20
223.79467
 30
0.0
 11
272.0
 21
221.09467
 31
0.0
  0
LINE
  5
1A2
330
1E
100
AcDbEntity
  8
0
100
AcDbLine
 10
293.1
 20
223.79467
 30
0.0
 11
293.5
 21
226.79467
 31
0.0
  0
LINE
  5
1A3
330
1E
100
AcDbEntity
  8
0
100
AcDbLine
 10
269.8999999999999
 20
223.49467
 30
0.0
 11
271.1
 21
220.49467
 31
0.0
  0
LINE
  5
1A4
330
1E
100
AcDbEntity
  8
0
100
AcDbLine
 10
271.3999999999999
 20
223.99467
 30
0.0
 11
272.5
 21
221.29467
 31
0.0
  0
LINE
  5
1A5
330
1E
100
AcDbEntity
  8
0
100
AcDbLine
 10
292.6
 20
223.99467
 30
0.0
 11
293.0
 21
226.79467
 31
0.0
  0
LINE
  5
1A6
330
1E
100
AcDbEntity
  8
0
100
AcDbLine
 10
192.495
 20
223.9816699999999
 30
0.0
 11
192.82
 21
226.79467
 31
0.0
  0
LINE
  5
1A7
330
1E
100
AcDbEntity
  8
0
100
AcDbLine
 10
171.5049
 20
223.9816699999999
 30
0.0
 11
172.5869
 21
221.38467
 31
0.0
  0
LINE
  5
1A8
330
1E
100
AcDbEntity
  8
0
100
AcDbLine
 10
71.0
 20
226.79467
 30
0.0
 11
71.4
 21
223.99467
 31
0.0
  0
LINE
  5
1A9
330
1E
100
AcDbEntity
  8
0
100
AcDbLine
 10
71.0
 20
226.79467
 30
0.0
 11
71.4
 21
229.59467
 31
0.0
  0
LINE
  5
1AA
330
1E
100
AcDbEntity
  8
0
100
AcDbLine
 10
70.5
 20
226.79467
 30
0.0
 11
70.9
 21
223.79467
 31
0.0
  0
LINE
  5
1AB
330
1E
100
AcDbEntity
  8
0
100
AcDbLine
 10
70.5
 20
226.79467
 30
0.0
 11
70.9
 21
229.79467
 31
0.0
  0
LINE
  5
1AC
330
1E
100
AcDbEntity
  8
0
100
AcDbLine
 10
156.0328
 20
226.79467
 30
0.0
 11
156.8984
 21
233.50267
 31
0.0
  0
LINE
  5
1AD
330
1E
100
AcDbEntity
  8
0
100
AcDbLine
 10
156.0328
 20
226.79467
 30
0.0
 11
156.8984
 21
220.08667
 31
0.0
  0
LINE
  5
1B0
330
1E
100
AcDbEntity
  8
0
100
AcDbLine
 10
149.0
 20
226.79467
 30
0.0
 11
150.082
 21
235.34267
 31
0.0
  0
LINE
  5
1B1
330
1E
100
AcDbEntity
  8
0
100
AcDbLine
 10
149.0
 20
226.79467
 30
0.0
 11
150.082
 21
218.24667
 31
0.0
  0
LINE
  5
1B4
330
1E
100
AcDbEntity
  8
0
100
AcDbLine
 10
260.0
 20
226.79467
 30
0.0
 11
260.8
 21
221.09467
 31
0.0
  0
LINE
  5
1B5
330
1E
100
AcDbEntity
  8
0
100
AcDbLine
 10
260.0
 20
226.79467
 30
0.0
 11
260.8
 21
232.49467
 31
0.0
  0
LINE
  5
1B6
330
1E
100
AcDbEntity
  8
0
100
AcDbLine
 10
271.0
 20
226.79467
 30
0.0
 11
271.3999999999999
 21
223.99467
 31
0.0
  0
LINE
  5
1B7
330
1E
100
AcDbEntity
  8
0
100
AcDbLine
 10
271.0
 20
226.79467
 30
0.0
 11
271.3999999999999
 21
229.59467
 31
0.0
  0
LINE
  5
1B8
330
1E
100
AcDbEntity
  8
0
100
AcDbLine
 10
270.5
 20
226.79467
 30
0.0
 11
270.8999999999999
 21
223.79467
 31
0.0
  0
LINE
  5
1B9
330
1E
100
AcDbEntity
  8
0
100
AcDbLine
 10
270.5
 20
226.79467
 30
0.0
 11
270.8999999999999
 21
229.79467
 31
0.0
  0
LINE
  5
1BA
330
1E
100
AcDbEntity
  8
0
100
AcDbLine
 10
269.3999999999999
 20
226.79467
 30
0.0
 11
269.8999999999999
 21
223.49467
 31
0.0
  0
LINE
  5
1BB
330
1E
100
AcDbEntity
  8
0
100
AcDbLine
 10
269.3999999999999
 20
226.79467
 30
0.0
 11
269.8999999999999
 21
230.09467
 31
0.0
  0
LINE
  5
1BC
330
1E
100
AcDbEntity
  8
0
100
AcDbLine
 10
262.0
 20
226.79467
 30
0.0
 11
262.6999999999999
 21
221.5946699999999
 31
0.0
  0
LINE
  5
1BD
330
1E
100
AcDbEntity
  8
0
100
AcDbLine
 10
262.0
 20
226.79467
 30
0.0
 11
262.6999999999999
 21
231.99467
 31
0.0
  0
LINE
  5
1BE
330
1E
100
AcDbEntity
  8
0
100
AcDbLine
 10
258.0
 20
226.79467
 30
0.0
 11
258.8999999999999
 21
220.59467
 31
0.0
  0
LINE
  5
1BF
330
1E
100
AcDbEntity
  8
0
100
AcDbLine
 10
258.0
 20
226.79467
 30
0.0
 11
258.8999999999999
 21
232.99467
 31
0.0
  0
LINE
  5
1C0
330
1E
100
AcDbEntity
  8
0
100
AcDbLine
 10
254.4999999999999
 20
226.79467
 30
0.0
 11
255.5
 21
219.69467
 31
0.0
  0
LINE
  5
1C1
330
1E
100
AcDbEntity
  8
0
100
AcDbLine
 10
254.4999999999999
 20
226.79467
 30
0.0
 11
255.5
 21
233.89467
 31
0.0
  0
LINE
  5
1C2
330
1E
100
AcDbEntity
  8
0
100
AcDbLine
 10
171.1802999999999
 20
226.79467
 30
0.0
 11
171.5049
 21
229.6076699999999
 31
0.0
  0
LINE
  5
1C3
330
1E
100
AcDbEntity
  8
0
100
AcDbLine
 10
171.1802999999999
 20
226.79467
 30
0.0
 11
171.5049
 21
223.9816699999999
 31
0.0
  0
LINE
  5
1C4
330
1E
100
AcDbEntity
  8
0
100
AcDbLine
 10
158.1966999999999
 20
226.79467
 30
0.0
 11
159.0622999999999
 21
232.96167
 31
0.0
  0
LINE
  5
1C5
330
1E
100
AcDbEntity
  8
0
100
AcDbLine
 10
158.1966999999999
 20
226.79467
 30
0.0
 11
159.0622999999999
 21
220.62767
 31
0.0
  0
LINE
  5
1C6
330
1E
100
AcDbEntity
  8
0
100
AcDbLine
 10
363.5
 20
224.29467
 30
0.0
 11
364.0
 21
226.79467
 31
0.0
  0
LINE
  5
1C7
330
1E
100
AcDbEntity
  8
0
100
AcDbLine
 10
0.4999999999999661
 20
224.29467
 30
0.0
 11
1.999999999999969
 21
222.29467
 31
0.0
  0
LINE
  5
1C8
330
1E
100
AcDbEntity
  8
0
100
AcDbLine
 10
1.999999999999969
 20
222.29467
 30
0.0
 11
3.99999999999997
 21
220.79467
 31
0.0
  0
LINE
  5
1C9
330
1E
100
AcDbEntity
  8
0
100
AcDbLine
 10
0.4999999999999661
 20
224.29467
 30
0.0
 11
1.999999999999969
 21
222.29467
 31
0.0
  0
LINE
  5
1CA
330
1E
100
AcDbEntity
  8
0
100
AcDbLine
 10
0.4999999999999661
 20
229.29467
 30
0.0
 11
1.999999999999969
 21
231.29467
 31
0.0
  0
LINE
  5
1CB
330
1E
100
AcDbEntity
  8
0
100
AcDbLine
 10
71.4
 20
229.59467
 30
0.0
 11
72.5
 21
232.29467
 31
0.0
  0
LINE
  5
1CC
330
1E
100
AcDbEntity
  8
0
100
AcDbLine
 10
70.9
 20
229.79467
 30
0.0
 11
72.0
 21
232.49467
 31
0.0
  0
LINE
  5
1CD
330
1E
100
AcDbEntity
  8
0
100
AcDbLine
 10
92.59999999999999
 20
229.59467
 30
0.0
 11
93.0
 21
226.79467
 31
0.0
  0
LINE
  5
1CE
330
1E
100
AcDbEntity
  8
0
100
AcDbLine
 10
93.1
 20
229.79467
 30
0.0
 11
93.49999999999999
 21
226.79467
 31
0.0
  0
LINE
  5
1CF
330
1E
100
AcDbEntity
  8
0
100
AcDbLine
 10
94.1
 20
230.09467
 30
0.0
 11
94.59999999999999
 21
226.79467
 31
0.0
  0
LINE
  5
1D0
330
1E
100
AcDbEntity
  8
0
100
AcDbLine
 10
292.6
 20
229.59467
 30
0.0
 11
293.0
 21
226.79467
 31
0.0
  0
LINE
  5
1D1
330
1E
100
AcDbEntity
  8
0
100
AcDbLine
 10
271.3999999999999
 20
229.59467
 30
0.0
 11
272.5
 21
232.29467
 31
0.0
  0
LINE
  5
1D2
330
1E
100
AcDbEntity
  8
0
100
AcDbLine
 10
293.1
 20
229.79467
 30
0.0
 11
293.5
 21
226.79467
 31
0.0
  0
LINE
  5
1D3
330
1E
100
AcDbEntity
  8
0
100
AcDbLine
 10
270.8999999999999
 20
229.79467
 30
0.0
 11
272.0
 21
232.49467
 31
0.0
  0
LINE
  5
1D4
330
1E
100
AcDbEntity
  8
0
100
AcDbLine
 10
269.8999999999999
 20
230.09467
 30
0.0
 11
271.1
 21
233.09467
 31
0.0
  0
LINE
  5
1D5
330
1E
100
AcDbEntity
  8
0
100
AcDbLine
 10
192.495
 20
229.6076699999999
 30
0.0
 11
192.82
 21
226.79467
 31
0.0
  0
LINE
  5
1D6
330
1E
100
AcDbEntity
  8
0
100
AcDbLine
 10
171.5049
 20
229.6076699999999
 30
0.0
 11
172.5869
 21
232.20467
 31
0.0
  0
LINE
  5
1D7
330
1E
100
AcDbEntity
  8
0
100
AcDbLine
 10
362.0
 20
231.29467
 30
0.0
 11
363.5
 21
229.29467
 31
0.0
  0
LINE
  5
1D8
330
1E
100
AcDbEntity
  8
0
100
AcDbLine
 10
363.5
 20
229.29467
 30
0.0
 11
364.0
 21
226.79467
 31
0.0
  0
LINE
  5
1D9
330
1E
100
AcDbEntity
  8
0
100
AcDbLine
 10
70.3980582524272
 20
231.339815631068
 30
0.0
 11
71.09999999999999
 21
233.09467
 31
0.0
  0
LINE
  5
1DC
330
1E
100
AcDbEntity
  8
0
100
AcDbLine
 10
60.7395833333333
 20
232.06420125
 30
0.0
 11
60.8
 21
232.49467
 31
0.0
  0
LINE
  5
1DE
330
1E
100
AcDbEntity
  8
0
100
AcDbLine
 10
101.2999999999999
 20
231.99467
 30
0.0
 11
102.0
 21
226.79467
 31
0.0
  0
LINE
  5
1DF
330
1E
100
AcDbEntity
  8
0
100
AcDbLine
 10
62.7
 20
231.99467
 30
0.0
 11
64.7
 21
236.79467
 31
0.0
  0
LINE
  5
1E0
330
1E
100
AcDbEntity
  8
0
100
AcDbLine
 10
62.6896715849595
 20
231.917944631128
 30
0.0
 11
62.7
 21
231.99467
 31
0.0
  0
LINE
  5
1E2
330
1E
100
AcDbEntity
  8
0
100
AcDbLine
 10
262.6999999999999
 20
231.99467
 30
0.0
 11
264.6999999999999
 21
236.79467
 31
0.0
  0
LINE
  5
1E3
330
1E
100
AcDbEntity
  8
0
100
AcDbLine
 10
191.4129999999999
 20
232.20467
 30
0.0
 11
192.495
 21
229.6076699999999
 31
0.0
  0
LINE
  5
1E4
330
1E
100
AcDbEntity
  8
0
100
AcDbLine
 10
72.5
 20
232.29467
 30
0.0
 11
74.2
 21
234.59467
 31
0.0
  0
LINE
  5
1E5
330
1E
100
AcDbEntity
  8
0
100
AcDbLine
 10
72.0
 20
232.49467
 30
0.0
 11
73.9
 21
234.89467
 31
0.0
  0
LINE
  5
1E6
330
1E
100
AcDbEntity
  8
0
100
AcDbLine
 10
91.5
 20
232.29467
 30
0.0
 11
92.59999999999999
 21
229.59467
 31
0.0
  0
LINE
  5
1E7
330
1E
100
AcDbEntity
  8
0
100
AcDbLine
 10
291.5
 20
232.29467
 30
0.0
 11
292.6
 21
229.59467
 31
0.0
  0
LINE
  5
1E8
330
1E
100
AcDbEntity
  8
0
100
AcDbLine
 10
292.0
 20
232.49467
 30
0.0
 11
293.1
 21
229.79467
 31
0.0
  0
LINE
  5
1E9
330
1E
100
AcDbEntity
  8
0
100
AcDbLine
 10
272.5
 20
232.29467
 30
0.0
 11
274.1999999999999
 21
234.59467
 31
0.0
  0
LINE
  5
1EA
330
1E
100
AcDbEntity
  8
0
100
AcDbLine
 10
272.0
 20
232.49467
 30
0.0
 11
273.8999999999999
 21
234.89467
 31
0.0
  0
LINE
  5
1EB
330
1E
100
AcDbEntity
  8
0
100
AcDbLine
 10
260.8
 20
232.49467
 30
0.0
 11
262.9
 21
237.79467
 31
0.0
  0
LINE
  5
1EC
330
1E
100
AcDbEntity
  8
0
100
AcDbLine
 10
92.0
 20
232.49467
 30
0.0
 11
93.1
 21
229.79467
 31
0.0
  0
LINE
  5
1ED
330
1E
100
AcDbEntity
  8
0
100
AcDbLine
 10
103.2
 20
232.49467
 30
0.0
 11
104.0
 21
226.79467
 31
0.0
  0
LINE
  5
1EE
330
1E
100
AcDbEntity
  8
0
100
AcDbLine
 10
60.8
 20
232.49467
 30
0.0
 11
62.9
 21
237.79467
 31
0.0
  0
LINE
  5
1EF
330
1E
100
AcDbEntity
  8
0
100
AcDbLine
 10
58.78619864379729
 20
232.2107051017149
 30
0.0
 11
58.9
 21
232.99467
 31
0.0
  0
LINE
  5
1F0
330
1E
100
AcDbEntity
  8
0
100
AcDbLine
 10
55.2996515679442
 20
232.4721961324039
 30
0.0
 11
55.5
 21
233.89467
 31
0.0
  0
LINE
  5
1F1
330
1E
100
AcDbEntity
  8
0
100
AcDbLine
 10
172.5869
 20
232.20467
 30
0.0
 11
174.3179999999999
 21
234.47667
 31
0.0
  0
LINE
  5
1F3
330
1E
100
AcDbEntity
  8
0
100
AcDbLine
 10
303.2
 20
232.49467
 30
0.0
 11
303.2604166666669
 21
232.06420125
 31
0.0
  0
LINE
  5
1F4
330
1E
100
AcDbEntity
  8
0
100
AcDbLine
 10
301.3
 20
231.99467
 30
0.0
 11
301.3103284150409
 21
231.917944631128
 31
0.0
  0
LINE
  5
1F5
330
1E
100
AcDbEntity
  8
0
100
AcDbLine
 10
293.5437864887409
 20
231.335453986656
 30
0.0
 11
313.0
 21
232.79467
 31
0.0
  0
LINE
  5
1F6
330
1E
100
AcDbEntity
  8
0
100
AcDbLine
 10
313.0
 20
232.79467
 30
0.0
 11
332.0
 21
233.59467
 31
0.0
  0
LINE
  5
1F7
330
1E
100
AcDbEntity
  8
0
100
AcDbLine
 10
360.0
 20
232.79467
 30
0.0
 11
362.0
 21
231.29467
 31
0.0
  0
LINE
  5
1F8
330
1E
100
AcDbEntity
  8
0
100
AcDbLine
 10
71.09999999999999
 20
233.09467
 30
0.0
 11
73.09999999999999
 21
235.69467
 31
0.0
  0
LINE
  5
1F9
330
1E
100
AcDbEntity
  8
0
100
AcDbLine
 10
92.9
 20
233.09467
 30
0.0
 11
94.1
 21
230.09467
 31
0.0
  0
LINE
  5
1FA
330
1E
100
AcDbEntity
  8
0
100
AcDbLine
 10
105.0999999999999
 20
232.99467
 30
0.0
 11
106.0
 21
226.79467
 31
0.0
  0
LINE
  5
1FB
330
1E
100
AcDbEntity
  8
0
100
AcDbLine
 10
58.9
 20
232.99467
 30
0.0
 11
61.2
 21
238.79467
 31
0.0
  0
LINE
  5
1FC
330
1E
100
AcDbEntity
  8
0
100
AcDbLine
 10
156.8984
 20
233.50267
 30
0.0
 11
159.4951
 21
239.77867
 31
0.0
  0
LINE
  5
1FE
330
1E
100
AcDbEntity
  8
0
100
AcDbLine
 10
258.8999999999999
 20
232.99467
 30
0.0
 11
261.2
 21
238.79467
 31
0.0
  0
LINE
  5
1FF
330
1E
100
AcDbEntity
  8
0
100
AcDbLine
 10
207.1019999999999
 20
233.50267
 30
0.0
 11
207.967
 21
226.79467
 31
0.0
  0
LINE
  5
200
330
1E
100
AcDbEntity
  8
0
100
AcDbLine
 10
292.8999999999999
 20
233.09467
 30
0.0
 11
293.601941747573
 21
231.339815631068
 31
0.0
  0
LINE
  5
201
330
1E
100
AcDbEntity
  8
0
100
AcDbLine
 10
271.1
 20
233.09467
 30
0.0
 11
273.1
 21
235.69467
 31
0.0
  0
LINE
  5
202
330
1E
100
AcDbEntity
  8
0
100
AcDbLine
 10
305.1
 20
232.99467
 30
0.0
 11
305.213801356203
 21
232.2107051017149
 31
0.0
  0
LINE
  5
204
330
1E
100
AcDbEntity
  8
0
100
AcDbLine
 10
204.9379999999999
 20
232.96167
 30
0.0
 11
205.803
 21
226.79467
 31
0.0
  0
LINE
  5
205
330
1E
100
AcDbEntity
  8
0
100
AcDbLine
 10
159.0622999999999
 20
232.96167
 30
0.0
 11
161.3343999999999
 21
238.69667
 31
0.0
  0
LINE
  5
206
330
1E
100
AcDbEntity
  8
0
100
AcDbLine
 10
332.0
 20
233.59467
 30
0.0
 11
345.0
 21
233.99467
 31
0.0
  0
LINE
  5
207
330
1E
100
AcDbEntity
  8
0
100
AcDbLine
 10
357.5
 20
233.79467
 30
0.0
 11
360.0
 21
232.79467
 31
0.0
  0
LINE
  5
208
330
1E
100
AcDbEntity
  8
0
100
AcDbLine
 10
51.0
 20
232.79467
 30
0.0
 11
70.45621351125941
 21
231.335453986656
 31
0.0
  0
LINE
  5
209
330
1E
100
AcDbEntity
  8
0
100
AcDbLine
 10
32.0
 20
233.59467
 30
0.0
 11
51.0
 21
232.79467
 31
0.0
  0
LINE
  5
20A
330
1E
100
AcDbEntity
  8
0
100
AcDbLine
 10
255.5
 20
233.89467
 30
0.0
 11
258.1999999999999
 21
240.4946699999999
 31
0.0
  0
LINE
  5
20B
330
1E
100
AcDbEntity
  8
0
100
AcDbLine
 10
308.4999999999999
 20
233.89467
 30
0.0
 11
308.7003484320559
 21
232.4721961324039
 31
0.0
  0
LINE
  5
20C
330
1E
100
AcDbEntity
  8
0
100
AcDbLine
 10
108.4999999999999
 20
233.89467
 30
0.0
 11
109.4999999999999
 21
226.79467
 31
0.0
  0
LINE
  5
20D
330
1E
100
AcDbEntity
  8
0
100
AcDbLine
 10
55.5
 20
233.89467
 30
0.0
 11
58.2
 21
240.4946699999999
 31
0.0
  0
LINE
  5
20E
330
1E
100
AcDbEntity
  8
0
100
AcDbLine
 10
345.0
 20
233.99467
 30
0.0
 11
354.0
 21
234.29467
 31
0.0
  0
LINE
  5
20F
330
1E
100
AcDbEntity
  8
0
100
AcDbLine
 10
74.2
 20
234.59467
 30
0.0
 11
76.5
 21
236.29467
 31
0.0
  0
LINE
  5
210
330
1E
100
AcDbEntity
  8
0
100
AcDbLine
 10
73.9
 20
234.89467
 30
0.0
 11
76.29999999999999
 21
236.79467
 31
0.0
  0
LINE
  5
211
330
1E
100
AcDbEntity
  8
0
100
AcDbLine
 10
89.8
 20
234.59467
 30
0.0
 11
91.5
 21
232.29467
 31
0.0
  0
LINE
  5
212
330
1E
100
AcDbEntity
  8
0
100
AcDbLine
 10
90.09999999999999
 20
234.89467
 30
0.0
 11
92.0
 21
232.49467
 31
0.0
  0
LINE
  5
213
330
1E
100
AcDbEntity
  8
0
100
AcDbLine
 10
73.09999999999999
 20
235.69467
 30
0.0
 11
75.7
 21
237.69467
 31
0.0
  0
LINE
  5
214
330
1E
100
AcDbEntity
  8
0
100
AcDbLine
 10
76.5
 20
236.29467
 30
0.0
 11
79.2
 21
237.39467
 31
0.0
  0
LINE
  5
215
330
1E
100
AcDbEntity
  8
0
100
AcDbLine
 10
76.29999999999999
 20
236.79467
 30
0.0
 11
79.0
 21
237.89467
 31
0.0
  0
LINE
  5
216
330
1E
100
AcDbEntity
  8
0
100
AcDbLine
 10
87.5
 20
236.29467
 30
0.0
 11
89.8
 21
234.59467
 31
0.0
  0
LINE
  5
217
330
1E
100
AcDbEntity
  8
0
100
AcDbLine
 10
87.70000000000001
 20
236.79467
 30
0.0
 11
90.09999999999999
 21
234.89467
 31
0.0
  0
LINE
  5
218
330
1E
100
AcDbEntity
  8
0
100
AcDbLine
 10
90.90000000000001
 20
235.69467
 30
0.0
 11
92.9
 21
233.09467
 31
0.0
  0
LINE
  5
219
330
1E
100
AcDbEntity
  8
0
100
AcDbLine
 10
99.29999999999999
 20
236.79467
 30
0.0
 11
101.2999999999999
 21
231.99467
 31
0.0
  0
LINE
  5
21A
330
1E
100
AcDbEntity
  8
0
100
AcDbLine
 10
79.2
 20
237.39467
 30
0.0
 11
82.0
 21
237.79467
 31
0.0
  0
LINE
  5
21B
330
1E
100
AcDbEntity
  8
0
100
AcDbLine
 10
84.8
 20
237.39467
 30
0.0
 11
87.5
 21
236.29467
 31
0.0
  0
LINE
  5
21D
330
1E
100
AcDbEntity
  8
0
100
AcDbLine
 10
79.0
 20
237.89467
 30
0.0
 11
82.0
 21
238.29467
 31
0.0
  0
LINE
  5
21E
330
1E
100
AcDbEntity
  8
0
100
AcDbLine
 10
82.0
 20
237.79467
 30
0.0
 11
84.8
 21
237.39467
 31
0.0
  0
LINE
  5
21F
330
1E
100
AcDbEntity
  8
0
100
AcDbLine
 10
82.0
 20
238.29467
 30
0.0
 11
85.0
 21
237.89467
 31
0.0
  0
LINE
  5
220
330
1E
100
AcDbEntity
  8
0
100
AcDbLine
 10
85.0
 20
237.89467
 30
0.0
 11
87.70000000000001
 21
236.79467
 31
0.0
  0
LINE
  5
221
330
1E
100
AcDbEntity
  8
0
100
AcDbLine
 10
62.9
 20
237.79467
 30
0.0
 11
66.5
 21
242.29467
 31
0.0
  0
LINE
  5
222
330
1E
100
AcDbEntity
  8
0
100
AcDbLine
 10
75.7
 20
237.69467
 30
0.0
 11
78.7
 21
238.89467
 31
0.0
  0
LINE
  5
224
330
1E
100
AcDbEntity
  8
0
100
AcDbLine
 10
101.0999999999999
 20
237.79467
 30
0.0
 11
103.2
 21
232.49467
 31
0.0
  0
LINE
  5
225
330
1E
100
AcDbEntity
  8
0
100
AcDbLine
 10
88.3
 20
237.69467
 30
0.0
 11
90.90000000000001
 21
235.69467
 31
0.0
  0
LINE
  5
226
330
1E
100
AcDbEntity
  8
0
100
AcDbLine
 10
78.7
 20
238.89467
 30
0.0
 11
82.0
 21
239.39467
 31
0.0
  0
LINE
  5
227
330
1E
100
AcDbEntity
  8
0
100
AcDbLine
 10
82.0
 20
239.39467
 30
0.0
 11
85.29999999999999
 21
238.89467
 31
0.0
  0
LINE
  5
228
330
1E
100
AcDbEntity
  8
0
100
AcDbLine
 10
85.29999999999999
 20
238.89467
 30
0.0
 11
88.3
 21
237.69467
 31
0.0
  0
LINE
  5
229
330
1E
100
AcDbEntity
  8
0
100
AcDbLine
 10
102.8
 20
238.79467
 30
0.0
 11
105.0999999999999
 21
232.99467
 31
0.0
  0
LINE
  5
22A
330
1E
100
AcDbEntity
  8
0
100
AcDbLine
 10
105.8
 20
240.4946699999999
 30
0.0
 11
108.4999999999999
 21
233.89467
 31
0.0
  0
LINE
  5
22B
330
1E
100
AcDbEntity
  8
0
100
AcDbLine
 10
64.7
 20
236.79467
 30
0.0
 11
67.9
 21
240.89467
 31
0.0
  0
LINE
  5
22C
330
1E
100
AcDbEntity
  8
0
100
AcDbLine
 10
61.2
 20
238.79467
 30
0.0
 11
65.09999999999999
 21
243.69467
 31
0.0
  0
LINE
  5
22E
330
1E
100
AcDbEntity
  8
0
100
AcDbLine
 10
66.5
 20
242.29467
 30
0.0
 11
71.0
 21
245.89467
 31
0.0
  0
LINE
  5
230
330
1E
100
AcDbEntity
  8
0
100
AcDbLine
 10
97.5
 20
242.29467
 30
0.0
 11
101.0999999999999
 21
237.79467
 31
0.0
  0
LINE
  5
231
330
1E
100
AcDbEntity
  8
0
100
AcDbLine
 10
96.09999999999999
 20
240.89467
 30
0.0
 11
99.29999999999999
 21
236.79467
 31
0.0
  0
LINE
  5
232
330
1E
100
AcDbEntity
  8
0
100
AcDbLine
 10
67.9
 20
240.89467
 30
0.0
 11
72.0
 21
244.09467
 31
0.0
  0
LINE
  5
233
330
1E
100
AcDbEntity
  8
0
100
AcDbLine
 10
58.2
 20
240.4946699999999
 30
0.0
 11
62.6
 21
246.19467
 31
0.0
  0
LINE
  5
234
330
1E
100
AcDbEntity
  8
0
100
AcDbLine
 10
159.4951
 20
239.77867
 30
0.0
 11
163.6065999999999
 21
245.18767
 31
0.0
  0
LINE
  5
236
330
1E
100
AcDbEntity
  8
0
100
AcDbLine
 10
187.41
 20
236.20767
 30
0.0
 11
189.682
 21
234.47667
 31
0.0
  0
LINE
  5
237
330
1E
100
AcDbEntity
  8
0
100
AcDbLine
 10
189.682
 20
234.47667
 30
0.0
 11
191.4129999999999
 21
232.20467
 31
0.0
  0
LINE
  5
238
330
1E
100
AcDbEntity
  8
0
100
AcDbLine
 10
347.021978021978
 20
234.062069267399
 30
0.0
 11
347.296
 21
236.01067
 31
0.0
  0
LINE
  5
239
330
1E
100
AcDbEntity
  8
0
100
AcDbLine
 10
289.8
 20
234.59467
 30
0.0
 11
291.5
 21
232.29467
 31
0.0
  0
LINE
  5
23A
330
1E
100
AcDbEntity
  8
0
100
AcDbLine
 10
290.1
 20
234.89467
 30
0.0
 11
292.0
 21
232.49467
 31
0.0
  0
LINE
  5
23B
330
1E
100
AcDbEntity
  8
0
100
AcDbLine
 10
274.1999999999999
 20
234.59467
 30
0.0
 11
276.5
 21
236.29467
 31
0.0
  0
LINE
  5
23C
330
1E
100
AcDbEntity
  8
0
100
AcDbLine
 10
273.8999999999999
 20
234.89467
 30
0.0
 11
276.3
 21
236.79467
 31
0.0
  0
LINE
  5
23D
330
1E
100
AcDbEntity
  8
0
100
AcDbLine
 10
290.8999999999999
 20
235.69467
 30
0.0
 11
292.8999999999999
 21
233.09467
 31
0.0
  0
LINE
  5
23E
330
1E
100
AcDbEntity
  8
0
100
AcDbLine
 10
347.296
 20
236.01067
 30
0.0
 11
350.7519999999999
 21
244.65067
 31
0.0
  0
LINE
  5
23F
330
1E
100
AcDbEntity
  8
0
100
AcDbLine
 10
273.1
 20
235.69467
 30
0.0
 11
275.7
 21
237.69467
 31
0.0
  0
LINE
  5
240
330
1E
100
AcDbEntity
  8
0
100
AcDbLine
 10
350.1999999999999
 20
235.29467
 30
0.0
 11
353.3999999999999
 21
243.19467
 31
0.0
  0
LINE
  5
241
330
1E
100
AcDbEntity
  8
0
100
AcDbLine
 10
350.040189125296
 20
234.1626763041769
 30
0.0
 11
350.1999999999999
 21
235.29467
 31
0.0
  0
LINE
  5
242
330
1E
100
AcDbEntity
  8
0
100
AcDbLine
 10
348.3
 20
235.79467
 30
0.0
 11
351.6999999999999
 21
244.19467
 31
0.0
  0
LINE
  5
243
330
1E
100
AcDbEntity
  8
0
100
AcDbLine
 10
348.054707852624
 20
234.096493595087
 30
0.0
 11
348.3
 21
235.79467
 31
0.0
  0
LINE
  5
244
330
1E
100
AcDbEntity
  8
0
100
AcDbLine
 10
213.918
 20
235.34267
 30
0.0
 11
215.0
 21
226.79467
 31
0.0
  0
LINE
  5
245
330
1E
100
AcDbEntity
  8
0
100
AcDbLine
 10
287.5
 20
236.29467
 30
0.0
 11
289.8
 21
234.59467
 31
0.0
  0
LINE
  5
246
330
1E
100
AcDbEntity
  8
0
100
AcDbLine
 10
287.6999999999999
 20
236.79467
 30
0.0
 11
290.1
 21
234.89467
 31
0.0
  0
LINE
  5
247
330
1E
100
AcDbEntity
  8
0
100
AcDbLine
 10
276.5
 20
236.29467
 30
0.0
 11
279.1999999999999
 21
237.39467
 31
0.0
  0
LINE
  5
248
330
1E
100
AcDbEntity
  8
0
100
AcDbLine
 10
276.3
 20
236.79467
 30
0.0
 11
279.0
 21
237.89467
 31
0.0
  0
LINE
  5
249
330
1E
100
AcDbEntity
  8
0
100
AcDbLine
 10
264.6999999999999
 20
236.79467
 30
0.0
 11
267.8999999999999
 21
240.89467
 31
0.0
  0
LINE
  5
24A
330
1E
100
AcDbEntity
  8
0
100
AcDbLine
 10
299.3
 20
236.79467
 30
0.0
 11
301.3
 21
231.99467
 31
0.0
  0
LINE
  5
24C
330
1E
100
AcDbEntity
  8
0
100
AcDbLine
 10
262.9
 20
237.79467
 30
0.0
 11
266.5
 21
242.29467
 31
0.0
  0
LINE
  5
24D
330
1E
100
AcDbEntity
  8
0
100
AcDbLine
 10
284.8
 20
237.39467
 30
0.0
 11
287.5
 21
236.29467
 31
0.0
  0
LINE
  5
24E
330
1E
100
AcDbEntity
  8
0
100
AcDbLine
 10
279.1999999999999
 20
237.39467
 30
0.0
 11
282.0
 21
237.79467
 31
0.0
  0
LINE
  5
250
330
1E
100
AcDbEntity
  8
0
100
AcDbLine
 10
282.0
 20
237.79467
 30
0.0
 11
284.8
 21
237.39467
 31
0.0
  0
LINE
  5
251
330
1E
100
AcDbEntity
  8
0
100
AcDbLine
 10
285.0
 20
237.89467
 30
0.0
 11
287.6999999999999
 21
236.79467
 31
0.0
  0
LINE
  5
252
330
1E
100
AcDbEntity
  8
0
100
AcDbLine
 10
282.0
 20
238.29467
 30
0.0
 11
285.0
 21
237.89467
 31
0.0
  0
LINE
  5
253
330
1E
100
AcDbEntity
  8
0
100
AcDbLine
 10
279.0
 20
237.89467
 30
0.0
 11
282.0
 21
238.29467
 31
0.0
  0
LINE
  5
254
330
1E
100
AcDbEntity
  8
0
100
AcDbLine
 10
301.1
 20
237.79467
 30
0.0
 11
303.2
 21
232.49467
 31
0.0
  0
LINE
  5
255
330
1E
100
AcDbEntity
  8
0
100
AcDbLine
 10
288.3
 20
237.69467
 30
0.0
 11
290.8999999999999
 21
235.69467
 31
0.0
  0
LINE
  5
256
330
1E
100
AcDbEntity
  8
0
100
AcDbLine
 10
275.7
 20
237.69467
 30
0.0
 11
278.6999999999999
 21
238.89467
 31
0.0
  0
LINE
  5
257
330
1E
100
AcDbEntity
  8
0
100
AcDbLine
 10
184.8129999999999
 20
237.28967
 30
0.0
 11
187.41
 21
236.20767
 31
0.0
  0
LINE
  5
258
330
1E
100
AcDbEntity
  8
0
100
AcDbLine
 10
182.0
 20
237.61467
 30
0.0
 11
184.8129999999999
 21
237.28967
 31
0.0
  0
LINE
  5
259
330
1E
100
AcDbEntity
  8
0
100
AcDbLine
 10
204.5049999999999
 20
239.77867
 30
0.0
 11
207.1019999999999
 21
233.50267
 31
0.0
  0
LINE
  5
25A
330
1E
100
AcDbEntity
  8
0
100
AcDbLine
 10
285.3
 20
238.89467
 30
0.0
 11
288.3
 21
237.69467
 31
0.0
  0
LINE
  5
25B
330
1E
100
AcDbEntity
  8
0
100
AcDbLine
 10
282.0
 20
239.39467
 30
0.0
 11
285.3
 21
238.89467
 31
0.0
  0
LINE
  5
25C
330
1E
100
AcDbEntity
  8
0
100
AcDbLine
 10
278.6999999999999
 20
238.89467
 30
0.0
 11
282.0
 21
239.39467
 31
0.0
  0
LINE
  5
25D
330
1E
100
AcDbEntity
  8
0
100
AcDbLine
 10
261.2
 20
238.79467
 30
0.0
 11
265.1
 21
243.69467
 31
0.0
  0
LINE
  5
25E
330
1E
100
AcDbEntity
  8
0
100
AcDbLine
 10
258.1999999999999
 20
240.4946699999999
 30
0.0
 11
262.6
 21
246.19467
 31
0.0
  0
LINE
  5
25F
330
1E
100
AcDbEntity
  8
0
100
AcDbLine
 10
302.8
 20
238.79467
 30
0.0
 11
305.1
 21
232.99467
 31
0.0
  0
LINE
  5
261
330
1E
100
AcDbEntity
  8
0
100
AcDbLine
 10
266.5
 20
242.29467
 30
0.0
 11
271.0
 21
245.89467
 31
0.0
  0
LINE
  5
262
330
1E
100
AcDbEntity
  8
0
100
AcDbLine
 10
267.8999999999999
 20
240.89467
 30
0.0
 11
272.0
 21
244.09467
 31
0.0
  0
LINE
  5
264
330
1E
100
AcDbEntity
  8
0
100
AcDbLine
 10
297.5
 20
242.29467
 30
0.0
 11
301.1
 21
237.79467
 31
0.0
  0
LINE
  5
265
330
1E
100
AcDbEntity
  8
0
100
AcDbLine
 10
296.1
 20
240.89467
 30
0.0
 11
299.3
 21
236.79467
 31
0.0
  0
LINE
  5
266
330
1E
100
AcDbEntity
  8
0
100
AcDbLine
 10
305.8
 20
240.4946699999999
 30
0.0
 11
308.4999999999999
 21
233.89467
 31
0.0
  0
LINE
  5
267
330
1E
100
AcDbEntity
  8
0
100
AcDbLine
 10
353.3999999999999
 20
243.19467
 30
0.0
 11
358.6999999999999
 21
250.09467
 31
0.0
  0
LINE
  5
268
330
1E
100
AcDbEntity
  8
0
100
AcDbLine
 10
210.672
 20
243.24067
 30
0.0
 11
213.918
 21
235.34267
 31
0.0
  0
LINE
  5
26A
330
1E
100
AcDbEntity
  8
0
100
AcDbLine
 10
202.666
 20
238.69667
 30
0.0
 11
204.9379999999999
 21
232.96167
 31
0.0
  0
LINE
  5
26B
330
1E
100
AcDbEntity
  8
0
100
AcDbLine
 10
179.1869
 20
237.28967
 30
0.0
 11
182.0
 21
237.61467
 31
0.0
  0
LINE
  5
26C
330
1E
100
AcDbEntity
  8
0
100
AcDbLine
 10
176.5902
 20
236.20767
 30
0.0
 11
179.1869
 21
237.28967
 31
0.0
  0
LINE
  5
26D
330
1E
100
AcDbEntity
  8
0
100
AcDbLine
 10
174.3179999999999
 20
234.47667
 30
0.0
 11
176.5902
 21
236.20767
 31
0.0
  0
LINE
  5
26E
330
1E
100
AcDbEntity
  8
0
100
AcDbLine
 10
153.3279
 20
243.24067
 30
0.0
 11
158.6294999999999
 21
250.16467
 31
0.0
  0
LINE
  5
26F
330
1E
100
AcDbEntity
  8
0
100
AcDbLine
 10
150.082
 20
235.34267
 30
0.0
 11
153.3279
 21
243.24067
 31
0.0
  0
LINE
  5
270
330
1E
100
AcDbEntity
  8
0
100
AcDbLine
 10
98.9
 20
243.69467
 30
0.0
 11
102.8
 21
238.79467
 31
0.0
  0
LINE
  5
271
330
1E
100
AcDbEntity
  8
0
100
AcDbLine
 10
92.0
 20
244.09467
 30
0.0
 11
96.09999999999999
 21
240.89467
 31
0.0
  0
LINE
  5
273
330
1E
100
AcDbEntity
  8
0
100
AcDbLine
 10
71.0
 20
245.89467
 30
0.0
 11
76.29999999999999
 21
247.99467
 31
0.0
  0
LINE
  5
275
330
1E
100
AcDbEntity
  8
0
100
AcDbLine
 10
93.0
 20
245.89467
 30
0.0
 11
97.5
 21
242.29467
 31
0.0
  0
LINE
  5
276
330
1E
100
AcDbEntity
  8
0
100
AcDbLine
 10
163.6065999999999
 20
245.18767
 30
0.0
 11
169.0164
 21
249.29967
 31
0.0
  0
LINE
  5
277
330
1E
100
AcDbEntity
  8
0
100
AcDbLine
 10
101.4
 20
246.19467
 30
0.0
 11
105.8
 21
240.4946699999999
 31
0.0
  0
LINE
  5
278
330
1E
100
AcDbEntity
  8
0
100
AcDbLine
 10
87.2
 20
246.09467
 30
0.0
 11
92.0
 21
244.09467
 31
0.0
  0
LINE
  5
279
330
1E
100
AcDbEntity
  8
0
100
AcDbLine
 10
76.79999999999999
 20
246.09467
 30
0.0
 11
82.0
 21
246.79467
 31
0.0
  0
LINE
  5
27A
330
1E
100
AcDbEntity
  8
0
100
AcDbLine
 10
72.0
 20
244.09467
 30
0.0
 11
76.79999999999999
 21
246.09467
 31
0.0
  0
LINE
  5
27B
330
1E
100
AcDbEntity
  8
0
100
AcDbLine
 10
65.09999999999999
 20
243.69467
 30
0.0
 11
70.0
 21
247.59467
 31
0.0
  0
LINE
  5
27E
330
1E
100
AcDbEntity
  8
0
100
AcDbLine
 10
82.0
 20
248.79467
 30
0.0
 11
87.70000000000001
 21
247.99467
 31
0.0
  0
LINE
  5
27F
330
1E
100
AcDbEntity
  8
0
100
AcDbLine
 10
76.29999999999999
 20
247.99467
 30
0.0
 11
82.0
 21
248.79467
 31
0.0
  0
LINE
  5
281
330
1E
100
AcDbEntity
  8
0
100
AcDbLine
 10
87.70000000000001
 20
247.99467
 30
0.0
 11
93.0
 21
245.89467
 31
0.0
  0
LINE
  5
282
330
1E
100
AcDbEntity
  8
0
100
AcDbLine
 10
88.2
 20
249.89467
 30
0.0
 11
94.0
 21
247.59467
 31
0.0
  0
LINE
  5
283
330
1E
100
AcDbEntity
  8
0
100
AcDbLine
 10
94.0
 20
247.59467
 30
0.0
 11
98.9
 21
243.69467
 31
0.0
  0
LINE
  5
284
330
1E
100
AcDbEntity
  8
0
100
AcDbLine
 10
82.0
 20
246.79467
 30
0.0
 11
87.2
 21
246.09467
 31
0.0
  0
LINE
  5
285
330
1E
100
AcDbEntity
  8
0
100
AcDbLine
 10
75.8
 20
249.89467
 30
0.0
 11
82.0
 21
250.79467
 31
0.0
  0
LINE
  5
286
330
1E
100
AcDbEntity
  8
0
100
AcDbLine
 10
70.0
 20
247.59467
 30
0.0
 11
75.8
 21
249.89467
 31
0.0
  0
LINE
  5
287
330
1E
100
AcDbEntity
  8
0
100
AcDbLine
 10
62.6
 20
246.19467
 30
0.0
 11
68.3
 21
250.5946699999999
 31
0.0
  0
LINE
  5
288
330
1E
100
AcDbEntity
  8
0
100
AcDbLine
 10
169.0164
 20
249.29967
 30
0.0
 11
175.2918
 21
251.89667
 31
0.0
  0
LINE
  5
28B
330
1E
100
AcDbEntity
  8
0
100
AcDbLine
 10
95.7
 20
250.5946699999999
 30
0.0
 11
101.4
 21
246.19467
 31
0.0
  0
LINE
  5
28C
330
1E
100
AcDbEntity
  8
0
100
AcDbLine
 10
82.0
 20
250.79467
 30
0.0
 11
88.2
 21
249.89467
 31
0.0
  0
LINE
  5
28D
330
1E
100
AcDbEntity
  8
0
100
AcDbLine
 10
82.0
 20
254.29467
 30
0.0
 11
89.1
 21
253.29467
 31
0.0
  0
LINE
  5
28E
330
1E
100
AcDbEntity
  8
0
100
AcDbLine
 10
89.1
 20
253.29467
 30
0.0
 11
95.7
 21
250.5946699999999
 31
0.0
  0
LINE
  5
28F
330
1E
100
AcDbEntity
  8
0
100
AcDbLine
 10
74.90000000000001
 20
253.29467
 30
0.0
 11
82.0
 21
254.29467
 31
0.0
  0
LINE
  5
290
330
1E
100
AcDbEntity
  8
0
100
AcDbLine
 10
68.3
 20
250.5946699999999
 30
0.0
 11
74.90000000000001
 21
253.29467
 31
0.0
  0
LINE
  5
291
330
1E
100
AcDbEntity
  8
0
100
AcDbLine
 10
165.5541
 20
255.46667
 30
0.0
 11
173.4524999999999
 21
258.71267
 31
0.0
  0
LINE
  5
292
330
1E
100
AcDbEntity
  8
0
100
AcDbLine
 10
158.6294999999999
 20
250.16467
 30
0.0
 11
165.5541
 21
255.46667
 31
0.0
  0
LINE
  5
293
330
1E
100
AcDbEntity
  8
0
100
AcDbLine
 10
188.1669999999999
 20
249.73267
 30
0.0
 11
193.902
 21
247.46067
 31
0.0
  0
LINE
  5
294
330
1E
100
AcDbEntity
  8
0
100
AcDbLine
 10
265.1
 20
243.69467
 30
0.0
 11
270.0
 21
247.59467
 31
0.0
  0
LINE
  5
295
330
1E
100
AcDbEntity
  8
0
100
AcDbLine
 10
272.0
 20
244.09467
 30
0.0
 11
276.8
 21
246.09467
 31
0.0
  0
LINE
  5
296
330
1E
100
AcDbEntity
  8
0
100
AcDbLine
 10
292.0
 20
244.09467
 30
0.0
 11
296.1
 21
240.89467
 31
0.0
  0
LINE
  5
297
330
1E
100
AcDbEntity
  8
0
100
AcDbLine
 10
298.8999999999999
 20
243.69467
 30
0.0
 11
302.8
 21
238.79467
 31
0.0
  0
LINE
  5
298
330
1E
100
AcDbEntity
  8
0
100
AcDbLine
 10
351.6999999999999
 20
244.19467
 30
0.0
 11
357.3
 21
251.49467
 31
0.0
  0
LINE
  5
29A
330
1E
100
AcDbEntity
  8
0
100
AcDbLine
 10
271.0
 20
245.89467
 30
0.0
 11
276.3
 21
247.99467
 31
0.0
  0
LINE
  5
29B
330
1E
100
AcDbEntity
  8
0
100
AcDbLine
 10
200.3929999999999
 20
245.18767
 30
0.0
 11
204.5049999999999
 21
239.77867
 31
0.0
  0
LINE
  5
29C
330
1E
100
AcDbEntity
  8
0
100
AcDbLine
 10
262.6
 20
246.19467
 30
0.0
 11
268.3
 21
250.5946699999999
 31
0.0
  0
LINE
  5
29D
330
1E
100
AcDbEntity
  8
0
100
AcDbLine
 10
276.8
 20
246.09467
 30
0.0
 11
282.0
 21
246.79467
 31
0.0
  0
LINE
  5
29F
330
1E
100
AcDbEntity
  8
0
100
AcDbLine
 10
293.0
 20
245.89467
 30
0.0
 11
297.5
 21
242.29467
 31
0.0
  0
LINE
  5
2A0
330
1E
100
AcDbEntity
  8
0
100
AcDbLine
 10
350.7519999999999
 20
244.65067
 30
0.0
 11
356.5119999999999
 21
252.28267
 31
0.0
  0
LINE
  5
2A1
330
1E
100
AcDbEntity
  8
0
100
AcDbLine
 10
287.1999999999999
 20
246.09467
 30
0.0
 11
292.0
 21
244.09467
 31
0.0
  0
LINE
  5
2A2
330
1E
100
AcDbEntity
  8
0
100
AcDbLine
 10
194.984
 20
249.29967
 30
0.0
 11
200.3929999999999
 21
245.18767
 31
0.0
  0
LINE
  5
2A4
330
1E
100
AcDbEntity
  8
0
100
AcDbLine
 10
276.3
 20
247.99467
 30
0.0
 11
282.0
 21
248.79467
 31
0.0
  0
LINE
  5
2A7
330
1E
100
AcDbEntity
  8
0
100
AcDbLine
 10
282.0
 20
248.79467
 30
0.0
 11
287.6999999999999
 21
247.99467
 31
0.0
  0
LINE
  5
2A8
330
1E
100
AcDbEntity
  8
0
100
AcDbLine
 10
287.6999999999999
 20
247.99467
 30
0.0
 11
293.0
 21
245.89467
 31
0.0
  0
LINE
  5
2A9
330
1E
100
AcDbEntity
  8
0
100
AcDbLine
 10
270.0
 20
247.59467
 30
0.0
 11
275.8
 21
249.89467
 31
0.0
  0
LINE
  5
2AA
330
1E
100
AcDbEntity
  8
0
100
AcDbLine
 10
282.0
 20
246.79467
 30
0.0
 11
287.1999999999999
 21
246.09467
 31
0.0
  0
LINE
  5
2AB
330
1E
100
AcDbEntity
  8
0
100
AcDbLine
 10
294.0
 20
247.59467
 30
0.0
 11
298.8999999999999
 21
243.69467
 31
0.0
  0
LINE
  5
2AC
330
1E
100
AcDbEntity
  8
0
100
AcDbLine
 10
301.3999999999999
 20
246.19467
 30
0.0
 11
305.8
 21
240.4946699999999
 31
0.0
  0
LINE
  5
2AF
330
1E
100
AcDbEntity
  8
0
100
AcDbLine
 10
193.902
 20
247.46067
 30
0.0
 11
198.879
 21
243.67367
 31
0.0
  0
LINE
  5
2B0
330
1E
100
AcDbEntity
  8
0
100
AcDbLine
 10
275.8
 20
249.89467
 30
0.0
 11
282.0
 21
250.79467
 31
0.0
  0
LINE
  5
2B1
330
1E
100
AcDbEntity
  8
0
100
AcDbLine
 10
268.3
 20
250.5946699999999
 30
0.0
 11
274.8999999999999
 21
253.29467
 31
0.0
  0
LINE
  5
2B2
330
1E
100
AcDbEntity
  8
0
100
AcDbLine
 10
288.2
 20
249.89467
 30
0.0
 11
294.0
 21
247.59467
 31
0.0
  0
LINE
  5
2B3
330
1E
100
AcDbEntity
  8
0
100
AcDbLine
 10
282.0
 20
250.79467
 30
0.0
 11
288.2
 21
249.89467
 31
0.0
  0
LINE
  5
2B4
330
1E
100
AcDbEntity
  8
0
100
AcDbLine
 10
295.6999999999999
 20
250.5946699999999
 30
0.0
 11
301.3999999999999
 21
246.19467
 31
0.0
  0
LINE
  5
2B5
330
1E
100
AcDbEntity
  8
0
100
AcDbLine
 10
205.37
 20
250.16467
 30
0.0
 11
210.672
 21
243.24067
 31
0.0
  0
LINE
  5
2B7
330
1E
100
AcDbEntity
  8
0
100
AcDbLine
 10
182.0
 20
250.59767
 30
0.0
 11
188.1669999999999
 21
249.73267
 31
0.0
  0
LINE
  5
2B8
330
1E
100
AcDbEntity
  8
0
100
AcDbLine
 10
182.0
 20
252.76167
 30
0.0
 11
188.708
 21
251.89667
 31
0.0
  0
LINE
  5
2B9
330
1E
100
AcDbEntity
  8
0
100
AcDbLine
 10
175.2918
 20
251.89667
 30
0.0
 11
182.0
 21
252.76167
 31
0.0
  0
LINE
  5
2BA
330
1E
100
AcDbEntity
  8
0
100
AcDbLine
 10
188.708
 20
251.89667
 30
0.0
 11
194.984
 21
249.29967
 31
0.0
  0
LINE
  5
2BC
330
1E
100
AcDbEntity
  8
0
100
AcDbLine
 10
182.0
 20
259.79467
 30
0.0
 11
190.548
 21
258.71267
 31
0.0
  0
LINE
  5
2BD
330
1E
100
AcDbEntity
  8
0
100
AcDbLine
 10
274.8999999999999
 20
253.29467
 30
0.0
 11
282.0
 21
254.29467
 31
0.0
  0
LINE
  5
2BE
330
1E
100
AcDbEntity
  8
0
100
AcDbLine
 10
282.0
 20
254.29467
 30
0.0
 11
289.1
 21
253.29467
 31
0.0
  0
LINE
  5
2BF
330
1E
100
AcDbEntity
  8
0
100
AcDbLine
 10
289.1
 20
253.29467
 30
0.0
 11
295.6999999999999
 21
250.5946699999999
 31
0.0
  0
LINE
  5
2C0
330
1E
100
AcDbEntity
  8
0
100
AcDbLine
 10
198.446
 20
255.46667
 30
0.0
 11
205.37
 21
250.16467
 31
0.0
  0
LINE
  5
2C1
330
1E
100
AcDbEntity
  8
0
100
AcDbLine
 10
190.548
 20
258.71267
 30
0.0
 11
198.446
 21
255.46667
 31
0.0
  0
LINE
  5
2C3
330
1E
100
AcDbEntity
  8
0
100
AcDbLine
 10
173.4524999999999
 20
258.71267
 30
0.0
 11
182.0
 21
259.79467
 31
0.0
  0
LINE
  5
2C4
330
1E
100
AcDbEntity
  8
0
100
AcDbLine
 10
175.8327999999999
 20
249.73267
 30
0.0
 11
182.0
 21
250.59767
 31
0.0
  0
LINE
  5
2C5
330
1E
100
AcDbEntity
  8
0
100
AcDbLine
 10
170.0984
 20
247.46067
 30
0.0
 11
175.8327999999999
 21
249.73267
 31
0.0
  0
LINE
  5
2C6
330
1E
100
AcDbEntity
  8
0
100
AcDbLine
 10
165.1213
 20
243.67367
 30
0.0
 11
170.0984
 21
247.46067
 31
0.0
  0
LINE
  5
2C7
330
1E
100
AcDbEntity
  8
0
100
AcDbLine
 10
358.6
 20
240.29467
 30
0.0
 11
362.9
 21
245.89467
 31
0.0
  0
LINE
  5
2C8
330
1E
100
AcDbEntity
  8
0
100
AcDbLine
 10
356.081081081081
 20
233.997372702703
 30
0.0
 11
358.6
 21
240.29467
 31
0.0
  0
LINE
  5
2C9
330
1E
100
AcDbEntity
  8
0
100
AcDbLine
 10
368.5
 20
250.19467
 30
0.0
 11
375.0
 21
252.79467
 31
0.0
  0
LINE
  5
2CA
330
1E
100
AcDbEntity
  8
0
100
AcDbLine
 10
362.9
 20
245.89467
 30
0.0
 11
368.5
 21
250.19467
 31
0.0
  0
LINE
  5
2CB
330
1E
100
AcDbEntity
  8
0
100
AcDbLine
 10
358.6999999999999
 20
250.09467
 30
0.0
 11
365.6
 21
255.39467
 31
0.0
  0
LINE
  5
2CC
330
1E
100
AcDbEntity
  8
0
100
AcDbLine
 10
364.144
 20
258.04267
 30
0.0
 11
372.784
 21
261.49867
 31
0.0
  0
LINE
  5
2CD
330
1E
100
AcDbEntity
  8
0
100
AcDbLine
 10
356.5119999999999
 20
252.28267
 30
0.0
 11
364.144
 21
258.04267
 31
0.0
  0
LINE
  5
2CE
330
1E
100
AcDbEntity
  8
0
100
AcDbLine
 10
375.0
 20
252.79467
 30
0.0
 11
382.0
 21
253.79467
 31
0.0
  0
LINE
  5
2CF
330
1E
100
AcDbEntity
  8
0
100
AcDbLine
 10
373.4999999999999
 20
258.59467
 30
0.0
 11
382.0
 21
259.79467
 31
0.0
  0
LINE
  5
2D0
330
1E
100
AcDbEntity
  8
0
100
AcDbLine
 10
365.6
 20
255.39467
 30
0.0
 11
373.4999999999999
 21
258.59467
 31
0.0
  0
LINE
  5
2D1
330
1E
100
AcDbEntity
  8
0
100
AcDbLine
 10
372.784
 20
261.49867
 30
0.0
 11
382.0
 21
262.7946699999999
 31
0.0
  0
LINE
  5
2D2
330
1E
100
AcDbEntity
  8
0
100
AcDbLine
 10
373.0
 20
260.49467
 30
0.0
 11
382.0
 21
261.79467
 31
0.0
  0
LINE
  5
2D3
330
1E
100
AcDbEntity
  8
0
100
AcDbLine
 10
364.6
 20
257.0946699999999
 30
0.0
 11
373.0
 21
260.49467
 31
0.0
  0
LINE
  5
2D4
330
1E
100
AcDbEntity
  8
0
100
AcDbLine
 10
357.3
 20
251.49467
 30
0.0
 11
364.6
 21
257.0946699999999
 31
0.0
  0
LINE
  5
2D5
330
1E
100
AcDbEntity
  8
0
100
AcDbLine
 10
354.0
 20
234.29467
 30
0.0
 11
357.5
 21
233.79467
 31
0.0
  0
LINE
  5
2D6
330
1E
100
AcDbEntity
  8
0
100
AcDbLine
 10
19.0
 20
233.99467
 30
0.0
 11
32.0
 21
233.59467
 31
0.0
  0
LINE
  5
2D7
330
1E
100
AcDbEntity
  8
0
100
AcDbLine
 10
9.999999999999969
 20
234.29467
 30
0.0
 11
19.0
 21
233.99467
 31
0.0
  0
LINE
  5
2D8
330
1E
100
AcDbEntity
  8
0
100
AcDbLine
 10
6.499999999999969
 20
233.79467
 30
0.0
 11
9.999999999999969
 21
234.29467
 31
0.0
  0
LINE
  5
2D9
330
1E
100
AcDbEntity
  8
0
100
AcDbLine
 10
3.99999999999997
 20
232.79467
 30
0.0
 11
6.499999999999969
 21
233.79467
 31
0.0
  0
LINE
  5
2DA
330
1E
100
AcDbEntity
  8
0
100
AcDbLine
 10
1.999999999999969
 20
231.29467
 30
0.0
 11
3.99999999999997
 21
232.79467
 31
0.0
  0
LINE
  5
2DB
330
1E
100
AcDbEntity
  8
0
100
AcDbLine
 10
0.4999999999999661
 20
229.29467
 30
0.0
 11
1.999999999999969
 21
231.29467
 31
0.0
  0
LINE
  5
2DC
330
1E
100
AcDbEntity
  8
0
100
AcDbLine
 10
-0.0000000000000339
 20
226.79467
 30
0.0
 11
0.4999999999999661
 21
224.29467
 31
0.0
  0
LINE
  5
2DD
330
1E
100
AcDbEntity
  8
0
100
AcDbLine
 10
-0.0000000000000339
 20
226.79467
 30
0.0
 11
0.4999999999999661
 21
229.29467
 31
0.0
  0
LINE
  5
2DE
330
1E
100
AcDbEntity
  8
0
100
AcDbLine
 10
382.0
 20
0.7993800000000051
 30
0.0
 11
394.8999999999999
 21
0.7993800000000051
 31
0.0
  0
LINE
  5
2DF
330
1E
100
AcDbEntity
  8
0
100
AcDbLine
 10
382.0
 20
2.344370000000009
 30
0.0
 11
391.8
 21
3.675970000000009
 31
0.0
  0
LINE
  5
2E0
330
1E
100
AcDbEntity
  8
0
100
AcDbLine
 10
387.8999999999999
 20
65.88316999999999
 30
0.0
 11
388.8999999999999
 21
66.91046999999999
 31
0.0
  0
LINE
  5
2E1
330
1E
100
AcDbEntity
  8
0
100
AcDbLine
 10
388.8999999999999
 20
66.91046999999999
 30
0.0
 11
389.6999999999999
 21
68.06606999999999
 31
0.0
  0
LINE
  5
2E2
330
1E
100
AcDbEntity
  8
0
100
AcDbLine
 10
390.0
 20
69.28586999999999
 30
0.0
 11
390.0
 21
80.69867
 31
0.0
  0
LINE
  5
2E3
330
1E
100
AcDbEntity
  8
0
100
AcDbLine
 10
389.6999999999999
 20
68.06606999999999
 30
0.0
 11
390.0
 21
69.28586999999999
 31
0.0
  0
LINE
  5
2E4
330
1E
100
AcDbEntity
  8
0
100
AcDbLine
 10
384.1
 20
96.65567000000001
 30
0.0
 11
386.0
 21
96.22067000000001
 31
0.0
  0
LINE
  5
2E5
330
1E
100
AcDbEntity
  8
0
100
AcDbLine
 10
386.0
 20
96.22067000000001
 30
0.0
 11
387.6
 21
95.51166999999999
 31
0.0
  0
LINE
  5
2E6
330
1E
100
AcDbEntity
  8
0
100
AcDbLine
 10
387.6
 20
95.51166999999999
 30
0.0
 11
388.8999999999999
 21
94.64067
 31
0.0
  0
LINE
  5
2E7
330
1E
100
AcDbEntity
  8
0
100
AcDbLine
 10
388.8999999999999
 20
94.64067
 30
0.0
 11
389.6999999999999
 21
93.55166999999999
 31
0.0
  0
LINE
  5
2E8
330
1E
100
AcDbEntity
  8
0
100
AcDbLine
 10
389.6999999999999
 20
93.55166999999999
 30
0.0
 11
390.0
 21
92.46266999999999
 31
0.0
  0
LINE
  5
2E9
330
1E
100
AcDbEntity
  8
0
100
AcDbLine
 10
390.0
 20
92.46266999999999
 30
0.0
 11
390.0
 21
80.69867
 31
0.0
  0
LINE
  5
2EA
330
1E
100
AcDbEntity
  8
0
100
AcDbLine
 10
390.0
 20
92.46266999999999
 30
0.0
 11
390.0
 21
104.1256699999999
 31
0.0
  0
LINE
  5
2EB
330
1E
100
AcDbEntity
  8
0
100
AcDbLine
 10
390.0
 20
80.69867
 30
0.0
 11
390.0
 21
69.28586999999999
 31
0.0
  0
LINE
  5
2EC
330
1E
100
AcDbEntity
  8
0
100
AcDbLine
 10
390.0
 20
80.69867
 30
0.0
 11
390.0
 21
92.46266999999999
 31
0.0
  0
LINE
  5
2ED
330
1E
100
AcDbEntity
  8
0
100
AcDbLine
 10
390.0
 20
73.5379128571429
 30
0.0
 11
391.8
 21
73.29336999999999
 31
0.0
  0
LINE
  5
2EE
330
1E
100
AcDbEntity
  8
0
100
AcDbLine
 10
391.8
 20
3.675970000000009
 30
0.0
 11
400.8999999999999
 21
7.194870000000009
 31
0.0
  0
LINE
  5
2EF
330
1E
100
AcDbEntity
  8
0
100
AcDbLine
 10
391.8
 20
73.29336999999999
 30
0.0
 11
400.8999999999999
 21
69.77446999999999
 31
0.0
  0
LINE
  5
2F0
330
1E
100
AcDbEntity
  8
0
100
AcDbLine
 10
391.8
 20
73.29336999999999
 30
0.0
 11
394.8999999999999
 21
73.07966999999999
 31
0.0
  0
LINE
  5
2F1
330
1E
100
AcDbEntity
  8
0
100
AcDbLine
 10
390.0
 20
125.5286699999999
 30
0.0
 11
390.0
 21
114.5176699999999
 31
0.0
  0
LINE
  5
2F2
330
1E
100
AcDbEntity
  8
0
100
AcDbLine
 10
390.0
 20
125.5286699999999
 30
0.0
 11
390.5
 21
134.5366699999999
 31
0.0
  0
LINE
  5
2F3
330
1E
100
AcDbEntity
  8
0
100
AcDbLine
 10
390.0
 20
114.5176699999999
 30
0.0
 11
390.0
 21
104.1256699999999
 31
0.0
  0
LINE
  5
2F4
330
1E
100
AcDbEntity
  8
0
100
AcDbLine
 10
390.0
 20
114.5176699999999
 30
0.0
 11
390.0
 21
125.5286699999999
 31
0.0
  0
LINE
  5
2F5
330
1E
100
AcDbEntity
  8
0
100
AcDbLine
 10
393.2
 20
176.40367
 30
0.0
 11
393.2
 21
182.2416699999999
 31
0.0
  0
LINE
  5
2F6
330
1E
100
AcDbEntity
  8
0
100
AcDbLine
 10
393.2
 20
182.2416699999999
 30
0.0
 11
393.2
 21
176.40367
 31
0.0
  0
LINE
  5
2F7
330
1E
100
AcDbEntity
  8
0
100
AcDbLine
 10
393.0
 20
170.90167
 30
0.0
 11
393.2
 21
176.40367
 31
0.0
  0
LINE
  5
2F8
330
1E
100
AcDbEntity
  8
0
100
AcDbLine
 10
392.8
 20
164.7816699999999
 30
0.0
 11
393.0
 21
170.90167
 31
0.0
  0
LINE
  5
2F9
330
1E
100
AcDbEntity
  8
0
100
AcDbLine
 10
392.3
 20
158.04667
 30
0.0
 11
392.8
 21
164.7816699999999
 31
0.0
  0
LINE
  5
2FA
330
1E
100
AcDbEntity
  8
0
100
AcDbLine
 10
391.6999999999999
 20
151.1136699999999
 30
0.0
 11
392.3
 21
158.04667
 31
0.0
  0
LINE
  5
2FB
330
1E
100
AcDbEntity
  8
0
100
AcDbLine
 10
391.0
 20
143.52267
 30
0.0
 11
391.6999999999999
 21
151.1136699999999
 31
0.0
  0
LINE
  5
2FC
330
1E
100
AcDbEntity
  8
0
100
AcDbLine
 10
390.5
 20
134.5366699999999
 30
0.0
 11
391.0
 21
143.52267
 31
0.0
  0
LINE
  5
2FD
330
1E
100
AcDbEntity
  8
0
100
AcDbLine
 10
390.0
 20
104.1256699999999
 30
0.0
 11
390.0
 21
92.46266999999999
 31
0.0
  0
LINE
  5
2FE
330
1E
100
AcDbEntity
  8
0
100
AcDbLine
 10
390.0
 20
104.1256699999999
 30
0.0
 11
390.0
 21
114.5176699999999
 31
0.0
  0
LINE
  5
2FF
330
1E
100
AcDbEntity
  8
0
100
AcDbLine
 10
393.0
 20
188.6696699999999
 30
0.0
 11
393.0
 21
186.68367
 31
0.0
  0
LINE
  5
300
330
1E
100
AcDbEntity
  8
0
100
AcDbLine
 10
393.0
 20
186.68367
 30
0.0
 11
393.2
 21
182.2416699999999
 31
0.0
  0
LINE
  5
301
330
1E
100
AcDbEntity
  8
0
100
AcDbLine
 10
393.0
 20
186.68367
 30
0.0
 11
393.0
 21
188.6696699999999
 31
0.0
  0
LINE
  5
303
330
1E
100
AcDbEntity
  8
0
100
AcDbLine
 10
392.3999999999999
 20
193.2626699999999
 30
0.0
 11
393.6
 21
191.29067
 31
0.0
  0
LINE
  5
304
330
1E
100
AcDbEntity
  8
0
100
AcDbLine
 10
391.5
 20
192.30767
 30
0.0
 11
392.6
 21
190.60067
 31
0.0
  0
LINE
  5
305
330
1E
100
AcDbEntity
  8
0
100
AcDbLine
 10
393.6
 20
191.29067
 30
0.0
 11
394.0
 21
189.1856699999999
 31
0.0
  0
LINE
  5
306
330
1E
100
AcDbEntity
  8
0
100
AcDbLine
 10
392.6
 20
190.60067
 30
0.0
 11
393.0
 21
188.6696699999999
 31
0.0
  0
LINE
  5
307
330
1E
100
AcDbEntity
  8
0
100
AcDbLine
 10
393.6
 20
187.1276699999999
 30
0.0
 11
394.0
 21
189.1856699999999
 31
0.0
  0
LINE
  5
308
330
1E
100
AcDbEntity
  8
0
100
AcDbLine
 10
393.0218739066549
 20
186.197850533203
 30
0.0
 11
393.6
 21
187.1276699999999
 31
0.0
  0
LINE
  5
309
330
1E
100
AcDbEntity
  8
0
100
AcDbLine
 10
382.0
 20
96.81967
 30
0.0
 11
384.1
 21
96.65567000000001
 31
0.0
  0
LINE
  5
30A
330
1E
100
AcDbEntity
  8
0
100
AcDbLine
 10
379.8999999999999
 20
96.65567000000001
 30
0.0
 11
382.0
 21
96.81967
 31
0.0
  0
LINE
  5
30B
330
1E
100
AcDbEntity
  8
0
100
AcDbLine
 10
378.0
 20
96.22067000000001
 30
0.0
 11
379.8999999999999
 21
96.65567000000001
 31
0.0
  0
LINE
  5
30C
330
1E
100
AcDbEntity
  8
0
100
AcDbLine
 10
384.8
 20
195.7276699999999
 30
0.0
 11
387.5
 21
195.06967
 31
0.0
  0
LINE
  5
30D
330
1E
100
AcDbEntity
  8
0
100
AcDbLine
 10
387.5
 20
195.06967
 30
0.0
 11
389.8
 21
193.8876699999999
 31
0.0
  0
LINE
  5
310
330
1E
100
AcDbEntity
  8
0
100
AcDbLine
 10
390.5
 20
195.0186699999999
 30
0.0
 11
392.3999999999999
 21
193.2626699999999
 31
0.0
  0
LINE
  5
311
330
1E
100
AcDbEntity
  8
0
100
AcDbLine
 10
389.8
 20
193.8876699999999
 30
0.0
 11
391.5
 21
192.30767
 31
0.0
  0
LINE
  5
312
330
1E
100
AcDbEntity
  8
0
100
AcDbLine
 10
382.0
 20
196.0356699999999
 30
0.0
 11
384.8
 21
195.7276699999999
 31
0.0
  0
LINE
  5
313
330
1E
100
AcDbEntity
  8
0
100
AcDbLine
 10
388.0
 20
196.2916699999999
 30
0.0
 11
390.5
 21
195.0186699999999
 31
0.0
  0
LINE
  5
314
330
1E
100
AcDbEntity
  8
0
100
AcDbLine
 10
379.1999999999999
 20
195.7276699999999
 30
0.0
 11
382.0
 21
196.0356699999999
 31
0.0
  0
LINE
  5
315
330
1E
100
AcDbEntity
  8
0
100
AcDbLine
 10
392.3999999999999
 20
195.59467
 30
0.0
 11
393.6
 21
193.3946699999999
 31
0.0
  0
LINE
  5
316
330
1E
100
AcDbEntity
  8
0
100
AcDbLine
 10
393.6
 20
193.3946699999999
 30
0.0
 11
394.0
 21
190.9946699999999
 31
0.0
  0
LINE
  5
317
330
1E
100
AcDbEntity
  8
0
100
AcDbLine
 10
394.0
 20
189.1856699999999
 30
0.0
 11
394.0
 21
189.78967
 31
0.0
  0
LINE
  5
318
330
1E
100
AcDbEntity
  8
0
100
AcDbLine
 10
394.0
 20
189.78967
 30
0.0
 11
394.0
 21
189.1856699999999
 31
0.0
  0
LINE
  5
319
330
1E
100
AcDbEntity
  8
0
100
AcDbLine
 10
394.0
 20
193.20427
 30
0.0
 11
399.8559999999999
 21
195.54667
 31
0.0
  0
LINE
  5
31A
330
1E
100
AcDbEntity
  8
0
100
AcDbLine
 10
394.0
 20
190.9946699999999
 30
0.0
 11
394.0
 21
212.89467
 31
0.0
  0
LINE
  5
31B
330
1E
100
AcDbEntity
  8
0
100
AcDbLine
 10
394.0
 20
189.78967
 30
0.0
 11
394.0
 21
190.9946699999999
 31
0.0
  0
LINE
  5
31C
330
1E
100
AcDbEntity
  8
0
100
AcDbLine
 10
394.0
 20
196.4123915189869
 30
0.0
 11
398.3999999999999
 21
198.19467
 31
0.0
  0
LINE
  5
31D
330
1E
100
AcDbEntity
  8
0
100
AcDbLine
 10
394.8999999999999
 20
0.7993800000000051
 30
0.0
 11
401.9
 21
4.032969999999999
 31
0.0
  0
LINE
  5
31E
330
1E
100
AcDbEntity
  8
0
100
AcDbLine
 10
401.9
 20
4.032969999999999
 30
0.0
 11
410.2
 21
10.11976999999999
 31
0.0
  0
LINE
  5
31F
330
1E
100
AcDbEntity
  8
0
100
AcDbLine
 10
401.9
 20
4.032969999999999
 30
0.0
 11
410.2
 21
10.11976999999999
 31
0.0
  0
LINE
  5
320
330
1E
100
AcDbEntity
  8
0
100
AcDbLine
 10
400.8999999999999
 20
7.194870000000009
 30
0.0
 11
408.8
 21
12.99636999999999
 31
0.0
  0
LINE
  5
321
330
1E
100
AcDbEntity
  8
0
100
AcDbLine
 10
399.8559999999999
 20
195.54667
 30
0.0
 11
407.488
 21
201.3066699999999
 31
0.0
  0
LINE
  5
322
330
1E
100
AcDbEntity
  8
0
100
AcDbLine
 10
394.8999999999999
 20
73.07966999999999
 30
0.0
 11
401.9
 21
69.84617
 31
0.0
  0
LINE
  5
323
330
1E
100
AcDbEntity
  8
0
100
AcDbLine
 10
401.9
 20
69.84617
 30
0.0
 11
410.2
 21
63.75937
 31
0.0
  0
LINE
  5
324
330
1E
100
AcDbEntity
  8
0
100
AcDbLine
 10
400.8999999999999
 20
69.77446999999999
 30
0.0
 11
408.8
 21
63.97297
 31
0.0
  0
LINE
  5
325
330
1E
100
AcDbEntity
  8
0
100
AcDbLine
 10
394.0
 20
194.308955714286
 30
0.0
 11
399.3999999999999
 21
196.4946699999999
 31
0.0
  0
LINE
  5
327
330
1E
100
AcDbEntity
  8
0
100
AcDbLine
 10
385.1
 20
197.12267
 30
0.0
 11
388.0
 21
196.2916699999999
 31
0.0
  0
LINE
  5
328
330
1E
100
AcDbEntity
  8
0
100
AcDbLine
 10
382.0
 20
197.3416699999999
 30
0.0
 11
385.1
 21
197.12267
 31
0.0
  0
LINE
  5
329
330
1E
100
AcDbEntity
  8
0
100
AcDbLine
 10
378.8999999999999
 20
197.12267
 30
0.0
 11
382.0
 21
197.3416699999999
 31
0.0
  0
LINE
  5
32A
330
1E
100
AcDbEntity
  8
0
100
AcDbLine
 10
390.5
 20
197.4946699999999
 30
0.0
 11
392.3999999999999
 21
195.59467
 31
0.0
  0
LINE
  5
32B
330
1E
100
AcDbEntity
  8
0
100
AcDbLine
 10
382.0
 20
200.1946699999999
 30
0.0
 11
385.1
 21
199.8946699999999
 31
0.0
  0
LINE
  5
32C
330
1E
100
AcDbEntity
  8
0
100
AcDbLine
 10
385.1
 20
199.8946699999999
 30
0.0
 11
388.0
 21
198.9946699999999
 31
0.0
  0
LINE
  5
32D
330
1E
100
AcDbEntity
  8
0
100
AcDbLine
 10
394.0
 20
202.79467
 30
0.0
 11
395.5
 21
203.3946699999999
 31
0.0
  0
LINE
  5
32E
330
1E
100
AcDbEntity
  8
0
100
AcDbLine
 10
388.0
 20
198.9946699999999
 30
0.0
 11
390.5
 21
197.4946699999999
 31
0.0
  0
LINE
  5
32F
330
1E
100
AcDbEntity
  8
0
100
AcDbLine
 10
401.1
 20
207.69467
 30
0.0
 11
405.4
 21
213.29467
 31
0.0
  0
LINE
  5
330
330
1E
100
AcDbEntity
  8
0
100
AcDbLine
 10
395.5
 20
203.3946699999999
 30
0.0
 11
401.1
 21
207.69467
 31
0.0
  0
LINE
  5
331
330
1E
100
AcDbEntity
  8
0
100
AcDbLine
 10
378.8999999999999
 20
199.8946699999999
 30
0.0
 11
382.0
 21
200.1946699999999
 31
0.0
  0
LINE
  5
332
330
1E
100
AcDbEntity
  8
0
100
AcDbLine
 10
398.3999999999999
 20
198.19467
 30
0.0
 11
405.2999999999999
 21
203.4946699999999
 31
0.0
  0
LINE
  5
333
330
1E
100
AcDbEntity
  8
0
100
AcDbLine
 10
405.2999999999999
 20
203.4946699999999
 30
0.0
 11
410.5999999999999
 21
210.39467
 31
0.0
  0
LINE
  5
334
330
1E
100
AcDbEntity
  8
0
100
AcDbLine
 10
399.3999999999999
 20
196.4946699999999
 30
0.0
 11
406.7
 21
202.09467
 31
0.0
  0
LINE
  5
335
330
1E
100
AcDbEntity
  8
0
100
AcDbLine
 10
410.2
 20
10.11976999999999
 30
0.0
 11
416.6
 21
18.01347
 31
0.0
  0
LINE
  5
336
330
1E
100
AcDbEntity
  8
0
100
AcDbLine
 10
410.2
 20
63.75937
 30
0.0
 11
416.6
 21
55.86566999999999
 31
0.0
  0
LINE
  5
337
330
1E
100
AcDbEntity
  8
0
100
AcDbLine
 10
408.8
 20
12.99636999999999
 30
0.0
 11
414.9
 21
20.50966999999999
 31
0.0
  0
LINE
  5
338
330
1E
100
AcDbEntity
  8
0
100
AcDbLine
 10
407.488
 20
201.3066699999999
 30
0.0
 11
413.248
 21
208.9386699999999
 31
0.0
  0
LINE
  5
339
330
1E
100
AcDbEntity
  8
0
100
AcDbLine
 10
413.248
 20
208.9386699999999
 30
0.0
 11
416.704
 21
217.57867
 31
0.0
  0
LINE
  5
33A
330
1E
100
AcDbEntity
  8
0
100
AcDbLine
 10
408.8
 20
63.97297
 30
0.0
 11
414.9
 21
56.45966999999999
 31
0.0
  0
LINE
  5
33B
330
1E
100
AcDbEntity
  8
0
100
AcDbLine
 10
406.7
 20
202.09467
 30
0.0
 11
412.3
 21
209.39467
 31
0.0
  0
LINE
  5
33C
330
1E
100
AcDbEntity
  8
0
100
AcDbLine
 10
394.0
 20
212.89467
 30
0.0
 11
394.0
 21
190.9946699999999
 31
0.0
  0
LINE
  5
33D
330
1E
100
AcDbEntity
  8
0
100
AcDbLine
 10
405.4
 20
213.29467
 30
0.0
 11
408.0
 21
219.79467
 31
0.0
  0
LINE
  5
33E
330
1E
100
AcDbEntity
  8
0
100
AcDbLine
 10
382.0
 20
223.69467
 30
0.0
 11
385.1
 21
223.29467
 31
0.0
  0
LINE
  5
33F
330
1E
100
AcDbEntity
  8
0
100
AcDbLine
 10
385.1
 20
223.29467
 30
0.0
 11
388.0
 21
222.19467
 31
0.0
  0
LINE
  5
340
330
1E
100
AcDbEntity
  8
0
100
AcDbLine
 10
388.0
 20
222.19467
 30
0.0
 11
390.5
 21
220.49467
 31
0.0
  0
LINE
  5
341
330
1E
100
AcDbEntity
  8
0
100
AcDbLine
 10
390.5
 20
220.49467
 30
0.0
 11
392.3999999999999
 21
218.19467
 31
0.0
  0
LINE
  5
342
330
1E
100
AcDbEntity
  8
0
100
AcDbLine
 10
408.0
 20
233.79467
 30
0.0
 11
409.0
 21
226.79467
 31
0.0
  0
LINE
  5
343
330
1E
100
AcDbEntity
  8
0
100
AcDbLine
 10
408.0
 20
219.79467
 30
0.0
 11
409.0
 21
226.79467
 31
0.0
  0
LINE
  5
344
330
1E
100
AcDbEntity
  8
0
100
AcDbLine
 10
392.3999999999999
 20
218.19467
 30
0.0
 11
393.6
 21
215.69467
 31
0.0
  0
LINE
  5
345
330
1E
100
AcDbEntity
  8
0
100
AcDbLine
 10
393.6
 20
215.69467
 30
0.0
 11
394.0
 21
212.89467
 31
0.0
  0
LINE
  5
346
330
1E
100
AcDbEntity
  8
0
100
AcDbLine
 10
378.8999999999999
 20
223.29467
 30
0.0
 11
382.0
 21
223.69467
 31
0.0
  0
LINE
  5
347
330
1E
100
AcDbEntity
  8
0
100
AcDbLine
 10
410.5999999999999
 20
210.39467
 30
0.0
 11
413.7999999999999
 21
218.29467
 31
0.0
  0
LINE
  5
348
330
1E
100
AcDbEntity
  8
0
100
AcDbLine
 10
413.7999999999999
 20
218.29467
 30
0.0
 11
415.0
 21
226.79467
 31
0.0
  0
LINE
  5
349
330
1E
100
AcDbEntity
  8
0
100
AcDbLine
 10
412.3
 20
209.39467
 30
0.0
 11
415.7
 21
217.79467
 31
0.0
  0
LINE
  5
34A
330
1E
100
AcDbEntity
  8
0
100
AcDbLine
 10
416.6
 20
18.01347
 30
0.0
 11
420.0
 21
24.67087
 31
0.0
  0
LINE
  5
34B
330
1E
100
AcDbEntity
  8
0
100
AcDbLine
 10
416.6
 20
55.86566999999999
 30
0.0
 11
420.0
 21
49.20817
 31
0.0
  0
LINE
  5
34C
330
1E
100
AcDbEntity
  8
0
100
AcDbLine
 10
414.9
 20
20.50966999999999
 30
0.0
 11
418.5999999999999
 21
29.16427
 31
0.0
  0
LINE
  5
34D
330
1E
100
AcDbEntity
  8
0
100
AcDbLine
 10
418.5999999999999
 20
29.16427
 30
0.0
 11
420.0
 21
38.48467
 31
0.0
  0
LINE
  5
34E
330
1E
100
AcDbEntity
  8
0
100
AcDbLine
 10
416.704
 20
217.57867
 30
0.0
 11
418.0
 21
226.79467
 31
0.0
  0
LINE
  5
34F
330
1E
100
AcDbEntity
  8
0
100
AcDbLine
 10
414.9
 20
56.45966999999999
 30
0.0
 11
418.5999999999999
 21
47.80497
 31
0.0
  0
LINE
  5
350
330
1E
100
AcDbEntity
  8
0
100
AcDbLine
 10
420.0
 20
49.20817
 30
0.0
 11
420.0
 21
24.67087
 31
0.0
  0
LINE
  5
351
330
1E
100
AcDbEntity
  8
0
100
AcDbLine
 10
420.0
 20
24.67087
 30
0.0
 11
420.0
 21
49.20817
 31
0.0
  0
LINE
  5
352
330
1E
100
AcDbEntity
  8
0
100
AcDbLine
 10
418.5999999999999
 20
47.80497
 30
0.0
 11
420.0
 21
38.48467
 31
0.0
  0
LINE
  5
353
330
1E
100
AcDbEntity
  8
0
100
AcDbLine
 10
415.7
 20
217.79467
 30
0.0
 11
417.0
 21
226.79467
 31
0.0
  0
LINE
  5
354
330
1E
100
AcDbEntity
  8
0
100
AcDbLine
 10
413.7999999999999
 20
235.29467
 30
0.0
 11
415.0
 21
226.79467
 31
0.0
  0
LINE
  5
355
330
1E
100
AcDbEntity
  8
0
100
AcDbLine
 10
401.1
 20
245.89467
 30
0.0
 11
405.4
 21
240.29467
 31
0.0
  0
LINE
  5
356
330
1E
100
AcDbEntity
  8
0
100
AcDbLine
 10
405.4
 20
240.29467
 30
0.0
 11
408.0
 21
233.79467
 31
0.0
  0
LINE
  5
357
330
1E
100
AcDbEntity
  8
0
100
AcDbLine
 10
395.5
 20
250.19467
 30
0.0
 11
401.1
 21
245.89467
 31
0.0
  0
LINE
  5
358
330
1E
100
AcDbEntity
  8
0
100
AcDbLine
 10
405.2999999999999
 20
250.09467
 30
0.0
 11
410.5999999999999
 21
243.19467
 31
0.0
  0
LINE
  5
359
330
1E
100
AcDbEntity
  8
0
100
AcDbLine
 10
410.5999999999999
 20
243.19467
 30
0.0
 11
413.7999999999999
 21
235.29467
 31
0.0
  0
LINE
  5
35A
330
1E
100
AcDbEntity
  8
0
100
AcDbLine
 10
382.0
 20
253.79467
 30
0.0
 11
389.0
 21
252.79467
 31
0.0
  0
LINE
  5
35B
330
1E
100
AcDbEntity
  8
0
100
AcDbLine
 10
389.0
 20
252.79467
 30
0.0
 11
395.5
 21
250.19467
 31
0.0
  0
LINE
  5
35C
330
1E
100
AcDbEntity
  8
0
100
AcDbLine
 10
382.0
 20
259.79467
 30
0.0
 11
390.5
 21
258.59467
 31
0.0
  0
LINE
  5
35D
330
1E
100
AcDbEntity
  8
0
100
AcDbLine
 10
390.5
 20
258.59467
 30
0.0
 11
398.3999999999999
 21
255.39467
 31
0.0
  0
LINE
  5
35E
330
1E
100
AcDbEntity
  8
0
100
AcDbLine
 10
398.3999999999999
 20
255.39467
 30
0.0
 11
405.2999999999999
 21
250.09467
 31
0.0
  0
LINE
  5
35F
330
1E
100
AcDbEntity
  8
0
100
AcDbLine
 10
382.0
 20
262.7946699999999
 30
0.0
 11
391.216
 21
261.49867
 31
0.0
  0
LINE
  5
360
330
1E
100
AcDbEntity
  8
0
100
AcDbLine
 10
391.216
 20
261.49867
 30
0.0
 11
399.8559999999999
 21
258.04267
 31
0.0
  0
LINE
  5
361
330
1E
100
AcDbEntity
  8
0
100
AcDbLine
 10
382.0
 20
261.79467
 30
0.0
 11
391.0
 21
260.49467
 31
0.0
  0
LINE
  5
362
330
1E
100
AcDbEntity
  8
0
100
AcDbLine
 10
391.0
 20
260.49467
 30
0.0
 11
399.3999999999999
 21
257.0946699999999
 31
0.0
  0
LINE
  5
363
330
1E
100
AcDbEntity
  8
0
100
AcDbLine
 10
399.8559999999999
 20
258.04267
 30
0.0
 11
407.488
 21
252.28267
 31
0.0
  0
LINE
  5
364
330
1E
100
AcDbEntity
  8
0
100
AcDbLine
 10
407.488
 20
252.28267
 30
0.0
 11
413.248
 21
244.65067
 31
0.0
  0
LINE
  5
365
330
1E
100
AcDbEntity
  8
0
100
AcDbLine
 10
399.3999999999999
 20
257.0946699999999
 30
0.0
 11
406.7
 21
251.49467
 31
0.0
  0
LINE
  5
366
330
1E
100
AcDbEntity
  8
0
100
AcDbLine
 10
406.7
 20
251.49467
 30
0.0
 11
412.3
 21
244.19467
 31
0.0
  0
LINE
  5
367
330
1E
100
AcDbEntity
  8
0
100
AcDbLine
 10
413.248
 20
244.65067
 30
0.0
 11
416.704
 21
236.01067
 31
0.0
  0
LINE
  5
368
330
1E
100
AcDbEntity
  8
0
100
AcDbLine
 10
416.704
 20
236.01067
 30
0.0
 11
418.0
 21
226.79467
 31
0.0
  0
LINE
  5
369
330
1E
100
AcDbEntity
  8
0
100
AcDbLine
 10
412.3
 20
244.19467
 30
0.0
 11
415.7
 21
235.79467
 31
0.0
  0
LINE
  5
36A
330
1E
100
AcDbEntity
  8
0
100
AcDbLine
 10
415.7
 20
235.79467
 30
0.0
 11
417.0
 21
226.79467
 31
0.0
  0
LINE
  5
371
330
1E
100
AcDbEntity
  8
0
100
AcDbLine
 10
376.1
 20
65.88316999999999
 30
0.0
 11
377.3896269356139
 21
65.13577459523367
 31
0.0
  0
LINE
  5
372
330
1E
100
AcDbEntity
  8
0
100
AcDbLine
 10
377.3896269356139
 20
65.13577459523367
 30
0.0
 11
378.8713998617708
 21
64.71269130089286
 31
0.0
  0
LINE
  5
373
330
1E
100
AcDbEntity
  8
0
100
AcDbLine
 10
378.8713998617708
 20
64.71269130089286
 30
0.0
 11
380.1838278959228
 21
64.62807464202467
 31
0.0
  0
LINE
  5
374
330
1E
100
AcDbEntity
  8
0
100
AcDbLine
 10
380.1838278959228
 20
64.62807464202467
 30
0.0
 11
382.9568607447308
 21
64.67038327949842
 31
0.0
  0
LINE
  5
375
330
1E
100
AcDbEntity
  8
0
100
AcDbLine
 10
382.9568607447308
 20
64.67038327949842
 30
0.0
 11
384.9255027959586
 21
64.9665412774973
 31
0.0
  0
LINE
  5
376
330
1E
100
AcDbEntity
  8
0
100
AcDbLine
 10
384.9255027959586
 20
64.9665412774973
 30
0.0
 11
386.9576491816883
 21
65.41077827449567
 31
0.0
  0
LINE
  5
377
330
1E
100
AcDbEntity
  8
0
100
AcDbLine
 10
386.9576491816883
 20
65.41077827449567
 30
0.0
 11
387.8999999999999
 21
65.88316999999999
 31
0.0
  0
LINE
  5
378
330
1E
100
AcDbEntity
  8
0
100
AcDbLine
 10
202.666
 20
214.89267
 30
0.0
 11
204.9379999999999
 21
220.62767
 31
0.0
  0
LINE
  5
379
330
1E
100
AcDbEntity
  8
0
100
AcDbLine
 10
164.0
 20
211.389358267448
 30
0.0
 11
161.3343999999999
 21
214.89267
 31
0.0
  0
LINE
  5
37A
330
1E
100
AcDbEntity
  8
0
100
AcDbLine
 10
202.666
 20
238.69667
 30
0.0
 11
198.879
 21
243.67367
 31
0.0
  0
LINE
  5
37B
330
1E
100
AcDbEntity
  8
0
100
AcDbLine
 10
161.3343999999999
 20
238.69667
 30
0.0
 11
165.1213
 21
243.67367
 31
0.0
  0
ENDSEC
  0
SECTION
  2
OBJECTS
  0
DICTIONARY
  5
C
330
0
100
AcDbDictionary
281
     1
  3
ACAD_GROUP
350
D
  3
ACAD_LAYOUT
350
19
  3
ACAD_MLINESTYLE
350
16
  3
ACAD_PLOTSETTINGS
350
18
  3
ACAD_PLOTSTYLENAME
350
E
  3
AcDbVariableDictionary
350
37C
  0
DICTIONARY
  5
D
102
{ACAD_REACTORS
330
C
102
}
330
C
100
AcDbDictionary
281
     1
  0
DICTIONARY
  5
19
102
{ACAD_REACTORS
330
C
102
}
330
C
100
AcDbDictionary
281
     1
  3
Layout1
350
1D
  3
Model
350
21
  0
DICTIONARY
  5
16
102
{ACAD_REACTORS
330
C
102
}
330
C
100
AcDbDictionary
281
     1
  3
Standard
350
17
  0
DICTIONARY
  5
18
102
{ACAD_REACTORS
330
C
102
}
330
C
100
AcDbDictionary
281
     1
  0
ACDBDICTIONARYWDFLT
  5
E
102
{ACAD_REACTORS
330
C
102
}
330
C
100
AcDbDictionary
281
     1
  3
Normal
350
F
100
AcDbDictionaryWithDefault
340
F
  0
DICTIONARY
  5
37C
102
{ACAD_REACTORS
330
C
102
}
330
C
100
AcDbDictionary
281
     1
  3
DIMASSOC
350
37D
  0
LAYOUT
  5
1D
102
{ACAD_REACTORS
330
19
102
}
330
19
100
AcDbPlotSettings
  1

  2
hp deskjet 980c series
  4

  6

 40
0.0
 41
0.0
 42
0.0
 43
0.0
 44
0.0
 45
0.0
 46
0.0
 47
0.0
 48
0.0
 49
0.0
140
0.0
141
0.0
142
1.0
143
1.0
 70
   688
 72
     0
 73
     0
 74
     5
  7

 75
    16
147
1.0
148
0.0
149
0.0
100
AcDbLayout
  1
Layout1
 70
     1
 71
     1
 10
0.0
 20
0.0
 11
12.0
 21
9.0
 12
0.0
 22
0.0
 32
0.0
 14
1.000000000000000E+20
 24
1.000000000000000E+20
 34
1.000000000000000E+20
 15
-1.000000000000000E+20
 25
-1.000000000000000E+20
 35
-1.000000000000000E+20
146
0.0
 13
0.0
 23
0.0
 33
0.0
 16
1.0
 26
0.0
 36
0.0
 17
0.0
 27
1.0
 37
0.0
 76
     0
330
1A
  0
LAYOUT
  5
21
102
{ACAD_REACTORS
330
19
102
}
330
19
100
AcDbPlotSettings
  1

  2
hp deskjet 980c series
  4

  6

 40
0.0
 41
0.0
 42
0.0
 43
0.0
 44
0.0
 45
0.0
 46
0.0
 47
0.0
 48
0.0
 49
0.0
140
0.0
141
0.0
142
1.0
143
1.0
 70
  1712
 72
     0
 73
     0
 74
     0
  7

 75
     0
147
1.0
148
0.0
149
0.0
100
AcDbLayout
  1
Model
 70
     1
 71
     0
 10
0.0
 20
0.0
 11
12.0
 21
9.0
 12
0.0
 22
0.0
 32
0.0
 14
0.0
 24
0.0
 34
0.0
 15
0.0
 25
0.0
 35
0.0
146
0.0
 13
0.0
 23
0.0
 33
0.0
 16
1.0
 26
0.0
 36
0.0
 17
0.0
 27
1.0
 37
0.0
 76
     0
330
1E
  0
MLINESTYLE
  5
17
102
{ACAD_REACTORS
330
16
102
}
330
16
100
AcDbMlineStyle
  2
STANDARD
 70
     0
  3

 62
   256
 51
90.0
 52
90.0
 71
     2
 49
0.5
 62
   256
  6
BYLAYER
 49
-0.5
 62
   256
  6
BYLAYER
  0
ACDBPLACEHOLDER
  5
F
102
{ACAD_REACTORS
330
E
102
}
330
E
  0
DICTIONARYVAR
  5
37D
102
{ACAD_REACTORS
330
37C
102
}
330
37C
100
DictionaryVariables
280
     0
  1
1
  0
ENDSEC
  0
EOF
