  0
SECTION
  2
HEADER
  9
$ACADVER
  1
AC1015
  9
$ACADMAINTVER
 70
    13
  9
$DWGCODEPAGE
  3
ANSI_1252
  9
$INSBASE
 10
0.0
 20
0.0
 30
0.0
  9
$EXTMIN
 10
0.205330000000006
 20
0.0599999999999859
 30
0.0
  9
$EXTMAX
 10
262.7946699999999
 20
154.94
 30
0.0
  9
$LIMMIN
 10
0.0
 20
0.0
  9
$LIMMAX
 10
12.0
 20
9.0
  9
$ORTHOMODE
 70
     0
  9
$REGENMODE
 70
     1
  9
$FILLMODE
 70
     1
  9
$QTEXTMODE
 70
     0
  9
$MIRRTEXT
 70
     1
  9
$LTSCALE
 40
1.0
  9
$ATTMODE
 70
     1
  9
$TEXTSIZE
 40
0.2
  9
$TRACEWID
 40
0.05
  9
$TEXTSTYLE
  7
Standard
  9
$CLAYER
  8
0
  9
$CELTYPE
  6
Continuous
  9
$CECOLOR
 62
   256
  9
$CELTSCALE
 40
1.0
  9
$DISPSILH
 70
     0
  9
$DIMSCALE
 40
1.0
  9
$DIMASZ
 40
0.18
  9
$DIMEXO
 40
0.0625
  9
$DIMDLI
 40
0.38
  9
$DIMRND
 40
0.0
  9
$DIMDLE
 40
0.0
  9
$DIMEXE
 40
0.18
  9
$DIMTP
 40
0.0
  9
$DIMTM
 40
0.0
  9
$DIMTXT
 40
0.18
  9
$DIMCEN
 40
0.09
  9
$DIMTSZ
 40
0.0
  9
$DIMTOL
 70
     0
  9
$DIMLIM
 70
     0
  9
$DIMTIH
 70
     1
  9
$DIMTOH
 70
     1
  9
$DIMSE1
 70
     0
  9
$DIMSE2
 70
     0
  9
$DIMTAD
 70
     0
  9
$DIMZIN
 70
     0
  9
$DIMBLK
  1

  9
$DIMASO
 70
     1
  9
$DIMSHO
 70
     1
  9
$DIMPOST
  1

  9
$DIMAPOST
  1

  9
$DIMALT
 70
     0
  9
$DIMALTD
 70
     2
  9
$DIMALTF
 40
25.4
  9
$DIMLFAC
 40
1.0
  9
$DIMTOFL
 70
     0
  9
$DIMTVP
 40
0.0
  9
$DIMTIX
 70
     0
  9
$DIMSOXD
 70
     0
  9
$DIMSAH
 70
     0
  9
$DIMBLK1
  1

  9
$DIMBLK2
  1

  9
$DIMSTYLE
  2
Standard
  9
$DIMCLRD
 70
     0
  9
$DIMCLRE
 70
     0
  9
$DIMCLRT
 70
     0
  9
$DIMTFAC
 40
1.0
  9
$DIMGAP
 40
0.09
  9
$DIMJUST
 70
     0
  9
$DIMSD1
 70
     0
  9
$DIMSD2
 70
     0
  9
$DIMTOLJ
 70
     1
  9
$DIMTZIN
 70
     0
  9
$DIMALTZ
 70
     0
  9
$DIMALTTZ
 70
     0
  9
$DIMUPT
 70
     0
  9
$DIMDEC
 70
     4
  9
$DIMTDEC
 70
     4
  9
$DIMALTU
 70
     2
  9
$DIMALTTD
 70
     2
  9
$DIMTXSTY
  7
Standard
  9
$DIMAUNIT
 70
     0
  9
$DIMADEC
 70
     0
  9
$DIMALTRND
 40
0.0
  9
$DIMAZIN
 70
     0
  9
$DIMDSEP
 70
    46
  9
$DIMATFIT
 70
     3
  9
$DIMFRAC
 70
     0
  9
$DIMLDRBLK
  1

  9
$DIMLUNIT
 70
     2
  9
$DIMLWD
 70
    -2
  9
$DIMLWE
 70
    -2
  9
$DIMTMOVE
 70
     0
  9
$LUNITS
 70
     2
  9
$LUPREC
 70
     4
  9
$SKETCHINC
 40
0.1
  9
$FILLETRAD
 40
0.0
  9
$AUNITS
 70
     0
  9
$AUPREC
 70
     0
  9
$MENU
  1
.
  9
$ELEVATION
 40
0.0
  9
$PELEVATION
 40
0.0
  9
$THICKNESS
 40
0.0
  9
$LIMCHECK
 70
     0
  9
$CHAMFERA
 40
0.0
  9
$CHAMFERB
 40
0.0
  9
$CHAMFERC
 40
0.0
  9
$CHAMFERD
 40
0.0
  9
$SKPOLY
 70
     0
  9
$TDCREATE
 40
2454753.396523252
  9
$TDUCREATE
 40
2454753.313189919
  9
$TDUPDATE
 40
2454753.399234294
  9
$TDUUPDATE
 40
2454753.315900960
  9
$TDINDWG
 40
0.0027110417
  9
$TDUSRTIMER
 40
0.0027110417
  9
$USRTIMER
 70
     1
  9
$ANGBASE
 50
0.0
  9
$ANGDIR
 70
     0
  9
$PDMODE
 70
     0
  9
$PDSIZE
 40
0.0
  9
$PLINEWID
 40
0.0
  9
$SPLFRAME
 70
     0
  9
$SPLINETYPE
 70
     6
  9
$SPLINESEGS
 70
     8
  9
$HANDSEED
  5
27F
  9
$SURFTAB1
 70
     6
  9
$SURFTAB2
 70
     6
  9
$SURFTYPE
 70
     6
  9
$SURFU
 70
     6
  9
$SURFV
 70
     6
  9
$UCSBASE
  2

  9
$UCSNAME
  2

  9
$UCSORG
 10
0.0
 20
0.0
 30
0.0
  9
$UCSXDIR
 10
1.0
 20
0.0
 30
0.0
  9
$UCSYDIR
 10
0.0
 20
1.0
 30
0.0
  9
$UCSORTHOREF
  2

  9
$UCSORTHOVIEW
 70
     1
  9
$UCSORGTOP
 10
0.0
 20
0.0
 30
0.0
  9
$UCSORGBOTTOM
 10
0.0
 20
0.0
 30
0.0
  9
$UCSORGLEFT
 10
0.0
 20
0.0
 30
0.0
  9
$UCSORGRIGHT
 10
0.0
 20
0.0
 30
0.0
  9
$UCSORGFRONT
 10
0.0
 20
0.0
 30
0.0
  9
$UCSORGBACK
 10
0.0
 20
0.0
 30
0.0
  9
$PUCSBASE
  2

  9
$PUCSNAME
  2

  9
$PUCSORG
 10
0.0
 20
0.0
 30
0.0
  9
$PUCSXDIR
 10
1.0
 20
0.0
 30
0.0
  9
$PUCSYDIR
 10
0.0
 20
1.0
 30
0.0
  9
$PUCSORTHOREF
  2

  9
$PUCSORTHOVIEW
 70
     0
  9
$PUCSORGTOP
 10
0.0
 20
0.0
 30
0.0
  9
$PUCSORGBOTTOM
 10
0.0
 20
0.0
 30
0.0
  9
$PUCSORGLEFT
 10
0.0
 20
0.0
 30
0.0
  9
$PUCSORGRIGHT
 10
0.0
 20
0.0
 30
0.0
  9
$PUCSORGFRONT
 10
0.0
 20
0.0
 30
0.0
  9
$PUCSORGBACK
 10
0.0
 20
0.0
 30
0.0
  9
$USERI1
 70
     0
  9
$USERI2
 70
     0
  9
$USERI3
 70
     0
  9
$USERI4
 70
     0
  9
$USERI5
 70
     0
  9
$USERR1
 40
0.0
  9
$USERR2
 40
0.0
  9
$USERR3
 40
0.0
  9
$USERR4
 40
0.0
  9
$USERR5
 40
0.0
  9
$WORLDVIEW
 70
     1
  9
$SHADEDGE
 70
     3
  9
$SHADEDIF
 70
    70
  9
$TILEMODE
 70
     1
  9
$MAXACTVP
 70
    64
  9
$PINSBASE
 10
0.0
 20
0.0
 30
0.0
  9
$PLIMCHECK
 70
     0
  9
$PEXTMIN
 10
1.000000000000000E+20
 20
1.000000000000000E+20
 30
1.000000000000000E+20
  9
$PEXTMAX
 10
-1.000000000000000E+20
 20
-1.000000000000000E+20
 30
-1.000000000000000E+20
  9
$PLIMMIN
 10
0.0
 20
0.0
  9
$PLIMMAX
 10
12.0
 20
9.0
  9
$UNITMODE
 70
     0
  9
$VISRETAIN
 70
     1
  9
$PLINEGEN
 70
     0
  9
$PSLTSCALE
 70
     1
  9
$TREEDEPTH
 70
  3020
  9
$CMLSTYLE
  2
Standard
  9
$CMLJUST
 70
     0
  9
$CMLSCALE
 40
1.0
  9
$PROXYGRAPHICS
 70
     1
  9
$MEASUREMENT
 70
     0
  9
$CELWEIGHT
370
    -1
  9
$ENDCAPS
280
     0
  9
$JOINSTYLE
280
     0
  9
$LWDISPLAY
290
     0
  9
$INSUNITS
 70
     0
  9
$HYPERLINKBASE
  1

  9
$STYLESHEET
  1

  9
$XEDIT
290
     1
  9
$CEPSNTYPE
380
     0
  9
$PSTYLEMODE
290
     1
  9
$FINGERPRINTGUID
  2
{68044D1E-9094-4365-8938-2981FE914165}
  9
$VERSIONGUID
  2
{CE30194C-50C9-453F-A866-67B72AA14D96}
  9
$EXTNAMES
290
     1
  9
$PSVPSCALE
 40
0.0
  9
$OLESTARTUP
290
     0
  0
ENDSEC
  0
SECTION
  2
CLASSES
  0
CLASS
  1
ACDBDICTIONARYWDFLT
  2
AcDbDictionaryWithDefault
  3
AutoCAD 2000
 90
        0
280
     0
281
     0
  0
CLASS
  1
ACDBPLACEHOLDER
  2
AcDbPlaceHolder
  3
AutoCAD 2000
 90
        0
280
     0
281
     0
  0
CLASS
  1
LAYOUT
  2
AcDbLayout
  3
AutoCAD 2000
 90
        0
280
     0
281
     0
  0
CLASS
  1
DICTIONARYVAR
  2
AcDbDictionaryVar
  3
AutoCAD 2000
 90
        0
280
     0
281
     0
  0
ENDSEC
  0
SECTION
  2
TABLES
  0
TABLE
  2
VPORT
  5
8
330
0
100
AcDbSymbolTable
 70
     2
  0
VPORT
  5
27E
330
8
100
AcDbSymbolTableRecord
100
AcDbViewportTableRecord
  2
*Active
 70
     0
 10
0.0
 20
0.0
 11
1.0
 21
1.0
 12
131.4999999999999
 22
77.5
 13
0.0
 23
0.0
 14
1.0
 24
1.0
 15
0.0
 25
0.0
 16
0.0
 26
0.0
 36
1.0
 17
0.0
 27
0.0
 37
0.0
 40
156.0683375959079
 41
2.078104993597951
 42
50.0
 43
0.0
 44
0.0
 50
0.0
 51
0.0
 71
     0
 72
   100
 73
     1
 74
     3
 75
     0
 76
     0
 77
     0
 78
     0
281
     0
 65
     1
110
0.0
120
0.0
130
0.0
111
1.0
121
0.0
131
0.0
112
0.0
122
1.0
132
0.0
 79
     1
146
0.0
  0
ENDTAB
  0
TABLE
  2
LTYPE
  5
5
330
0
100
AcDbSymbolTable
 70
     1
  0
LTYPE
  5
13
330
5
100
AcDbSymbolTableRecord
100
AcDbLinetypeTableRecord
  2
ByBlock
 70
     0
  3

 72
    65
 73
     0
 40
0.0
  0
LTYPE
  5
14
330
5
100
AcDbSymbolTableRecord
100
AcDbLinetypeTableRecord
  2
ByLayer
 70
     0
  3

 72
    65
 73
     0
 40
0.0
  0
LTYPE
  5
15
330
5
100
AcDbSymbolTableRecord
100
AcDbLinetypeTableRecord
  2
Continuous
 70
     0
  3
Solid line
 72
    65
 73
     0
 40
0.0
  0
ENDTAB
  0
TABLE
  2
LAYER
  5
2
330
0
100
AcDbSymbolTable
 70
     1
  0
LAYER
  5
10
330
2
100
AcDbSymbolTableRecord
100
AcDbLayerTableRecord
  2
0
 70
     0
 62
     7
  6
Continuous
370
    -3
390
F
  0
ENDTAB
  0
TABLE
  2
STYLE
  5
3
330
0
100
AcDbSymbolTable
 70
     1
  0
STYLE
  5
11
330
3
100
AcDbSymbolTableRecord
100
AcDbTextStyleTableRecord
  2
Standard
 70
     0
 40
0.0
 41
1.0
 50
0.0
 71
     0
 42
0.2
  3
txt
  4

  0
ENDTAB
  0
TABLE
  2
VIEW
  5
6
330
0
100
AcDbSymbolTable
 70
     0
  0
ENDTAB
  0
TABLE
  2
UCS
  5
7
330
0
100
AcDbSymbolTable
 70
     0
  0
ENDTAB
  0
TABLE
  2
APPID
  5
9
330
0
100
AcDbSymbolTable
 70
     1
  0
APPID
  5
12
330
9
100
AcDbSymbolTableRecord
100
AcDbRegAppTableRecord
  2
ACAD
 70
     0
  0
ENDTAB
  0
TABLE
  2
DIMSTYLE
  5
A
330
0
100
AcDbSymbolTable
 70
     1
100
AcDbDimStyleTable
 71
     0
  0
DIMSTYLE
105
275
330
A
100
AcDbSymbolTableRecord
100
AcDbDimStyleTableRecord
  2
Standard
 70
     0
340
11
  0
ENDTAB
  0
TABLE
  2
BLOCK_RECORD
  5
1
330
0
100
AcDbSymbolTable
 70
     0
  0
BLOCK_RECORD
  5
1E
330
1
100
AcDbSymbolTableRecord
100
AcDbBlockTableRecord
  2
*Model_Space
340
21
  0
BLOCK_RECORD
  5
1A
330
1
100
AcDbSymbolTableRecord
100
AcDbBlockTableRecord
  2
*Paper_Space
340
1D
  0
ENDTAB
  0
ENDSEC
  0
SECTION
  2
BLOCKS
  0
BLOCK
  5
1F
330
1E
100
AcDbEntity
  8
0
100
AcDbBlockBegin
  2
*Model_Space
 70
     0
 10
0.0
 20
0.0
 30
0.0
  3
*Model_Space
  1

  0
ENDBLK
  5
20
330
1E
100
AcDbEntity
  8
0
100
AcDbBlockEnd
  0
BLOCK
  5
1B
330
1A
100
AcDbEntity
 67
     1
  8
0
100
AcDbBlockBegin
  2
*Paper_Space
 70
     0
 10
0.0
 20
0.0
 30
0.0
  3
*Paper_Space
  1

  0
ENDBLK
  5
1C
330
1A
100
AcDbEntity
 67
     1
  8
0
100
AcDbBlockEnd
  0
ENDSEC
  0
SECTION
  2
ENTITIES
  0
LINE
  5
22
330
1E
100
AcDbEntity
  8
0
100
AcDbLine
 10
53.79137
 20
62.57699999999999
 30
0.0
 11
54.29136999999999
 21
62.277
 31
0.0
  0
LINE
  5
23
330
1E
100
AcDbEntity
  8
0
100
AcDbLine
 10
53.69136999999999
 20
64.977
 30
0.0
 11
55.19136999999999
 21
64.077
 31
0.0
  0
LINE
  5
24
330
1E
100
AcDbEntity
  8
0
100
AcDbLine
 10
55.34186999999999
 20
58.3613
 30
0.0
 11
56.38106999999999
 21
57.7613
 31
0.0
  0
LINE
  5
25
330
1E
100
AcDbEntity
  8
0
100
AcDbLine
 10
54.90886999999999
 20
58.6113
 30
0.0
 11
55.64086999999999
 21
55.8793
 31
0.0
  0
LINE
  5
26
330
1E
100
AcDbEntity
  8
0
100
AcDbLine
 10
54.90886999999999
 20
58.6113
 30
0.0
 11
56.3415934658735
 21
61.0927770428929
 31
0.0
  0
LINE
  5
27
330
1E
100
AcDbEntity
  8
0
100
AcDbLine
 10
54.90886999999999
 20
58.6113
 30
0.0
 11
55.34186999999999
 21
58.3613
 31
0.0
  0
LINE
  5
28
330
1E
100
AcDbEntity
  8
0
100
AcDbLine
 10
55.64086999999999
 20
55.8793
 30
0.0
 11
55.98727
 21
55.6793
 31
0.0
  0
LINE
  5
29
330
1E
100
AcDbEntity
  8
0
100
AcDbLine
 10
55.69136999999999
 20
61.477
 30
0.0
 11
57.89137
 21
60.177
 31
0.0
  0
LINE
  5
2A
330
1E
100
AcDbEntity
  8
0
100
AcDbLine
 10
55.19136999999999
 20
64.077
 30
0.0
 11
57.69136999999999
 21
62.677
 31
0.0
  0
LINE
  5
2B
330
1E
100
AcDbEntity
  8
0
100
AcDbLine
 10
54.29136999999999
 20
62.277
 30
0.0
 11
55.96636999999979
 21
61.3145000000001
 31
0.0
  0
LINE
  5
2C
330
1E
100
AcDbEntity
  8
0
100
AcDbLine
 10
54.29136999999999
 20
62.277
 30
0.0
 11
55.69136999999999
 21
61.477
 31
0.0
  0
LINE
  5
2D
330
1E
100
AcDbEntity
  8
0
100
AcDbLine
 10
53.09136999999999
 20
65.277
 30
0.0
 11
53.79137
 21
62.57699999999999
 31
0.0
  0
LINE
  5
2E
330
1E
100
AcDbEntity
  8
0
100
AcDbLine
 10
53.09136999999999
 20
65.277
 30
0.0
 11
58.10627
 21
71.64799999999999
 31
0.0
  0
LINE
  5
2F
330
1E
100
AcDbEntity
  8
0
100
AcDbLine
 10
53.09136999999999
 20
65.277
 30
0.0
 11
53.69136999999999
 21
64.977
 31
0.0
  0
LINE
  5
30
330
1E
100
AcDbEntity
  8
0
100
AcDbLine
 10
56.38106999999999
 20
57.7613
 30
0.0
 11
58.19976999999999
 21
56.7113
 31
0.0
  0
LINE
  5
31
330
1E
100
AcDbEntity
  8
0
100
AcDbLine
 10
55.98727
 20
55.6793
 30
0.0
 11
56.93996999999999
 21
55.1293
 31
0.0
  0
LINE
  5
32
330
1E
100
AcDbEntity
  8
0
100
AcDbLine
 10
56.93996999999999
 20
55.1293
 30
0.0
 11
58.41217
 21
54.27929999999999
 31
0.0
  0
LINE
  5
33
330
1E
100
AcDbEntity
  8
0
100
AcDbLine
 10
58.19976999999999
 20
56.7113
 30
0.0
 11
60.53806999999999
 21
55.36129999999999
 31
0.0
  0
LINE
  5
34
330
1E
100
AcDbEntity
  8
0
100
AcDbLine
 10
58.41217
 20
54.27929999999999
 30
0.0
 11
60.40407
 21
53.1293
 31
0.0
  0
LINE
  5
35
330
1E
100
AcDbEntity
  8
0
100
AcDbLine
 10
57.89137
 20
60.177
 30
0.0
 11
59.73980560174279
 21
59.1207510847184
 31
0.0
  0
LINE
  5
36
330
1E
100
AcDbEntity
  8
0
100
AcDbLine
 10
57.89137
 20
60.177
 30
0.0
 11
60.79136999999999
 21
58.577
 31
0.0
  0
LINE
  5
37
330
1E
100
AcDbEntity
  8
0
100
AcDbLine
 10
57.69136999999999
 20
62.677
 30
0.0
 11
60.89137
 21
60.777
 31
0.0
  0
LINE
  5
38
330
1E
100
AcDbEntity
  8
0
100
AcDbLine
 10
58.10627
 20
71.64799999999999
 30
0.0
 11
69.74006999999999
 21
81.9951
 31
0.0
  0
LINE
  5
39
330
1E
100
AcDbEntity
  8
0
100
AcDbLine
 10
55.96636999999979
 20
61.3145000000001
 30
0.0
 11
56.3415934658735
 21
61.0927770428929
 31
0.0
  0
LINE
  5
3E
330
1E
100
AcDbEntity
  8
0
100
AcDbLine
 10
1.44171
 20
130.9509999999999
 30
0.0
 11
4.960670000000009
 21
129.8079999999999
 31
0.0
  0
LINE
  5
3F
330
1E
100
AcDbEntity
  8
0
100
AcDbLine
 10
0.205330000000006
 20
131.3529999999999
 30
0.0
 11
1.44171
 21
130.9509999999999
 31
0.0
  0
LINE
  5
40
330
1E
100
AcDbEntity
  8
0
100
AcDbLine
 10
0.205330000000006
 20
131.3529999999999
 30
0.0
 11
0.7993800000000051
 21
136.417
 31
0.0
  0
LINE
  5
41
330
1E
100
AcDbEntity
  8
0
100
AcDbLine
 10
0.205330000000006
 20
131.3529999999999
 30
0.0
 11
6.601669999999999
 21
121.914
 31
0.0
  0
LINE
  5
42
330
1E
100
AcDbEntity
  8
0
100
AcDbLine
 10
0.205330000000006
 20
131.3529999999999
 30
0.0
 11
0.7993800000000051
 21
136.417
 31
0.0
  0
LINE
  5
43
330
1E
100
AcDbEntity
  8
0
100
AcDbLine
 10
0.205330000000006
 20
131.3529999999999
 30
0.0
 11
1.44171
 21
130.9509999999999
 31
0.0
  0
LINE
  5
44
330
1E
100
AcDbEntity
  8
0
100
AcDbLine
 10
1.44171000000001
 20
130.9509999999999
 30
0.0
 11
4.960670000000009
 21
129.8079999999999
 31
0.0
  0
LINE
  5
45
330
1E
100
AcDbEntity
  8
0
100
AcDbLine
 10
4.960670000000009
 20
129.8079999999999
 30
0.0
 11
10.57187
 21
127.9849999999999
 31
0.0
  0
LINE
  5
46
330
1E
100
AcDbEntity
  8
0
100
AcDbLine
 10
6.601669999999999
 20
121.914
 30
0.0
 11
15.67287
 21
114.2349999999999
 31
0.0
  0
LINE
  5
47
330
1E
100
AcDbEntity
  8
0
100
AcDbLine
 10
10.57187
 20
127.9849999999999
 30
0.0
 11
17.89497
 21
125.605
 31
0.0
  0
LINE
  5
48
330
1E
100
AcDbEntity
  8
0
100
AcDbLine
 10
6.601669999999999
 20
121.914
 30
0.0
 11
15.67287
 21
114.2349999999999
 31
0.0
  0
LINE
  5
49
330
1E
100
AcDbEntity
  8
0
100
AcDbLine
 10
0.7993800000000051
 20
136.417
 30
0.0
 11
2.344370000000009
 21
141.173
 31
0.0
  0
LINE
  5
4A
330
1E
100
AcDbEntity
  8
0
100
AcDbLine
 10
0.7993800000000051
 20
136.417
 30
0.0
 11
4.032969999999999
 21
135.366
 31
0.0
  0
LINE
  5
4B
330
1E
100
AcDbEntity
  8
0
100
AcDbLine
 10
2.34437
 20
141.173
 30
0.0
 11
8.026470000000008
 21
146.686
 31
0.0
  0
LINE
  5
4C
330
1E
100
AcDbEntity
  8
0
100
AcDbLine
 10
4.032969999999999
 20
135.366
 30
0.0
 11
10.11976999999999
 21
133.388
 31
0.0
  0
LINE
  5
4D
330
1E
100
AcDbEntity
  8
0
100
AcDbLine
 10
4.032969999999999
 20
135.366
 30
0.0
 11
10.11976999999999
 21
133.388
 31
0.0
  0
LINE
  5
4E
330
1E
100
AcDbEntity
  8
0
100
AcDbLine
 10
10.11976999999999
 20
133.388
 30
0.0
 11
18.01347
 21
130.8239999999999
 31
0.0
  0
LINE
  5
4F
330
1E
100
AcDbEntity
  8
0
100
AcDbLine
 10
3.675970000000009
 20
140.74
 30
0.0
 11
7.194870000000009
 21
139.596
 31
0.0
  0
LINE
  5
50
330
1E
100
AcDbEntity
  8
0
100
AcDbLine
 10
7.194870000000009
 20
139.596
 30
0.0
 11
12.99636999999999
 21
137.711
 31
0.0
  0
LINE
  5
51
330
1E
100
AcDbEntity
  8
0
100
AcDbLine
 10
12.99636999999999
 20
137.711
 30
0.0
 11
20.50966999999999
 21
135.27
 31
0.0
  0
LINE
  5
52
330
1E
100
AcDbEntity
  8
0
100
AcDbLine
 10
2.344370000000009
 20
141.173
 30
0.0
 11
8.026470000000008
 21
146.686
 31
0.0
  0
LINE
  5
53
330
1E
100
AcDbEntity
  8
0
100
AcDbLine
 10
2.344370000000009
 20
141.173
 30
0.0
 11
3.675970000000009
 21
140.74
 31
0.0
  0
LINE
  5
54
330
1E
100
AcDbEntity
  8
0
100
AcDbLine
 10
8.026470000000008
 20
146.686
 30
0.0
 11
15.51557
 21
151.6129999999999
 31
0.0
  0
LINE
  5
55
330
1E
100
AcDbEntity
  8
0
100
AcDbLine
 10
15.51557
 20
151.6129999999999
 30
0.0
 11
24.69287
 21
154.94
 31
0.0
  0
LINE
  5
56
330
1E
100
AcDbEntity
  8
0
100
AcDbLine
 10
0.205330000000006
 20
131.3529999999999
 30
0.0
 11
6.601669999999999
 21
121.914
 31
0.0
  0
LINE
  5
57
330
1E
100
AcDbEntity
  8
0
100
AcDbLine
 10
25.51647
 20
108.9339999999999
 30
0.0
 11
25.70657
 21
108.872
 31
0.0
  0
LINE
  5
58
330
1E
100
AcDbEntity
  8
0
100
AcDbLine
 10
18.01347
 20
130.8239999999999
 30
0.0
 11
49.20817
 21
120.6879999999999
 31
0.0
  0
LINE
  5
59
330
1E
100
AcDbEntity
  8
0
100
AcDbLine
 10
20.50966999999999
 20
135.27
 30
0.0
 11
29.16427
 21
132.458
 31
0.0
  0
LINE
  5
5A
330
1E
100
AcDbEntity
  8
0
100
AcDbLine
 10
24.69287
 20
154.94
 30
0.0
 11
42.56027
 21
154.9189999999999
 31
0.0
  0
LINE
  5
5B
330
1E
100
AcDbEntity
  8
0
100
AcDbLine
 10
17.89497
 20
125.605
 30
0.0
 11
26.26437
 21
122.8849999999999
 31
0.0
  0
LINE
  5
5C
330
1E
100
AcDbEntity
  8
0
100
AcDbLine
 10
29.16427
 20
132.458
 30
0.0
 11
38.48467
 21
129.4299999999999
 31
0.0
  0
LINE
  5
5D
330
1E
100
AcDbEntity
  8
0
100
AcDbLine
 10
26.26437
 20
122.8849999999999
 30
0.0
 11
35.39447
 21
119.9189999999999
 31
0.0
  0
LINE
  5
5E
330
1E
100
AcDbEntity
  8
0
100
AcDbLine
 10
35.39447
 20
119.9189999999999
 30
0.0
 11
44.52467
 21
116.952
 31
0.0
  0
LINE
  5
5F
330
1E
100
AcDbEntity
  8
0
100
AcDbLine
 10
15.67287
 20
114.2349999999999
 30
0.0
 11
25.51647
 21
108.9339999999999
 31
0.0
  0
LINE
  5
61
330
1E
100
AcDbEntity
  8
0
100
AcDbLine
 10
38.48467
 20
129.4299999999999
 30
0.0
 11
47.80497
 21
126.401
 31
0.0
  0
LINE
  5
62
330
1E
100
AcDbEntity
  8
0
100
AcDbLine
 10
42.56027
 20
154.9189999999999
 30
0.0
 11
46.51907
 21
154.157
 31
0.0
  0
LINE
  5
63
330
1E
100
AcDbEntity
  8
0
100
AcDbLine
 10
55.86566999999999
 20
118.525
 30
0.0
 11
63.75937
 21
115.9599999999999
 31
0.0
  0
LINE
  5
64
330
1E
100
AcDbEntity
  8
0
100
AcDbLine
 10
49.20817
 20
120.6879999999999
 30
0.0
 11
55.86566999999999
 21
118.525
 31
0.0
  0
LINE
  5
65
330
1E
100
AcDbEntity
  8
0
100
AcDbLine
 10
56.45966999999999
 20
123.5899999999999
 30
0.0
 11
63.97297
 21
121.1479999999999
 31
0.0
  0
LINE
  5
66
330
1E
100
AcDbEntity
  8
0
100
AcDbLine
 10
47.80497
 20
126.401
 30
0.0
 11
56.45966999999999
 21
123.5899999999999
 31
0.0
  0
LINE
  5
67
330
1E
100
AcDbEntity
  8
0
100
AcDbLine
 10
50.16887
 20
152.4459999999999
 30
0.0
 11
64.47067
 21
143.067
 31
0.0
  0
LINE
  5
68
330
1E
100
AcDbEntity
  8
0
100
AcDbLine
 10
46.51907
 20
154.157
 30
0.0
 11
50.16887
 21
152.4459999999999
 31
0.0
  0
LINE
  5
69
330
1E
100
AcDbEntity
  8
0
100
AcDbLine
 10
52.89386999999999
 20
114.2329999999999
 30
0.0
 11
60.21696999999999
 21
111.854
 31
0.0
  0
LINE
  5
6A
330
1E
100
AcDbEntity
  8
0
100
AcDbLine
 10
44.52467
 20
116.952
 30
0.0
 11
52.89386999999999
 21
114.2329999999999
 31
0.0
  0
LINE
  5
6B
330
1E
100
AcDbEntity
  8
0
100
AcDbLine
 10
36.92907
 20
105.2259999999999
 30
0.0
 11
48.00867
 21
103.7279999999999
 31
0.0
  0
LINE
  5
6C
330
1E
100
AcDbEntity
  8
0
100
AcDbLine
 10
36.73887
 20
105.2869999999999
 30
0.0
 11
36.92907
 21
105.2259999999999
 31
0.0
  0
LINE
  5
6D
330
1E
100
AcDbEntity
  8
0
100
AcDbLine
 10
48.00867
 20
103.7279999999999
 30
0.0
 11
59.86097
 21
104.61
 31
0.0
  0
LINE
  5
6E
330
1E
100
AcDbEntity
  8
0
100
AcDbLine
 10
60.53806999999999
 20
55.36129999999999
 30
0.0
 11
63.22267
 21
53.8113
 31
0.0
  0
LINE
  5
6F
330
1E
100
AcDbEntity
  8
0
100
AcDbLine
 10
60.40407
 20
53.1293
 30
0.0
 11
62.74226999999999
 21
51.77929999999999
 31
0.0
  0
LINE
  5
70
330
1E
100
AcDbEntity
  8
0
100
AcDbLine
 10
63.22267
 20
53.8113
 30
0.0
 11
66.16717
 21
52.1113
 31
0.0
  0
LINE
  5
71
330
1E
100
AcDbEntity
  8
0
100
AcDbLine
 10
62.74226999999999
 20
51.77929999999999
 30
0.0
 11
65.16716999999999
 21
50.3793
 31
0.0
  0
LINE
  5
72
330
1E
100
AcDbEntity
  8
0
100
AcDbLine
 10
65.16716999999999
 20
50.3793
 30
0.0
 11
67.59206999999999
 21
48.9793
 31
0.0
  0
LINE
  5
73
330
1E
100
AcDbEntity
  8
0
100
AcDbLine
 10
64.09137
 20
56.577
 30
0.0
 11
67.69136999999999
 21
54.57699999999999
 31
0.0
  0
LINE
  5
74
330
1E
100
AcDbEntity
  8
0
100
AcDbLine
 10
60.79136999999999
 20
58.577
 30
0.0
 11
64.09137
 21
56.577
 31
0.0
  0
LINE
  5
75
330
1E
100
AcDbEntity
  8
0
100
AcDbLine
 10
60.89137
 20
60.777
 30
0.0
 11
64.69136999999999
 21
58.577
 31
0.0
  0
LINE
  5
76
330
1E
100
AcDbEntity
  8
0
100
AcDbLine
 10
64.69136999999999
 20
58.577
 30
0.0
 11
68.69136999999999
 21
56.277
 31
0.0
  0
LINE
  5
77
330
1E
100
AcDbEntity
  8
0
100
AcDbLine
 10
74.69346999999999
 20
44.8793
 30
0.0
 11
77.42546999999999
 21
45.6113
 31
0.0
  0
LINE
  5
78
330
1E
100
AcDbEntity
  8
0
100
AcDbLine
 10
76.99246999999999
 20
45.86129999999999
 30
0.0
 11
77.42546999999999
 21
45.6113
 31
0.0
  0
LINE
  5
79
330
1E
100
AcDbEntity
  8
0
100
AcDbLine
 10
75.95326999999999
 20
46.4613
 30
0.0
 11
76.99246999999999
 21
45.86129999999999
 31
0.0
  0
LINE
  5
7A
330
1E
100
AcDbEntity
  8
0
100
AcDbLine
 10
77.42546999999999
 20
45.6113
 30
0.0
 11
78.84534114886259
 21
48.0705168298301
 31
0.0
  0
LINE
  5
7B
330
1E
100
AcDbEntity
  8
0
100
AcDbLine
 10
74.34707
 20
45.0793
 30
0.0
 11
74.69346999999999
 21
44.8793
 31
0.0
  0
LINE
  5
7C
330
1E
100
AcDbEntity
  8
0
100
AcDbLine
 10
73.39437
 20
45.6293
 30
0.0
 11
74.34707
 21
45.0793
 31
0.0
  0
LINE
  5
7D
330
1E
100
AcDbEntity
  8
0
100
AcDbLine
 10
71.92216999999999
 20
46.4793
 30
0.0
 11
73.39437
 21
45.6293
 31
0.0
  0
LINE
  5
7E
330
1E
100
AcDbEntity
  8
0
100
AcDbLine
 10
199.29467
 20
0.0599999999999898
 30
0.0
 11
200.2946699999999
 21
0.0599999999999897
 31
0.0
  0
LINE
  5
7F
330
1E
100
AcDbEntity
  8
0
100
AcDbLine
 10
208.9386699999999
 20
0.0599999999999892
 30
0.0
 11
217.57867
 21
0.0599999999999886
 31
0.0
  0
LINE
  5
80
330
1E
100
AcDbEntity
  8
0
100
AcDbLine
 10
201.3066699999999
 20
0.0599999999999896
 30
0.0
 11
208.9386699999999
 21
0.0599999999999892
 31
0.0
  0
LINE
  5
81
330
1E
100
AcDbEntity
  8
0
100
AcDbLine
 10
207.39467
 20
0.0599999999999893
 30
0.0
 11
208.9386699999999
 21
0.0599999999999892
 31
0.0
  0
LINE
  5
82
330
1E
100
AcDbEntity
  8
0
100
AcDbLine
 10
200.2946699999999
 20
0.0599999999999897
 30
0.0
 11
203.4246699999999
 21
0.0599999999999895
 31
0.0
  0
LINE
  5
83
330
1E
100
AcDbEntity
  8
0
100
AcDbLine
 10
200.2946699999999
 20
0.0599999999999897
 30
0.0
 11
201.3066699999999
 21
0.0599999999999896
 31
0.0
  0
LINE
  5
85
330
1E
100
AcDbEntity
  8
0
100
AcDbLine
 10
181.59167
 20
42.4662
 30
0.0
 11
182.9946699999999
 21
41.65999999999999
 31
0.0
  0
LINE
  5
87
330
1E
100
AcDbEntity
  8
0
100
AcDbLine
 10
181.16567
 20
44.62559999999999
 30
0.0
 11
181.4681112053809
 21
44.75629126026439
 31
0.0
  0
LINE
  5
88
330
1E
100
AcDbEntity
  8
0
100
AcDbLine
 10
179.2566699999999
 20
46.4611
 30
0.0
 11
181.16567
 21
44.62559999999999
 31
0.0
  0
LINE
  5
8A
330
1E
100
AcDbEntity
  8
0
100
AcDbLine
 10
181.07667
 20
43.2567
 30
0.0
 11
181.17067
 21
44.6458
 31
0.0
  0
LINE
  5
8B
330
1E
100
AcDbEntity
  8
0
100
AcDbLine
 10
181.07667
 20
43.2567
 30
0.0
 11
181.59167
 21
42.4662
 31
0.0
  0
LINE
  5
94
330
1E
100
AcDbEntity
  8
0
100
AcDbLine
 10
182.09467
 20
40.96
 30
0.0
 11
182.9946699999999
 21
41.65999999999999
 31
0.0
  0
LINE
  5
95
330
1E
100
AcDbEntity
  8
0
100
AcDbLine
 10
181.79467
 20
40.65999999999999
 30
0.0
 11
202.09467
 21
16.46
 31
0.0
  0
LINE
  5
96
330
1E
100
AcDbEntity
  8
0
100
AcDbLine
 10
181.79467
 20
40.65999999999999
 30
0.0
 11
182.09467
 21
40.96
 31
0.0
  0
LINE
  5
97
330
1E
100
AcDbEntity
  8
0
100
AcDbLine
 10
181.79467
 20
40.65999999999999
 30
0.0
 11
202.09467
 21
16.46
 31
0.0
  0
LINE
  5
98
330
1E
100
AcDbEntity
  8
0
100
AcDbLine
 10
195.54667
 20
1.05999999999999
 30
0.0
 11
201.3066699999999
 21
1.05999999999999
 31
0.0
  0
LINE
  5
99
330
1E
100
AcDbEntity
  8
0
100
AcDbLine
 10
190.79467
 20
0.0599999999999903
 30
0.0
 11
190.79467
 21
1.05999999999999
 31
0.0
  0
LINE
  5
9A
330
1E
100
AcDbEntity
  8
0
100
AcDbLine
 10
190.79467
 20
0.0599999999999903
 30
0.0
 11
192.0906699999999
 21
0.0599999999999902
 31
0.0
  0
LINE
  5
9B
330
1E
100
AcDbEntity
  8
0
100
AcDbLine
 10
192.0906699999999
 20
0.0599999999999902
 30
0.0
 11
195.54667
 21
0.05999999999999
 31
0.0
  0
LINE
  5
9C
330
1E
100
AcDbEntity
  8
0
100
AcDbLine
 10
201.3066699999999
 20
1.05999999999999
 30
0.0
 11
208.9386699999999
 21
1.05999999999999
 31
0.0
  0
LINE
  5
9D
330
1E
100
AcDbEntity
  8
0
100
AcDbLine
 10
195.54667
 20
0.05999999999999
 30
0.0
 11
201.3066699999999
 21
0.0599999999999896
 31
0.0
  0
LINE
  5
9E
330
1E
100
AcDbEntity
  8
0
100
AcDbLine
 10
190.79467
 20
1.05999999999999
 30
0.0
 11
190.79467
 21
0.0599999999999902
 31
0.0
  0
LINE
  5
9F
330
1E
100
AcDbEntity
  8
0
100
AcDbLine
 10
190.79467
 20
1.05999999999999
 30
0.0
 11
192.0906699999999
 21
1.05999999999999
 31
0.0
  0
LINE
  5
A0
330
1E
100
AcDbEntity
  8
0
100
AcDbLine
 10
192.0906699999999
 20
1.05999999999999
 30
0.0
 11
195.54667
 21
1.05999999999999
 31
0.0
  0
LINE
  5
A1
330
1E
100
AcDbEntity
  8
0
100
AcDbLine
 10
191.7946699999999
 20
1.05999999999999
 30
0.0
 11
191.7946699999999
 21
9.059999999999989
 31
0.0
  0
LINE
  5
A2
330
1E
100
AcDbEntity
  8
0
100
AcDbLine
 10
191.7946699999999
 20
1.05999999999999
 30
0.0
 11
191.7946699999999
 21
9.059999999999989
 31
0.0
  0
LINE
  5
A3
330
1E
100
AcDbEntity
  8
0
100
AcDbLine
 10
193.0946699999999
 20
1.05999999999999
 30
0.0
 11
196.4946699999999
 21
1.05999999999999
 31
0.0
  0
LINE
  5
A4
330
1E
100
AcDbEntity
  8
0
100
AcDbLine
 10
196.4946699999999
 20
1.05999999999999
 30
0.0
 11
201.3066699999999
 21
1.05999999999999
 31
0.0
  0
LINE
  5
A5
330
1E
100
AcDbEntity
  8
0
100
AcDbLine
 10
208.9386699999999
 20
1.05999999999999
 30
0.0
 11
217.57867
 21
1.05999999999999
 31
0.0
  0
LINE
  5
A6
330
1E
100
AcDbEntity
  8
0
100
AcDbLine
 10
202.09467
 20
1.05999999999999
 30
0.0
 11
209.39467
 21
1.05999999999999
 31
0.0
  0
LINE
  5
A7
330
1E
100
AcDbEntity
  8
0
100
AcDbLine
 10
202.09467
 20
9.059999999999989
 30
0.0
 11
209.39467
 21
9.059999999999989
 31
0.0
  0
LINE
  5
A8
330
1E
100
AcDbEntity
  8
0
100
AcDbLine
 10
209.39467
 20
1.05999999999999
 30
0.0
 11
217.79467
 21
1.05999999999999
 31
0.0
  0
LINE
  5
A9
330
1E
100
AcDbEntity
  8
0
100
AcDbLine
 10
191.7946699999999
 20
9.059999999999989
 30
0.0
 11
193.0946699999999
 21
9.059999999999989
 31
0.0
  0
LINE
  5
AA
330
1E
100
AcDbEntity
  8
0
100
AcDbLine
 10
191.7946699999999
 20
9.059999999999989
 30
0.0
 11
193.7946699999999
 21
11.06
 31
0.0
  0
LINE
  5
B6
330
1E
100
AcDbEntity
  8
0
100
AcDbLine
 10
193.7946699999999
 20
11.06
 30
0.0
 11
194.9946699999999
 21
11.06
 31
0.0
  0
LINE
  5
B7
330
1E
100
AcDbEntity
  8
0
100
AcDbLine
 10
194.9946699999999
 20
11.06
 30
0.0
 11
198.19467
 21
11.06
 31
0.0
  0
LINE
  5
B8
330
1E
100
AcDbEntity
  8
0
100
AcDbLine
 10
193.0946699999999
 20
9.059999999999989
 30
0.0
 11
196.4946699999999
 21
9.059999999999989
 31
0.0
  0
LINE
  5
B9
330
1E
100
AcDbEntity
  8
0
100
AcDbLine
 10
199.7946699999999
 20
11.06
 30
0.0
 11
202.09467
 21
16.46
 31
0.0
  0
LINE
  5
BA
330
1E
100
AcDbEntity
  8
0
100
AcDbLine
 10
198.19467
 20
11.06
 30
0.0
 11
203.4946699999999
 21
11.06
 31
0.0
  0
LINE
  5
BB
330
1E
100
AcDbEntity
  8
0
100
AcDbLine
 10
203.4946699999999
 20
11.06
 30
0.0
 11
210.39467
 21
11.06
 31
0.0
  0
LINE
  5
BC
330
1E
100
AcDbEntity
  8
0
100
AcDbLine
 10
210.09467
 20
20.76
 30
0.0
 11
212.89467
 21
22.26
 31
0.0
  0
LINE
  5
BD
330
1E
100
AcDbEntity
  8
0
100
AcDbLine
 10
207.4946699999999
 20
19.35999999999999
 30
0.0
 11
210.09467
 21
20.76
 31
0.0
  0
LINE
  5
BE
330
1E
100
AcDbEntity
  8
0
100
AcDbLine
 10
205.19467
 20
18.16
 30
0.0
 11
207.4946699999999
 21
19.35999999999999
 31
0.0
  0
LINE
  5
BF
330
1E
100
AcDbEntity
  8
0
100
AcDbLine
 10
203.4946699999999
 20
17.26
 30
0.0
 11
205.19467
 21
18.16
 31
0.0
  0
LINE
  5
C0
330
1E
100
AcDbEntity
  8
0
100
AcDbLine
 10
202.49467
 20
16.66
 30
0.0
 11
203.4946699999999
 21
17.26
 31
0.0
  0
LINE
  5
C1
330
1E
100
AcDbEntity
  8
0
100
AcDbLine
 10
202.09467
 20
16.46
 30
0.0
 11
202.49467
 21
16.66
 31
0.0
  0
LINE
  5
C2
330
1E
100
AcDbEntity
  8
0
100
AcDbLine
 10
212.89467
 20
22.26
 30
0.0
 11
215.69467
 21
23.76
 31
0.0
  0
LINE
  5
C3
330
1E
100
AcDbEntity
  8
0
100
AcDbLine
 10
210.39467
 20
11.06
 30
0.0
 11
218.29467
 21
11.06
 31
0.0
  0
LINE
  5
C4
330
1E
100
AcDbEntity
  8
0
100
AcDbLine
 10
196.4946699999999
 20
9.059999999999989
 30
0.0
 11
202.09467
 21
9.059999999999989
 31
0.0
  0
LINE
  5
C5
330
1E
100
AcDbEntity
  8
0
100
AcDbLine
 10
209.39467
 20
9.059999999999989
 30
0.0
 11
217.79467
 21
9.059999999999989
 31
0.0
  0
LINE
  5
C7
330
1E
100
AcDbEntity
  8
0
100
AcDbLine
 10
198.12267
 20
0.0599999999999898
 30
0.0
 11
199.29467
 21
0.0599999999999898
 31
0.0
  0
LINE
  5
C8
330
1E
100
AcDbEntity
  8
0
100
AcDbLine
 10
217.57867
 20
1.05999999999999
 30
0.0
 11
226.79467
 21
1.05999999999999
 31
0.0
  0
LINE
  5
C9
330
1E
100
AcDbEntity
  8
0
100
AcDbLine
 10
217.57867
 20
0.0599999999999886
 30
0.0
 11
226.79467
 21
0.0599999999999881
 31
0.0
  0
LINE
  5
CA
330
1E
100
AcDbEntity
  8
0
100
AcDbLine
 10
217.79467
 20
1.05999999999999
 30
0.0
 11
226.79467
 21
1.05999999999999
 31
0.0
  0
LINE
  5
CB
330
1E
100
AcDbEntity
  8
0
100
AcDbLine
 10
217.79467
 20
37.06
 30
0.0
 11
218.09467
 21
37.06
 31
0.0
  0
LINE
  5
CC
330
1E
100
AcDbEntity
  8
0
100
AcDbLine
 10
216.895640873786
 20
36.16097087378639
 30
0.0
 11
217.79467
 21
37.06
 31
0.0
  0
LINE
  5
CD
330
1E
100
AcDbEntity
  8
0
100
AcDbLine
 10
216.79467
 20
38.06
 30
0.0
 11
217.79467
 21
37.06
 31
0.0
  0
LINE
  5
CF
330
1E
100
AcDbEntity
  8
0
100
AcDbLine
 10
216.79467
 20
38.06
 30
0.0
 11
216.79467
 21
39.06
 31
0.0
  0
LINE
  5
D1
330
1E
100
AcDbEntity
  8
0
100
AcDbLine
 10
216.79467
 20
39.06
 30
0.0
 11
217.79467
 21
40.06
 31
0.0
  0
LINE
  5
D2
330
1E
100
AcDbEntity
  8
0
100
AcDbLine
 10
216.79467
 20
39.06
 30
0.0
 11
216.79467
 21
38.06
 31
0.0
  0
LINE
  5
D7
330
1E
100
AcDbEntity
  8
0
100
AcDbLine
 10
217.79467
 20
40.06
 30
0.0
 11
218.09467
 21
40.06
 31
0.0
  0
LINE
  5
D8
330
1E
100
AcDbEntity
  8
0
100
AcDbLine
 10
214.79467
 20
46.06
 30
0.0
 11
215.79467
 21
43.06
 31
0.0
  0
LINE
  5
D9
330
1E
100
AcDbEntity
  8
0
100
AcDbLine
 10
215.79467
 20
43.06
 30
0.0
 11
217.79467
 21
40.06
 31
0.0
  0
LINE
  5
DA
330
1E
100
AcDbEntity
  8
0
100
AcDbLine
 10
218.09467
 20
40.06
 30
0.0
 11
218.99467
 21
40.06
 31
0.0
  0
LINE
  5
DB
330
1E
100
AcDbEntity
  8
0
100
AcDbLine
 10
218.09467
 20
37.06
 30
0.0
 11
218.99467
 21
37.06
 31
0.0
  0
LINE
  5
DC
330
1E
100
AcDbEntity
  8
0
100
AcDbLine
 10
218.19467
 20
25.16
 30
0.0
 11
220.49467
 21
26.36
 31
0.0
  0
LINE
  5
DD
330
1E
100
AcDbEntity
  8
0
100
AcDbLine
 10
215.69467
 20
23.76
 30
0.0
 11
218.19467
 21
25.16
 31
0.0
  0
LINE
  5
DE
330
1E
100
AcDbEntity
  8
0
100
AcDbLine
 10
218.99467
 20
40.06
 30
0.0
 11
220.39467
 21
40.06
 31
0.0
  0
LINE
  5
DF
330
1E
100
AcDbEntity
  8
0
100
AcDbLine
 10
218.99467
 20
37.06
 30
0.0
 11
220.39467
 21
37.06
 31
0.0
  0
LINE
  5
E0
330
1E
100
AcDbEntity
  8
0
100
AcDbLine
 10
218.29467
 20
11.06
 30
0.0
 11
226.79467
 21
11.06
 31
0.0
  0
LINE
  5
E1
330
1E
100
AcDbEntity
  8
0
100
AcDbLine
 10
217.79467
 20
9.059999999999989
 30
0.0
 11
226.79467
 21
9.059999999999989
 31
0.0
  0
LINE
  5
E2
330
1E
100
AcDbEntity
  8
0
100
AcDbLine
 10
213.0946699999999
 20
0.0599999999999889
 30
0.0
 11
218.24667
 21
0.0599999999999886
 31
0.0
  0
LINE
  5
E3
330
1E
100
AcDbEntity
  8
0
100
AcDbLine
 10
218.24667
 20
0.0599999999999886
 30
0.0
 11
219.69467
 21
0.0599999999999885
 31
0.0
  0
LINE
  5
E4
330
1E
100
AcDbEntity
  8
0
100
AcDbLine
 10
81.59136999999999
 20
46.577
 30
0.0
 11
84.29137
 21
47.277
 31
0.0
  0
LINE
  5
E5
330
1E
100
AcDbEntity
  8
0
100
AcDbLine
 10
69.93026999999999
 20
47.62929999999999
 30
0.0
 11
71.92216999999999
 21
46.4793
 31
0.0
  0
LINE
  5
E6
330
1E
100
AcDbEntity
  8
0
100
AcDbLine
 10
69.11166999999998
 20
50.41129999999999
 30
0.0
 11
71.79636999999999
 21
48.8613
 31
0.0
  0
LINE
  5
E7
330
1E
100
AcDbEntity
  8
0
100
AcDbLine
 10
66.16717
 20
52.1113
 30
0.0
 11
69.11166999999998
 21
50.41129999999999
 31
0.0
  0
LINE
  5
E8
330
1E
100
AcDbEntity
  8
0
100
AcDbLine
 10
67.59206999999999
 20
48.9793
 30
0.0
 11
69.93026999999999
 21
47.62929999999999
 31
0.0
  0
LINE
  5
E9
330
1E
100
AcDbEntity
  8
0
100
AcDbLine
 10
74.13457
 20
47.51129999999999
 30
0.0
 11
75.95326999999999
 21
46.4613
 31
0.0
  0
LINE
  5
EA
330
1E
100
AcDbEntity
  8
0
100
AcDbLine
 10
71.79636999999999
 20
48.8613
 30
0.0
 11
74.13457
 21
47.51129999999999
 31
0.0
  0
LINE
  5
EB
330
1E
100
AcDbEntity
  8
0
100
AcDbLine
 10
74.59137
 20
50.577
 30
0.0
 11
77.49136999999999
 21
48.87699999999999
 31
0.0
  0
LINE
  5
EC
330
1E
100
AcDbEntity
  8
0
100
AcDbLine
 10
71.29137
 20
52.477
 30
0.0
 11
74.59137
 21
50.577
 31
0.0
  0
LINE
  5
ED
330
1E
100
AcDbEntity
  8
0
100
AcDbLine
 10
70.55301393895771
 20
52.90770770227471
 30
0.0
 11
71.29137
 21
52.477
 31
0.0
  0
LINE
  5
EE
330
1E
100
AcDbEntity
  8
0
100
AcDbLine
 10
67.69136999999999
 20
54.57699999999999
 30
0.0
 11
71.29137
 21
52.477
 31
0.0
  0
LINE
  5
EF
330
1E
100
AcDbEntity
  8
0
100
AcDbLine
 10
68.69136999999999
 20
56.277
 30
0.0
 11
72.69136999999999
 21
54.077
 31
0.0
  0
LINE
  5
F0
330
1E
100
AcDbEntity
  8
0
100
AcDbLine
 10
72.69136999999999
 20
54.077
 30
0.0
 11
76.49136999999999
 21
51.777
 31
0.0
  0
LINE
  5
F1
330
1E
100
AcDbEntity
  8
0
100
AcDbLine
 10
77.49136999999999
 20
48.87699999999999
 30
0.0
 11
79.69136999999999
 21
47.57699999999999
 31
0.0
  0
LINE
  5
F2
330
1E
100
AcDbEntity
  8
0
100
AcDbLine
 10
77.37693469910741
 20
48.927087258854
 30
0.0
 11
79.69136999999999
 21
47.57699999999999
 31
0.0
  0
LINE
  5
F3
330
1E
100
AcDbEntity
  8
0
100
AcDbLine
 10
76.49136999999999
 20
51.777
 30
0.0
 11
84.29137
 21
47.277
 31
0.0
  0
LINE
  5
F4
330
1E
100
AcDbEntity
  8
0
100
AcDbLine
 10
70.58356999999999
 20
108.485
 30
0.0
 11
73.07966999999999
 21
112.932
 31
0.0
  0
LINE
  5
F5
330
1E
100
AcDbEntity
  8
0
100
AcDbLine
 10
69.74006999999999
 20
81.9951
 30
0.0
 11
83.29686999999999
 21
88.3613
 31
0.0
  0
LINE
  5
F6
330
1E
100
AcDbEntity
  8
0
100
AcDbLine
 10
84.29137
 20
47.277
 30
0.0
 11
85.87966999999999
 21
48.8681
 31
0.0
  0
LINE
  5
F7
330
1E
100
AcDbEntity
  8
0
100
AcDbLine
 10
85.87966999999999
 20
48.8681
 30
0.0
 11
89.56246999999999
 21
51.9479
 31
0.0
  0
LINE
  5
F8
330
1E
100
AcDbEntity
  8
0
100
AcDbLine
 10
89.56246999999999
 20
51.9479
 30
0.0
 11
97.47166999999999
 21
55.26939999999999
 31
0.0
  0
LINE
  5
FE
330
1E
100
AcDbEntity
  8
0
100
AcDbLine
 10
174.1606699999999
 20
51.4493
 30
0.0
 11
179.2566699999999
 21
46.4611
 31
0.0
  0
LINE
  5
102
330
1E
100
AcDbEntity
  8
0
100
AcDbLine
 10
192.30767
 20
52.48619999999999
 30
0.0
 11
193.8876699999999
 21
53.517
 31
0.0
  0
LINE
  5
103
330
1E
100
AcDbEntity
  8
0
100
AcDbLine
 10
190.60067
 20
51.1839
 30
0.0
 11
192.30767
 21
52.48619999999999
 31
0.0
  0
LINE
  5
104
330
1E
100
AcDbEntity
  8
0
100
AcDbLine
 10
188.6696699999999
 20
49.8747
 30
0.0
 11
190.60067
 21
51.1839
 31
0.0
  0
LINE
  5
105
330
1E
100
AcDbEntity
  8
0
100
AcDbLine
 10
181.4681112053809
 20
44.75629126026439
 30
0.0
 11
188.6696699999999
 21
49.8747
 31
0.0
  0
LINE
  5
109
330
1E
100
AcDbEntity
  8
0
100
AcDbLine
 10
193.8876699999999
 20
53.517
 30
0.0
 11
195.06967
 21
54.4008
 31
0.0
  0
LINE
  5
10F
330
1E
100
AcDbEntity
  8
0
100
AcDbLine
 10
195.7276699999999
 20
54.868
 30
0.0
 11
196.0356699999999
 21
55.0559
 31
0.0
  0
LINE
  5
110
330
1E
100
AcDbEntity
  8
0
100
AcDbLine
 10
195.06967
 20
54.4008
 30
0.0
 11
195.7276699999999
 21
54.868
 31
0.0
  0
LINE
  5
111
330
1E
100
AcDbEntity
  8
0
100
AcDbLine
 10
194.24767
 20
56.87660000000001
 30
0.0
 11
195.770418674666
 21
54.8940794674344
 31
0.0
  0
LINE
  5
112
330
1E
100
AcDbEntity
  8
0
100
AcDbLine
 10
168.6376699999999
 20
56.0293
 30
0.0
 11
174.1606699999999
 21
51.4493
 31
0.0
  0
LINE
  5
113
330
1E
100
AcDbEntity
  8
0
100
AcDbLine
 10
195.770418674666
 20
54.8940794674344
 30
0.0
 11
196.0356699999999
 21
55.0559
 31
0.0
  0
LINE
  5
115
330
1E
100
AcDbEntity
  8
0
100
AcDbLine
 10
197.3416699999999
 20
54.7803
 30
0.0
 11
197.841280519245
 21
54.09403630986809
 31
0.0
  0
LINE
  5
116
330
1E
100
AcDbEntity
  8
0
100
AcDbLine
 10
196.0356699999999
 20
55.0559
 30
0.0
 11
197.3416699999999
 21
54.7803
 31
0.0
  0
LINE
  5
118
330
1E
100
AcDbEntity
  8
0
100
AcDbLine
 10
214.29467
 20
53.06
 30
0.0
 11
214.79467
 21
56.06
 31
0.0
  0
LINE
  5
119
330
1E
100
AcDbEntity
  8
0
100
AcDbLine
 10
214.19467
 20
51.06
 30
0.0
 11
214.29467
 21
49.06
 31
0.0
  0
LINE
  5
11A
330
1E
100
AcDbEntity
  8
0
100
AcDbLine
 10
214.19467
 20
51.06
 30
0.0
 11
214.29467
 21
53.06
 31
0.0
  0
LINE
  5
11B
330
1E
100
AcDbEntity
  8
0
100
AcDbLine
 10
214.29467
 20
49.06
 30
0.0
 11
214.79467
 21
46.06
 31
0.0
  0
LINE
  5
11C
330
1E
100
AcDbEntity
  8
0
100
AcDbLine
 10
214.79467
 20
56.06
 30
0.0
 11
215.79467
 21
59.06
 31
0.0
  0
LINE
  5
11D
330
1E
100
AcDbEntity
  8
0
100
AcDbLine
 10
199.8946699999999
 20
55.76
 30
0.0
 11
200.1946699999999
 21
56.06
 31
0.0
  0
LINE
  5
11F
330
1E
100
AcDbEntity
  8
0
100
AcDbLine
 10
200.1946699999999
 20
56.06
 30
0.0
 11
223.69467
 21
28.06
 31
0.0
  0
LINE
  5
122
330
1E
100
AcDbEntity
  8
0
100
AcDbLine
 10
172.8826699999999
 20
48.4236
 30
0.0
 11
181.1271023480289
 21
44.0019720707098
 31
0.0
  0
LINE
  5
123
330
1E
100
AcDbEntity
  8
0
100
AcDbLine
 10
158.26867
 20
53.4442
 30
0.0
 11
172.8826699999999
 21
48.4236
 31
0.0
  0
LINE
  5
124
330
1E
100
AcDbEntity
  8
0
100
AcDbLine
 10
144.4796699999999
 20
57.1379
 30
0.0
 11
158.26867
 21
53.4442
 31
0.0
  0
LINE
  5
125
330
1E
100
AcDbEntity
  8
0
100
AcDbLine
 10
97.47166999999999
 20
55.26939999999999
 30
0.0
 11
108.2886699999999
 21
57.7604
 31
0.0
  0
LINE
  5
126
330
1E
100
AcDbEntity
  8
0
100
AcDbLine
 10
83.29686999999999
 20
88.3613
 30
0.0
 11
100.4826699999999
 21
92.90399999999999
 31
0.0
  0
LINE
  5
127
330
1E
100
AcDbEntity
  8
0
100
AcDbLine
 10
215.79467
 20
59.06
 30
0.0
 11
216.19467
 21
59.06
 31
0.0
  0
LINE
  5
128
330
1E
100
AcDbEntity
  8
0
100
AcDbLine
 10
216.19467
 20
59.06
 30
0.0
 11
217.29467
 21
59.06
 31
0.0
  0
LINE
  5
129
330
1E
100
AcDbEntity
  8
0
100
AcDbLine
 10
217.29467
 20
59.06
 30
0.0
 11
218.99467
 21
59.06
 31
0.0
  0
LINE
  5
12A
330
1E
100
AcDbEntity
  8
0
100
AcDbLine
 10
218.99467
 20
59.06
 30
0.0
 11
221.29467
 21
59.06
 31
0.0
  0
LINE
  5
12B
330
1E
100
AcDbEntity
  8
0
100
AcDbLine
 10
128.6906699999999
 20
58.7718
 30
0.0
 11
144.4796699999999
 21
57.1379
 31
0.0
  0
LINE
  5
12C
330
1E
100
AcDbEntity
  8
0
100
AcDbLine
 10
109.1516699999999
 20
104.8669999999999
 30
0.0
 11
119.45367
 21
96.83570000000001
 31
0.0
  0
LINE
  5
12D
330
1E
100
AcDbEntity
  8
0
100
AcDbLine
 10
215.29467
 20
59.56
 30
0.0
 11
215.79467
 21
59.06
 31
0.0
  0
LINE
  5
12F
330
1E
100
AcDbEntity
  8
0
100
AcDbLine
 10
215.29467
 20
59.56
 30
0.0
 11
215.29467
 21
60.56
 31
0.0
  0
LINE
  5
132
330
1E
100
AcDbEntity
  8
0
100
AcDbLine
 10
215.29467
 20
60.56
 30
0.0
 11
215.79467
 21
61.06
 31
0.0
  0
LINE
  5
133
330
1E
100
AcDbEntity
  8
0
100
AcDbLine
 10
215.29467
 20
60.56
 30
0.0
 11
215.29467
 21
59.56
 31
0.0
  0
LINE
  5
135
330
1E
100
AcDbEntity
  8
0
100
AcDbLine
 10
162.12467
 20
61.0541
 30
0.0
 11
168.6376699999999
 21
56.0293
 31
0.0
  0
LINE
  5
136
330
1E
100
AcDbEntity
  8
0
100
AcDbLine
 10
215.79467
 20
61.06
 30
0.0
 11
216.19467
 21
61.06
 31
0.0
  0
LINE
  5
137
330
1E
100
AcDbEntity
  8
0
100
AcDbLine
 10
215.79467
 20
61.06
 30
0.0
 11
219.5946699999999
 21
63.56
 31
0.0
  0
LINE
  5
138
330
1E
100
AcDbEntity
  8
0
100
AcDbLine
 10
189.63067
 20
62.618
 30
0.0
 11
194.24767
 21
56.87660000000001
 31
0.0
  0
LINE
  5
139
330
1E
100
AcDbEntity
  8
0
100
AcDbLine
 10
184.2326699999999
 20
68.6273
 30
0.0
 11
189.63067
 21
62.618
 31
0.0
  0
LINE
  5
13A
330
1E
100
AcDbEntity
  8
0
100
AcDbLine
 10
155.8886699999999
 20
66.0515
 30
0.0
 11
162.12467
 21
61.0541
 31
0.0
  0
LINE
  5
13B
330
1E
100
AcDbEntity
  8
0
100
AcDbLine
 10
216.19467
 20
61.06
 30
0.0
 11
217.29467
 21
61.06
 31
0.0
  0
LINE
  5
13C
330
1E
100
AcDbEntity
  8
0
100
AcDbLine
 10
217.29467
 20
61.06
 30
0.0
 11
218.99467
 21
61.06
 31
0.0
  0
LINE
  5
140
330
1E
100
AcDbEntity
  8
0
100
AcDbLine
 10
218.99467
 20
61.06
 30
0.0
 11
221.29467
 21
61.06
 31
0.0
  0
LINE
  5
142
330
1E
100
AcDbEntity
  8
0
100
AcDbLine
 10
178.7836699999999
 20
74.19249999999999
 30
0.0
 11
184.2326699999999
 21
68.6273
 31
0.0
  0
LINE
  5
143
330
1E
100
AcDbEntity
  8
0
100
AcDbLine
 10
172.13667
 20
80.29819999999999
 30
0.0
 11
178.7836699999999
 21
74.19249999999999
 31
0.0
  0
LINE
  5
144
330
1E
100
AcDbEntity
  8
0
100
AcDbLine
 10
149.34167
 20
71.0651
 30
0.0
 11
155.8886699999999
 21
66.0515
 31
0.0
  0
LINE
  5
145
330
1E
100
AcDbEntity
  8
0
100
AcDbLine
 10
142.68267
 20
76.7261
 30
0.0
 11
149.34167
 21
71.0651
 31
0.0
  0
LINE
  5
146
330
1E
100
AcDbEntity
  8
0
100
AcDbLine
 10
164.59767
 20
86.8641
 30
0.0
 11
172.13667
 21
80.29819999999999
 31
0.0
  0
LINE
  5
147
330
1E
100
AcDbEntity
  8
0
100
AcDbLine
 10
135.84967
 20
82.5782
 30
0.0
 11
142.68267
 21
76.7261
 31
0.0
  0
LINE
  5
148
330
1E
100
AcDbEntity
  8
0
100
AcDbLine
 10
186.5256699999999
 20
81.73799999999999
 30
0.0
 11
203.38167
 21
72.9122
 31
0.0
  0
LINE
  5
149
330
1E
100
AcDbEntity
  8
0
100
AcDbLine
 10
128.1466699999999
 20
89.30150000000001
 30
0.0
 11
135.84967
 21
82.5782
 31
0.0
  0
LINE
  5
14A
330
1E
100
AcDbEntity
  8
0
100
AcDbLine
 10
169.2286699999999
 20
87.73529999999999
 30
0.0
 11
186.5256699999999
 21
81.73799999999999
 31
0.0
  0
LINE
  5
14B
330
1E
100
AcDbEntity
  8
0
100
AcDbLine
 10
203.38167
 20
72.9122
 30
0.0
 11
208.822563665445
 21
69.4853811377135
 31
0.0
  0
LINE
  5
14C
330
1E
100
AcDbEntity
  8
0
100
AcDbLine
 10
156.88867
 20
93.5391
 30
0.0
 11
164.59767
 21
86.8641
 31
0.0
  0
LINE
  5
14D
330
1E
100
AcDbEntity
  8
0
100
AcDbLine
 10
148.7696699999999
 20
99.7656
 30
0.0
 11
156.88867
 21
93.5391
 31
0.0
  0
LINE
  5
14E
330
1E
100
AcDbEntity
  8
0
100
AcDbLine
 10
139.33867
 20
106.725
 30
0.0
 11
148.7696699999999
 21
99.7656
 31
0.0
  0
LINE
  5
14F
330
1E
100
AcDbEntity
  8
0
100
AcDbLine
 10
119.45367
 20
96.83570000000001
 30
0.0
 11
128.1466699999999
 21
89.30150000000001
 31
0.0
  0
LINE
  5
150
330
1E
100
AcDbEntity
  8
0
100
AcDbLine
 10
161.0774587927
 20
89.91214900878549
 30
0.0
 11
169.2286699999999
 21
87.73529999999999
 31
0.0
  0
LINE
  5
151
330
1E
100
AcDbEntity
  8
0
100
AcDbLine
 10
216.40767
 20
85.52339999999999
 30
0.0
 11
217.59767
 21
87.93510000000001
 31
0.0
  0
LINE
  5
152
330
1E
100
AcDbEntity
  8
0
100
AcDbLine
 10
215.97467
 20
83.0112
 30
0.0
 11
216.40767
 21
80.49899999999999
 31
0.0
  0
LINE
  5
153
330
1E
100
AcDbEntity
  8
0
100
AcDbLine
 10
215.97467
 20
83.0112
 30
0.0
 11
216.40767
 21
85.52339999999999
 31
0.0
  0
LINE
  5
154
330
1E
100
AcDbEntity
  8
0
100
AcDbLine
 10
217.05667
 20
77.48439999999999
 30
0.0
 11
217.59767
 21
77.9868
 31
0.0
  0
LINE
  5
155
330
1E
100
AcDbEntity
  8
0
100
AcDbLine
 10
217.05667
 20
77.48439999999999
 30
0.0
 11
217.05667
 21
76.4795
 31
0.0
  0
LINE
  5
159
330
1E
100
AcDbEntity
  8
0
100
AcDbLine
 10
217.05667
 20
76.4795
 30
0.0
 11
217.59767
 21
75.97709999999999
 31
0.0
  0
LINE
  5
15A
330
1E
100
AcDbEntity
  8
0
100
AcDbLine
 10
217.05667
 20
76.4795
 30
0.0
 11
217.05667
 21
77.48439999999999
 31
0.0
  0
LINE
  5
15C
330
1E
100
AcDbEntity
  8
0
100
AcDbLine
 10
217.59767
 20
77.9868
 30
0.0
 11
217.92267
 21
77.9868
 31
0.0
  0
LINE
  5
15D
330
1E
100
AcDbEntity
  8
0
100
AcDbLine
 10
218.78767
 20
75.97709999999999
 30
0.0
 11
220.30267
 21
75.97709999999999
 31
0.0
  0
LINE
  5
160
330
1E
100
AcDbEntity
  8
0
100
AcDbLine
 10
218.78767
 20
77.9868
 30
0.0
 11
220.30267
 21
77.9868
 31
0.0
  0
LINE
  5
161
330
1E
100
AcDbEntity
  8
0
100
AcDbLine
 10
217.92267
 20
77.9868
 30
0.0
 11
218.78767
 21
77.9868
 31
0.0
  0
LINE
  5
162
330
1E
100
AcDbEntity
  8
0
100
AcDbLine
 10
217.92267
 20
75.97709999999999
 30
0.0
 11
218.78767
 21
75.97709999999999
 31
0.0
  0
LINE
  5
163
330
1E
100
AcDbEntity
  8
0
100
AcDbLine
 10
217.59767
 20
75.97709999999999
 30
0.0
 11
217.92267
 21
75.97709999999999
 31
0.0
  0
LINE
  5
164
330
1E
100
AcDbEntity
  8
0
100
AcDbLine
 10
219.22067
 20
90.0454
 30
0.0
 11
221.49267
 21
91.65319999999999
 31
0.0
  0
LINE
  5
165
330
1E
100
AcDbEntity
  8
0
100
AcDbLine
 10
217.59767
 20
87.93510000000001
 30
0.0
 11
219.22067
 21
90.0454
 31
0.0
  0
LINE
  5
166
330
1E
100
AcDbEntity
  8
0
100
AcDbLine
 10
216.40767
 20
80.49899999999999
 30
0.0
 11
217.59767
 21
77.9868
 31
0.0
  0
LINE
  5
167
330
1E
100
AcDbEntity
  8
0
100
AcDbLine
 10
215.00167
 20
74.4698
 30
0.0
 11
217.59767
 21
75.97709999999999
 31
0.0
  0
LINE
  5
168
330
1E
100
AcDbEntity
  8
0
100
AcDbLine
 10
210.02467
 20
70.95269999999999
 30
0.0
 11
215.00167
 21
74.4698
 31
0.0
  0
LINE
  5
169
330
1E
100
AcDbEntity
  8
0
100
AcDbLine
 10
208.822563665445
 20
69.4853811377135
 30
0.0
 11
210.02467
 21
70.95269999999999
 31
0.0
  0
LINE
  5
16A
330
1E
100
AcDbEntity
  8
0
100
AcDbLine
 10
116.69467
 20
95.06
 30
0.0
 11
121.694873560569
 21
94.8932548296281
 31
0.0
  0
LINE
  5
16B
330
1E
100
AcDbEntity
  8
0
100
AcDbLine
 10
116.69467
 20
59.06
 30
0.0
 11
128.6906699999999
 21
58.7718
 31
0.0
  0
LINE
  5
16C
330
1E
100
AcDbEntity
  8
0
100
AcDbLine
 10
100.4826699999999
 20
92.90399999999999
 30
0.0
 11
116.69467
 21
95.06
 31
0.0
  0
LINE
  5
16D
330
1E
100
AcDbEntity
  8
0
100
AcDbLine
 10
108.2886699999999
 20
57.7604
 30
0.0
 11
116.69467
 21
59.06
 31
0.0
  0
LINE
  5
16E
330
1E
100
AcDbEntity
  8
0
100
AcDbLine
 10
79.69136999999999
 20
47.57699999999999
 30
0.0
 11
81.09137
 21
46.777
 31
0.0
  0
LINE
  5
16F
330
1E
100
AcDbEntity
  8
0
100
AcDbLine
 10
81.09137
 20
46.777
 30
0.0
 11
81.59136999999999
 21
46.577
 31
0.0
  0
LINE
  5
174
330
1E
100
AcDbEntity
  8
0
100
AcDbLine
 10
220.39467
 20
40.06
 30
0.0
 11
222.29467
 21
40.06
 31
0.0
  0
LINE
  5
175
330
1E
100
AcDbEntity
  8
0
100
AcDbLine
 10
220.39467
 20
37.06
 30
0.0
 11
222.29467
 21
37.06
 31
0.0
  0
LINE
  5
176
330
1E
100
AcDbEntity
  8
0
100
AcDbLine
 10
222.29467
 20
40.06
 30
0.0
 11
224.49467
 21
40.06
 31
0.0
  0
LINE
  5
177
330
1E
100
AcDbEntity
  8
0
100
AcDbLine
 10
222.29467
 20
37.06
 30
0.0
 11
224.49467
 21
37.06
 31
0.0
  0
LINE
  5
178
330
1E
100
AcDbEntity
  8
0
100
AcDbLine
 10
222.19467
 20
27.26
 30
0.0
 11
223.29467
 21
27.86
 31
0.0
  0
LINE
  5
179
330
1E
100
AcDbEntity
  8
0
100
AcDbLine
 10
220.49467
 20
26.36
 30
0.0
 11
222.19467
 21
27.26
 31
0.0
  0
LINE
  5
17A
330
1E
100
AcDbEntity
  8
0
100
AcDbLine
 10
226.79467
 20
1.05999999999999
 30
0.0
 11
236.01067
 21
1.05999999999999
 31
0.0
  0
LINE
  5
17B
330
1E
100
AcDbEntity
  8
0
100
AcDbLine
 10
226.79467
 20
1.05999999999999
 30
0.0
 11
235.79467
 21
1.05999999999999
 31
0.0
  0
LINE
  5
17C
330
1E
100
AcDbEntity
  8
0
100
AcDbLine
 10
226.79467
 20
0.0599999999999881
 30
0.0
 11
233.89467
 21
0.0599999999999876
 31
0.0
  0
LINE
  5
17D
330
1E
100
AcDbEntity
  8
0
100
AcDbLine
 10
226.79467
 20
0.0599999999999881
 30
0.0
 11
236.01067
 21
0.0599999999999875
 31
0.0
  0
LINE
  5
17E
330
1E
100
AcDbEntity
  8
0
100
AcDbLine
 10
223.29467
 20
27.86
 30
0.0
 11
223.69467
 21
28.06
 31
0.0
  0
LINE
  5
181
330
1E
100
AcDbEntity
  8
0
100
AcDbLine
 10
224.49467
 20
40.06
 30
0.0
 11
226.79467
 21
40.06
 31
0.0
  0
LINE
  5
184
330
1E
100
AcDbEntity
  8
0
100
AcDbLine
 10
226.79467
 20
40.06
 30
0.0
 11
229.09467
 21
40.06
 31
0.0
  0
LINE
  5
185
330
1E
100
AcDbEntity
  8
0
100
AcDbLine
 10
226.79467
 20
37.06
 30
0.0
 11
229.09467
 21
37.06
 31
0.0
  0
LINE
  5
186
330
1E
100
AcDbEntity
  8
0
100
AcDbLine
 10
224.49467
 20
37.06
 30
0.0
 11
226.79467
 21
37.06
 31
0.0
  0
LINE
  5
187
330
1E
100
AcDbEntity
  8
0
100
AcDbLine
 10
223.69467
 20
28.06
 30
0.0
 11
226.79467
 21
28.06
 31
0.0
  0
LINE
  5
188
330
1E
100
AcDbEntity
  8
0
100
AcDbLine
 10
226.79467
 20
28.06
 30
0.0
 11
233.79467
 21
27.56
 31
0.0
  0
LINE
  5
189
330
1E
100
AcDbEntity
  8
0
100
AcDbLine
 10
226.79467
 20
11.06
 30
0.0
 11
235.29467
 21
11.06
 31
0.0
  0
LINE
  5
18A
330
1E
100
AcDbEntity
  8
0
100
AcDbLine
 10
226.79467
 20
11.06
 30
0.0
 11
233.79467
 21
11.06
 31
0.0
  0
LINE
  5
18B
330
1E
100
AcDbEntity
  8
0
100
AcDbLine
 10
226.79467
 20
9.059999999999989
 30
0.0
 11
235.79467
 21
9.059999999999989
 31
0.0
  0
LINE
  5
18C
330
1E
100
AcDbEntity
  8
0
100
AcDbLine
 10
226.79467
 20
43.56
 30
0.0
 11
228.79467
 21
43.86
 31
0.0
  0
LINE
  5
18D
330
1E
100
AcDbEntity
  8
0
100
AcDbLine
 10
236.01067
 20
1.05999999999999
 30
0.0
 11
244.65067
 21
1.05999999999999
 31
0.0
  0
LINE
  5
18E
330
1E
100
AcDbEntity
  8
0
100
AcDbLine
 10
236.01067
 20
0.0599999999999875
 30
0.0
 11
244.65067
 21
0.059999999999987
 31
0.0
  0
LINE
  5
18F
330
1E
100
AcDbEntity
  8
0
100
AcDbLine
 10
240.4946699999999
 20
0.0599999999999872
 30
0.0
 11
244.65067
 21
0.059999999999987
 31
0.0
  0
LINE
  5
190
330
1E
100
AcDbEntity
  8
0
100
AcDbLine
 10
233.89467
 20
0.0599999999999876
 30
0.0
 11
240.4946699999999
 21
0.0599999999999872
 31
0.0
  0
LINE
  5
191
330
1E
100
AcDbEntity
  8
0
100
AcDbLine
 10
233.79467
 20
11.06
 30
0.0
 11
235.29467
 21
11.06
 31
0.0
  0
LINE
  5
192
330
1E
100
AcDbEntity
  8
0
100
AcDbLine
 10
243.19467
 20
11.06
 30
0.0
 11
250.09467
 21
11.06
 31
0.0
  0
LINE
  5
193
330
1E
100
AcDbEntity
  8
0
100
AcDbLine
 10
235.29467
 20
11.06
 30
0.0
 11
243.19467
 21
11.06
 31
0.0
  0
LINE
  5
194
330
1E
100
AcDbEntity
  8
0
100
AcDbLine
 10
235.79467
 20
9.059999999999989
 30
0.0
 11
244.19467
 21
9.059999999999989
 31
0.0
  0
LINE
  5
195
330
1E
100
AcDbEntity
  8
0
100
AcDbLine
 10
244.65067
 20
0.059999999999987
 30
0.0
 11
252.28267
 21
0.0599999999999865
 31
0.0
  0
LINE
  5
196
330
1E
100
AcDbEntity
  8
0
100
AcDbLine
 10
244.65067
 20
1.05999999999999
 30
0.0
 11
252.28267
 21
1.05999999999999
 31
0.0
  0
LINE
  5
197
330
1E
100
AcDbEntity
  8
0
100
AcDbLine
 10
251.49467
 20
1.05999999999999
 30
0.0
 11
252.28267
 21
1.05999999999999
 31
0.0
  0
LINE
  5
198
330
1E
100
AcDbEntity
  8
0
100
AcDbLine
 10
252.28267
 20
1.05999999999999
 30
0.0
 11
258.04267
 21
1.05999999999999
 31
0.0
  0
LINE
  5
199
330
1E
100
AcDbEntity
  8
0
100
AcDbLine
 10
258.04267
 20
1.05999999999999
 30
0.0
 11
261.49867
 21
1.05999999999999
 31
0.0
  0
LINE
  5
19A
330
1E
100
AcDbEntity
  8
0
100
AcDbLine
 10
258.04267
 20
0.0599999999999862
 30
0.0
 11
261.49867
 21
0.0599999999999859
 31
0.0
  0
LINE
  5
19B
330
1E
100
AcDbEntity
  8
0
100
AcDbLine
 10
252.28267
 20
0.0599999999999865
 30
0.0
 11
258.04267
 21
0.0599999999999862
 31
0.0
  0
LINE
  5
19C
330
1E
100
AcDbEntity
  8
0
100
AcDbLine
 10
260.49467
 20
9.059999999999989
 30
0.0
 11
261.79467
 21
9.059999999999989
 31
0.0
  0
LINE
  5
19D
330
1E
100
AcDbEntity
  8
0
100
AcDbLine
 10
261.49867
 20
1.05999999999999
 30
0.0
 11
262.7946699999999
 21
1.05999999999999
 31
0.0
  0
LINE
  5
19E
330
1E
100
AcDbEntity
  8
0
100
AcDbLine
 10
261.49867
 20
0.0599999999999859
 30
0.0
 11
262.7946699999999
 21
0.0599999999999859
 31
0.0
  0
LINE
  5
19F
330
1E
100
AcDbEntity
  8
0
100
AcDbLine
 10
262.7946699999999
 20
1.05999999999999
 30
0.0
 11
262.7946699999999
 21
0.0599999999999859
 31
0.0
  0
LINE
  5
1A0
330
1E
100
AcDbEntity
  8
0
100
AcDbLine
 10
262.7946699999999
 20
0.0599999999999859
 30
0.0
 11
262.7946699999999
 21
1.05999999999999
 31
0.0
  0
LINE
  5
1A1
330
1E
100
AcDbEntity
  8
0
100
AcDbLine
 10
261.79467
 20
1.05999999999999
 30
0.0
 11
261.79467
 21
9.059999999999989
 31
0.0
  0
LINE
  5
1A2
330
1E
100
AcDbEntity
  8
0
100
AcDbLine
 10
261.79467
 20
9.059999999999989
 30
0.0
 11
261.79467
 21
1.05999999999999
 31
0.0
  0
LINE
  5
1A3
330
1E
100
AcDbEntity
  8
0
100
AcDbLine
 10
260.49467
 20
1.05999999999999
 30
0.0
 11
261.49867
 21
1.05999999999999
 31
0.0
  0
LINE
  5
1A4
330
1E
100
AcDbEntity
  8
0
100
AcDbLine
 10
257.0946699999999
 20
9.059999999999989
 30
0.0
 11
260.49467
 21
9.059999999999989
 31
0.0
  0
LINE
  5
1A5
330
1E
100
AcDbEntity
  8
0
100
AcDbLine
 10
251.49467
 20
9.059999999999989
 30
0.0
 11
257.0946699999999
 21
9.059999999999989
 31
0.0
  0
LINE
  5
1A6
330
1E
100
AcDbEntity
  8
0
100
AcDbLine
 10
258.59467
 20
11.06
 30
0.0
 11
259.79467
 21
11.06
 31
0.0
  0
LINE
  5
1A7
330
1E
100
AcDbEntity
  8
0
100
AcDbLine
 10
259.79467
 20
11.06
 30
0.0
 11
261.79467
 21
9.059999999999989
 31
0.0
  0
LINE
  5
1A8
330
1E
100
AcDbEntity
  8
0
100
AcDbLine
 10
251.79467
 20
16.05999999999999
 30
0.0
 11
253.79467
 21
11.06
 31
0.0
  0
LINE
  5
1A9
330
1E
100
AcDbEntity
  8
0
100
AcDbLine
 10
255.39467
 20
11.06
 30
0.0
 11
258.59467
 21
11.06
 31
0.0
  0
LINE
  5
1AA
330
1E
100
AcDbEntity
  8
0
100
AcDbLine
 10
250.09467
 20
11.06
 30
0.0
 11
255.39467
 21
11.06
 31
0.0
  0
LINE
  5
1AB
330
1E
100
AcDbEntity
  8
0
100
AcDbLine
 10
244.19467
 20
9.059999999999989
 30
0.0
 11
251.49467
 21
9.059999999999989
 31
0.0
  0
LINE
  5
1AC
330
1E
100
AcDbEntity
  8
0
100
AcDbLine
 10
243.24067
 20
0.0599999999999871
 30
0.0
 11
244.65067
 21
0.059999999999987
 31
0.0
  0
LINE
  5
1AD
330
1E
100
AcDbEntity
  8
0
100
AcDbLine
 10
243.79467
 20
23.06
 30
0.0
 11
243.8245207462689
 21
22.9629850746269
 31
0.0
  0
LINE
  5
1AE
330
1E
100
AcDbEntity
  8
0
100
AcDbLine
 10
229.09467
 20
40.06
 30
0.0
 11
231.29467
 21
40.06
 31
0.0
  0
LINE
  5
1AF
330
1E
100
AcDbEntity
  8
0
100
AcDbLine
 10
235.49467
 20
37.06
 30
0.0
 11
235.79467
 21
37.06
 31
0.0
  0
LINE
  5
1B0
330
1E
100
AcDbEntity
  8
0
100
AcDbLine
 10
235.79467
 20
37.06
 30
0.0
 11
238.79467
 21
34.06
 31
0.0
  0
LINE
  5
1B1
330
1E
100
AcDbEntity
  8
0
100
AcDbLine
 10
235.79467
 20
37.06
 30
0.0
 11
236.79467
 21
38.06
 31
0.0
  0
LINE
  5
1B2
330
1E
100
AcDbEntity
  8
0
100
AcDbLine
 10
234.59467
 20
37.06
 30
0.0
 11
235.49467
 21
37.06
 31
0.0
  0
LINE
  5
1B3
330
1E
100
AcDbEntity
  8
0
100
AcDbLine
 10
233.19467
 20
37.06
 30
0.0
 11
234.59467
 21
37.06
 31
0.0
  0
LINE
  5
1BC
330
1E
100
AcDbEntity
  8
0
100
AcDbLine
 10
235.49467
 20
40.06
 30
0.0
 11
235.79467
 21
40.06
 31
0.0
  0
LINE
  5
1BD
330
1E
100
AcDbEntity
  8
0
100
AcDbLine
 10
234.59467
 20
40.06
 30
0.0
 11
235.49467
 21
40.06
 31
0.0
  0
LINE
  5
1BE
330
1E
100
AcDbEntity
  8
0
100
AcDbLine
 10
233.19467
 20
40.06
 30
0.0
 11
234.59467
 21
40.06
 31
0.0
  0
LINE
  5
1BF
330
1E
100
AcDbEntity
  8
0
100
AcDbLine
 10
231.29467
 20
40.06
 30
0.0
 11
233.19467
 21
40.06
 31
0.0
  0
LINE
  5
1C1
330
1E
100
AcDbEntity
  8
0
100
AcDbLine
 10
236.79467
 20
39.06
 30
0.0
 11
236.79467
 21
38.06
 31
0.0
  0
LINE
  5
1C3
330
1E
100
AcDbEntity
  8
0
100
AcDbLine
 10
236.79467
 20
38.06
 30
0.0
 11
236.79467
 21
39.06
 31
0.0
  0
LINE
  5
1C4
330
1E
100
AcDbEntity
  8
0
100
AcDbLine
 10
237.79467
 20
43.06
 30
0.0
 11
238.79467
 21
46.06
 31
0.0
  0
LINE
  5
1C5
330
1E
100
AcDbEntity
  8
0
100
AcDbLine
 10
235.79467
 20
40.06
 30
0.0
 11
237.79467
 21
43.06
 31
0.0
  0
LINE
  5
1C6
330
1E
100
AcDbEntity
  8
0
100
AcDbLine
 10
235.79467
 20
40.06
 30
0.0
 11
236.79467
 21
39.06
 31
0.0
  0
LINE
  5
1C7
330
1E
100
AcDbEntity
  8
0
100
AcDbLine
 10
231.29467
 20
37.06
 30
0.0
 11
233.19467
 21
37.06
 31
0.0
  0
LINE
  5
1C8
330
1E
100
AcDbEntity
  8
0
100
AcDbLine
 10
229.09467
 20
37.06
 30
0.0
 11
231.29467
 21
37.06
 31
0.0
  0
LINE
  5
1C9
330
1E
100
AcDbEntity
  8
0
100
AcDbLine
 10
238.79467
 20
34.06
 30
0.0
 11
241.29467
 21
29.06
 31
0.0
  0
LINE
  5
1CA
330
1E
100
AcDbEntity
  8
0
100
AcDbLine
 10
241.29467
 20
29.06
 30
0.0
 11
243.79467
 21
23.06
 31
0.0
  0
LINE
  5
1CB
330
1E
100
AcDbEntity
  8
0
100
AcDbLine
 10
233.79467
 20
27.56
 30
0.0
 11
245.79467
 21
22.05999999999999
 31
0.0
  0
LINE
  5
1CC
330
1E
100
AcDbEntity
  8
0
100
AcDbLine
 10
245.79467
 20
22.05999999999999
 30
0.0
 11
251.79467
 21
16.05999999999999
 31
0.0
  0
LINE
  5
1CD
330
1E
100
AcDbEntity
  8
0
100
AcDbLine
 10
250.59767
 20
17.257
 30
0.0
 11
250.59767
 21
55.3771
 31
0.0
  0
LINE
  5
1CE
330
1E
100
AcDbEntity
  8
0
100
AcDbLine
 10
228.79467
 20
43.86
 30
0.0
 11
230.59467
 21
44.56
 31
0.0
  0
LINE
  5
1CF
330
1E
100
AcDbEntity
  8
0
100
AcDbLine
 10
230.59467
 20
44.56
 30
0.0
 11
232.0946699999999
 21
45.75999999999999
 31
0.0
  0
LINE
  5
1D0
330
1E
100
AcDbEntity
  8
0
100
AcDbLine
 10
232.0946699999999
 20
45.75999999999999
 30
0.0
 11
233.29467
 21
47.25999999999999
 31
0.0
  0
LINE
  5
1D1
330
1E
100
AcDbEntity
  8
0
100
AcDbLine
 10
224.79467
 20
43.86
 30
0.0
 11
226.79467
 21
43.56
 31
0.0
  0
LINE
  5
1D2
330
1E
100
AcDbEntity
  8
0
100
AcDbLine
 10
222.99467
 20
44.56
 30
0.0
 11
224.79467
 21
43.86
 31
0.0
  0
LINE
  5
1D3
330
1E
100
AcDbEntity
  8
0
100
AcDbLine
 10
233.29467
 20
47.25999999999999
 30
0.0
 11
233.99467
 21
49.06
 31
0.0
  0
LINE
  5
1D4
330
1E
100
AcDbEntity
  8
0
100
AcDbLine
 10
239.29467
 20
49.06
 30
0.0
 11
239.39467
 21
51.06
 31
0.0
  0
LINE
  5
1D5
330
1E
100
AcDbEntity
  8
0
100
AcDbLine
 10
238.79467
 20
46.06
 30
0.0
 11
239.29467
 21
49.06
 31
0.0
  0
LINE
  5
1D6
330
1E
100
AcDbEntity
  8
0
100
AcDbLine
 10
233.99467
 20
49.06
 30
0.0
 11
234.29467
 21
51.06
 31
0.0
  0
LINE
  5
1D7
330
1E
100
AcDbEntity
  8
0
100
AcDbLine
 10
221.49467
 20
45.75999999999999
 30
0.0
 11
222.99467
 21
44.56
 31
0.0
  0
LINE
  5
1D8
330
1E
100
AcDbEntity
  8
0
100
AcDbLine
 10
220.29467
 20
47.25999999999999
 30
0.0
 11
221.49467
 21
45.75999999999999
 31
0.0
  0
LINE
  5
1D9
330
1E
100
AcDbEntity
  8
0
100
AcDbLine
 10
220.29467
 20
54.86
 30
0.0
 11
221.49467
 21
56.36
 31
0.0
  0
LINE
  5
1DA
330
1E
100
AcDbEntity
  8
0
100
AcDbLine
 10
219.5946699999999
 20
53.06
 30
0.0
 11
220.29467
 21
54.86
 31
0.0
  0
LINE
  5
1DB
330
1E
100
AcDbEntity
  8
0
100
AcDbLine
 10
222.99467
 20
57.56
 30
0.0
 11
224.79467
 21
58.26
 31
0.0
  0
LINE
  5
1DC
330
1E
100
AcDbEntity
  8
0
100
AcDbLine
 10
221.49467
 20
56.36
 30
0.0
 11
222.99467
 21
57.56
 31
0.0
  0
LINE
  5
1DD
330
1E
100
AcDbEntity
  8
0
100
AcDbLine
 10
224.79467
 20
58.26
 30
0.0
 11
226.79467
 21
58.56
 31
0.0
  0
LINE
  5
1DE
330
1E
100
AcDbEntity
  8
0
100
AcDbLine
 10
219.5946699999999
 20
63.56
 30
0.0
 11
223.49467
 21
64.86
 31
0.0
  0
LINE
  5
1DF
330
1E
100
AcDbEntity
  8
0
100
AcDbLine
 10
223.49467
 20
64.86
 30
0.0
 11
226.79467
 21
65.06
 31
0.0
  0
LINE
  5
1E0
330
1E
100
AcDbEntity
  8
0
100
AcDbLine
 10
221.29467
 20
61.06
 30
0.0
 11
223.99467
 21
61.06
 31
0.0
  0
LINE
  5
1E4
330
1E
100
AcDbEntity
  8
0
100
AcDbLine
 10
223.99467
 20
61.06
 30
0.0
 11
226.79467
 21
61.06
 31
0.0
  0
LINE
  5
1E6
330
1E
100
AcDbEntity
  8
0
100
AcDbLine
 10
221.29467
 20
59.06
 30
0.0
 11
223.99467
 21
59.06
 31
0.0
  0
LINE
  5
1E7
330
1E
100
AcDbEntity
  8
0
100
AcDbLine
 10
223.99467
 20
59.06
 30
0.0
 11
226.79467
 21
59.06
 31
0.0
  0
LINE
  5
1E8
330
1E
100
AcDbEntity
  8
0
100
AcDbLine
 10
222.25067
 20
75.97709999999999
 30
0.0
 11
224.41467
 21
75.97709999999999
 31
0.0
  0
LINE
  5
1E9
330
1E
100
AcDbEntity
  8
0
100
AcDbLine
 10
220.30267
 20
75.97709999999999
 30
0.0
 11
222.25067
 21
75.97709999999999
 31
0.0
  0
LINE
  5
1EE
330
1E
100
AcDbEntity
  8
0
100
AcDbLine
 10
220.30267
 20
77.9868
 30
0.0
 11
222.25067
 21
77.9868
 31
0.0
  0
LINE
  5
1F1
330
1E
100
AcDbEntity
  8
0
100
AcDbLine
 10
222.25067
 20
77.9868
 30
0.0
 11
224.41467
 21
77.9868
 31
0.0
  0
LINE
  5
1F2
330
1E
100
AcDbEntity
  8
0
100
AcDbLine
 10
224.41467
 20
75.97709999999999
 30
0.0
 11
226.79467
 21
75.97709999999999
 31
0.0
  0
LINE
  5
1F3
330
1E
100
AcDbEntity
  8
0
100
AcDbLine
 10
226.79467
 20
65.06
 30
0.0
 11
230.09467
 21
64.86
 31
0.0
  0
LINE
  5
1F4
330
1E
100
AcDbEntity
  8
0
100
AcDbLine
 10
226.79467
 20
61.06
 30
0.0
 11
229.59467
 21
61.06
 31
0.0
  0
LINE
  5
1F9
330
1E
100
AcDbEntity
  8
0
100
AcDbLine
 10
226.79467
 20
59.06
 30
0.0
 11
229.59467
 21
59.06
 31
0.0
  0
LINE
  5
1FA
330
1E
100
AcDbEntity
  8
0
100
AcDbLine
 10
226.79467
 20
75.97709999999999
 30
0.0
 11
229.17467
 21
75.97709999999999
 31
0.0
  0
LINE
  5
1FB
330
1E
100
AcDbEntity
  8
0
100
AcDbLine
 10
226.79467
 20
77.9868
 30
0.0
 11
229.17467
 21
77.9868
 31
0.0
  0
LINE
  5
1FC
330
1E
100
AcDbEntity
  8
0
100
AcDbLine
 10
224.41467
 20
77.9868
 30
0.0
 11
226.79467
 21
77.9868
 31
0.0
  0
LINE
  5
1FD
330
1E
100
AcDbEntity
  8
0
100
AcDbLine
 10
224.0896699999999
 20
92.65799999999998
 30
0.0
 11
226.79467
 21
93.06
 31
0.0
  0
LINE
  5
1FE
330
1E
100
AcDbEntity
  8
0
100
AcDbLine
 10
221.49267
 20
91.65319999999999
 30
0.0
 11
224.0896699999999
 21
92.65799999999998
 31
0.0
  0
LINE
  5
1FF
330
1E
100
AcDbEntity
  8
0
100
AcDbLine
 10
226.79467
 20
93.06
 30
0.0
 11
229.49967
 21
92.65799999999998
 31
0.0
  0
LINE
  5
200
330
1E
100
AcDbEntity
  8
0
100
AcDbLine
 10
226.79467
 20
58.56
 30
0.0
 11
228.79467
 21
58.26
 31
0.0
  0
LINE
  5
201
330
1E
100
AcDbEntity
  8
0
100
AcDbLine
 10
229.59467
 20
61.06
 30
0.0
 11
232.29467
 21
61.06
 31
0.0
  0
LINE
  5
204
330
1E
100
AcDbEntity
  8
0
100
AcDbLine
 10
230.09467
 20
64.86
 30
0.0
 11
233.99467
 21
63.56
 31
0.0
  0
LINE
  5
207
330
1E
100
AcDbEntity
  8
0
100
AcDbLine
 10
229.59467
 20
59.06
 30
0.0
 11
232.29467
 21
59.06
 31
0.0
  0
LINE
  5
208
330
1E
100
AcDbEntity
  8
0
100
AcDbLine
 10
231.33867
 20
77.9868
 30
0.0
 11
233.28667
 21
77.9868
 31
0.0
  0
LINE
  5
209
330
1E
100
AcDbEntity
  8
0
100
AcDbLine
 10
229.17467
 20
75.97709999999999
 30
0.0
 11
231.33867
 21
75.97709999999999
 31
0.0
  0
LINE
  5
20A
330
1E
100
AcDbEntity
  8
0
100
AcDbLine
 10
229.17467
 20
77.9868
 30
0.0
 11
231.33867
 21
77.9868
 31
0.0
  0
LINE
  5
20D
330
1E
100
AcDbEntity
  8
0
100
AcDbLine
 10
231.33867
 20
75.97709999999999
 30
0.0
 11
233.28667
 21
75.97709999999999
 31
0.0
  0
LINE
  5
20E
330
1E
100
AcDbEntity
  8
0
100
AcDbLine
 10
229.49967
 20
92.65799999999998
 30
0.0
 11
232.09667
 21
91.65319999999999
 31
0.0
  0
LINE
  5
20F
330
1E
100
AcDbEntity
  8
0
100
AcDbLine
 10
228.79467
 20
58.26
 30
0.0
 11
230.59467
 21
57.56
 31
0.0
  0
LINE
  5
210
330
1E
100
AcDbEntity
  8
0
100
AcDbLine
 10
230.59467
 20
57.56
 30
0.0
 11
232.0946699999999
 21
56.36
 31
0.0
  0
LINE
  5
211
330
1E
100
AcDbEntity
  8
0
100
AcDbLine
 10
232.29467
 20
61.06
 30
0.0
 11
234.59467
 21
61.06
 31
0.0
  0
LINE
  5
214
330
1E
100
AcDbEntity
  8
0
100
AcDbLine
 10
232.29467
 20
59.06
 30
0.0
 11
234.59467
 21
59.06
 31
0.0
  0
LINE
  5
215
330
1E
100
AcDbEntity
  8
0
100
AcDbLine
 10
233.28667
 20
77.9868
 30
0.0
 11
234.80167
 21
77.9868
 31
0.0
  0
LINE
  5
216
330
1E
100
AcDbEntity
  8
0
100
AcDbLine
 10
233.99467
 20
63.56
 30
0.0
 11
237.79467
 21
61.06
 31
0.0
  0
LINE
  5
219
330
1E
100
AcDbEntity
  8
0
100
AcDbLine
 10
233.28667
 20
75.97709999999999
 30
0.0
 11
234.80167
 21
75.97709999999999
 31
0.0
  0
LINE
  5
21A
330
1E
100
AcDbEntity
  8
0
100
AcDbLine
 10
232.09667
 20
91.65319999999999
 30
0.0
 11
234.36867
 21
90.0454
 31
0.0
  0
LINE
  5
21B
330
1E
100
AcDbEntity
  8
0
100
AcDbLine
 10
232.0946699999999
 20
56.36
 30
0.0
 11
233.29467
 21
54.86
 31
0.0
  0
LINE
  5
21C
330
1E
100
AcDbEntity
  8
0
100
AcDbLine
 10
233.29467
 20
54.86
 30
0.0
 11
233.99467
 21
53.06
 31
0.0
  0
LINE
  5
21D
330
1E
100
AcDbEntity
  8
0
100
AcDbLine
 10
239.29467
 20
53.06
 30
0.0
 11
239.39467
 21
51.06
 31
0.0
  0
LINE
  5
21E
330
1E
100
AcDbEntity
  8
0
100
AcDbLine
 10
237.39467
 20
59.06
 30
0.0
 11
237.79467
 21
59.06
 31
0.0
  0
LINE
  5
21F
330
1E
100
AcDbEntity
  8
0
100
AcDbLine
 10
236.29467
 20
59.06
 30
0.0
 11
237.39467
 21
59.06
 31
0.0
  0
LINE
  5
220
330
1E
100
AcDbEntity
  8
0
100
AcDbLine
 10
234.59467
 20
59.06
 30
0.0
 11
236.29467
 21
59.06
 31
0.0
  0
LINE
  5
221
330
1E
100
AcDbEntity
  8
0
100
AcDbLine
 10
234.59467
 20
61.06
 30
0.0
 11
236.29467
 21
61.06
 31
0.0
  0
LINE
  5
224
330
1E
100
AcDbEntity
  8
0
100
AcDbLine
 10
236.29467
 20
61.06
 30
0.0
 11
237.39467
 21
61.06
 31
0.0
  0
LINE
  5
226
330
1E
100
AcDbEntity
  8
0
100
AcDbLine
 10
237.39467
 20
61.06
 30
0.0
 11
237.79467
 21
61.06
 31
0.0
  0
LINE
  5
227
330
1E
100
AcDbEntity
  8
0
100
AcDbLine
 10
238.29467
 20
60.56
 30
0.0
 11
238.29467
 21
59.56
 31
0.0
  0
LINE
  5
22B
330
1E
100
AcDbEntity
  8
0
100
AcDbLine
 10
237.79467
 20
61.06
 30
0.0
 11
238.29467
 21
60.56
 31
0.0
  0
LINE
  5
22C
330
1E
100
AcDbEntity
  8
0
100
AcDbLine
 10
238.29467
 20
59.56
 30
0.0
 11
238.29467
 21
60.56
 31
0.0
  0
LINE
  5
22D
330
1E
100
AcDbEntity
  8
0
100
AcDbLine
 10
237.79467
 20
59.06
 30
0.0
 11
238.79467
 21
56.06
 31
0.0
  0
LINE
  5
22E
330
1E
100
AcDbEntity
  8
0
100
AcDbLine
 10
237.79467
 20
59.06
 30
0.0
 11
238.29467
 21
59.56
 31
0.0
  0
LINE
  5
22F
330
1E
100
AcDbEntity
  8
0
100
AcDbLine
 10
238.79467
 20
56.06
 30
0.0
 11
239.29467
 21
53.06
 31
0.0
  0
LINE
  5
232
330
1E
100
AcDbEntity
  8
0
100
AcDbLine
 10
235.66667
 20
77.9868
 30
0.0
 11
235.99167
 21
77.9868
 31
0.0
  0
LINE
  5
233
330
1E
100
AcDbEntity
  8
0
100
AcDbLine
 10
234.80167
 20
77.9868
 30
0.0
 11
235.66667
 21
77.9868
 31
0.0
  0
LINE
  5
234
330
1E
100
AcDbEntity
  8
0
100
AcDbLine
 10
234.80167
 20
75.97709999999999
 30
0.0
 11
235.66667
 21
75.97709999999999
 31
0.0
  0
LINE
  5
235
330
1E
100
AcDbEntity
  8
0
100
AcDbLine
 10
235.66667
 20
75.97709999999999
 30
0.0
 11
235.99167
 21
75.97709999999999
 31
0.0
  0
LINE
  5
236
330
1E
100
AcDbEntity
  8
0
100
AcDbLine
 10
234.36867
 20
90.0454
 30
0.0
 11
235.99167
 21
87.93510000000001
 31
0.0
  0
LINE
  5
237
330
1E
100
AcDbEntity
  8
0
100
AcDbLine
 10
235.99167
 20
87.93510000000001
 30
0.0
 11
237.18167
 21
85.52339999999999
 31
0.0
  0
LINE
  5
238
330
1E
100
AcDbEntity
  8
0
100
AcDbLine
 10
235.99167
 20
77.9868
 30
0.0
 11
237.18167
 21
80.49899999999999
 31
0.0
  0
LINE
  5
239
330
1E
100
AcDbEntity
  8
0
100
AcDbLine
 10
235.99167
 20
77.9868
 30
0.0
 11
236.53267
 21
77.48439999999999
 31
0.0
  0
LINE
  5
23C
330
1E
100
AcDbEntity
  8
0
100
AcDbLine
 10
236.53267
 20
76.4795
 30
0.0
 11
236.53267
 21
77.48439999999999
 31
0.0
  0
LINE
  5
23D
330
1E
100
AcDbEntity
  8
0
100
AcDbLine
 10
236.53267
 20
77.48439999999999
 30
0.0
 11
236.53267
 21
76.4795
 31
0.0
  0
LINE
  5
23E
330
1E
100
AcDbEntity
  8
0
100
AcDbLine
 10
237.18167
 20
85.52339999999999
 30
0.0
 11
237.61467
 21
83.0112
 31
0.0
  0
LINE
  5
23F
330
1E
100
AcDbEntity
  8
0
100
AcDbLine
 10
237.18167
 20
80.49899999999999
 30
0.0
 11
237.61467
 21
83.0112
 31
0.0
  0
LINE
  5
240
330
1E
100
AcDbEntity
  8
0
100
AcDbLine
 10
235.99167
 20
75.97709999999999
 30
0.0
 11
238.58767
 21
74.4698
 31
0.0
  0
LINE
  5
241
330
1E
100
AcDbEntity
  8
0
100
AcDbLine
 10
235.99167
 20
75.97709999999999
 30
0.0
 11
236.53267
 21
76.4795
 31
0.0
  0
LINE
  5
242
330
1E
100
AcDbEntity
  8
0
100
AcDbLine
 10
238.58767
 20
74.4698
 30
0.0
 11
243.5646699999999
 21
70.95269999999999
 31
0.0
  0
LINE
  5
243
330
1E
100
AcDbEntity
  8
0
100
AcDbLine
 10
243.5646699999999
 20
70.95269999999999
 30
0.0
 11
247.35167
 21
66.33020000000001
 31
0.0
  0
LINE
  5
244
330
1E
100
AcDbEntity
  8
0
100
AcDbLine
 10
247.35167
 20
66.33020000000001
 30
0.0
 11
249.73267
 21
61.00439999999999
 31
0.0
  0
LINE
  5
245
330
1E
100
AcDbEntity
  8
0
100
AcDbLine
 10
249.73267
 20
61.00439999999999
 30
0.0
 11
250.59767
 21
55.3771
 31
0.0
  0
LINE
  5
246
330
1E
100
AcDbEntity
  8
0
100
AcDbLine
 10
250.59767
 20
55.3771
 30
0.0
 11
250.59767
 21
17.257
 31
0.0
  0
LINE
  5
247
330
1E
100
AcDbEntity
  8
0
100
AcDbLine
 10
233.99467
 20
53.06
 30
0.0
 11
234.29467
 21
51.06
 31
0.0
  0
LINE
  5
248
330
1E
100
AcDbEntity
  8
0
100
AcDbLine
 10
219.5946699999999
 20
49.06
 30
0.0
 11
220.29467
 21
47.25999999999999
 31
0.0
  0
LINE
  5
249
330
1E
100
AcDbEntity
  8
0
100
AcDbLine
 10
219.29467
 20
51.06
 30
0.0
 11
219.5946699999999
 21
49.06
 31
0.0
  0
LINE
  5
24A
330
1E
100
AcDbEntity
  8
0
100
AcDbLine
 10
219.29467
 20
51.06
 30
0.0
 11
219.5946699999999
 21
53.06
 31
0.0
  0
LINE
  5
24B
330
1E
100
AcDbEntity
  8
0
100
AcDbLine
 10
99.44566999999999
 20
111.7399999999999
 30
0.0
 11
109.1516699999999
 21
104.8669999999999
 31
0.0
  0
LINE
  5
24C
330
1E
100
AcDbEntity
  8
0
100
AcDbLine
 10
69.34716999999999
 20
108.887
 30
0.0
 11
70.58356999999999
 21
108.485
 31
0.0
  0
LINE
  5
24D
330
1E
100
AcDbEntity
  8
0
100
AcDbLine
 10
65.82836999999999
 20
110.03
 30
0.0
 11
69.34716999999999
 21
108.887
 31
0.0
  0
LINE
  5
24E
330
1E
100
AcDbEntity
  8
0
100
AcDbLine
 10
63.75937
 20
115.9599999999999
 30
0.0
 11
69.84617
 21
113.982
 31
0.0
  0
LINE
  5
24F
330
1E
100
AcDbEntity
  8
0
100
AcDbLine
 10
69.84617
 20
113.982
 30
0.0
 11
73.07966999999999
 21
112.932
 31
0.0
  0
LINE
  5
250
330
1E
100
AcDbEntity
  8
0
100
AcDbLine
 10
73.07966999999999
 20
112.932
 30
0.0
 11
74.62476999999999
 21
117.687
 31
0.0
  0
LINE
  5
251
330
1E
100
AcDbEntity
  8
0
100
AcDbLine
 10
73.29336999999999
 20
118.12
 30
0.0
 11
74.62476999999999
 21
117.687
 31
0.0
  0
LINE
  5
252
330
1E
100
AcDbEntity
  8
0
100
AcDbLine
 10
64.47067
 20
143.067
 30
0.0
 11
66.91046999999999
 21
138.2779999999999
 31
0.0
  0
LINE
  5
253
330
1E
100
AcDbEntity
  8
0
100
AcDbLine
 10
66.91046999999999
 20
138.2779999999999
 30
0.0
 11
68.06606999999999
 21
136.0099999999999
 31
0.0
  0
LINE
  5
254
330
1E
100
AcDbEntity
  8
0
100
AcDbLine
 10
68.06606999999999
 20
136.0099999999999
 30
0.0
 11
69.28586999999999
 21
133.616
 31
0.0
  0
LINE
  5
255
330
1E
100
AcDbEntity
  8
0
100
AcDbLine
 10
73.97276999999999
 20
124.4179999999999
 30
0.0
 11
74.10127
 21
124.1659999999999
 31
0.0
  0
LINE
  5
256
330
1E
100
AcDbEntity
  8
0
100
AcDbLine
 10
73.45917
 20
125.426
 30
0.0
 11
73.97276999999999
 21
124.4179999999999
 31
0.0
  0
LINE
  5
257
330
1E
100
AcDbEntity
  8
0
100
AcDbLine
 10
72.68876999999999
 20
126.9379999999999
 30
0.0
 11
73.45917
 21
125.426
 31
0.0
  0
LINE
  5
258
330
1E
100
AcDbEntity
  8
0
100
AcDbLine
 10
71.72577
 20
128.828
 30
0.0
 11
72.68876999999999
 21
126.9379999999999
 31
0.0
  0
LINE
  5
259
330
1E
100
AcDbEntity
  8
0
100
AcDbLine
 10
70.57007
 20
131.097
 30
0.0
 11
71.72577
 21
128.828
 31
0.0
  0
LINE
  5
25A
330
1E
100
AcDbEntity
  8
0
100
AcDbLine
 10
69.28586999999999
 20
133.616
 30
0.0
 11
70.57007
 21
131.097
 31
0.0
  0
LINE
  5
25B
330
1E
100
AcDbEntity
  8
0
100
AcDbLine
 10
69.77446999999999
 20
119.2629999999999
 30
0.0
 11
73.29336999999999
 21
118.12
 31
0.0
  0
LINE
  5
25C
330
1E
100
AcDbEntity
  8
0
100
AcDbLine
 10
63.97297
 20
121.1479999999999
 30
0.0
 11
69.77446999999999
 21
119.2629999999999
 31
0.0
  0
LINE
  5
25D
330
1E
100
AcDbEntity
  8
0
100
AcDbLine
 10
64.47067
 20
143.067
 30
0.0
 11
83.01626999999999
 21
137.0419999999999
 31
0.0
  0
LINE
  5
25E
330
1E
100
AcDbEntity
  8
0
100
AcDbLine
 10
130.0496699999999
 20
113.3529999999999
 30
0.0
 11
139.33867
 21
106.725
 31
0.0
  0
LINE
  5
25F
330
1E
100
AcDbEntity
  8
0
100
AcDbLine
 10
118.9836699999999
 20
120.182
 30
0.0
 11
130.0496699999999
 21
113.3529999999999
 31
0.0
  0
LINE
  5
260
330
1E
100
AcDbEntity
  8
0
100
AcDbLine
 10
90.28367000000001
 20
121.889
 30
0.0
 11
91.31846999999998
 21
123.482
 31
0.0
  0
LINE
  5
261
330
1E
100
AcDbEntity
  8
0
100
AcDbLine
 10
89.35776999999999
 20
120.4629999999999
 30
0.0
 11
90.28367000000001
 21
121.889
 31
0.0
  0
LINE
  5
262
330
1E
100
AcDbEntity
  8
0
100
AcDbLine
 10
88.70416999999999
 20
119.456
 30
0.0
 11
89.35776999999999
 21
120.4629999999999
 31
0.0
  0
LINE
  5
263
330
1E
100
AcDbEntity
  8
0
100
AcDbLine
 10
88.26857
 20
118.786
 30
0.0
 11
88.70416999999999
 21
119.456
 31
0.0
  0
LINE
  5
264
330
1E
100
AcDbEntity
  8
0
100
AcDbLine
 10
88.10517
 20
118.5339999999999
 30
0.0
 11
88.26857
 21
118.786
 31
0.0
  0
LINE
  5
265
330
1E
100
AcDbEntity
  8
0
100
AcDbLine
 10
88.10517
 20
118.5339999999999
 30
0.0
 11
99.44566999999999
 21
111.7399999999999
 31
0.0
  0
LINE
  5
266
330
1E
100
AcDbEntity
  8
0
100
AcDbLine
 10
108.4836699999999
 20
126.047
 30
0.0
 11
118.9836699999999
 21
120.182
 31
0.0
  0
LINE
  5
267
330
1E
100
AcDbEntity
  8
0
100
AcDbLine
 10
96.81967
 20
131.952
 30
0.0
 11
108.4836699999999
 21
126.047
 31
0.0
  0
LINE
  5
268
330
1E
100
AcDbEntity
  8
0
100
AcDbLine
 10
96.65567000000001
 20
131.701
 30
0.0
 11
96.81967
 21
131.952
 31
0.0
  0
LINE
  5
269
330
1E
100
AcDbEntity
  8
0
100
AcDbLine
 10
96.22067000000001
 20
131.03
 30
0.0
 11
96.65567000000001
 21
131.701
 31
0.0
  0
LINE
  5
26A
330
1E
100
AcDbEntity
  8
0
100
AcDbLine
 10
95.51166999999999
 20
129.939
 30
0.0
 11
96.22067000000001
 21
131.03
 31
0.0
  0
LINE
  5
26B
330
1E
100
AcDbEntity
  8
0
100
AcDbLine
 10
94.64067
 20
128.5979999999999
 30
0.0
 11
95.51166999999999
 21
129.939
 31
0.0
  0
LINE
  5
26C
330
1E
100
AcDbEntity
  8
0
100
AcDbLine
 10
93.55166999999999
 20
126.92
 30
0.0
 11
94.64067
 21
128.5979999999999
 31
0.0
  0
LINE
  5
26D
330
1E
100
AcDbEntity
  8
0
100
AcDbLine
 10
92.46266999999999
 20
125.2429999999999
 30
0.0
 11
93.55166999999999
 21
126.92
 31
0.0
  0
LINE
  5
26E
330
1E
100
AcDbEntity
  8
0
100
AcDbLine
 10
91.31846999999998
 20
123.482
 30
0.0
 11
92.46266999999999
 21
125.2429999999999
 31
0.0
  0
LINE
  5
26F
330
1E
100
AcDbEntity
  8
0
100
AcDbLine
 10
83.01626999999999
 20
137.0419999999999
 30
0.0
 11
96.81967
 21
131.952
 31
0.0
  0
LINE
  5
270
330
1E
100
AcDbEntity
  8
0
100
AcDbLine
 10
78.38096999999999
 20
122.775
 30
0.0
 11
88.10517
 21
118.5339999999999
 31
0.0
  0
LINE
  5
271
330
1E
100
AcDbEntity
  8
0
100
AcDbLine
 10
74.10127
 20
124.1659999999999
 30
0.0
 11
78.38096999999999
 21
122.775
 31
0.0
  0
LINE
  5
272
330
1E
100
AcDbEntity
  8
0
100
AcDbLine
 10
74.10127
 20
124.1659999999999
 30
0.0
 11
74.62476999999999
 21
117.687
 31
0.0
  0
LINE
  5
273
330
1E
100
AcDbEntity
  8
0
100
AcDbLine
 10
60.21696999999999
 20
111.854
 30
0.0
 11
65.82836999999999
 21
110.03
 31
0.0
  0
LINE
  5
274
330
1E
100
AcDbEntity
  8
0
100
AcDbLine
 10
59.86097
 20
104.61
 30
0.0
 11
70.58356999999999
 21
108.485
 31
0.0
  0
LINE
  5
279
330
1E
100
AcDbEntity
  8
0
100
AcDbLine
 10
36.73887
 20
105.2869999999999
 30
0.0
 11
25.51647
 21
108.9339999999999
 31
0.0
  0
LINE
  5
27A
330
1E
100
AcDbEntity
  8
0
100
AcDbLine
 10
199.8946699999999
 20
55.76
 30
0.0
 11
197.841280519245
 21
54.09403630986809
 31
0.0
  0
LINE
  5
27B
330
1E
100
AcDbEntity
  8
0
100
AcDbLine
 10
197.841280519245
 20
54.09403630986809
 30
0.0
 11
182.9946699999999
 21
41.65999999999999
 31
0.0
  0
ENDSEC
  0
SECTION
  2
OBJECTS
  0
DICTIONARY
  5
C
330
0
100
AcDbDictionary
281
     1
  3
ACAD_GROUP
350
D
  3
ACAD_LAYOUT
350
19
  3
ACAD_MLINESTYLE
350
16
  3
ACAD_PLOTSETTINGS
350
18
  3
ACAD_PLOTSTYLENAME
350
E
  3
AcDbVariableDictionary
350
27C
  0
DICTIONARY
  5
D
102
{ACAD_REACTORS
330
C
102
}
330
C
100
AcDbDictionary
281
     1
  0
DICTIONARY
  5
19
102
{ACAD_REACTORS
330
C
102
}
330
C
100
AcDbDictionary
281
     1
  3
Layout1
350
1D
  3
Model
350
21
  0
DICTIONARY
  5
16
102
{ACAD_REACTORS
330
C
102
}
330
C
100
AcDbDictionary
281
     1
  3
Standard
350
17
  0
DICTIONARY
  5
18
102
{ACAD_REACTORS
330
C
102
}
330
C
100
AcDbDictionary
281
     1
  0
ACDBDICTIONARYWDFLT
  5
E
102
{ACAD_REACTORS
330
C
102
}
330
C
100
AcDbDictionary
281
     1
  3
Normal
350
F
100
AcDbDictionaryWithDefault
340
F
  0
DICTIONARY
  5
27C
102
{ACAD_REACTORS
330
C
102
}
330
C
100
AcDbDictionary
281
     1
  3
DIMASSOC
350
27D
  0
LAYOUT
  5
1D
102
{ACAD_REACTORS
330
19
102
}
330
19
100
AcDbPlotSettings
  1

  2
hp deskjet 980c series
  4

  6

 40
0.0
 41
0.0
 42
0.0
 43
0.0
 44
0.0
 45
0.0
 46
0.0
 47
0.0
 48
0.0
 49
0.0
140
0.0
141
0.0
142
1.0
143
1.0
 70
   688
 72
     0
 73
     0
 74
     5
  7

 75
    16
147
1.0
148
0.0
149
0.0
100
AcDbLayout
  1
Layout1
 70
     1
 71
     1
 10
0.0
 20
0.0
 11
12.0
 21
9.0
 12
0.0
 22
0.0
 32
0.0
 14
1.000000000000000E+20
 24
1.000000000000000E+20
 34
1.000000000000000E+20
 15
-1.000000000000000E+20
 25
-1.000000000000000E+20
 35
-1.000000000000000E+20
146
0.0
 13
0.0
 23
0.0
 33
0.0
 16
1.0
 26
0.0
 36
0.0
 17
0.0
 27
1.0
 37
0.0
 76
     0
330
1A
  0
LAYOUT
  5
21
102
{ACAD_REACTORS
330
19
102
}
330
19
100
AcDbPlotSettings
  1

  2
hp deskjet 980c series
  4

  6

 40
0.0
 41
0.0
 42
0.0
 43
0.0
 44
0.0
 45
0.0
 46
0.0
 47
0.0
 48
0.0
 49
0.0
140
0.0
141
0.0
142
1.0
143
1.0
 70
  1712
 72
     0
 73
     0
 74
     0
  7

 75
     0
147
1.0
148
0.0
149
0.0
100
AcDbLayout
  1
Model
 70
     1
 71
     0
 10
0.0
 20
0.0
 11
12.0
 21
9.0
 12
0.0
 22
0.0
 32
0.0
 14
0.0
 24
0.0
 34
0.0
 15
0.0
 25
0.0
 35
0.0
146
0.0
 13
0.0
 23
0.0
 33
0.0
 16
1.0
 26
0.0
 36
0.0
 17
0.0
 27
1.0
 37
0.0
 76
     0
330
1E
  0
MLINESTYLE
  5
17
102
{ACAD_REACTORS
330
16
102
}
330
16
100
AcDbMlineStyle
  2
STANDARD
 70
     0
  3

 62
   256
 51
90.0
 52
90.0
 71
     2
 49
0.5
 62
   256
  6
BYLAYER
 49
-0.5
 62
   256
  6
BYLAYER
  0
ACDBPLACEHOLDER
  5
F
102
{ACAD_REACTORS
330
E
102
}
330
E
  0
DICTIONARYVAR
  5
27D
102
{ACAD_REACTORS
330
27C
102
}
330
27C
100
DictionaryVariables
280
     0
  1
1
  0
ENDSEC
  0
EOF
