  0
SECTION
  2
HEADER
  9
$ACADVER
  1
AC1015
  9
$ACADMAINTVER
 70
    13
  9
$DWGCODEPAGE
  3
ANSI_1252
  9
$INSBASE
 10
0.0
 20
0.0
 30
0.0
  9
$EXTMIN
 10
-0.0000000000000339
 20
0.0599999999999859
 30
0.0
  9
$EXTMAX
 10
420.0
 20
154.94
 30
0.0
  9
$LIMMIN
 10
0.0
 20
0.0
  9
$LIMMAX
 10
12.0
 20
9.0
  9
$ORTHOMODE
 70
     0
  9
$REGENMODE
 70
     1
  9
$FILLMODE
 70
     1
  9
$QTEXTMODE
 70
     0
  9
$MIRRTEXT
 70
     1
  9
$LTSCALE
 40
1.0
  9
$ATTMODE
 70
     1
  9
$TEXTSIZE
 40
0.2
  9
$TRACEWID
 40
0.05
  9
$TEXTSTYLE
  7
Standard
  9
$CLAYER
  8
0
  9
$CELTYPE
  6
Continuous
  9
$CECOLOR
 62
   256
  9
$CELTSCALE
 40
1.0
  9
$DISPSILH
 70
     0
  9
$DIMSCALE
 40
1.0
  9
$DIMASZ
 40
0.18
  9
$DIMEXO
 40
0.0625
  9
$DIMDLI
 40
0.38
  9
$DIMRND
 40
0.0
  9
$DIMDLE
 40
0.0
  9
$DIMEXE
 40
0.18
  9
$DIMTP
 40
0.0
  9
$DIMTM
 40
0.0
  9
$DIMTXT
 40
0.18
  9
$DIMCEN
 40
0.09
  9
$DIMTSZ
 40
0.0
  9
$DIMTOL
 70
     0
  9
$DIMLIM
 70
     0
  9
$DIMTIH
 70
     1
  9
$DIMTOH
 70
     1
  9
$DIMSE1
 70
     0
  9
$DIMSE2
 70
     0
  9
$DIMTAD
 70
     0
  9
$DIMZIN
 70
     0
  9
$DIMBLK
  1

  9
$DIMASO
 70
     1
  9
$DIMSHO
 70
     1
  9
$DIMPOST
  1

  9
$DIMAPOST
  1

  9
$DIMALT
 70
     0
  9
$DIMALTD
 70
     2
  9
$DIMALTF
 40
25.4
  9
$DIMLFAC
 40
1.0
  9
$DIMTOFL
 70
     0
  9
$DIMTVP
 40
0.0
  9
$DIMTIX
 70
     0
  9
$DIMSOXD
 70
     0
  9
$DIMSAH
 70
     0
  9
$DIMBLK1
  1

  9
$DIMBLK2
  1

  9
$DIMSTYLE
  2
Standard
  9
$DIMCLRD
 70
     0
  9
$DIMCLRE
 70
     0
  9
$DIMCLRT
 70
     0
  9
$DIMTFAC
 40
1.0
  9
$DIMGAP
 40
0.09
  9
$DIMJUST
 70
     0
  9
$DIMSD1
 70
     0
  9
$DIMSD2
 70
     0
  9
$DIMTOLJ
 70
     1
  9
$DIMTZIN
 70
     0
  9
$DIMALTZ
 70
     0
  9
$DIMALTTZ
 70
     0
  9
$DIMUPT
 70
     0
  9
$DIMDEC
 70
     4
  9
$DIMTDEC
 70
     4
  9
$DIMALTU
 70
     2
  9
$DIMALTTD
 70
     2
  9
$DIMTXSTY
  7
Standard
  9
$DIMAUNIT
 70
     0
  9
$DIMADEC
 70
     0
  9
$DIMALTRND
 40
0.0
  9
$DIMAZIN
 70
     0
  9
$DIMDSEP
 70
    46
  9
$DIMATFIT
 70
     3
  9
$DIMFRAC
 70
     0
  9
$DIMLDRBLK
  1

  9
$DIMLUNIT
 70
     2
  9
$DIMLWD
 70
    -2
  9
$DIMLWE
 70
    -2
  9
$DIMTMOVE
 70
     0
  9
$LUNITS
 70
     2
  9
$LUPREC
 70
     4
  9
$SKETCHINC
 40
0.1
  9
$FILLETRAD
 40
0.0
  9
$AUNITS
 70
     0
  9
$AUPREC
 70
     0
  9
$MENU
  1
.
  9
$ELEVATION
 40
0.0
  9
$PELEVATION
 40
0.0
  9
$THICKNESS
 40
0.0
  9
$LIMCHECK
 70
     0
  9
$CHAMFERA
 40
0.0
  9
$CHAMFERB
 40
0.0
  9
$CHAMFERC
 40
0.0
  9
$CHAMFERD
 40
0.0
  9
$SKPOLY
 70
     0
  9
$TDCREATE
 40
2454753.396520173
  9
$TDUCREATE
 40
2454753.313186840
  9
$TDUPDATE
 40
2454753.400703842
  9
$TDUUPDATE
 40
2454753.317370509
  9
$TDINDWG
 40
0.0041836690
  9
$TDUSRTIMER
 40
0.0041836690
  9
$USRTIMER
 70
     1
  9
$ANGBASE
 50
0.0
  9
$ANGDIR
 70
     0
  9
$PDMODE
 70
     0
  9
$PDSIZE
 40
0.0
  9
$PLINEWID
 40
0.0
  9
$SPLFRAME
 70
     0
  9
$SPLINETYPE
 70
     6
  9
$SPLINESEGS
 70
     8
  9
$HANDSEED
  5
3F1
  9
$SURFTAB1
 70
     6
  9
$SURFTAB2
 70
     6
  9
$SURFTYPE
 70
     6
  9
$SURFU
 70
     6
  9
$SURFV
 70
     6
  9
$UCSBASE
  2

  9
$UCSNAME
  2

  9
$UCSORG
 10
0.0
 20
0.0
 30
0.0
  9
$UCSXDIR
 10
1.0
 20
0.0
 30
0.0
  9
$UCSYDIR
 10
0.0
 20
1.0
 30
0.0
  9
$UCSORTHOREF
  2

  9
$UCSORTHOVIEW
 70
     1
  9
$UCSORGTOP
 10
0.0
 20
0.0
 30
0.0
  9
$UCSORGBOTTOM
 10
0.0
 20
0.0
 30
0.0
  9
$UCSORGLEFT
 10
0.0
 20
0.0
 30
0.0
  9
$UCSORGRIGHT
 10
0.0
 20
0.0
 30
0.0
  9
$UCSORGFRONT
 10
0.0
 20
0.0
 30
0.0
  9
$UCSORGBACK
 10
0.0
 20
0.0
 30
0.0
  9
$PUCSBASE
  2

  9
$PUCSNAME
  2

  9
$PUCSORG
 10
0.0
 20
0.0
 30
0.0
  9
$PUCSXDIR
 10
1.0
 20
0.0
 30
0.0
  9
$PUCSYDIR
 10
0.0
 20
1.0
 30
0.0
  9
$PUCSORTHOREF
  2

  9
$PUCSORTHOVIEW
 70
     0
  9
$PUCSORGTOP
 10
0.0
 20
0.0
 30
0.0
  9
$PUCSORGBOTTOM
 10
0.0
 20
0.0
 30
0.0
  9
$PUCSORGLEFT
 10
0.0
 20
0.0
 30
0.0
  9
$PUCSORGRIGHT
 10
0.0
 20
0.0
 30
0.0
  9
$PUCSORGFRONT
 10
0.0
 20
0.0
 30
0.0
  9
$PUCSORGBACK
 10
0.0
 20
0.0
 30
0.0
  9
$USERI1
 70
     0
  9
$USERI2
 70
     0
  9
$USERI3
 70
     0
  9
$USERI4
 70
     0
  9
$USERI5
 70
     0
  9
$USERR1
 40
0.0
  9
$USERR2
 40
0.0
  9
$USERR3
 40
0.0
  9
$USERR4
 40
0.0
  9
$USERR5
 40
0.0
  9
$WORLDVIEW
 70
     1
  9
$SHADEDGE
 70
     3
  9
$SHADEDIF
 70
    70
  9
$TILEMODE
 70
     1
  9
$MAXACTVP
 70
    64
  9
$PINSBASE
 10
0.0
 20
0.0
 30
0.0
  9
$PLIMCHECK
 70
     0
  9
$PEXTMIN
 10
1.000000000000000E+20
 20
1.000000000000000E+20
 30
1.000000000000000E+20
  9
$PEXTMAX
 10
-1.000000000000000E+20
 20
-1.000000000000000E+20
 30
-1.000000000000000E+20
  9
$PLIMMIN
 10
0.0
 20
0.0
  9
$PLIMMAX
 10
12.0
 20
9.0
  9
$UNITMODE
 70
     0
  9
$VISRETAIN
 70
     1
  9
$PLINEGEN
 70
     0
  9
$PSLTSCALE
 70
     1
  9
$TREEDEPTH
 70
  3020
  9
$CMLSTYLE
  2
Standard
  9
$CMLJUST
 70
     0
  9
$CMLSCALE
 40
1.0
  9
$PROXYGRAPHICS
 70
     1
  9
$MEASUREMENT
 70
     0
  9
$CELWEIGHT
370
    -1
  9
$ENDCAPS
280
     0
  9
$JOINSTYLE
280
     0
  9
$LWDISPLAY
290
     0
  9
$INSUNITS
 70
     0
  9
$HYPERLINKBASE
  1

  9
$STYLESHEET
  1

  9
$XEDIT
290
     1
  9
$CEPSNTYPE
380
     0
  9
$PSTYLEMODE
290
     1
  9
$FINGERPRINTGUID
  2
{B31C41D4-7268-4441-ACDA-4CE2C2878EDF}
  9
$VERSIONGUID
  2
{A2A1A93B-753F-4E54-85C2-247A839AAF70}
  9
$EXTNAMES
290
     1
  9
$PSVPSCALE
 40
0.0
  9
$OLESTARTUP
290
     0
  0
ENDSEC
  0
SECTION
  2
CLASSES
  0
CLASS
  1
ACDBDICTIONARYWDFLT
  2
AcDbDictionaryWithDefault
  3
AutoCAD 2000
 90
        0
280
     0
281
     0
  0
CLASS
  1
ACDBPLACEHOLDER
  2
AcDbPlaceHolder
  3
AutoCAD 2000
 90
        0
280
     0
281
     0
  0
CLASS
  1
LAYOUT
  2
AcDbLayout
  3
AutoCAD 2000
 90
        0
280
     0
281
     0
  0
CLASS
  1
DICTIONARYVAR
  2
AcDbDictionaryVar
  3
AutoCAD 2000
 90
        0
280
     0
281
     0
  0
ENDSEC
  0
SECTION
  2
TABLES
  0
TABLE
  2
VPORT
  5
8
330
0
100
AcDbSymbolTable
 70
     2
  0
VPORT
  5
3F0
330
8
100
AcDbSymbolTableRecord
100
AcDbViewportTableRecord
  2
*Active
 70
     0
 10
0.0
 20
0.0
 11
1.0
 21
1.0
 12
210.0
 22
77.5
 13
0.0
 23
0.0
 14
1.0
 24
1.0
 15
0.0
 25
0.0
 16
0.0
 26
0.0
 36
1.0
 17
0.0
 27
0.0
 37
0.0
 40
202.853910383071
 41
2.078104993597951
 42
50.0
 43
0.0
 44
0.0
 50
0.0
 51
0.0
 71
     0
 72
   100
 73
     1
 74
     3
 75
     0
 76
     0
 77
     0
 78
     0
281
     0
 65
     1
110
0.0
120
0.0
130
0.0
111
1.0
121
0.0
131
0.0
112
0.0
122
1.0
132
0.0
 79
     1
146
0.0
  0
ENDTAB
  0
TABLE
  2
LTYPE
  5
5
330
0
100
AcDbSymbolTable
 70
     1
  0
LTYPE
  5
13
330
5
100
AcDbSymbolTableRecord
100
AcDbLinetypeTableRecord
  2
ByBlock
 70
     0
  3

 72
    65
 73
     0
 40
0.0
  0
LTYPE
  5
14
330
5
100
AcDbSymbolTableRecord
100
AcDbLinetypeTableRecord
  2
ByLayer
 70
     0
  3

 72
    65
 73
     0
 40
0.0
  0
LTYPE
  5
15
330
5
100
AcDbSymbolTableRecord
100
AcDbLinetypeTableRecord
  2
Continuous
 70
     0
  3
Solid line
 72
    65
 73
     0
 40
0.0
  0
ENDTAB
  0
TABLE
  2
LAYER
  5
2
330
0
100
AcDbSymbolTable
 70
     1
  0
LAYER
  5
10
330
2
100
AcDbSymbolTableRecord
100
AcDbLayerTableRecord
  2
0
 70
     0
 62
     7
  6
Continuous
370
    -3
390
F
  0
ENDTAB
  0
TABLE
  2
STYLE
  5
3
330
0
100
AcDbSymbolTable
 70
     1
  0
STYLE
  5
11
330
3
100
AcDbSymbolTableRecord
100
AcDbTextStyleTableRecord
  2
Standard
 70
     0
 40
0.0
 41
1.0
 50
0.0
 71
     0
 42
0.2
  3
txt
  4

  0
ENDTAB
  0
TABLE
  2
VIEW
  5
6
330
0
100
AcDbSymbolTable
 70
     0
  0
ENDTAB
  0
TABLE
  2
UCS
  5
7
330
0
100
AcDbSymbolTable
 70
     0
  0
ENDTAB
  0
TABLE
  2
APPID
  5
9
330
0
100
AcDbSymbolTable
 70
     1
  0
APPID
  5
12
330
9
100
AcDbSymbolTableRecord
100
AcDbRegAppTableRecord
  2
ACAD
 70
     0
  0
ENDTAB
  0
TABLE
  2
DIMSTYLE
  5
A
330
0
100
AcDbSymbolTable
 70
     1
100
AcDbDimStyleTable
 71
     0
  0
DIMSTYLE
105
3E6
330
A
100
AcDbSymbolTableRecord
100
AcDbDimStyleTableRecord
  2
Standard
 70
     0
340
11
  0
ENDTAB
  0
TABLE
  2
BLOCK_RECORD
  5
1
330
0
100
AcDbSymbolTable
 70
     0
  0
BLOCK_RECORD
  5
1E
330
1
100
AcDbSymbolTableRecord
100
AcDbBlockTableRecord
  2
*Model_Space
340
21
  0
BLOCK_RECORD
  5
1A
330
1
100
AcDbSymbolTableRecord
100
AcDbBlockTableRecord
  2
*Paper_Space
340
1D
  0
ENDTAB
  0
ENDSEC
  0
SECTION
  2
BLOCKS
  0
BLOCK
  5
1F
330
1E
100
AcDbEntity
  8
0
100
AcDbBlockBegin
  2
*Model_Space
 70
     0
 10
0.0
 20
0.0
 30
0.0
  3
*Model_Space
  1

  0
ENDBLK
  5
20
330
1E
100
AcDbEntity
  8
0
100
AcDbBlockEnd
  0
BLOCK
  5
1B
330
1A
100
AcDbEntity
 67
     1
  8
0
100
AcDbBlockBegin
  2
*Paper_Space
 70
     0
 10
0.0
 20
0.0
 30
0.0
  3
*Paper_Space
  1

  0
ENDBLK
  5
1C
330
1A
100
AcDbEntity
 67
     1
  8
0
100
AcDbBlockEnd
  0
ENDSEC
  0
SECTION
  2
ENTITIES
  0
LINE
  5
22
330
1E
100
AcDbEntity
  8
0
100
AcDbLine
 10
0.4999999999999661
 20
48.56
 30
0.0
 11
1.999999999999969
 21
46.56
 31
0.0
  0
LINE
  5
23
330
1E
100
AcDbEntity
  8
0
100
AcDbLine
 10
82.0
 20
0.0599999999999864
 30
0.0
 11
89.1
 21
0.0599999999999865
 31
0.0
  0
LINE
  5
24
330
1E
100
AcDbEntity
  8
0
100
AcDbLine
 10
89.1
 20
0.0599999999999865
 30
0.0
 11
95.7
 21
0.0599999999999866
 31
0.0
  0
LINE
  5
25
330
1E
100
AcDbEntity
  8
0
100
AcDbLine
 10
95.7
 20
0.0599999999999866
 30
0.0
 11
101.4
 21
0.0599999999999869
 31
0.0
  0
LINE
  5
26
330
1E
100
AcDbEntity
  8
0
100
AcDbLine
 10
101.4
 20
0.0599999999999869
 30
0.0
 11
105.8
 21
0.0599999999999872
 31
0.0
  0
LINE
  5
27
330
1E
100
AcDbEntity
  8
0
100
AcDbLine
 10
74.90000000000001
 20
0.0599999999999865
 30
0.0
 11
82.0
 21
0.0599999999999864
 31
0.0
  0
LINE
  5
28
330
1E
100
AcDbEntity
  8
0
100
AcDbLine
 10
68.3
 20
0.0599999999999866
 30
0.0
 11
74.90000000000001
 21
0.0599999999999865
 31
0.0
  0
LINE
  5
29
330
1E
100
AcDbEntity
  8
0
100
AcDbLine
 10
105.8
 20
0.0599999999999872
 30
0.0
 11
108.4999999999999
 21
0.0599999999999876
 31
0.0
  0
LINE
  5
2A
330
1E
100
AcDbEntity
  8
0
100
AcDbLine
 10
108.4999999999999
 20
0.0599999999999876
 30
0.0
 11
109.4999999999999
 21
0.0599999999999881
 31
0.0
  0
LINE
  5
2B
330
1E
100
AcDbEntity
  8
0
100
AcDbLine
 10
62.6
 20
0.0599999999999869
 30
0.0
 11
68.3
 21
0.0599999999999866
 31
0.0
  0
LINE
  5
2C
330
1E
100
AcDbEntity
  8
0
100
AcDbLine
 10
58.2
 20
0.0599999999999872
 30
0.0
 11
62.6
 21
0.0599999999999869
 31
0.0
  0
LINE
  5
2D
330
1E
100
AcDbEntity
  8
0
100
AcDbLine
 10
55.5
 20
0.0599999999999876
 30
0.0
 11
58.2
 21
0.0599999999999872
 31
0.0
  0
LINE
  5
2E
330
1E
100
AcDbEntity
  8
0
100
AcDbLine
 10
54.5
 20
0.0599999999999878
 30
0.0
 11
55.0
 21
3.05999999999999
 31
0.0
  0
LINE
  5
2F
330
1E
100
AcDbEntity
  8
0
100
AcDbLine
 10
54.5
 20
0.0599999999999881
 30
0.0
 11
55.5
 21
0.0599999999999885
 31
0.0
  0
LINE
  5
30
330
1E
100
AcDbEntity
  8
0
100
AcDbLine
 10
54.5
 20
0.0599999999999881
 30
0.0
 11
55.5
 21
0.0599999999999876
 31
0.0
  0
LINE
  5
31
330
1E
100
AcDbEntity
  8
0
100
AcDbLine
 10
54.5
 20
0.0599999999999881
 30
0.0
 11
55.0
 21
3.05999999999999
 31
0.0
  0
LINE
  5
32
330
1E
100
AcDbEntity
  8
0
100
AcDbLine
 10
149.0
 20
0.0599999999999878
 30
0.0
 11
150.6228999999999
 21
3.07462999999999
 31
0.0
  0
LINE
  5
33
330
1E
100
AcDbEntity
  8
0
100
AcDbLine
 10
158.6294999999999
 20
0.0599999999999866
 30
0.0
 11
165.5541
 21
0.0599999999999863
 31
0.0
  0
LINE
  5
34
330
1E
100
AcDbEntity
  8
0
100
AcDbLine
 10
153.3279
 20
0.0599999999999871
 30
0.0
 11
158.6294999999999
 21
0.0599999999999866
 31
0.0
  0
LINE
  5
35
330
1E
100
AcDbEntity
  8
0
100
AcDbLine
 10
150.082
 20
0.0599999999999876
 30
0.0
 11
153.3279
 21
0.0599999999999871
 31
0.0
  0
LINE
  5
36
330
1E
100
AcDbEntity
  8
0
100
AcDbLine
 10
108.4999999999999
 20
0.0599999999999885
 30
0.0
 11
109.4999999999999
 21
0.0599999999999881
 31
0.0
  0
LINE
  5
37
330
1E
100
AcDbEntity
  8
0
100
AcDbLine
 10
55.5
 20
0.0599999999999885
 30
0.0
 11
58.2
 21
0.0599999999999889
 31
0.0
  0
LINE
  5
38
330
1E
100
AcDbEntity
  8
0
100
AcDbLine
 10
58.0
 20
7.05999999999999
 30
0.0
 11
58.9
 21
7.05999999999999
 31
0.0
  0
LINE
  5
39
330
1E
100
AcDbEntity
  8
0
100
AcDbLine
 10
56.0
 20
5.05999999999999
 30
0.0
 11
58.0
 21
7.05999999999999
 31
0.0
  0
LINE
  5
3A
330
1E
100
AcDbEntity
  8
0
100
AcDbLine
 10
55.0
 20
3.05999999999999
 30
0.0
 11
56.0
 21
5.05999999999999
 31
0.0
  0
LINE
  5
3B
330
1E
100
AcDbEntity
  8
0
100
AcDbLine
 10
101.4
 20
0.0599999999999893
 30
0.0
 11
105.8
 21
0.0599999999999889
 31
0.0
  0
LINE
  5
3C
330
1E
100
AcDbEntity
  8
0
100
AcDbLine
 10
105.8
 20
0.0599999999999889
 30
0.0
 11
108.4999999999999
 21
0.0599999999999885
 31
0.0
  0
LINE
  5
3D
330
1E
100
AcDbEntity
  8
0
100
AcDbLine
 10
61.2
 20
7.05999999999999
 30
0.0
 11
65.09999999999999
 21
7.05999999999999
 31
0.0
  0
LINE
  5
3E
330
1E
100
AcDbEntity
  8
0
100
AcDbLine
 10
60.0
 20
9.559999999999989
 30
0.0
 11
60.0
 21
8.059999999999989
 31
0.0
  0
LINE
  5
40
330
1E
100
AcDbEntity
  8
0
100
AcDbLine
 10
60.0
 20
9.559999999999989
 30
0.0
 11
61.0
 21
10.56
 31
0.0
  0
LINE
  5
42
330
1E
100
AcDbEntity
  8
0
100
AcDbLine
 10
63.79999999999999
 20
10.56
 30
0.0
 11
67.2
 21
10.56
 31
0.0
  0
LINE
  5
43
330
1E
100
AcDbEntity
  8
0
100
AcDbLine
 10
61.79999999999999
 20
10.56
 30
0.0
 11
63.79999999999999
 21
10.56
 31
0.0
  0
LINE
  5
44
330
1E
100
AcDbEntity
  8
0
100
AcDbLine
 10
61.0
 20
10.56
 30
0.0
 11
61.79999999999999
 21
10.56
 31
0.0
  0
LINE
  5
48
330
1E
100
AcDbEntity
  8
0
100
AcDbLine
 10
60.0
 20
8.059999999999989
 30
0.0
 11
61.0
 21
7.05999999999999
 31
0.0
  0
LINE
  5
4A
330
1E
100
AcDbEntity
  8
0
100
AcDbLine
 10
60.0
 20
8.059999999999989
 30
0.0
 11
60.0
 21
9.559999999999989
 31
0.0
  0
LINE
  5
4B
330
1E
100
AcDbEntity
  8
0
100
AcDbLine
 10
62.0
 20
10.56
 30
0.0
 11
63.0
 21
16.55999999999999
 31
0.0
  0
LINE
  5
4C
330
1E
100
AcDbEntity
  8
0
100
AcDbLine
 10
67.2
 20
10.56
 30
0.0
 11
71.5
 21
10.56
 31
0.0
  0
LINE
  5
4F
330
1E
100
AcDbEntity
  8
0
100
AcDbLine
 10
65.09999999999999
 20
7.05999999999999
 30
0.0
 11
70.0
 21
7.05999999999999
 31
0.0
  0
LINE
  5
50
330
1E
100
AcDbEntity
  8
0
100
AcDbLine
 10
58.9
 20
7.05999999999999
 30
0.0
 11
61.2
 21
7.05999999999999
 31
0.0
  0
LINE
  5
51
330
1E
100
AcDbEntity
  8
0
100
AcDbLine
 10
89.1
 20
0.0599999999999897
 30
0.0
 11
95.7
 21
0.0599999999999895
 31
0.0
  0
LINE
  5
52
330
1E
100
AcDbEntity
  8
0
100
AcDbLine
 10
95.7
 20
0.0599999999999895
 30
0.0
 11
101.4
 21
0.0599999999999893
 31
0.0
  0
LINE
  5
53
330
1E
100
AcDbEntity
  8
0
100
AcDbLine
 10
103.0
 20
7.05999999999999
 30
0.0
 11
104.0
 21
8.059999999999989
 31
0.0
  0
LINE
  5
54
330
1E
100
AcDbEntity
  8
0
100
AcDbLine
 10
102.8
 20
7.05999999999999
 30
0.0
 11
105.0999999999999
 21
7.05999999999999
 31
0.0
  0
LINE
  5
55
330
1E
100
AcDbEntity
  8
0
100
AcDbLine
 10
105.0999999999999
 20
7.05999999999999
 30
0.0
 11
106.0
 21
7.05999999999999
 31
0.0
  0
LINE
  5
56
330
1E
100
AcDbEntity
  8
0
100
AcDbLine
 10
82.0
 20
7.05999999999999
 30
0.0
 11
88.2
 21
7.05999999999999
 31
0.0
  0
LINE
  5
57
330
1E
100
AcDbEntity
  8
0
100
AcDbLine
 10
88.2
 20
7.05999999999999
 30
0.0
 11
94.0
 21
7.05999999999999
 31
0.0
  0
LINE
  5
58
330
1E
100
AcDbEntity
  8
0
100
AcDbLine
 10
94.0
 20
7.05999999999999
 30
0.0
 11
98.9
 21
7.05999999999999
 31
0.0
  0
LINE
  5
59
330
1E
100
AcDbEntity
  8
0
100
AcDbLine
 10
98.9
 20
7.05999999999999
 30
0.0
 11
102.8
 21
7.05999999999999
 31
0.0
  0
LINE
  5
5A
330
1E
100
AcDbEntity
  8
0
100
AcDbLine
 10
106.0
 20
7.05999999999999
 30
0.0
 11
108.0
 21
5.05999999999999
 31
0.0
  0
LINE
  5
5B
330
1E
100
AcDbEntity
  8
0
100
AcDbLine
 10
108.0
 20
5.05999999999999
 30
0.0
 11
109.0
 21
3.05999999999999
 31
0.0
  0
LINE
  5
5C
330
1E
100
AcDbEntity
  8
0
100
AcDbLine
 10
82.0
 20
0.0599999999999898
 30
0.0
 11
89.1
 21
0.0599999999999897
 31
0.0
  0
LINE
  5
5D
330
1E
100
AcDbEntity
  8
0
100
AcDbLine
 10
109.0
 20
3.05999999999999
 30
0.0
 11
109.4999999999999
 21
0.0599999999999881
 31
0.0
  0
LINE
  5
5E
330
1E
100
AcDbEntity
  8
0
100
AcDbLine
 10
109.0
 20
3.05999999999999
 30
0.0
 11
109.4999999999999
 21
0.0599999999999878
 31
0.0
  0
LINE
  5
69
330
1E
100
AcDbEntity
  8
0
100
AcDbLine
 10
82.0
 20
10.56
 30
0.0
 11
87.4
 21
10.56
 31
0.0
  0
LINE
  5
6A
330
1E
100
AcDbEntity
  8
0
100
AcDbLine
 10
87.4
 20
10.56
 30
0.0
 11
92.5
 21
10.56
 31
0.0
  0
LINE
  5
6B
330
1E
100
AcDbEntity
  8
0
100
AcDbLine
 10
92.5
 20
10.56
 30
0.0
 11
96.79999999999999
 21
10.56
 31
0.0
  0
LINE
  5
6C
330
1E
100
AcDbEntity
  8
0
100
AcDbLine
 10
76.6
 20
10.56
 30
0.0
 11
82.0
 21
10.56
 31
0.0
  0
LINE
  5
6D
330
1E
100
AcDbEntity
  8
0
100
AcDbLine
 10
71.5
 20
10.56
 30
0.0
 11
76.6
 21
10.56
 31
0.0
  0
LINE
  5
6F
330
1E
100
AcDbEntity
  8
0
100
AcDbLine
 10
104.0
 20
8.059999999999989
 30
0.0
 11
104.0
 21
9.559999999999989
 31
0.0
  0
LINE
  5
71
330
1E
100
AcDbEntity
  8
0
100
AcDbLine
 10
100.2
 20
10.56
 30
0.0
 11
102.2
 21
10.56
 31
0.0
  0
LINE
  5
72
330
1E
100
AcDbEntity
  8
0
100
AcDbLine
 10
102.2
 20
10.56
 30
0.0
 11
103.0
 21
10.56
 31
0.0
  0
LINE
  5
73
330
1E
100
AcDbEntity
  8
0
100
AcDbLine
 10
103.0
 20
10.56
 30
0.0
 11
104.0
 21
9.559999999999989
 31
0.0
  0
LINE
  5
76
330
1E
100
AcDbEntity
  8
0
100
AcDbLine
 10
104.0
 20
9.559999999999989
 30
0.0
 11
104.0
 21
8.059999999999989
 31
0.0
  0
LINE
  5
79
330
1E
100
AcDbEntity
  8
0
100
AcDbLine
 10
96.79999999999999
 20
10.56
 30
0.0
 11
100.2
 21
10.56
 31
0.0
  0
LINE
  5
7A
330
1E
100
AcDbEntity
  8
0
100
AcDbLine
 10
75.8
 20
7.05999999999999
 30
0.0
 11
82.0
 21
7.05999999999999
 31
0.0
  0
LINE
  5
7B
330
1E
100
AcDbEntity
  8
0
100
AcDbLine
 10
70.0
 20
7.05999999999999
 30
0.0
 11
75.8
 21
7.05999999999999
 31
0.0
  0
LINE
  5
7C
330
1E
100
AcDbEntity
  8
0
100
AcDbLine
 10
74.90000000000001
 20
0.0599999999999897
 30
0.0
 11
82.0
 21
0.0599999999999898
 31
0.0
  0
LINE
  5
7D
330
1E
100
AcDbEntity
  8
0
100
AcDbLine
 10
68.3
 20
0.0599999999999895
 30
0.0
 11
74.90000000000001
 21
0.0599999999999897
 31
0.0
  0
LINE
  5
7E
330
1E
100
AcDbEntity
  8
0
100
AcDbLine
 10
62.6
 20
0.0599999999999893
 30
0.0
 11
68.3
 21
0.0599999999999895
 31
0.0
  0
LINE
  5
7F
330
1E
100
AcDbEntity
  8
0
100
AcDbLine
 10
58.2
 20
0.0599999999999889
 30
0.0
 11
62.6
 21
0.0599999999999893
 31
0.0
  0
LINE
  5
80
330
1E
100
AcDbEntity
  8
0
100
AcDbLine
 10
150.082
 20
0.0599999999999886
 30
0.0
 11
153.3279
 21
0.0599999999999891
 31
0.0
  0
LINE
  5
81
330
1E
100
AcDbEntity
  8
0
100
AcDbLine
 10
158.6294999999999
 20
0.0599999999999895
 30
0.0
 11
165.5541
 21
0.0599999999999898
 31
0.0
  0
LINE
  5
82
330
1E
100
AcDbEntity
  8
0
100
AcDbLine
 10
153.3279
 20
0.0599999999999891
 30
0.0
 11
158.6294999999999
 21
0.0599999999999895
 31
0.0
  0
LINE
  5
85
330
1E
100
AcDbEntity
  8
0
100
AcDbLine
 10
156.0328
 20
9.60633999999999
 30
0.0
 11
157.1147999999999
 21
10.6112
 31
0.0
  0
LINE
  5
86
330
1E
100
AcDbEntity
  8
0
100
AcDbLine
 10
156.0328
 20
9.60633999999999
 30
0.0
 11
156.0328
 21
8.09901999999999
 31
0.0
  0
LINE
  5
88
330
1E
100
AcDbEntity
  8
0
100
AcDbLine
 10
156.0328
 20
8.09901999999999
 30
0.0
 11
157.1147999999999
 21
7.09414999999999
 31
0.0
  0
LINE
  5
89
330
1E
100
AcDbEntity
  8
0
100
AcDbLine
 10
156.0328
 20
8.09901999999999
 30
0.0
 11
156.0328
 21
9.60633999999999
 31
0.0
  0
LINE
  5
8B
330
1E
100
AcDbEntity
  8
0
100
AcDbLine
 10
157.9803
 20
10.6112
 30
0.0
 11
160.3607
 21
10.6112
 31
0.0
  0
LINE
  5
8C
330
1E
100
AcDbEntity
  8
0
100
AcDbLine
 10
157.1147999999999
 20
10.6112
 30
0.0
 11
157.9803
 21
10.6112
 31
0.0
  0
LINE
  5
8F
330
1E
100
AcDbEntity
  8
0
100
AcDbLine
 10
160.3607
 20
10.6112
 30
0.0
 11
164.3639
 21
10.6112
 31
0.0
  0
LINE
  5
91
330
1E
100
AcDbEntity
  8
0
100
AcDbLine
 10
155.4918
 20
7.09414999999999
 30
0.0
 11
156.3574
 21
7.09414999999999
 31
0.0
  0
LINE
  5
94
330
1E
100
AcDbEntity
  8
0
100
AcDbLine
 10
164.3639
 20
10.6112
 30
0.0
 11
169.5574
 21
10.6112
 31
0.0
  0
LINE
  5
96
330
1E
100
AcDbEntity
  8
0
100
AcDbLine
 10
152.7869
 20
5.58682999999999
 30
0.0
 11
155.4918
 21
7.09414999999999
 31
0.0
  0
LINE
  5
97
330
1E
100
AcDbEntity
  8
0
100
AcDbLine
 10
150.6228999999999
 20
3.07462999999999
 30
0.0
 11
152.7869
 21
5.58682999999999
 31
0.0
  0
LINE
  5
98
330
1E
100
AcDbEntity
  8
0
100
AcDbLine
 10
149.0
 20
0.0599999999999881
 30
0.0
 11
150.082
 21
0.0599999999999876
 31
0.0
  0
LINE
  5
99
330
1E
100
AcDbEntity
  8
0
100
AcDbLine
 10
149.0
 20
0.0599999999999881
 30
0.0
 11
150.6228999999999
 21
3.07462999999999
 31
0.0
  0
LINE
  5
9A
330
1E
100
AcDbEntity
  8
0
100
AcDbLine
 10
149.0
 20
0.0599999999999881
 30
0.0
 11
150.082
 21
0.0599999999999886
 31
0.0
  0
LINE
  5
9B
330
1E
100
AcDbEntity
  8
0
100
AcDbLine
 10
165.5541
 20
0.0599999999999898
 30
0.0
 11
173.4524999999999
 21
0.05999999999999
 31
0.0
  0
LINE
  5
9C
330
1E
100
AcDbEntity
  8
0
100
AcDbLine
 10
182.0
 20
0.0599999999999861
 30
0.0
 11
190.548
 21
0.0599999999999861
 31
0.0
  0
LINE
  5
9D
330
1E
100
AcDbEntity
  8
0
100
AcDbLine
 10
190.548
 20
0.0599999999999861
 30
0.0
 11
198.446
 21
0.0599999999999863
 31
0.0
  0
LINE
  5
9E
330
1E
100
AcDbEntity
  8
0
100
AcDbLine
 10
182.0
 20
0.0599999999999901
 30
0.0
 11
190.548
 21
0.05999999999999
 31
0.0
  0
LINE
  5
9F
330
1E
100
AcDbEntity
  8
0
100
AcDbLine
 10
198.446
 20
0.0599999999999863
 30
0.0
 11
205.37
 21
0.0599999999999866
 31
0.0
  0
LINE
  5
A0
330
1E
100
AcDbEntity
  8
0
100
AcDbLine
 10
210.672
 20
0.0599999999999871
 30
0.0
 11
213.918
 21
0.0599999999999876
 31
0.0
  0
LINE
  5
A1
330
1E
100
AcDbEntity
  8
0
100
AcDbLine
 10
205.37
 20
0.0599999999999866
 30
0.0
 11
210.672
 21
0.0599999999999871
 31
0.0
  0
LINE
  5
A2
330
1E
100
AcDbEntity
  8
0
100
AcDbLine
 10
210.672
 20
0.0599999999999891
 30
0.0
 11
213.918
 21
0.0599999999999886
 31
0.0
  0
LINE
  5
A3
330
1E
100
AcDbEntity
  8
0
100
AcDbLine
 10
198.446
 20
0.0599999999999898
 30
0.0
 11
205.37
 21
0.0599999999999895
 31
0.0
  0
LINE
  5
A4
330
1E
100
AcDbEntity
  8
0
100
AcDbLine
 10
205.37
 20
0.0599999999999895
 30
0.0
 11
210.672
 21
0.0599999999999891
 31
0.0
  0
LINE
  5
A5
330
1E
100
AcDbEntity
  8
0
100
AcDbLine
 10
254.4999999999999
 20
0.0599999999999878
 30
0.0
 11
255.0
 21
3.05999999999999
 31
0.0
  0
LINE
  5
A6
330
1E
100
AcDbEntity
  8
0
100
AcDbLine
 10
274.8999999999999
 20
0.0599999999999865
 30
0.0
 11
282.0
 21
0.0599999999999864
 31
0.0
  0
LINE
  5
A7
330
1E
100
AcDbEntity
  8
0
100
AcDbLine
 10
268.3
 20
0.0599999999999866
 30
0.0
 11
274.8999999999999
 21
0.0599999999999865
 31
0.0
  0
LINE
  5
A8
330
1E
100
AcDbEntity
  8
0
100
AcDbLine
 10
282.0
 20
0.0599999999999864
 30
0.0
 11
289.1
 21
0.0599999999999865
 31
0.0
  0
LINE
  5
A9
330
1E
100
AcDbEntity
  8
0
100
AcDbLine
 10
289.1
 20
0.0599999999999865
 30
0.0
 11
295.6999999999999
 21
0.0599999999999866
 31
0.0
  0
LINE
  5
AA
330
1E
100
AcDbEntity
  8
0
100
AcDbLine
 10
262.6
 20
0.0599999999999869
 30
0.0
 11
268.3
 21
0.0599999999999866
 31
0.0
  0
LINE
  5
AB
330
1E
100
AcDbEntity
  8
0
100
AcDbLine
 10
258.1999999999999
 20
0.0599999999999872
 30
0.0
 11
262.6
 21
0.0599999999999869
 31
0.0
  0
LINE
  5
AC
330
1E
100
AcDbEntity
  8
0
100
AcDbLine
 10
295.6999999999999
 20
0.0599999999999866
 30
0.0
 11
301.3999999999999
 21
0.0599999999999869
 31
0.0
  0
LINE
  5
AD
330
1E
100
AcDbEntity
  8
0
100
AcDbLine
 10
301.3999999999999
 20
0.0599999999999869
 30
0.0
 11
305.8
 21
0.0599999999999872
 31
0.0
  0
LINE
  5
AE
330
1E
100
AcDbEntity
  8
0
100
AcDbLine
 10
255.5
 20
0.0599999999999876
 30
0.0
 11
258.1999999999999
 21
0.0599999999999872
 31
0.0
  0
LINE
  5
AF
330
1E
100
AcDbEntity
  8
0
100
AcDbLine
 10
305.8
 20
0.0599999999999872
 30
0.0
 11
308.4999999999999
 21
0.0599999999999876
 31
0.0
  0
LINE
  5
B0
330
1E
100
AcDbEntity
  8
0
100
AcDbLine
 10
308.4999999999999
 20
0.0599999999999876
 30
0.0
 11
309.5
 21
0.0599999999999881
 31
0.0
  0
LINE
  5
B1
330
1E
100
AcDbEntity
  8
0
100
AcDbLine
 10
255.5
 20
0.0599999999999885
 30
0.0
 11
258.1999999999999
 21
0.0599999999999889
 31
0.0
  0
LINE
  5
B2
330
1E
100
AcDbEntity
  8
0
100
AcDbLine
 10
254.4999999999999
 20
0.0599999999999881
 30
0.0
 11
255.0
 21
3.05999999999999
 31
0.0
  0
LINE
  5
B3
330
1E
100
AcDbEntity
  8
0
100
AcDbLine
 10
254.4999999999999
 20
0.0599999999999881
 30
0.0
 11
255.5
 21
0.0599999999999885
 31
0.0
  0
LINE
  5
B4
330
1E
100
AcDbEntity
  8
0
100
AcDbLine
 10
254.4999999999999
 20
0.0599999999999881
 30
0.0
 11
255.5
 21
0.0599999999999876
 31
0.0
  0
LINE
  5
B5
330
1E
100
AcDbEntity
  8
0
100
AcDbLine
 10
308.4999999999999
 20
0.0599999999999885
 30
0.0
 11
309.5
 21
0.0599999999999881
 31
0.0
  0
LINE
  5
B6
330
1E
100
AcDbEntity
  8
0
100
AcDbLine
 10
213.918
 20
0.0599999999999876
 30
0.0
 11
215.0
 21
0.0599999999999881
 31
0.0
  0
LINE
  5
B7
330
1E
100
AcDbEntity
  8
0
100
AcDbLine
 10
258.1999999999999
 20
0.0599999999999889
 30
0.0
 11
262.6
 21
0.0599999999999893
 31
0.0
  0
LINE
  5
B8
330
1E
100
AcDbEntity
  8
0
100
AcDbLine
 10
268.3
 20
0.0599999999999895
 30
0.0
 11
274.8999999999999
 21
0.0599999999999897
 31
0.0
  0
LINE
  5
B9
330
1E
100
AcDbEntity
  8
0
100
AcDbLine
 10
262.6
 20
0.0599999999999893
 30
0.0
 11
268.3
 21
0.0599999999999895
 31
0.0
  0
LINE
  5
BA
330
1E
100
AcDbEntity
  8
0
100
AcDbLine
 10
274.8999999999999
 20
0.0599999999999897
 30
0.0
 11
282.0
 21
0.0599999999999898
 31
0.0
  0
LINE
  5
BB
330
1E
100
AcDbEntity
  8
0
100
AcDbLine
 10
256.0
 20
5.05999999999999
 30
0.0
 11
258.0
 21
7.05999999999999
 31
0.0
  0
LINE
  5
BC
330
1E
100
AcDbEntity
  8
0
100
AcDbLine
 10
255.0
 20
3.05999999999999
 30
0.0
 11
256.0
 21
5.05999999999999
 31
0.0
  0
LINE
  5
BD
330
1E
100
AcDbEntity
  8
0
100
AcDbLine
 10
282.0
 20
0.0599999999999898
 30
0.0
 11
289.1
 21
0.0599999999999897
 31
0.0
  0
LINE
  5
BE
330
1E
100
AcDbEntity
  8
0
100
AcDbLine
 10
289.1
 20
0.0599999999999897
 30
0.0
 11
295.6999999999999
 21
0.0599999999999895
 31
0.0
  0
LINE
  5
BF
330
1E
100
AcDbEntity
  8
0
100
AcDbLine
 10
295.6999999999999
 20
0.0599999999999895
 30
0.0
 11
301.3999999999999
 21
0.0599999999999893
 31
0.0
  0
LINE
  5
C0
330
1E
100
AcDbEntity
  8
0
100
AcDbLine
 10
308.0
 20
5.05999999999999
 30
0.0
 11
309.0
 21
3.05999999999999
 31
0.0
  0
LINE
  5
C1
330
1E
100
AcDbEntity
  8
0
100
AcDbLine
 10
301.3999999999999
 20
0.0599999999999893
 30
0.0
 11
305.8
 21
0.0599999999999889
 31
0.0
  0
LINE
  5
C2
330
1E
100
AcDbEntity
  8
0
100
AcDbLine
 10
305.8
 20
0.0599999999999889
 30
0.0
 11
308.4999999999999
 21
0.0599999999999885
 31
0.0
  0
LINE
  5
C3
330
1E
100
AcDbEntity
  8
0
100
AcDbLine
 10
309.0
 20
3.05999999999999
 30
0.0
 11
309.5
 21
0.0599999999999878
 31
0.0
  0
LINE
  5
C4
330
1E
100
AcDbEntity
  8
0
100
AcDbLine
 10
309.0
 20
3.05999999999999
 30
0.0
 11
309.5
 21
0.0599999999999881
 31
0.0
  0
LINE
  5
C5
330
1E
100
AcDbEntity
  8
0
100
AcDbLine
 10
213.918
 20
0.0599999999999886
 30
0.0
 11
215.0
 21
0.0599999999999881
 31
0.0
  0
LINE
  5
C6
330
1E
100
AcDbEntity
  8
0
100
AcDbLine
 10
213.377
 20
3.07462999999999
 30
0.0
 11
215.0
 21
0.0599999999999881
 31
0.0
  0
LINE
  5
C7
330
1E
100
AcDbEntity
  8
0
100
AcDbLine
 10
213.377
 20
3.07462999999999
 30
0.0
 11
215.0
 21
0.0599999999999878
 31
0.0
  0
LINE
  5
C8
330
1E
100
AcDbEntity
  8
0
100
AcDbLine
 10
261.2
 20
7.05999999999999
 30
0.0
 11
265.1
 21
7.05999999999999
 31
0.0
  0
LINE
  5
C9
330
1E
100
AcDbEntity
  8
0
100
AcDbLine
 10
258.8999999999999
 20
7.05999999999999
 30
0.0
 11
261.2
 21
7.05999999999999
 31
0.0
  0
LINE
  5
CA
330
1E
100
AcDbEntity
  8
0
100
AcDbLine
 10
258.0
 20
7.05999999999999
 30
0.0
 11
258.8999999999999
 21
7.05999999999999
 31
0.0
  0
LINE
  5
CB
330
1E
100
AcDbEntity
  8
0
100
AcDbLine
 10
303.0
 20
7.05999999999999
 30
0.0
 11
304.0
 21
8.059999999999989
 31
0.0
  0
LINE
  5
CC
330
1E
100
AcDbEntity
  8
0
100
AcDbLine
 10
302.8
 20
7.05999999999999
 30
0.0
 11
305.1
 21
7.05999999999999
 31
0.0
  0
LINE
  5
CD
330
1E
100
AcDbEntity
  8
0
100
AcDbLine
 10
305.1
 20
7.05999999999999
 30
0.0
 11
306.0
 21
7.05999999999999
 31
0.0
  0
LINE
  5
CE
330
1E
100
AcDbEntity
  8
0
100
AcDbLine
 10
275.8
 20
7.05999999999999
 30
0.0
 11
282.0
 21
7.05999999999999
 31
0.0
  0
LINE
  5
CF
330
1E
100
AcDbEntity
  8
0
100
AcDbLine
 10
270.0
 20
7.05999999999999
 30
0.0
 11
275.8
 21
7.05999999999999
 31
0.0
  0
LINE
  5
D0
330
1E
100
AcDbEntity
  8
0
100
AcDbLine
 10
265.1
 20
7.05999999999999
 30
0.0
 11
270.0
 21
7.05999999999999
 31
0.0
  0
LINE
  5
D1
330
1E
100
AcDbEntity
  8
0
100
AcDbLine
 10
282.0
 20
7.05999999999999
 30
0.0
 11
288.2
 21
7.05999999999999
 31
0.0
  0
LINE
  5
D2
330
1E
100
AcDbEntity
  8
0
100
AcDbLine
 10
288.2
 20
7.05999999999999
 30
0.0
 11
294.0
 21
7.05999999999999
 31
0.0
  0
LINE
  5
D3
330
1E
100
AcDbEntity
  8
0
100
AcDbLine
 10
294.0
 20
7.05999999999999
 30
0.0
 11
298.8999999999999
 21
7.05999999999999
 31
0.0
  0
LINE
  5
D4
330
1E
100
AcDbEntity
  8
0
100
AcDbLine
 10
298.8999999999999
 20
7.05999999999999
 30
0.0
 11
302.8
 21
7.05999999999999
 31
0.0
  0
LINE
  5
D5
330
1E
100
AcDbEntity
  8
0
100
AcDbLine
 10
306.0
 20
7.05999999999999
 30
0.0
 11
308.0
 21
5.05999999999999
 31
0.0
  0
LINE
  5
D6
330
1E
100
AcDbEntity
  8
0
100
AcDbLine
 10
211.213
 20
5.58682999999999
 30
0.0
 11
213.377
 21
3.07462999999999
 31
0.0
  0
LINE
  5
D7
330
1E
100
AcDbEntity
  8
0
100
AcDbLine
 10
190.548
 20
0.05999999999999
 30
0.0
 11
198.446
 21
0.0599999999999898
 31
0.0
  0
LINE
  5
D8
330
1E
100
AcDbEntity
  8
0
100
AcDbLine
 10
173.4524999999999
 20
0.05999999999999
 30
0.0
 11
182.0
 21
0.0599999999999901
 31
0.0
  0
LINE
  5
E0
330
1E
100
AcDbEntity
  8
0
100
AcDbLine
 10
206.8849999999999
 20
7.09414999999999
 30
0.0
 11
207.967
 21
8.09901999999999
 31
0.0
  0
LINE
  5
E1
330
1E
100
AcDbEntity
  8
0
100
AcDbLine
 10
205.046
 20
7.09414999999999
 30
0.0
 11
207.643
 21
7.09414999999999
 31
0.0
  0
LINE
  5
E2
330
1E
100
AcDbEntity
  8
0
100
AcDbLine
 10
156.3574
 20
7.09414999999999
 30
0.0
 11
205.046
 21
7.09414999999999
 31
0.0
  0
LINE
  5
E3
330
1E
100
AcDbEntity
  8
0
100
AcDbLine
 10
207.643
 20
7.09414999999999
 30
0.0
 11
208.508
 21
7.09414999999999
 31
0.0
  0
LINE
  5
E4
330
1E
100
AcDbEntity
  8
0
100
AcDbLine
 10
208.508
 20
7.09414999999999
 30
0.0
 11
211.213
 21
5.58682999999999
 31
0.0
  0
LINE
  5
E6
330
1E
100
AcDbEntity
  8
0
100
AcDbLine
 10
260.0
 20
8.059999999999989
 30
0.0
 11
261.0
 21
7.05999999999999
 31
0.0
  0
LINE
  5
E8
330
1E
100
AcDbEntity
  8
0
100
AcDbLine
 10
260.0
 20
8.059999999999989
 30
0.0
 11
260.0
 21
9.559999999999989
 31
0.0
  0
LINE
  5
EE
330
1E
100
AcDbEntity
  8
0
100
AcDbLine
 10
260.0
 20
9.559999999999989
 30
0.0
 11
261.0
 21
10.56
 31
0.0
  0
LINE
  5
EF
330
1E
100
AcDbEntity
  8
0
100
AcDbLine
 10
260.0
 20
9.559999999999989
 30
0.0
 11
260.0
 21
8.059999999999989
 31
0.0
  0
LINE
  5
F1
330
1E
100
AcDbEntity
  8
0
100
AcDbLine
 10
207.967
 20
8.09901999999999
 30
0.0
 11
207.967
 21
9.60633999999999
 31
0.0
  0
LINE
  5
F3
330
1E
100
AcDbEntity
  8
0
100
AcDbLine
 10
207.967
 20
9.60633999999999
 30
0.0
 11
207.967
 21
8.09901999999999
 31
0.0
  0
LINE
  5
F6
330
1E
100
AcDbEntity
  8
0
100
AcDbLine
 10
261.8
 20
10.56
 30
0.0
 11
263.8
 21
10.56
 31
0.0
  0
LINE
  5
F7
330
1E
100
AcDbEntity
  8
0
100
AcDbLine
 10
261.0
 20
10.56
 30
0.0
 11
261.8
 21
10.56
 31
0.0
  0
LINE
  5
103
330
1E
100
AcDbEntity
  8
0
100
AcDbLine
 10
276.6
 20
10.56
 30
0.0
 11
282.0
 21
10.56
 31
0.0
  0
LINE
  5
104
330
1E
100
AcDbEntity
  8
0
100
AcDbLine
 10
271.4999999999999
 20
10.56
 30
0.0
 11
276.6
 21
10.56
 31
0.0
  0
LINE
  5
105
330
1E
100
AcDbEntity
  8
0
100
AcDbLine
 10
263.8
 20
10.56
 30
0.0
 11
267.2
 21
10.56
 31
0.0
  0
LINE
  5
106
330
1E
100
AcDbEntity
  8
0
100
AcDbLine
 10
282.0
 20
10.56
 30
0.0
 11
287.3999999999999
 21
10.56
 31
0.0
  0
LINE
  5
108
330
1E
100
AcDbEntity
  8
0
100
AcDbLine
 10
287.3999999999999
 20
10.56
 30
0.0
 11
292.5
 21
10.56
 31
0.0
  0
LINE
  5
109
330
1E
100
AcDbEntity
  8
0
100
AcDbLine
 10
292.5
 20
10.56
 30
0.0
 11
296.7999999999999
 21
10.56
 31
0.0
  0
LINE
  5
10F
330
1E
100
AcDbEntity
  8
0
100
AcDbLine
 10
304.0
 20
8.059999999999989
 30
0.0
 11
304.0
 21
9.559999999999989
 31
0.0
  0
LINE
  5
112
330
1E
100
AcDbEntity
  8
0
100
AcDbLine
 10
296.7999999999999
 20
10.56
 30
0.0
 11
300.1999999999999
 21
10.56
 31
0.0
  0
LINE
  5
114
330
1E
100
AcDbEntity
  8
0
100
AcDbLine
 10
300.1999999999999
 20
10.56
 30
0.0
 11
302.1999999999999
 21
10.56
 31
0.0
  0
LINE
  5
115
330
1E
100
AcDbEntity
  8
0
100
AcDbLine
 10
302.1999999999999
 20
10.56
 30
0.0
 11
303.0
 21
10.56
 31
0.0
  0
LINE
  5
116
330
1E
100
AcDbEntity
  8
0
100
AcDbLine
 10
303.0
 20
10.56
 30
0.0
 11
304.0
 21
9.559999999999989
 31
0.0
  0
LINE
  5
119
330
1E
100
AcDbEntity
  8
0
100
AcDbLine
 10
304.0
 20
9.559999999999989
 30
0.0
 11
304.0
 21
8.059999999999989
 31
0.0
  0
LINE
  5
11B
330
1E
100
AcDbEntity
  8
0
100
AcDbLine
 10
267.2
 20
10.56
 30
0.0
 11
271.4999999999999
 21
10.56
 31
0.0
  0
LINE
  5
11C
330
1E
100
AcDbEntity
  8
0
100
AcDbLine
 10
262.0
 20
10.56
 30
0.0
 11
263.0
 21
16.55999999999999
 31
0.0
  0
LINE
  5
11E
330
1E
100
AcDbEntity
  8
0
100
AcDbLine
 10
173.4524999999999
 20
0.0599999999999861
 30
0.0
 11
182.0
 21
0.0599999999999861
 31
0.0
  0
LINE
  5
11F
330
1E
100
AcDbEntity
  8
0
100
AcDbLine
 10
165.5541
 20
0.0599999999999863
 30
0.0
 11
173.4524999999999
 21
0.0599999999999861
 31
0.0
  0
LINE
  5
120
330
1E
100
AcDbEntity
  8
0
100
AcDbLine
 10
203.6389999999999
 20
10.6112
 30
0.0
 11
206.02
 21
10.6112
 31
0.0
  0
LINE
  5
121
330
1E
100
AcDbEntity
  8
0
100
AcDbLine
 10
194.4429999999999
 20
10.6112
 30
0.0
 11
199.6359999999999
 21
10.6112
 31
0.0
  0
LINE
  5
122
330
1E
100
AcDbEntity
  8
0
100
AcDbLine
 10
199.6359999999999
 20
10.6112
 30
0.0
 11
203.6389999999999
 21
10.6112
 31
0.0
  0
LINE
  5
123
330
1E
100
AcDbEntity
  8
0
100
AcDbLine
 10
182.0
 20
10.6112
 30
0.0
 11
188.492
 21
10.6112
 31
0.0
  0
LINE
  5
124
330
1E
100
AcDbEntity
  8
0
100
AcDbLine
 10
188.492
 20
10.6112
 30
0.0
 11
194.4429999999999
 21
10.6112
 31
0.0
  0
LINE
  5
125
330
1E
100
AcDbEntity
  8
0
100
AcDbLine
 10
206.8849999999999
 20
10.6112
 30
0.0
 11
207.967
 21
9.60633999999999
 31
0.0
  0
LINE
  5
126
330
1E
100
AcDbEntity
  8
0
100
AcDbLine
 10
206.02
 20
10.6112
 30
0.0
 11
206.8849999999999
 21
10.6112
 31
0.0
  0
LINE
  5
127
330
1E
100
AcDbEntity
  8
0
100
AcDbLine
 10
205.803
 20
10.6112
 30
0.0
 11
205.803
 21
55.3771
 31
0.0
  0
LINE
  5
128
330
1E
100
AcDbEntity
  8
0
100
AcDbLine
 10
175.5081999999999
 20
10.6112
 30
0.0
 11
182.0
 21
10.6112
 31
0.0
  0
LINE
  5
129
330
1E
100
AcDbEntity
  8
0
100
AcDbLine
 10
169.5574
 20
10.6112
 30
0.0
 11
175.5081999999999
 21
10.6112
 31
0.0
  0
LINE
  5
12A
330
1E
100
AcDbEntity
  8
0
100
AcDbLine
 10
101.0
 20
16.55999999999999
 30
0.0
 11
102.0
 21
10.56
 31
0.0
  0
LINE
  5
12B
330
1E
100
AcDbEntity
  8
0
100
AcDbLine
 10
96.5
 20
29.06
 30
0.0
 11
99.0
 21
23.06
 31
0.0
  0
LINE
  5
12C
330
1E
100
AcDbEntity
  8
0
100
AcDbLine
 10
99.0
 20
23.06
 30
0.0
 11
101.0
 21
16.55999999999999
 31
0.0
  0
LINE
  5
12D
330
1E
100
AcDbEntity
  8
0
100
AcDbLine
 10
82.0
 20
37.06
 30
0.0
 11
84.29999999999999
 21
37.06
 31
0.0
  0
LINE
  5
12E
330
1E
100
AcDbEntity
  8
0
100
AcDbLine
 10
84.29999999999999
 20
37.06
 30
0.0
 11
86.5
 21
37.06
 31
0.0
  0
LINE
  5
12F
330
1E
100
AcDbEntity
  8
0
100
AcDbLine
 10
86.5
 20
37.06
 30
0.0
 11
88.40000000000001
 21
37.06
 31
0.0
  0
LINE
  5
130
330
1E
100
AcDbEntity
  8
0
100
AcDbLine
 10
88.40000000000001
 20
37.06
 30
0.0
 11
89.8
 21
37.06
 31
0.0
  0
LINE
  5
131
330
1E
100
AcDbEntity
  8
0
100
AcDbLine
 10
89.8
 20
37.06
 30
0.0
 11
90.7
 21
37.06
 31
0.0
  0
LINE
  5
132
330
1E
100
AcDbEntity
  8
0
100
AcDbLine
 10
90.7
 20
37.06
 30
0.0
 11
91.0
 21
37.06
 31
0.0
  0
LINE
  5
133
330
1E
100
AcDbEntity
  8
0
100
AcDbLine
 10
91.0
 20
37.06
 30
0.0
 11
94.0
 21
34.06
 31
0.0
  0
LINE
  5
134
330
1E
100
AcDbEntity
  8
0
100
AcDbLine
 10
91.0
 20
37.06
 30
0.0
 11
92.0
 21
38.06
 31
0.0
  0
LINE
  5
135
330
1E
100
AcDbEntity
  8
0
100
AcDbLine
 10
94.0
 20
34.06
 30
0.0
 11
96.5
 21
29.06
 31
0.0
  0
LINE
  5
136
330
1E
100
AcDbEntity
  8
0
100
AcDbLine
 10
79.7
 20
37.06
 30
0.0
 11
82.0
 21
37.06
 31
0.0
  0
LINE
  5
137
330
1E
100
AcDbEntity
  8
0
100
AcDbLine
 10
77.5
 20
37.06
 30
0.0
 11
79.7
 21
37.06
 31
0.0
  0
LINE
  5
138
330
1E
100
AcDbEntity
  8
0
100
AcDbLine
 10
75.59999999999999
 20
37.06
 30
0.0
 11
77.5
 21
37.06
 31
0.0
  0
LINE
  5
139
330
1E
100
AcDbEntity
  8
0
100
AcDbLine
 10
74.2
 20
37.06
 30
0.0
 11
75.59999999999999
 21
37.06
 31
0.0
  0
LINE
  5
13A
330
1E
100
AcDbEntity
  8
0
100
AcDbLine
 10
73.3
 20
37.06
 30
0.0
 11
74.2
 21
37.06
 31
0.0
  0
LINE
  5
13B
330
1E
100
AcDbEntity
  8
0
100
AcDbLine
 10
72.0
 20
39.06
 30
0.0
 11
72.0
 21
38.06
 31
0.0
  0
LINE
  5
13D
330
1E
100
AcDbEntity
  8
0
100
AcDbLine
 10
72.0
 20
39.06
 30
0.0
 11
73.0
 21
40.06
 31
0.0
  0
LINE
  5
140
330
1E
100
AcDbEntity
  8
0
100
AcDbLine
 10
72.0
 20
38.06
 30
0.0
 11
73.0
 21
37.06
 31
0.0
  0
LINE
  5
142
330
1E
100
AcDbEntity
  8
0
100
AcDbLine
 10
72.0
 20
38.06
 30
0.0
 11
72.0
 21
39.06
 31
0.0
  0
LINE
  5
143
330
1E
100
AcDbEntity
  8
0
100
AcDbLine
 10
71.0
 20
43.06
 30
0.0
 11
73.0
 21
40.06
 31
0.0
  0
LINE
  5
150
330
1E
100
AcDbEntity
  8
0
100
AcDbLine
 10
82.0
 20
40.06
 30
0.0
 11
84.29999999999999
 21
40.06
 31
0.0
  0
LINE
  5
151
330
1E
100
AcDbEntity
  8
0
100
AcDbLine
 10
84.29999999999999
 20
40.06
 30
0.0
 11
86.5
 21
40.06
 31
0.0
  0
LINE
  5
156
330
1E
100
AcDbEntity
  8
0
100
AcDbLine
 10
86.5
 20
40.06
 30
0.0
 11
88.40000000000001
 21
40.06
 31
0.0
  0
LINE
  5
157
330
1E
100
AcDbEntity
  8
0
100
AcDbLine
 10
88.40000000000001
 20
40.06
 30
0.0
 11
89.8
 21
40.06
 31
0.0
  0
LINE
  5
15A
330
1E
100
AcDbEntity
  8
0
100
AcDbLine
 10
89.8
 20
40.06
 30
0.0
 11
90.7
 21
40.06
 31
0.0
  0
LINE
  5
15B
330
1E
100
AcDbEntity
  8
0
100
AcDbLine
 10
90.7
 20
40.06
 30
0.0
 11
91.0
 21
40.06
 31
0.0
  0
LINE
  5
15C
330
1E
100
AcDbEntity
  8
0
100
AcDbLine
 10
92.0
 20
38.06
 30
0.0
 11
92.0
 21
39.06
 31
0.0
  0
LINE
  5
15D
330
1E
100
AcDbEntity
  8
0
100
AcDbLine
 10
92.0
 20
39.06
 30
0.0
 11
92.0
 21
38.06
 31
0.0
  0
LINE
  5
160
330
1E
100
AcDbEntity
  8
0
100
AcDbLine
 10
91.0
 20
40.06
 30
0.0
 11
93.0
 21
43.06
 31
0.0
  0
LINE
  5
161
330
1E
100
AcDbEntity
  8
0
100
AcDbLine
 10
91.0
 20
40.06
 30
0.0
 11
92.0
 21
39.06
 31
0.0
  0
LINE
  5
162
330
1E
100
AcDbEntity
  8
0
100
AcDbLine
 10
79.7
 20
40.06
 30
0.0
 11
82.0
 21
40.06
 31
0.0
  0
LINE
  5
163
330
1E
100
AcDbEntity
  8
0
100
AcDbLine
 10
77.5
 20
40.06
 30
0.0
 11
79.7
 21
40.06
 31
0.0
  0
LINE
  5
164
330
1E
100
AcDbEntity
  8
0
100
AcDbLine
 10
75.59999999999999
 20
40.06
 30
0.0
 11
77.5
 21
40.06
 31
0.0
  0
LINE
  5
165
330
1E
100
AcDbEntity
  8
0
100
AcDbLine
 10
74.2
 20
40.06
 30
0.0
 11
75.59999999999999
 21
40.06
 31
0.0
  0
LINE
  5
166
330
1E
100
AcDbEntity
  8
0
100
AcDbLine
 10
93.0
 20
43.06
 30
0.0
 11
94.0
 21
46.06
 31
0.0
  0
LINE
  5
167
330
1E
100
AcDbEntity
  8
0
100
AcDbLine
 10
73.3
 20
40.06
 30
0.0
 11
74.2
 21
40.06
 31
0.0
  0
LINE
  5
168
330
1E
100
AcDbEntity
  8
0
100
AcDbLine
 10
73.0
 20
40.06
 30
0.0
 11
73.3
 21
40.06
 31
0.0
  0
LINE
  5
169
330
1E
100
AcDbEntity
  8
0
100
AcDbLine
 10
73.0
 20
37.06
 30
0.0
 11
73.3
 21
37.06
 31
0.0
  0
LINE
  5
16A
330
1E
100
AcDbEntity
  8
0
100
AcDbLine
 10
70.0
 20
34.06
 30
0.0
 11
73.0
 21
37.06
 31
0.0
  0
LINE
  5
16B
330
1E
100
AcDbEntity
  8
0
100
AcDbLine
 10
67.5
 20
29.06
 30
0.0
 11
70.0
 21
34.06
 31
0.0
  0
LINE
  5
16C
330
1E
100
AcDbEntity
  8
0
100
AcDbLine
 10
65.0
 20
23.06
 30
0.0
 11
67.5
 21
29.06
 31
0.0
  0
LINE
  5
16D
330
1E
100
AcDbEntity
  8
0
100
AcDbLine
 10
63.0
 20
16.55999999999999
 30
0.0
 11
65.0
 21
23.06
 31
0.0
  0
LINE
  5
16E
330
1E
100
AcDbEntity
  8
0
100
AcDbLine
 10
265.0
 20
23.06
 30
0.0
 11
267.5
 21
29.06
 31
0.0
  0
LINE
  5
16F
330
1E
100
AcDbEntity
  8
0
100
AcDbLine
 10
263.0
 20
16.55999999999999
 30
0.0
 11
265.0
 21
23.06
 31
0.0
  0
LINE
  5
170
330
1E
100
AcDbEntity
  8
0
100
AcDbLine
 10
270.0
 20
34.06
 30
0.0
 11
273.0
 21
37.06
 31
0.0
  0
LINE
  5
171
330
1E
100
AcDbEntity
  8
0
100
AcDbLine
 10
267.5
 20
29.06
 30
0.0
 11
270.0
 21
34.06
 31
0.0
  0
LINE
  5
172
330
1E
100
AcDbEntity
  8
0
100
AcDbLine
 10
279.7
 20
37.06
 30
0.0
 11
282.0
 21
37.06
 31
0.0
  0
LINE
  5
173
330
1E
100
AcDbEntity
  8
0
100
AcDbLine
 10
277.4999999999999
 20
37.06
 30
0.0
 11
279.7
 21
37.06
 31
0.0
  0
LINE
  5
174
330
1E
100
AcDbEntity
  8
0
100
AcDbLine
 10
275.6
 20
37.06
 30
0.0
 11
277.4999999999999
 21
37.06
 31
0.0
  0
LINE
  5
175
330
1E
100
AcDbEntity
  8
0
100
AcDbLine
 10
274.1999999999999
 20
37.06
 30
0.0
 11
275.6
 21
37.06
 31
0.0
  0
LINE
  5
176
330
1E
100
AcDbEntity
  8
0
100
AcDbLine
 10
273.3
 20
37.06
 30
0.0
 11
274.1999999999999
 21
37.06
 31
0.0
  0
LINE
  5
177
330
1E
100
AcDbEntity
  8
0
100
AcDbLine
 10
273.0
 20
37.06
 30
0.0
 11
273.3
 21
37.06
 31
0.0
  0
LINE
  5
178
330
1E
100
AcDbEntity
  8
0
100
AcDbLine
 10
282.0
 20
37.06
 30
0.0
 11
284.2999999999999
 21
37.06
 31
0.0
  0
LINE
  5
179
330
1E
100
AcDbEntity
  8
0
100
AcDbLine
 10
284.2999999999999
 20
37.06
 30
0.0
 11
286.5
 21
37.06
 31
0.0
  0
LINE
  5
17A
330
1E
100
AcDbEntity
  8
0
100
AcDbLine
 10
286.5
 20
37.06
 30
0.0
 11
288.3999999999999
 21
37.06
 31
0.0
  0
LINE
  5
17B
330
1E
100
AcDbEntity
  8
0
100
AcDbLine
 10
288.3999999999999
 20
37.06
 30
0.0
 11
289.8
 21
37.06
 31
0.0
  0
LINE
  5
17C
330
1E
100
AcDbEntity
  8
0
100
AcDbLine
 10
289.8
 20
37.06
 30
0.0
 11
290.7
 21
37.06
 31
0.0
  0
LINE
  5
180
330
1E
100
AcDbEntity
  8
0
100
AcDbLine
 10
272.0
 20
39.06
 30
0.0
 11
273.0
 21
40.06
 31
0.0
  0
LINE
  5
181
330
1E
100
AcDbEntity
  8
0
100
AcDbLine
 10
272.0
 20
39.06
 30
0.0
 11
272.0
 21
38.06
 31
0.0
  0
LINE
  5
182
330
1E
100
AcDbEntity
  8
0
100
AcDbLine
 10
272.0
 20
38.06
 30
0.0
 11
273.0
 21
37.06
 31
0.0
  0
LINE
  5
184
330
1E
100
AcDbEntity
  8
0
100
AcDbLine
 10
272.0
 20
38.06
 30
0.0
 11
272.0
 21
39.06
 31
0.0
  0
LINE
  5
18F
330
1E
100
AcDbEntity
  8
0
100
AcDbLine
 10
279.7
 20
40.06
 30
0.0
 11
282.0
 21
40.06
 31
0.0
  0
LINE
  5
190
330
1E
100
AcDbEntity
  8
0
100
AcDbLine
 10
277.4999999999999
 20
40.06
 30
0.0
 11
279.7
 21
40.06
 31
0.0
  0
LINE
  5
191
330
1E
100
AcDbEntity
  8
0
100
AcDbLine
 10
275.6
 20
40.06
 30
0.0
 11
277.4999999999999
 21
40.06
 31
0.0
  0
LINE
  5
192
330
1E
100
AcDbEntity
  8
0
100
AcDbLine
 10
274.1999999999999
 20
40.06
 30
0.0
 11
275.6
 21
40.06
 31
0.0
  0
LINE
  5
193
330
1E
100
AcDbEntity
  8
0
100
AcDbLine
 10
273.3
 20
40.06
 30
0.0
 11
274.1999999999999
 21
40.06
 31
0.0
  0
LINE
  5
194
330
1E
100
AcDbEntity
  8
0
100
AcDbLine
 10
273.0
 20
40.06
 30
0.0
 11
273.3
 21
40.06
 31
0.0
  0
LINE
  5
195
330
1E
100
AcDbEntity
  8
0
100
AcDbLine
 10
282.0
 20
40.06
 30
0.0
 11
284.2999999999999
 21
40.06
 31
0.0
  0
LINE
  5
19A
330
1E
100
AcDbEntity
  8
0
100
AcDbLine
 10
284.2999999999999
 20
40.06
 30
0.0
 11
286.5
 21
40.06
 31
0.0
  0
LINE
  5
19B
330
1E
100
AcDbEntity
  8
0
100
AcDbLine
 10
286.5
 20
40.06
 30
0.0
 11
288.3999999999999
 21
40.06
 31
0.0
  0
LINE
  5
1A0
330
1E
100
AcDbEntity
  8
0
100
AcDbLine
 10
288.3999999999999
 20
40.06
 30
0.0
 11
289.8
 21
40.06
 31
0.0
  0
LINE
  5
1A1
330
1E
100
AcDbEntity
  8
0
100
AcDbLine
 10
271.0
 20
43.06
 30
0.0
 11
273.0
 21
40.06
 31
0.0
  0
LINE
  5
1A2
330
1E
100
AcDbEntity
  8
0
100
AcDbLine
 10
289.8
 20
40.06
 30
0.0
 11
290.7
 21
40.06
 31
0.0
  0
LINE
  5
1A3
330
1E
100
AcDbEntity
  8
0
100
AcDbLine
 10
291.0
 20
40.06
 30
0.0
 11
293.0
 21
43.06
 31
0.0
  0
LINE
  5
1A4
330
1E
100
AcDbEntity
  8
0
100
AcDbLine
 10
291.0
 20
40.06
 30
0.0
 11
292.0
 21
39.06
 31
0.0
  0
LINE
  5
1A5
330
1E
100
AcDbEntity
  8
0
100
AcDbLine
 10
290.7
 20
40.06
 30
0.0
 11
291.0
 21
40.06
 31
0.0
  0
LINE
  5
1A6
330
1E
100
AcDbEntity
  8
0
100
AcDbLine
 10
290.7
 20
37.06
 30
0.0
 11
291.0
 21
37.06
 31
0.0
  0
LINE
  5
1A8
330
1E
100
AcDbEntity
  8
0
100
AcDbLine
 10
292.0
 20
38.06
 30
0.0
 11
292.0
 21
39.06
 31
0.0
  0
LINE
  5
1A9
330
1E
100
AcDbEntity
  8
0
100
AcDbLine
 10
292.0
 20
39.06
 30
0.0
 11
292.0
 21
38.06
 31
0.0
  0
LINE
  5
1AB
330
1E
100
AcDbEntity
  8
0
100
AcDbLine
 10
293.0
 20
43.06
 30
0.0
 11
294.0
 21
46.06
 31
0.0
  0
LINE
  5
1AC
330
1E
100
AcDbEntity
  8
0
100
AcDbLine
 10
291.0
 20
37.06
 30
0.0
 11
294.0
 21
34.06
 31
0.0
  0
LINE
  5
1AD
330
1E
100
AcDbEntity
  8
0
100
AcDbLine
 10
291.0
 20
37.06
 30
0.0
 11
292.0
 21
38.06
 31
0.0
  0
LINE
  5
1AE
330
1E
100
AcDbEntity
  8
0
100
AcDbLine
 10
294.0
 20
34.06
 30
0.0
 11
296.4999999999999
 21
29.06
 31
0.0
  0
LINE
  5
1AF
330
1E
100
AcDbEntity
  8
0
100
AcDbLine
 10
296.4999999999999
 20
29.06
 30
0.0
 11
299.0
 21
23.06
 31
0.0
  0
LINE
  5
1B0
330
1E
100
AcDbEntity
  8
0
100
AcDbLine
 10
299.0
 20
23.06
 30
0.0
 11
301.0
 21
16.55999999999999
 31
0.0
  0
LINE
  5
1B1
330
1E
100
AcDbEntity
  8
0
100
AcDbLine
 10
301.0
 20
16.55999999999999
 30
0.0
 11
302.0
 21
10.56
 31
0.0
  0
LINE
  5
1B4
330
1E
100
AcDbEntity
  8
0
100
AcDbLine
 10
158.1966999999999
 20
10.6112
 30
0.0
 11
158.1966999999999
 21
55.3771
 31
0.0
  0
LINE
  5
1B5
330
1E
100
AcDbEntity
  8
0
100
AcDbLine
 10
345.0
 20
43.86
 30
0.0
 11
354.0
 21
43.56
 31
0.0
  0
LINE
  5
1B6
330
1E
100
AcDbEntity
  8
0
100
AcDbLine
 10
332.0
 20
44.06
 30
0.0
 11
345.0
 21
43.86
 31
0.0
  0
LINE
  5
1B7
330
1E
100
AcDbEntity
  8
0
100
AcDbLine
 10
32.0
 20
44.06
 30
0.0
 11
51.0
 21
45.06
 31
0.0
  0
LINE
  5
1B8
330
1E
100
AcDbEntity
  8
0
100
AcDbLine
 10
19.0
 20
43.86
 30
0.0
 11
32.0
 21
44.06
 31
0.0
  0
LINE
  5
1B9
330
1E
100
AcDbEntity
  8
0
100
AcDbLine
 10
9.999999999999969
 20
43.56
 30
0.0
 11
19.0
 21
43.86
 31
0.0
  0
LINE
  5
1BA
330
1E
100
AcDbEntity
  8
0
100
AcDbLine
 10
182.0
 20
44.8793
 30
0.0
 11
184.8
 21
45.0793
 31
0.0
  0
LINE
  5
1BB
330
1E
100
AcDbEntity
  8
0
100
AcDbLine
 10
184.8
 20
45.0793
 30
0.0
 11
187.5
 21
45.6293
 31
0.0
  0
LINE
  5
1BC
330
1E
100
AcDbEntity
  8
0
100
AcDbLine
 10
187.5
 20
45.6293
 30
0.0
 11
189.8
 21
46.4793
 31
0.0
  0
LINE
  5
1BD
330
1E
100
AcDbEntity
  8
0
100
AcDbLine
 10
179.1999999999999
 20
45.0793
 30
0.0
 11
182.0
 21
44.8793
 31
0.0
  0
LINE
  5
1BE
330
1E
100
AcDbEntity
  8
0
100
AcDbLine
 10
176.5
 20
45.6293
 30
0.0
 11
179.1999999999999
 21
45.0793
 31
0.0
  0
LINE
  5
1BF
330
1E
100
AcDbEntity
  8
0
100
AcDbLine
 10
270.0
 20
46.06
 30
0.0
 11
271.0
 21
43.06
 31
0.0
  0
LINE
  5
1C0
330
1E
100
AcDbEntity
  8
0
100
AcDbLine
 10
294.0
 20
46.06
 30
0.0
 11
294.0699588477369
 21
46.4797530864197
 31
0.0
  0
LINE
  5
1C1
330
1E
100
AcDbEntity
  8
0
100
AcDbLine
 10
94.0
 20
46.06
 30
0.0
 11
94.50000000000001
 21
49.06
 31
0.0
  0
LINE
  5
1C2
330
1E
100
AcDbEntity
  8
0
100
AcDbLine
 10
189.8
 20
46.4793
 30
0.0
 11
191.5
 21
47.62929999999999
 31
0.0
  0
LINE
  5
1C3
330
1E
100
AcDbEntity
  8
0
100
AcDbLine
 10
174.1999999999999
 20
46.4793
 30
0.0
 11
176.5
 21
45.6293
 31
0.0
  0
LINE
  5
1C4
330
1E
100
AcDbEntity
  8
0
100
AcDbLine
 10
69.9300411522634
 20
46.4797530864197
 30
0.0
 11
70.0
 21
46.06
 31
0.0
  0
LINE
  5
1C5
330
1E
100
AcDbEntity
  8
0
100
AcDbLine
 10
70.0
 20
46.06
 30
0.0
 11
71.0
 21
43.06
 31
0.0
  0
LINE
  5
1C6
330
1E
100
AcDbEntity
  8
0
100
AcDbLine
 10
294.0699588477369
 20
46.4797530864197
 30
0.0
 11
313.0
 21
45.06
 31
0.0
  0
LINE
  5
1C7
330
1E
100
AcDbEntity
  8
0
100
AcDbLine
 10
313.0
 20
45.06
 30
0.0
 11
332.0
 21
44.06
 31
0.0
  0
LINE
  5
1C8
330
1E
100
AcDbEntity
  8
0
100
AcDbLine
 10
51.0
 20
45.06
 30
0.0
 11
69.9300411522634
 21
46.4797530864197
 31
0.0
  0
LINE
  5
1C9
330
1E
100
AcDbEntity
  8
0
100
AcDbLine
 10
6.499999999999969
 20
44.06
 30
0.0
 11
9.999999999999969
 21
43.56
 31
0.0
  0
LINE
  5
1CA
330
1E
100
AcDbEntity
  8
0
100
AcDbLine
 10
3.99999999999997
 20
45.06
 30
0.0
 11
6.499999999999969
 21
44.06
 31
0.0
  0
LINE
  5
1CB
330
1E
100
AcDbEntity
  8
0
100
AcDbLine
 10
94.50000000000001
 20
49.06
 30
0.0
 11
94.59999999999999
 21
51.06
 31
0.0
  0
LINE
  5
1CC
330
1E
100
AcDbEntity
  8
0
100
AcDbLine
 10
170.6999999999999
 20
48.8613
 30
0.0
 11
172.5
 21
47.62929999999999
 31
0.0
  0
LINE
  5
1CD
330
1E
100
AcDbEntity
  8
0
100
AcDbLine
 10
191.5
 20
47.62929999999999
 30
0.0
 11
192.5999999999999
 21
48.9793
 31
0.0
  0
LINE
  5
1CE
330
1E
100
AcDbEntity
  8
0
100
AcDbLine
 10
191.5
 20
47.62929999999999
 30
0.0
 11
193.3
 21
48.8613
 31
0.0
  0
LINE
  5
1CF
330
1E
100
AcDbEntity
  8
0
100
AcDbLine
 10
193.3
 20
48.8613
 30
0.0
 11
194.5
 21
50.41129999999999
 31
0.0
  0
LINE
  5
1D0
330
1E
100
AcDbEntity
  8
0
100
AcDbLine
 10
192.5999999999999
 20
48.9793
 30
0.0
 11
193.0
 21
50.3793
 31
0.0
  0
LINE
  5
1D1
330
1E
100
AcDbEntity
  8
0
100
AcDbLine
 10
172.5
 20
47.62929999999999
 30
0.0
 11
174.1999999999999
 21
46.4793
 31
0.0
  0
LINE
  5
1D2
330
1E
100
AcDbEntity
  8
0
100
AcDbLine
 10
171.4
 20
48.9793
 30
0.0
 11
172.5
 21
47.62929999999999
 31
0.0
  0
LINE
  5
1D3
330
1E
100
AcDbEntity
  8
0
100
AcDbLine
 10
169.5
 20
50.41129999999999
 30
0.0
 11
170.6999999999999
 21
48.8613
 31
0.0
  0
LINE
  5
1D4
330
1E
100
AcDbEntity
  8
0
100
AcDbLine
 10
171.0
 20
50.3793
 30
0.0
 11
171.4
 21
51.77929999999999
 31
0.0
  0
LINE
  5
1D5
330
1E
100
AcDbEntity
  8
0
100
AcDbLine
 10
171.0
 20
50.3793
 30
0.0
 11
171.4
 21
48.9793
 31
0.0
  0
LINE
  5
1D6
330
1E
100
AcDbEntity
  8
0
100
AcDbLine
 10
194.5
 20
50.41129999999999
 30
0.0
 11
195.0
 21
52.1113
 31
0.0
  0
LINE
  5
1D7
330
1E
100
AcDbEntity
  8
0
100
AcDbLine
 10
269.4999999999999
 20
49.06
 30
0.0
 11
270.0
 21
46.06
 31
0.0
  0
LINE
  5
1D8
330
1E
100
AcDbEntity
  8
0
100
AcDbLine
 10
193.324615075377
 20
48.89309447236179
 30
0.0
 11
195.8999999999999
 21
50.577
 31
0.0
  0
LINE
  5
1D9
330
1E
100
AcDbEntity
  8
0
100
AcDbLine
 10
269.3999999999999
 20
51.06
 30
0.0
 11
269.4999999999999
 21
49.06
 31
0.0
  0
LINE
  5
1DA
330
1E
100
AcDbEntity
  8
0
100
AcDbLine
 10
269.3999999999999
 20
51.06
 30
0.0
 11
269.4999999999999
 21
53.06
 31
0.0
  0
LINE
  5
1DB
330
1E
100
AcDbEntity
  8
0
100
AcDbLine
 10
195.8999999999999
 20
50.577
 30
0.0
 11
197.4
 21
52.477
 31
0.0
  0
LINE
  5
1DC
330
1E
100
AcDbEntity
  8
0
100
AcDbLine
 10
195.8999999999999
 20
50.577
 30
0.0
 11
197.5999999999999
 21
51.777
 31
0.0
  0
LINE
  5
1DD
330
1E
100
AcDbEntity
  8
0
100
AcDbLine
 10
168.1
 20
50.577
 30
0.0
 11
170.6753849246229
 21
48.89309447236179
 31
0.0
  0
LINE
  5
1DE
330
1E
100
AcDbEntity
  8
0
100
AcDbLine
 10
1.999999999999969
 20
46.56
 30
0.0
 11
3.99999999999997
 21
45.06
 31
0.0
  0
LINE
  5
1DF
330
1E
100
AcDbEntity
  8
0
100
AcDbLine
 10
0.4999999999999661
 20
48.56
 30
0.0
 11
1.999999999999969
 21
46.56
 31
0.0
  0
LINE
  5
1E0
330
1E
100
AcDbEntity
  8
0
100
AcDbLine
 10
0.4999999999999661
 20
53.56
 30
0.0
 11
1.999999999999969
 21
55.56
 31
0.0
  0
LINE
  5
1E1
330
1E
100
AcDbEntity
  8
0
100
AcDbLine
 10
94.50000000000001
 20
53.06
 30
0.0
 11
94.59999999999999
 21
51.06
 31
0.0
  0
LINE
  5
1E2
330
1E
100
AcDbEntity
  8
0
100
AcDbLine
 10
158.1966999999999
 20
55.3771
 30
0.0
 11
159.0622999999999
 21
61.00439999999999
 31
0.0
  0
LINE
  5
1E3
330
1E
100
AcDbEntity
  8
0
100
AcDbLine
 10
158.1966999999999
 20
55.3771
 30
0.0
 11
158.1966999999999
 21
10.6112
 31
0.0
  0
LINE
  5
1E4
330
1E
100
AcDbEntity
  8
0
100
AcDbLine
 10
166.0
 20
54.57699999999999
 30
0.0
 11
166.5999999999999
 21
52.477
 31
0.0
  0
LINE
  5
1E5
330
1E
100
AcDbEntity
  8
0
100
AcDbLine
 10
166.0
 20
54.57699999999999
 30
0.0
 11
166.5999999999999
 21
56.577
 31
0.0
  0
LINE
  5
1E6
330
1E
100
AcDbEntity
  8
0
100
AcDbLine
 10
164.5999999999999
 20
54.077
 30
0.0
 11
166.4
 21
51.777
 31
0.0
  0
LINE
  5
1E7
330
1E
100
AcDbEntity
  8
0
100
AcDbLine
 10
169.0
 20
52.1113
 30
0.0
 11
169.5
 21
53.8113
 31
0.0
  0
LINE
  5
1E8
330
1E
100
AcDbEntity
  8
0
100
AcDbLine
 10
169.0
 20
52.1113
 30
0.0
 11
169.5
 21
50.41129999999999
 31
0.0
  0
LINE
  5
1EB
330
1E
100
AcDbEntity
  8
0
100
AcDbLine
 10
192.5999999999999
 20
51.77929999999999
 30
0.0
 11
193.0
 21
50.3793
 31
0.0
  0
LINE
  5
1EC
330
1E
100
AcDbEntity
  8
0
100
AcDbLine
 10
171.4
 20
51.77929999999999
 30
0.0
 11
172.5
 21
53.1293
 31
0.0
  0
LINE
  5
1ED
330
1E
100
AcDbEntity
  8
0
100
AcDbLine
 10
197.4
 20
52.477
 30
0.0
 11
198.0
 21
54.57699999999999
 31
0.0
  0
LINE
  5
1EE
330
1E
100
AcDbEntity
  8
0
100
AcDbLine
 10
197.5999999999999
 20
51.777
 30
0.0
 11
199.3999999999999
 21
54.077
 31
0.0
  0
LINE
  5
1EF
330
1E
100
AcDbEntity
  8
0
100
AcDbLine
 10
191.5
 20
53.1293
 30
0.0
 11
192.5999999999999
 21
51.77929999999999
 31
0.0
  0
LINE
  5
1F1
330
1E
100
AcDbEntity
  8
0
100
AcDbLine
 10
170.6999999999999
 20
55.36129999999999
 30
0.0
 11
172.8
 21
56.7113
 31
0.0
  0
LINE
  5
1F2
330
1E
100
AcDbEntity
  8
0
100
AcDbLine
 10
169.5
 20
53.8113
 30
0.0
 11
170.6999999999999
 21
55.36129999999999
 31
0.0
  0
LINE
  5
1F3
330
1E
100
AcDbEntity
  8
0
100
AcDbLine
 10
194.5
 20
53.8113
 30
0.0
 11
195.0
 21
52.1113
 31
0.0
  0
LINE
  5
1F4
330
1E
100
AcDbEntity
  8
0
100
AcDbLine
 10
187.5
 20
55.1293
 30
0.0
 11
189.8
 21
54.27929999999999
 31
0.0
  0
LINE
  5
1F5
330
1E
100
AcDbEntity
  8
0
100
AcDbLine
 10
189.8
 20
54.27929999999999
 30
0.0
 11
191.5
 21
53.1293
 31
0.0
  0
LINE
  5
1F7
330
1E
100
AcDbEntity
  8
0
100
AcDbLine
 10
193.3
 20
55.36129999999999
 30
0.0
 11
194.5
 21
53.8113
 31
0.0
  0
LINE
  5
1F8
330
1E
100
AcDbEntity
  8
0
100
AcDbLine
 10
176.5
 20
55.1293
 30
0.0
 11
179.1999999999999
 21
55.6793
 31
0.0
  0
LINE
  5
1F9
330
1E
100
AcDbEntity
  8
0
100
AcDbLine
 10
174.1999999999999
 20
54.27929999999999
 30
0.0
 11
176.5
 21
55.1293
 31
0.0
  0
LINE
  5
1FA
330
1E
100
AcDbEntity
  8
0
100
AcDbLine
 10
172.5
 20
53.1293
 30
0.0
 11
174.1999999999999
 21
54.27929999999999
 31
0.0
  0
LINE
  5
1FB
330
1E
100
AcDbEntity
  8
0
100
AcDbLine
 10
269.4999999999999
 20
53.06
 30
0.0
 11
270.0
 21
56.06
 31
0.0
  0
LINE
  5
1FC
330
1E
100
AcDbEntity
  8
0
100
AcDbLine
 10
205.803
 20
55.3771
 30
0.0
 11
205.803
 21
10.6112
 31
0.0
  0
LINE
  5
1FD
330
1E
100
AcDbEntity
  8
0
100
AcDbLine
 10
199.3999999999999
 20
54.077
 30
0.0
 11
200.0
 21
56.277
 31
0.0
  0
LINE
  5
1FE
330
1E
100
AcDbEntity
  8
0
100
AcDbLine
 10
166.5999999999999
 20
52.477
 30
0.0
 11
168.1
 21
50.577
 31
0.0
  0
LINE
  5
1FF
330
1E
100
AcDbEntity
  8
0
100
AcDbLine
 10
166.4
 20
51.777
 30
0.0
 11
168.1
 21
50.577
 31
0.0
  0
LINE
  5
200
330
1E
100
AcDbEntity
  8
0
100
AcDbLine
 10
69.9300411522634
 20
55.64024691358021
 30
0.0
 11
70.0
 21
56.06
 31
0.0
  0
LINE
  5
201
330
1E
100
AcDbEntity
  8
0
100
AcDbLine
 10
94.0
 20
56.06
 30
0.0
 11
94.50000000000001
 21
53.06
 31
0.0
  0
LINE
  5
202
330
1E
100
AcDbEntity
  8
0
100
AcDbLine
 10
70.0
 20
56.06
 30
0.0
 11
71.0
 21
59.06
 31
0.0
  0
LINE
  5
204
330
1E
100
AcDbEntity
  8
0
100
AcDbLine
 10
164.0
 20
56.9169
 30
0.0
 11
164.0
 21
65.08079999999999
 31
0.0
  0
LINE
  5
205
330
1E
100
AcDbEntity
  8
0
100
AcDbLine
 10
182.0
 20
55.8793
 30
0.0
 11
184.8
 21
55.6793
 31
0.0
  0
LINE
  5
206
330
1E
100
AcDbEntity
  8
0
100
AcDbLine
 10
184.8
 20
55.6793
 30
0.0
 11
187.5
 21
55.1293
 31
0.0
  0
LINE
  5
207
330
1E
100
AcDbEntity
  8
0
100
AcDbLine
 10
179.1999999999999
 20
55.6793
 30
0.0
 11
182.0
 21
55.8793
 31
0.0
  0
LINE
  5
208
330
1E
100
AcDbEntity
  8
0
100
AcDbLine
 10
197.4
 20
56.577
 30
0.0
 11
198.0
 21
54.57699999999999
 31
0.0
  0
LINE
  5
209
330
1E
100
AcDbEntity
  8
0
100
AcDbLine
 10
270.0
 20
56.06
 30
0.0
 11
271.0
 21
59.06
 31
0.0
  0
LINE
  5
20A
330
1E
100
AcDbEntity
  8
0
100
AcDbLine
 10
294.0
 20
56.06
 30
0.0
 11
294.0699588477369
 21
55.64024691358021
 31
0.0
  0
LINE
  5
20B
330
1E
100
AcDbEntity
  8
0
100
AcDbLine
 10
200.0
 20
56.277
 30
0.0
 11
200.0
 21
60.2616
 31
0.0
  0
LINE
  5
20D
330
1E
100
AcDbEntity
  8
0
100
AcDbLine
 10
191.1999999999999
 20
56.7113
 30
0.0
 11
193.3
 21
55.36129999999999
 31
0.0
  0
LINE
  5
20E
330
1E
100
AcDbEntity
  8
0
100
AcDbLine
 10
172.8
 20
56.7113
 30
0.0
 11
175.5
 21
57.7613
 31
0.0
  0
LINE
  5
20F
330
1E
100
AcDbEntity
  8
0
100
AcDbLine
 10
166.5999999999999
 20
56.577
 30
0.0
 11
168.1
 21
58.577
 31
0.0
  0
LINE
  5
210
330
1E
100
AcDbEntity
  8
0
100
AcDbLine
 10
164.0
 20
56.277
 30
0.0
 11
164.5999999999999
 21
54.077
 31
0.0
  0
LINE
  5
211
330
1E
100
AcDbEntity
  8
0
100
AcDbLine
 10
164.0
 20
56.277
 30
0.0
 11
164.5999999999999
 21
58.577
 31
0.0
  0
LINE
  5
212
330
1E
100
AcDbEntity
  8
0
100
AcDbLine
 10
164.0
 20
56.277
 30
0.0
 11
164.0
 21
60.2616
 31
0.0
  0
LINE
  5
213
330
1E
100
AcDbEntity
  8
0
100
AcDbLine
 10
294.0699588477369
 20
55.64024691358021
 30
0.0
 11
313.0
 21
57.06
 31
0.0
  0
LINE
  5
214
330
1E
100
AcDbEntity
  8
0
100
AcDbLine
 10
313.0
 20
57.06
 30
0.0
 11
332.0
 21
58.06
 31
0.0
  0
LINE
  5
215
330
1E
100
AcDbEntity
  8
0
100
AcDbLine
 10
188.4999999999999
 20
57.7613
 30
0.0
 11
191.1999999999999
 21
56.7113
 31
0.0
  0
LINE
  5
216
330
1E
100
AcDbEntity
  8
0
100
AcDbLine
 10
175.5
 20
57.7613
 30
0.0
 11
178.6
 21
58.3613
 31
0.0
  0
LINE
  5
217
330
1E
100
AcDbEntity
  8
0
100
AcDbLine
 10
332.0
 20
58.06
 30
0.0
 11
345.0
 21
58.26
 31
0.0
  0
LINE
  5
218
330
1E
100
AcDbEntity
  8
0
100
AcDbLine
 10
51.0
 20
57.06
 30
0.0
 11
69.9300411522634
 21
55.64024691358021
 31
0.0
  0
LINE
  5
219
330
1E
100
AcDbEntity
  8
0
100
AcDbLine
 10
32.0
 20
58.06
 30
0.0
 11
51.0
 21
57.06
 31
0.0
  0
LINE
  5
21A
330
1E
100
AcDbEntity
  8
0
100
AcDbLine
 10
345.0
 20
58.26
 30
0.0
 11
354.0
 21
58.56
 31
0.0
  0
LINE
  5
21B
330
1E
100
AcDbEntity
  8
0
100
AcDbLine
 10
82.0
 20
59.06
 30
0.0
 11
84.8
 21
59.06
 31
0.0
  0
LINE
  5
21C
330
1E
100
AcDbEntity
  8
0
100
AcDbLine
 10
84.8
 20
59.06
 30
0.0
 11
87.5
 21
59.06
 31
0.0
  0
LINE
  5
21D
330
1E
100
AcDbEntity
  8
0
100
AcDbLine
 10
87.5
 20
59.06
 30
0.0
 11
89.8
 21
59.06
 31
0.0
  0
LINE
  5
21E
330
1E
100
AcDbEntity
  8
0
100
AcDbLine
 10
89.8
 20
59.06
 30
0.0
 11
91.5
 21
59.06
 31
0.0
  0
LINE
  5
21F
330
1E
100
AcDbEntity
  8
0
100
AcDbLine
 10
91.5
 20
59.06
 30
0.0
 11
92.59999999999999
 21
59.06
 31
0.0
  0
LINE
  5
220
330
1E
100
AcDbEntity
  8
0
100
AcDbLine
 10
92.59999999999999
 20
59.06
 30
0.0
 11
93.0
 21
59.06
 31
0.0
  0
LINE
  5
221
330
1E
100
AcDbEntity
  8
0
100
AcDbLine
 10
93.0
 20
59.06
 30
0.0
 11
94.0
 21
56.06
 31
0.0
  0
LINE
  5
222
330
1E
100
AcDbEntity
  8
0
100
AcDbLine
 10
93.0
 20
59.06
 30
0.0
 11
93.49999999999999
 21
59.56
 31
0.0
  0
LINE
  5
223
330
1E
100
AcDbEntity
  8
0
100
AcDbLine
 10
79.2
 20
59.06
 30
0.0
 11
82.0
 21
59.06
 31
0.0
  0
LINE
  5
224
330
1E
100
AcDbEntity
  8
0
100
AcDbLine
 10
76.5
 20
59.06
 30
0.0
 11
79.2
 21
59.06
 31
0.0
  0
LINE
  5
225
330
1E
100
AcDbEntity
  8
0
100
AcDbLine
 10
74.2
 20
59.06
 30
0.0
 11
76.5
 21
59.06
 31
0.0
  0
LINE
  5
226
330
1E
100
AcDbEntity
  8
0
100
AcDbLine
 10
72.5
 20
59.06
 30
0.0
 11
74.2
 21
59.06
 31
0.0
  0
LINE
  5
227
330
1E
100
AcDbEntity
  8
0
100
AcDbLine
 10
71.4
 20
59.06
 30
0.0
 11
72.5
 21
59.06
 31
0.0
  0
LINE
  5
228
330
1E
100
AcDbEntity
  8
0
100
AcDbLine
 10
70.5
 20
60.56
 30
0.0
 11
70.5
 21
59.56
 31
0.0
  0
LINE
  5
22A
330
1E
100
AcDbEntity
  8
0
100
AcDbLine
 10
70.5
 20
60.56
 30
0.0
 11
71.0
 21
61.06
 31
0.0
  0
LINE
  5
230
330
1E
100
AcDbEntity
  8
0
100
AcDbLine
 10
93.49999999999999
 20
59.56
 30
0.0
 11
93.49999999999999
 21
60.56
 31
0.0
  0
LINE
  5
23A
330
1E
100
AcDbEntity
  8
0
100
AcDbLine
 10
93.49999999999999
 20
60.56
 30
0.0
 11
93.49999999999999
 21
59.56
 31
0.0
  0
LINE
  5
240
330
1E
100
AcDbEntity
  8
0
100
AcDbLine
 10
82.0
 20
61.06
 30
0.0
 11
84.8
 21
61.06
 31
0.0
  0
LINE
  5
241
330
1E
100
AcDbEntity
  8
0
100
AcDbLine
 10
84.8
 20
61.06
 30
0.0
 11
87.5
 21
61.06
 31
0.0
  0
LINE
  5
242
330
1E
100
AcDbEntity
  8
0
100
AcDbLine
 10
87.5
 20
61.06
 30
0.0
 11
89.8
 21
61.06
 31
0.0
  0
LINE
  5
243
330
1E
100
AcDbEntity
  8
0
100
AcDbLine
 10
89.8
 20
61.06
 30
0.0
 11
91.5
 21
61.06
 31
0.0
  0
LINE
  5
244
330
1E
100
AcDbEntity
  8
0
100
AcDbLine
 10
91.5
 20
61.06
 30
0.0
 11
92.59999999999999
 21
61.06
 31
0.0
  0
LINE
  5
245
330
1E
100
AcDbEntity
  8
0
100
AcDbLine
 10
92.59999999999999
 20
61.06
 30
0.0
 11
93.0
 21
61.06
 31
0.0
  0
LINE
  5
246
330
1E
100
AcDbEntity
  8
0
100
AcDbLine
 10
93.0
 20
61.06
 30
0.0
 11
93.49999999999999
 21
60.56
 31
0.0
  0
LINE
  5
247
330
1E
100
AcDbEntity
  8
0
100
AcDbLine
 10
79.2
 20
61.06
 30
0.0
 11
82.0
 21
61.06
 31
0.0
  0
LINE
  5
248
330
1E
100
AcDbEntity
  8
0
100
AcDbLine
 10
76.5
 20
61.06
 30
0.0
 11
79.2
 21
61.06
 31
0.0
  0
LINE
  5
249
330
1E
100
AcDbEntity
  8
0
100
AcDbLine
 10
74.2
 20
61.06
 30
0.0
 11
76.5
 21
61.06
 31
0.0
  0
LINE
  5
24A
330
1E
100
AcDbEntity
  8
0
100
AcDbLine
 10
72.5
 20
61.06
 30
0.0
 11
74.2
 21
61.06
 31
0.0
  0
LINE
  5
24B
330
1E
100
AcDbEntity
  8
0
100
AcDbLine
 10
85.29999999999999
 20
64.86
 30
0.0
 11
89.19999999999999
 21
63.56
 31
0.0
  0
LINE
  5
24C
330
1E
100
AcDbEntity
  8
0
100
AcDbLine
 10
89.19999999999999
 20
63.56
 30
0.0
 11
93.0
 21
61.06
 31
0.0
  0
LINE
  5
24D
330
1E
100
AcDbEntity
  8
0
100
AcDbLine
 10
82.0
 20
65.06
 30
0.0
 11
85.29999999999999
 21
64.86
 31
0.0
  0
LINE
  5
24E
330
1E
100
AcDbEntity
  8
0
100
AcDbLine
 10
78.7
 20
64.86
 30
0.0
 11
82.0
 21
65.06
 31
0.0
  0
LINE
  5
24F
330
1E
100
AcDbEntity
  8
0
100
AcDbLine
 10
74.8
 20
63.56
 30
0.0
 11
78.7
 21
64.86
 31
0.0
  0
LINE
  5
250
330
1E
100
AcDbEntity
  8
0
100
AcDbLine
 10
71.4
 20
61.06
 30
0.0
 11
72.5
 21
61.06
 31
0.0
  0
LINE
  5
251
330
1E
100
AcDbEntity
  8
0
100
AcDbLine
 10
71.0
 20
61.06
 30
0.0
 11
71.4
 21
61.06
 31
0.0
  0
LINE
  5
252
330
1E
100
AcDbEntity
  8
0
100
AcDbLine
 10
71.0
 20
61.06
 30
0.0
 11
74.8
 21
63.56
 31
0.0
  0
LINE
  5
256
330
1E
100
AcDbEntity
  8
0
100
AcDbLine
 10
70.5
 20
59.56
 30
0.0
 11
71.0
 21
59.06
 31
0.0
  0
LINE
  5
258
330
1E
100
AcDbEntity
  8
0
100
AcDbLine
 10
70.5
 20
59.56
 30
0.0
 11
70.5
 21
60.56
 31
0.0
  0
LINE
  5
259
330
1E
100
AcDbEntity
  8
0
100
AcDbLine
 10
71.0
 20
59.06
 30
0.0
 11
71.4
 21
59.06
 31
0.0
  0
LINE
  5
25A
330
1E
100
AcDbEntity
  8
0
100
AcDbLine
 10
164.0
 20
65.08079999999999
 30
0.0
 11
164.0
 21
70.58969999999999
 31
0.0
  0
LINE
  5
25B
330
1E
100
AcDbEntity
  8
0
100
AcDbLine
 10
164.0
 20
65.08079999999999
 30
0.0
 11
164.0
 21
56.9169
 31
0.0
  0
LINE
  5
25C
330
1E
100
AcDbEntity
  8
0
100
AcDbLine
 10
164.0
 20
60.2616
 30
0.0
 11
164.0
 21
66.85819999999999
 31
0.0
  0
LINE
  5
25D
330
1E
100
AcDbEntity
  8
0
100
AcDbLine
 10
164.0
 20
60.2616
 30
0.0
 11
164.0
 21
56.277
 31
0.0
  0
LINE
  5
25E
330
1E
100
AcDbEntity
  8
0
100
AcDbLine
 10
161.4425999999999
 20
66.33020000000001
 30
0.0
 11
164.0
 21
69.451904164356
 31
0.0
  0
LINE
  5
25F
330
1E
100
AcDbEntity
  8
0
100
AcDbLine
 10
159.0622999999999
 20
61.00439999999999
 30
0.0
 11
161.4425999999999
 21
66.33020000000001
 31
0.0
  0
LINE
  5
260
330
1E
100
AcDbEntity
  8
0
100
AcDbLine
 10
164.0
 20
70.58969999999999
 30
0.0
 11
164.0
 21
74.75480000000001
 31
0.0
  0
LINE
  5
261
330
1E
100
AcDbEntity
  8
0
100
AcDbLine
 10
164.0
 20
70.58969999999999
 30
0.0
 11
164.0
 21
65.08079999999999
 31
0.0
  0
LINE
  5
262
330
1E
100
AcDbEntity
  8
0
100
AcDbLine
 10
164.0
 20
74.75480000000001
 30
0.0
 11
164.0
 21
76.6446
 31
0.0
  0
LINE
  5
263
330
1E
100
AcDbEntity
  8
0
100
AcDbLine
 10
164.0
 20
74.75480000000001
 30
0.0
 11
164.0
 21
70.58969999999999
 31
0.0
  0
LINE
  5
264
330
1E
100
AcDbEntity
  8
0
100
AcDbLine
 10
164.0
 20
66.85819999999999
 30
0.0
 11
164.0
 21
71.81529999999999
 31
0.0
  0
LINE
  5
265
330
1E
100
AcDbEntity
  8
0
100
AcDbLine
 10
164.0
 20
66.85819999999999
 30
0.0
 11
164.0
 21
60.2616
 31
0.0
  0
LINE
  5
266
330
1E
100
AcDbEntity
  8
0
100
AcDbLine
 10
164.0
 20
71.81529999999999
 30
0.0
 11
164.0
 21
75.3322
 31
0.0
  0
LINE
  5
267
330
1E
100
AcDbEntity
  8
0
100
AcDbLine
 10
164.0
 20
71.81529999999999
 30
0.0
 11
164.0
 21
66.85819999999999
 31
0.0
  0
LINE
  5
268
330
1E
100
AcDbEntity
  8
0
100
AcDbLine
 10
164.0
 20
76.6446
 30
0.0
 11
164.0
 21
77.06
 31
0.0
  0
LINE
  5
269
330
1E
100
AcDbEntity
  8
0
100
AcDbLine
 10
164.0
 20
76.6446
 30
0.0
 11
164.0
 21
74.75480000000001
 31
0.0
  0
LINE
  5
26A
330
1E
100
AcDbEntity
  8
0
100
AcDbLine
 10
164.5999999999999
 20
81.66
 30
0.0
 11
166.4
 21
86.05999999999999
 31
0.0
  0
LINE
  5
26B
330
1E
100
AcDbEntity
  8
0
100
AcDbLine
 10
164.0
 20
77.06
 30
0.0
 11
164.0
 21
75.3322
 31
0.0
  0
LINE
  5
26C
330
1E
100
AcDbEntity
  8
0
100
AcDbLine
 10
164.0
 20
77.06
 30
0.0
 11
164.5999999999999
 21
81.66
 31
0.0
  0
LINE
  5
26D
330
1E
100
AcDbEntity
  8
0
100
AcDbLine
 10
164.0
 20
77.06
 30
0.0
 11
164.0
 21
76.6446
 31
0.0
  0
LINE
  5
26E
330
1E
100
AcDbEntity
  8
0
100
AcDbLine
 10
164.0
 20
75.3322
 30
0.0
 11
164.0
 21
77.06
 31
0.0
  0
LINE
  5
26F
330
1E
100
AcDbEntity
  8
0
100
AcDbLine
 10
164.0
 20
75.3322
 30
0.0
 11
164.0
 21
71.81529999999999
 31
0.0
  0
LINE
  5
270
330
1E
100
AcDbEntity
  8
0
100
AcDbLine
 10
185.4
 20
58.3613
 30
0.0
 11
188.4999999999999
 21
57.7613
 31
0.0
  0
LINE
  5
271
330
1E
100
AcDbEntity
  8
0
100
AcDbLine
 10
178.6
 20
58.3613
 30
0.0
 11
182.0
 21
58.6113
 31
0.0
  0
LINE
  5
272
330
1E
100
AcDbEntity
  8
0
100
AcDbLine
 10
195.8999999999999
 20
58.577
 30
0.0
 11
197.4
 21
56.577
 31
0.0
  0
LINE
  5
273
330
1E
100
AcDbEntity
  8
0
100
AcDbLine
 10
199.3999999999999
 20
58.577
 30
0.0
 11
200.0
 21
56.277
 31
0.0
  0
LINE
  5
274
330
1E
100
AcDbEntity
  8
0
100
AcDbLine
 10
166.4
 20
86.05999999999999
 30
0.0
 11
169.3
 21
89.76
 31
0.0
  0
LINE
  5
275
330
1E
100
AcDbEntity
  8
0
100
AcDbLine
 10
182.0
 20
58.6113
 30
0.0
 11
185.4
 21
58.3613
 31
0.0
  0
LINE
  5
276
330
1E
100
AcDbEntity
  8
0
100
AcDbLine
 10
193.3
 20
60.177
 30
0.0
 11
195.8999999999999
 21
58.577
 31
0.0
  0
LINE
  5
277
330
1E
100
AcDbEntity
  8
0
100
AcDbLine
 10
190.0
 20
61.477
 30
0.0
 11
193.3
 21
60.177
 31
0.0
  0
LINE
  5
278
330
1E
100
AcDbEntity
  8
0
100
AcDbLine
 10
197.5999999999999
 20
60.777
 30
0.0
 11
199.3999999999999
 21
58.577
 31
0.0
  0
LINE
  5
279
330
1E
100
AcDbEntity
  8
0
100
AcDbLine
 10
279.1999999999999
 20
59.06
 30
0.0
 11
282.0
 21
59.06
 31
0.0
  0
LINE
  5
27A
330
1E
100
AcDbEntity
  8
0
100
AcDbLine
 10
276.5
 20
59.06
 30
0.0
 11
279.1999999999999
 21
59.06
 31
0.0
  0
LINE
  5
27B
330
1E
100
AcDbEntity
  8
0
100
AcDbLine
 10
274.1999999999999
 20
59.06
 30
0.0
 11
276.5
 21
59.06
 31
0.0
  0
LINE
  5
27C
330
1E
100
AcDbEntity
  8
0
100
AcDbLine
 10
272.5
 20
59.06
 30
0.0
 11
274.1999999999999
 21
59.06
 31
0.0
  0
LINE
  5
27D
330
1E
100
AcDbEntity
  8
0
100
AcDbLine
 10
271.3999999999999
 20
59.06
 30
0.0
 11
272.5
 21
59.06
 31
0.0
  0
LINE
  5
27E
330
1E
100
AcDbEntity
  8
0
100
AcDbLine
 10
271.0
 20
59.06
 30
0.0
 11
271.3999999999999
 21
59.06
 31
0.0
  0
LINE
  5
27F
330
1E
100
AcDbEntity
  8
0
100
AcDbLine
 10
282.0
 20
59.06
 30
0.0
 11
284.8
 21
59.06
 31
0.0
  0
LINE
  5
280
330
1E
100
AcDbEntity
  8
0
100
AcDbLine
 10
284.8
 20
59.06
 30
0.0
 11
287.5
 21
59.06
 31
0.0
  0
LINE
  5
281
330
1E
100
AcDbEntity
  8
0
100
AcDbLine
 10
287.5
 20
59.06
 30
0.0
 11
289.8
 21
59.06
 31
0.0
  0
LINE
  5
282
330
1E
100
AcDbEntity
  8
0
100
AcDbLine
 10
289.8
 20
59.06
 30
0.0
 11
291.5
 21
59.06
 31
0.0
  0
LINE
  5
283
330
1E
100
AcDbEntity
  8
0
100
AcDbLine
 10
291.5
 20
59.06
 30
0.0
 11
292.6
 21
59.06
 31
0.0
  0
LINE
  5
289
330
1E
100
AcDbEntity
  8
0
100
AcDbLine
 10
270.5
 20
59.56
 30
0.0
 11
271.0
 21
59.06
 31
0.0
  0
LINE
  5
28B
330
1E
100
AcDbEntity
  8
0
100
AcDbLine
 10
270.5
 20
59.56
 30
0.0
 11
270.5
 21
60.56
 31
0.0
  0
LINE
  5
295
330
1E
100
AcDbEntity
  8
0
100
AcDbLine
 10
270.5
 20
60.56
 30
0.0
 11
271.0
 21
61.06
 31
0.0
  0
LINE
  5
296
330
1E
100
AcDbEntity
  8
0
100
AcDbLine
 10
270.5
 20
60.56
 30
0.0
 11
270.5
 21
59.56
 31
0.0
  0
LINE
  5
29E
330
1E
100
AcDbEntity
  8
0
100
AcDbLine
 10
292.6
 20
59.06
 30
0.0
 11
293.0
 21
59.06
 31
0.0
  0
LINE
  5
29F
330
1E
100
AcDbEntity
  8
0
100
AcDbLine
 10
293.5
 20
59.56
 30
0.0
 11
293.5
 21
60.56
 31
0.0
  0
LINE
  5
2A1
330
1E
100
AcDbEntity
  8
0
100
AcDbLine
 10
293.5
 20
60.56
 30
0.0
 11
293.5
 21
59.56
 31
0.0
  0
LINE
  5
2A3
330
1E
100
AcDbEntity
  8
0
100
AcDbLine
 10
293.0
 20
59.06
 30
0.0
 11
294.0
 21
56.06
 31
0.0
  0
LINE
  5
2A5
330
1E
100
AcDbEntity
  8
0
100
AcDbLine
 10
279.1999999999999
 20
61.06
 30
0.0
 11
282.0
 21
61.06
 31
0.0
  0
LINE
  5
2A6
330
1E
100
AcDbEntity
  8
0
100
AcDbLine
 10
276.5
 20
61.06
 30
0.0
 11
279.1999999999999
 21
61.06
 31
0.0
  0
LINE
  5
2A7
330
1E
100
AcDbEntity
  8
0
100
AcDbLine
 10
274.1999999999999
 20
61.06
 30
0.0
 11
276.5
 21
61.06
 31
0.0
  0
LINE
  5
2A8
330
1E
100
AcDbEntity
  8
0
100
AcDbLine
 10
272.5
 20
61.06
 30
0.0
 11
274.1999999999999
 21
61.06
 31
0.0
  0
LINE
  5
2A9
330
1E
100
AcDbEntity
  8
0
100
AcDbLine
 10
271.3999999999999
 20
61.06
 30
0.0
 11
272.5
 21
61.06
 31
0.0
  0
LINE
  5
2AA
330
1E
100
AcDbEntity
  8
0
100
AcDbLine
 10
271.0
 20
61.06
 30
0.0
 11
271.3999999999999
 21
61.06
 31
0.0
  0
LINE
  5
2AB
330
1E
100
AcDbEntity
  8
0
100
AcDbLine
 10
271.0
 20
61.06
 30
0.0
 11
274.8
 21
63.56
 31
0.0
  0
LINE
  5
2AC
330
1E
100
AcDbEntity
  8
0
100
AcDbLine
 10
282.0
 20
61.06
 30
0.0
 11
284.8
 21
61.06
 31
0.0
  0
LINE
  5
2AD
330
1E
100
AcDbEntity
  8
0
100
AcDbLine
 10
284.8
 20
61.06
 30
0.0
 11
287.5
 21
61.06
 31
0.0
  0
LINE
  5
2AE
330
1E
100
AcDbEntity
  8
0
100
AcDbLine
 10
287.5
 20
61.06
 30
0.0
 11
289.8
 21
61.06
 31
0.0
  0
LINE
  5
2AF
330
1E
100
AcDbEntity
  8
0
100
AcDbLine
 10
289.8
 20
61.06
 30
0.0
 11
291.5
 21
61.06
 31
0.0
  0
LINE
  5
2B0
330
1E
100
AcDbEntity
  8
0
100
AcDbLine
 10
291.5
 20
61.06
 30
0.0
 11
292.6
 21
61.06
 31
0.0
  0
LINE
  5
2B1
330
1E
100
AcDbEntity
  8
0
100
AcDbLine
 10
292.6
 20
61.06
 30
0.0
 11
293.0
 21
61.06
 31
0.0
  0
LINE
  5
2B2
330
1E
100
AcDbEntity
  8
0
100
AcDbLine
 10
293.0
 20
61.06
 30
0.0
 11
293.5
 21
60.56
 31
0.0
  0
LINE
  5
2B3
330
1E
100
AcDbEntity
  8
0
100
AcDbLine
 10
204.9379999999999
 20
61.00439999999999
 30
0.0
 11
205.803
 21
55.3771
 31
0.0
  0
LINE
  5
2B4
330
1E
100
AcDbEntity
  8
0
100
AcDbLine
 10
200.0
 20
60.2616
 30
0.0
 11
200.0
 21
56.277
 31
0.0
  0
LINE
  5
2B5
330
1E
100
AcDbEntity
  8
0
100
AcDbLine
 10
200.0
 20
60.2616
 30
0.0
 11
200.0
 21
66.85819999999999
 31
0.0
  0
LINE
  5
2B6
330
1E
100
AcDbEntity
  8
0
100
AcDbLine
 10
186.0999999999999
 20
62.277
 30
0.0
 11
190.0
 21
61.477
 31
0.0
  0
LINE
  5
2B7
330
1E
100
AcDbEntity
  8
0
100
AcDbLine
 10
182.0
 20
62.57699999999999
 30
0.0
 11
186.0999999999999
 21
62.277
 31
0.0
  0
LINE
  5
2B8
330
1E
100
AcDbEntity
  8
0
100
AcDbLine
 10
194.6999999999999
 20
62.677
 30
0.0
 11
197.5999999999999
 21
60.777
 31
0.0
  0
LINE
  5
2B9
330
1E
100
AcDbEntity
  8
0
100
AcDbLine
 10
177.9
 20
62.277
 30
0.0
 11
182.0
 21
62.57699999999999
 31
0.0
  0
LINE
  5
2BA
330
1E
100
AcDbEntity
  8
0
100
AcDbLine
 10
174.0
 20
61.477
 30
0.0
 11
177.9
 21
62.277
 31
0.0
  0
LINE
  5
2BB
330
1E
100
AcDbEntity
  8
0
100
AcDbLine
 10
170.6999999999999
 20
60.177
 30
0.0
 11
174.0
 21
61.477
 31
0.0
  0
LINE
  5
2BC
330
1E
100
AcDbEntity
  8
0
100
AcDbLine
 10
173.0
 20
92.66
 30
0.0
 11
177.3
 21
94.35999999999999
 31
0.0
  0
LINE
  5
2BD
330
1E
100
AcDbEntity
  8
0
100
AcDbLine
 10
169.3
 20
89.76
 30
0.0
 11
173.0
 21
92.66
 31
0.0
  0
LINE
  5
2BE
330
1E
100
AcDbEntity
  8
0
100
AcDbLine
 10
186.6999999999999
 20
64.977
 30
0.0
 11
191.0
 21
64.077
 31
0.0
  0
LINE
  5
2BF
330
1E
100
AcDbEntity
  8
0
100
AcDbLine
 10
274.8
 20
63.56
 30
0.0
 11
278.6999999999999
 21
64.86
 31
0.0
  0
LINE
  5
2C0
330
1E
100
AcDbEntity
  8
0
100
AcDbLine
 10
278.6999999999999
 20
64.86
 30
0.0
 11
282.0
 21
65.06
 31
0.0
  0
LINE
  5
2C1
330
1E
100
AcDbEntity
  8
0
100
AcDbLine
 10
285.3
 20
64.86
 30
0.0
 11
289.1999999999999
 21
63.56
 31
0.0
  0
LINE
  5
2C2
330
1E
100
AcDbEntity
  8
0
100
AcDbLine
 10
289.1999999999999
 20
63.56
 30
0.0
 11
293.0
 21
61.06
 31
0.0
  0
LINE
  5
2C3
330
1E
100
AcDbEntity
  8
0
100
AcDbLine
 10
191.0
 20
64.077
 30
0.0
 11
194.6999999999999
 21
62.677
 31
0.0
  0
LINE
  5
2C4
330
1E
100
AcDbEntity
  8
0
100
AcDbLine
 10
282.0
 20
65.06
 30
0.0
 11
285.3
 21
64.86
 31
0.0
  0
LINE
  5
2C5
330
1E
100
AcDbEntity
  8
0
100
AcDbLine
 10
200.0
 20
69.45215787110409
 30
0.0
 11
202.557
 21
66.33020000000001
 31
0.0
  0
LINE
  5
2C6
330
1E
100
AcDbEntity
  8
0
100
AcDbLine
 10
200.0
 20
77.06
 30
0.0
 11
200.0
 21
75.3322
 31
0.0
  0
LINE
  5
2C7
330
1E
100
AcDbEntity
  8
0
100
AcDbLine
 10
182.0
 20
95.06
 30
0.0
 11
186.6999999999999
 21
94.35999999999999
 31
0.0
  0
LINE
  5
2C8
330
1E
100
AcDbEntity
  8
0
100
AcDbLine
 10
186.6999999999999
 20
94.35999999999999
 30
0.0
 11
191.0
 21
92.66
 31
0.0
  0
LINE
  5
2C9
330
1E
100
AcDbEntity
  8
0
100
AcDbLine
 10
191.0
 20
92.66
 30
0.0
 11
194.6999999999999
 21
89.76
 31
0.0
  0
LINE
  5
2CA
330
1E
100
AcDbEntity
  8
0
100
AcDbLine
 10
194.6999999999999
 20
89.76
 30
0.0
 11
197.5999999999999
 21
86.05999999999999
 31
0.0
  0
LINE
  5
2CB
330
1E
100
AcDbEntity
  8
0
100
AcDbLine
 10
197.5999999999999
 20
86.05999999999999
 30
0.0
 11
199.3999999999999
 21
81.66
 31
0.0
  0
LINE
  5
2CC
330
1E
100
AcDbEntity
  8
0
100
AcDbLine
 10
199.3999999999999
 20
81.66
 30
0.0
 11
200.0
 21
77.06
 31
0.0
  0
LINE
  5
2CD
330
1E
100
AcDbEntity
  8
0
100
AcDbLine
 10
200.0
 20
75.3322
 30
0.0
 11
200.0
 21
71.81529999999999
 31
0.0
  0
LINE
  5
2CE
330
1E
100
AcDbEntity
  8
0
100
AcDbLine
 10
200.0
 20
75.3322
 30
0.0
 11
200.0
 21
77.06
 31
0.0
  0
LINE
  5
2CF
330
1E
100
AcDbEntity
  8
0
100
AcDbLine
 10
200.0
 20
71.81529999999999
 30
0.0
 11
200.0
 21
66.85819999999999
 31
0.0
  0
LINE
  5
2D0
330
1E
100
AcDbEntity
  8
0
100
AcDbLine
 10
200.0
 20
71.81529999999999
 30
0.0
 11
200.0
 21
75.3322
 31
0.0
  0
LINE
  5
2D1
330
1E
100
AcDbEntity
  8
0
100
AcDbLine
 10
344.0
 20
128.6599999999999
 30
0.0
 11
347.3999999999999
 21
130.8239999999999
 31
0.0
  0
LINE
  5
2D2
330
1E
100
AcDbEntity
  8
0
100
AcDbLine
 10
344.0
 20
124.6739999999999
 30
0.0
 11
344.0
 21
129.4299999999999
 31
0.0
  0
LINE
  5
2D3
330
1E
100
AcDbEntity
  8
0
100
AcDbLine
 10
344.0
 20
124.6739999999999
 30
0.0
 11
344.0
 21
120.6879999999999
 31
0.0
  0
LINE
  5
2D4
330
1E
100
AcDbEntity
  8
0
100
AcDbLine
 10
344.0
 20
120.6879999999999
 30
0.0
 11
344.0
 21
124.6739999999999
 31
0.0
  0
LINE
  5
2D5
330
1E
100
AcDbEntity
  8
0
100
AcDbLine
 10
344.0
 20
120.6879999999999
 30
0.0
 11
346.3
 21
116.952
 31
0.0
  0
LINE
  5
2D6
330
1E
100
AcDbEntity
  8
0
100
AcDbLine
 10
344.0
 20
129.4299999999999
 30
0.0
 11
345.3999999999999
 21
132.458
 31
0.0
  0
LINE
  5
2D7
330
1E
100
AcDbEntity
  8
0
100
AcDbLine
 10
344.0
 20
129.4299999999999
 30
0.0
 11
344.0
 21
124.6739999999999
 31
0.0
  0
LINE
  5
2D8
330
1E
100
AcDbEntity
  8
0
100
AcDbLine
 10
202.557
 20
66.33020000000001
 30
0.0
 11
204.9379999999999
 21
61.00439999999999
 31
0.0
  0
LINE
  5
2D9
330
1E
100
AcDbEntity
  8
0
100
AcDbLine
 10
200.0
 20
66.85819999999999
 30
0.0
 11
200.0
 21
60.2616
 31
0.0
  0
LINE
  5
2DA
330
1E
100
AcDbEntity
  8
0
100
AcDbLine
 10
200.0
 20
66.85819999999999
 30
0.0
 11
200.0
 21
71.81529999999999
 31
0.0
  0
LINE
  5
2DB
330
1E
100
AcDbEntity
  8
0
100
AcDbLine
 10
182.0
 20
65.277
 30
0.0
 11
186.6999999999999
 21
64.977
 31
0.0
  0
LINE
  5
2DC
330
1E
100
AcDbEntity
  8
0
100
AcDbLine
 10
177.3
 20
94.35999999999999
 30
0.0
 11
182.0
 21
95.06
 31
0.0
  0
LINE
  5
2DD
330
1E
100
AcDbEntity
  8
0
100
AcDbLine
 10
177.3
 20
64.977
 30
0.0
 11
182.0
 21
65.277
 31
0.0
  0
LINE
  5
2DE
330
1E
100
AcDbEntity
  8
0
100
AcDbLine
 10
173.0
 20
64.077
 30
0.0
 11
177.3
 21
64.977
 31
0.0
  0
LINE
  5
2DF
330
1E
100
AcDbEntity
  8
0
100
AcDbLine
 10
169.3
 20
62.677
 30
0.0
 11
173.0
 21
64.077
 31
0.0
  0
LINE
  5
2E0
330
1E
100
AcDbEntity
  8
0
100
AcDbLine
 10
166.4
 20
60.777
 30
0.0
 11
169.3
 21
62.677
 31
0.0
  0
LINE
  5
2E1
330
1E
100
AcDbEntity
  8
0
100
AcDbLine
 10
168.1
 20
58.577
 30
0.0
 11
170.6999999999999
 21
60.177
 31
0.0
  0
LINE
  5
2E2
330
1E
100
AcDbEntity
  8
0
100
AcDbLine
 10
164.5999999999999
 20
58.577
 30
0.0
 11
166.4
 21
60.777
 31
0.0
  0
LINE
  5
2E3
330
1E
100
AcDbEntity
  8
0
100
AcDbLine
 10
19.0
 20
58.26
 30
0.0
 11
32.0
 21
58.06
 31
0.0
  0
LINE
  5
2E4
330
1E
100
AcDbEntity
  8
0
100
AcDbLine
 10
9.999999999999969
 20
58.56
 30
0.0
 11
19.0
 21
58.26
 31
0.0
  0
LINE
  5
2E5
330
1E
100
AcDbEntity
  8
0
100
AcDbLine
 10
6.499999999999969
 20
58.06
 30
0.0
 11
9.999999999999969
 21
58.56
 31
0.0
  0
LINE
  5
2E6
330
1E
100
AcDbEntity
  8
0
100
AcDbLine
 10
3.99999999999997
 20
57.06
 30
0.0
 11
6.499999999999969
 21
58.06
 31
0.0
  0
LINE
  5
2E7
330
1E
100
AcDbEntity
  8
0
100
AcDbLine
 10
1.999999999999969
 20
55.56
 30
0.0
 11
3.99999999999997
 21
57.06
 31
0.0
  0
LINE
  5
2E8
330
1E
100
AcDbEntity
  8
0
100
AcDbLine
 10
0.4999999999999661
 20
53.56
 30
0.0
 11
1.999999999999969
 21
55.56
 31
0.0
  0
LINE
  5
2E9
330
1E
100
AcDbEntity
  8
0
100
AcDbLine
 10
-0.0000000000000339
 20
51.06
 30
0.0
 11
0.4999999999999661
 21
48.56
 31
0.0
  0
LINE
  5
2EA
330
1E
100
AcDbEntity
  8
0
100
AcDbLine
 10
-0.0000000000000339
 20
51.06
 30
0.0
 11
0.4999999999999661
 21
53.56
 31
0.0
  0
LINE
  5
2EB
330
1E
100
AcDbEntity
  8
0
100
AcDbLine
 10
350.7519999999999
 20
0.059999999999987
 30
0.0
 11
356.5119999999999
 21
0.0599999999999865
 31
0.0
  0
LINE
  5
2EC
330
1E
100
AcDbEntity
  8
0
100
AcDbLine
 10
347.296
 20
0.0599999999999875
 30
0.0
 11
350.7519999999999
 21
0.059999999999987
 31
0.0
  0
LINE
  5
2ED
330
1E
100
AcDbEntity
  8
0
100
AcDbLine
 10
350.7519999999999
 20
0.0599999999999892
 30
0.0
 11
356.5119999999999
 21
0.0599999999999896
 31
0.0
  0
LINE
  5
2EE
330
1E
100
AcDbEntity
  8
0
100
AcDbLine
 10
347.296
 20
0.0599999999999886
 30
0.0
 11
350.7519999999999
 21
0.0599999999999892
 31
0.0
  0
LINE
  5
2EF
330
1E
100
AcDbEntity
  8
0
100
AcDbLine
 10
346.0
 20
0.0599999999999881
 30
0.0
 11
347.296
 21
0.0599999999999886
 31
0.0
  0
LINE
  5
2F0
330
1E
100
AcDbEntity
  8
0
100
AcDbLine
 10
346.0
 20
0.0599999999999881
 30
0.0
 11
347.296
 21
0.0599999999999875
 31
0.0
  0
LINE
  5
2F1
330
1E
100
AcDbEntity
  8
0
100
AcDbLine
 10
346.0
 20
0.0599999999999881
 30
0.0
 11
346.0
 21
1.05999999999999
 31
0.0
  0
LINE
  5
2F2
330
1E
100
AcDbEntity
  8
0
100
AcDbLine
 10
346.0
 20
1.05999999999999
 30
0.0
 11
346.0
 21
0.0599999999999881
 31
0.0
  0
LINE
  5
2F3
330
1E
100
AcDbEntity
  8
0
100
AcDbLine
 10
346.0
 20
1.05999999999999
 30
0.0
 11
347.296
 21
1.05999999999999
 31
0.0
  0
LINE
  5
2F4
330
1E
100
AcDbEntity
  8
0
100
AcDbLine
 10
347.0
 20
1.05999999999999
 30
0.0
 11
347.0
 21
9.059999999999989
 31
0.0
  0
LINE
  5
2F5
330
1E
100
AcDbEntity
  8
0
100
AcDbLine
 10
347.296
 20
1.05999999999999
 30
0.0
 11
350.7519999999999
 21
1.05999999999999
 31
0.0
  0
LINE
  5
2F6
330
1E
100
AcDbEntity
  8
0
100
AcDbLine
 10
350.7519999999999
 20
1.05999999999999
 30
0.0
 11
356.5119999999999
 21
1.05999999999999
 31
0.0
  0
LINE
  5
2F7
330
1E
100
AcDbEntity
  8
0
100
AcDbLine
 10
353.3999999999999
 20
11.06
 30
0.0
 11
358.6999999999999
 21
11.06
 31
0.0
  0
LINE
  5
2F8
330
1E
100
AcDbEntity
  8
0
100
AcDbLine
 10
350.1999999999999
 20
11.06
 30
0.0
 11
353.3999999999999
 21
11.06
 31
0.0
  0
LINE
  5
2F9
330
1E
100
AcDbEntity
  8
0
100
AcDbLine
 10
349.0
 20
11.06
 30
0.0
 11
350.1999999999999
 21
11.06
 31
0.0
  0
LINE
  5
2FA
330
1E
100
AcDbEntity
  8
0
100
AcDbLine
 10
351.6999999999999
 20
9.059999999999989
 30
0.0
 11
357.3
 21
9.059999999999989
 31
0.0
  0
LINE
  5
2FB
330
1E
100
AcDbEntity
  8
0
100
AcDbLine
 10
348.3
 20
9.059999999999989
 30
0.0
 11
351.6999999999999
 21
9.059999999999989
 31
0.0
  0
LINE
  5
2FC
330
1E
100
AcDbEntity
  8
0
100
AcDbLine
 10
347.0
 20
9.059999999999989
 30
0.0
 11
347.0
 21
1.05999999999999
 31
0.0
  0
LINE
  5
2FD
330
1E
100
AcDbEntity
  8
0
100
AcDbLine
 10
347.0
 20
9.059999999999989
 30
0.0
 11
349.0
 21
11.06
 31
0.0
  0
LINE
  5
2FE
330
1E
100
AcDbEntity
  8
0
100
AcDbLine
 10
347.0
 20
9.059999999999989
 30
0.0
 11
348.3
 21
9.059999999999989
 31
0.0
  0
LINE
  5
2FF
330
1E
100
AcDbEntity
  8
0
100
AcDbLine
 10
356.5119999999999
 20
0.0599999999999865
 30
0.0
 11
364.144
 21
0.0599999999999862
 31
0.0
  0
LINE
  5
300
330
1E
100
AcDbEntity
  8
0
100
AcDbLine
 10
356.5119999999999
 20
0.0599999999999896
 30
0.0
 11
364.144
 21
0.05999999999999
 31
0.0
  0
LINE
  5
301
330
1E
100
AcDbEntity
  8
0
100
AcDbLine
 10
356.5119999999999
 20
1.05999999999999
 30
0.0
 11
364.144
 21
1.05999999999999
 31
0.0
  0
LINE
  5
302
330
1E
100
AcDbEntity
  8
0
100
AcDbLine
 10
357.0
 20
16.05999999999999
 30
0.0
 11
363.0
 21
22.05999999999999
 31
0.0
  0
LINE
  5
303
330
1E
100
AcDbEntity
  8
0
100
AcDbLine
 10
355.0
 20
11.06
 30
0.0
 11
357.0
 21
16.05999999999999
 31
0.0
  0
LINE
  5
304
330
1E
100
AcDbEntity
  8
0
100
AcDbLine
 10
357.3
 20
9.059999999999989
 30
0.0
 11
364.6
 21
9.059999999999989
 31
0.0
  0
LINE
  5
305
330
1E
100
AcDbEntity
  8
0
100
AcDbLine
 10
354.0
 20
43.56
 30
0.0
 11
357.5
 21
44.06
 31
0.0
  0
LINE
  5
306
330
1E
100
AcDbEntity
  8
0
100
AcDbLine
 10
354.0
 20
58.56
 30
0.0
 11
357.5
 21
58.06
 31
0.0
  0
LINE
  5
307
330
1E
100
AcDbEntity
  8
0
100
AcDbLine
 10
357.5
 20
58.06
 30
0.0
 11
360.0
 21
57.06
 31
0.0
  0
LINE
  5
308
330
1E
100
AcDbEntity
  8
0
100
AcDbLine
 10
357.5
 20
44.06
 30
0.0
 11
360.0
 21
45.06
 31
0.0
  0
LINE
  5
309
330
1E
100
AcDbEntity
  8
0
100
AcDbLine
 10
358.6999999999999
 20
11.06
 30
0.0
 11
365.6
 21
11.06
 31
0.0
  0
LINE
  5
30A
330
1E
100
AcDbEntity
  8
0
100
AcDbLine
 10
360.0
 20
45.06
 30
0.0
 11
362.0
 21
46.56
 31
0.0
  0
LINE
  5
30B
330
1E
100
AcDbEntity
  8
0
100
AcDbLine
 10
364.144
 20
0.0599999999999862
 30
0.0
 11
372.784
 21
0.0599999999999859
 31
0.0
  0
LINE
  5
30C
330
1E
100
AcDbEntity
  8
0
100
AcDbLine
 10
364.144
 20
0.05999999999999
 30
0.0
 11
372.784
 21
0.0599999999999902
 31
0.0
  0
LINE
  5
30D
330
1E
100
AcDbEntity
  8
0
100
AcDbLine
 10
364.144
 20
1.05999999999999
 30
0.0
 11
372.784
 21
1.05999999999999
 31
0.0
  0
LINE
  5
30E
330
1E
100
AcDbEntity
  8
0
100
AcDbLine
 10
363.0
 20
22.05999999999999
 30
0.0
 11
370.0
 21
24.6209756097561
 31
0.0
  0
LINE
  5
30F
330
1E
100
AcDbEntity
  8
0
100
AcDbLine
 10
370.0
 20
48.2518
 30
0.0
 11
370.3999999999999
 21
46.71289999999999
 31
0.0
  0
LINE
  5
310
330
1E
100
AcDbEntity
  8
0
100
AcDbLine
 10
370.0
 20
48.2518
 30
0.0
 11
370.0
 21
49.0852
 31
0.0
  0
LINE
  5
312
330
1E
100
AcDbEntity
  8
0
100
AcDbLine
 10
370.0
 20
48.36
 30
0.0
 11
370.0
 21
22.26
 31
0.0
  0
LINE
  5
313
330
1E
100
AcDbEntity
  8
0
100
AcDbLine
 10
370.0
 20
22.26
 30
0.0
 11
370.3999999999999
 21
20.76
 31
0.0
  0
LINE
  5
314
330
1E
100
AcDbEntity
  8
0
100
AcDbLine
 10
370.0
 20
22.26
 30
0.0
 11
370.0
 21
48.36
 31
0.0
  0
LINE
  5
315
330
1E
100
AcDbEntity
  8
0
100
AcDbLine
 10
365.6
 20
11.06
 30
0.0
 11
373.4999999999999
 21
11.06
 31
0.0
  0
LINE
  5
316
330
1E
100
AcDbEntity
  8
0
100
AcDbLine
 10
364.6
 20
9.059999999999989
 30
0.0
 11
373.0
 21
9.059999999999989
 31
0.0
  0
LINE
  5
317
330
1E
100
AcDbEntity
  8
0
100
AcDbLine
 10
362.0
 20
46.56
 30
0.0
 11
363.5
 21
48.56
 31
0.0
  0
LINE
  5
318
330
1E
100
AcDbEntity
  8
0
100
AcDbLine
 10
360.0
 20
57.06
 30
0.0
 11
362.0
 21
55.56
 31
0.0
  0
LINE
  5
319
330
1E
100
AcDbEntity
  8
0
100
AcDbLine
 10
362.0
 20
55.56
 30
0.0
 11
363.5
 21
53.56
 31
0.0
  0
LINE
  5
31A
330
1E
100
AcDbEntity
  8
0
100
AcDbLine
 10
370.0
 20
49.0852
 30
0.0
 11
370.3999999999999
 21
47.5034
 31
0.0
  0
LINE
  5
31B
330
1E
100
AcDbEntity
  8
0
100
AcDbLine
 10
370.0
 20
49.0852
 30
0.0
 11
370.3999999999999
 21
50.5325
 31
0.0
  0
LINE
  5
31C
330
1E
100
AcDbEntity
  8
0
100
AcDbLine
 10
370.0
 20
49.0852
 30
0.0
 11
370.0
 21
48.2518
 31
0.0
  0
LINE
  5
31D
330
1E
100
AcDbEntity
  8
0
100
AcDbLine
 10
363.5
 20
53.56
 30
0.0
 11
364.0
 21
51.06
 31
0.0
  0
LINE
  5
31E
330
1E
100
AcDbEntity
  8
0
100
AcDbLine
 10
363.5
 20
48.56
 30
0.0
 11
364.0
 21
51.06
 31
0.0
  0
LINE
  5
31F
330
1E
100
AcDbEntity
  8
0
100
AcDbLine
 10
372.784
 20
0.0599999999999859
 30
0.0
 11
382.0
 21
0.0599999999999859
 31
0.0
  0
LINE
  5
320
330
1E
100
AcDbEntity
  8
0
100
AcDbLine
 10
372.784
 20
0.0599999999999902
 30
0.0
 11
382.0
 21
0.0599999999999903
 31
0.0
  0
LINE
  5
321
330
1E
100
AcDbEntity
  8
0
100
AcDbLine
 10
372.784
 20
1.05999999999999
 30
0.0
 11
382.0
 21
1.05999999999999
 31
0.0
  0
LINE
  5
322
330
1E
100
AcDbEntity
  8
0
100
AcDbLine
 10
370.3999999999999
 20
46.71289999999999
 30
0.0
 11
371.6
 21
45.4048
 31
0.0
  0
LINE
  5
323
330
1E
100
AcDbEntity
  8
0
100
AcDbLine
 10
370.3999999999999
 20
47.5034
 30
0.0
 11
371.6
 21
46.1953
 31
0.0
  0
LINE
  5
324
330
1E
100
AcDbEntity
  8
0
100
AcDbLine
 10
370.3999999999999
 20
50.5325
 30
0.0
 11
371.0
 21
51.23235
 31
0.0
  0
LINE
  5
325
330
1E
100
AcDbEntity
  8
0
100
AcDbLine
 10
370.093862502711
 20
47.8906874864455
 30
0.0
 11
370.3999999999999
 21
46.36
 31
0.0
  0
LINE
  5
326
330
1E
100
AcDbEntity
  8
0
100
AcDbLine
 10
371.0
 20
49.8747
 30
0.0
 11
371.0
 21
51.6544
 31
0.0
  0
LINE
  5
327
330
1E
100
AcDbEntity
  8
0
100
AcDbLine
 10
371.6
 20
45.4048
 30
0.0
 11
373.4999999999999
 21
44.1929
 31
0.0
  0
LINE
  5
328
330
1E
100
AcDbEntity
  8
0
100
AcDbLine
 10
371.6
 20
46.1953
 30
0.0
 11
373.4999999999999
 21
45.02519999999999
 31
0.0
  0
LINE
  5
329
330
1E
100
AcDbEntity
  8
0
100
AcDbLine
 10
370.8
 20
56.56539999999999
 30
0.0
 11
370.8
 21
62.2652
 31
0.0
  0
LINE
  5
32A
330
1E
100
AcDbEntity
  8
0
100
AcDbLine
 10
370.8
 20
56.56539999999999
 30
0.0
 11
371.0
 21
51.6544
 31
0.0
  0
LINE
  5
32B
330
1E
100
AcDbEntity
  8
0
100
AcDbLine
 10
371.0
 20
51.6544
 30
0.0
 11
371.0
 21
49.8747
 31
0.0
  0
LINE
  5
32C
330
1E
100
AcDbEntity
  8
0
100
AcDbLine
 10
370.8
 20
62.2652
 30
0.0
 11
371.0
 21
67.74550000000001
 31
0.0
  0
LINE
  5
32D
330
1E
100
AcDbEntity
  8
0
100
AcDbLine
 10
370.8
 20
62.2652
 30
0.0
 11
370.8
 21
56.56539999999999
 31
0.0
  0
LINE
  5
32E
330
1E
100
AcDbEntity
  8
0
100
AcDbLine
 10
371.0
 20
67.74550000000001
 30
0.0
 11
371.1999999999999
 21
73.7466
 31
0.0
  0
LINE
  5
32F
330
1E
100
AcDbEntity
  8
0
100
AcDbLine
 10
371.1999999999999
 20
73.7466
 30
0.0
 11
371.7
 21
80.2665
 31
0.0
  0
LINE
  5
330
330
1E
100
AcDbEntity
  8
0
100
AcDbLine
 10
370.9171121658759
 20
51.1356682488134
 30
0.0
 11
371.0
 21
51.26
 31
0.0
  0
LINE
  5
331
330
1E
100
AcDbEntity
  8
0
100
AcDbLine
 10
370.3999999999999
 20
46.36
 30
0.0
 11
371.6
 21
44.46
 31
0.0
  0
LINE
  5
332
330
1E
100
AcDbEntity
  8
0
100
AcDbLine
 10
370.3999999999999
 20
20.76
 30
0.0
 11
371.6
 21
19.35999999999999
 31
0.0
  0
LINE
  5
333
330
1E
100
AcDbEntity
  8
0
100
AcDbLine
 10
371.7
 20
80.2665
 30
0.0
 11
372.3
 21
87.03459999999999
 31
0.0
  0
LINE
  5
334
330
1E
100
AcDbEntity
  8
0
100
AcDbLine
 10
372.3
 20
87.03459999999999
 30
0.0
 11
373.0
 21
93.1564
 31
0.0
  0
LINE
  5
335
330
1E
100
AcDbEntity
  8
0
100
AcDbLine
 10
373.0
 20
93.1564
 30
0.0
 11
373.4999999999999
 21
100.065
 31
0.0
  0
LINE
  5
337
330
1E
100
AcDbEntity
  8
0
100
AcDbLine
 10
371.6
 20
44.46
 30
0.0
 11
373.4999999999999
 21
42.86
 31
0.0
  0
LINE
  5
338
330
1E
100
AcDbEntity
  8
0
100
AcDbLine
 10
371.6
 20
19.35999999999999
 30
0.0
 11
373.4999999999999
 21
18.16
 31
0.0
  0
LINE
  5
339
330
1E
100
AcDbEntity
  8
0
100
AcDbLine
 10
373.4999999999999
 20
18.16
 30
0.0
 11
376.0
 21
17.26
 31
0.0
  0
LINE
  5
33A
330
1E
100
AcDbEntity
  8
0
100
AcDbLine
 10
373.4999999999999
 20
44.1929
 30
0.0
 11
376.0
 21
43.2595
 31
0.0
  0
LINE
  5
33B
330
1E
100
AcDbEntity
  8
0
100
AcDbLine
 10
373.4999999999999
 20
100.065
 30
0.0
 11
373.842270366399
 21
104.3960892164079
 31
0.0
  0
LINE
  5
33C
330
1E
100
AcDbEntity
  8
0
100
AcDbLine
 10
373.4999999999999
 20
45.02519999999999
 30
0.0
 11
376.0
 21
44.0918
 31
0.0
  0
LINE
  5
33E
330
1E
100
AcDbEntity
  8
0
100
AcDbLine
 10
376.0
 20
43.2595
 30
0.0
 11
378.8999999999999
 21
42.65399999999999
 31
0.0
  0
LINE
  5
33F
330
1E
100
AcDbEntity
  8
0
100
AcDbLine
 10
376.0
 20
44.0918
 30
0.0
 11
378.8999999999999
 21
43.4864
 31
0.0
  0
LINE
  5
340
330
1E
100
AcDbEntity
  8
0
100
AcDbLine
 10
373.4999999999999
 20
42.86
 30
0.0
 11
376.0
 21
41.65999999999999
 31
0.0
  0
LINE
  5
341
330
1E
100
AcDbEntity
  8
0
100
AcDbLine
 10
376.0
 20
41.65999999999999
 30
0.0
 11
378.8999999999999
 21
40.96
 31
0.0
  0
LINE
  5
343
330
1E
100
AcDbEntity
  8
0
100
AcDbLine
 10
376.0
 20
17.26
 30
0.0
 11
378.8999999999999
 21
16.66
 31
0.0
  0
LINE
  5
344
330
1E
100
AcDbEntity
  8
0
100
AcDbLine
 10
373.4999999999999
 20
11.06
 30
0.0
 11
382.0
 21
11.06
 31
0.0
  0
LINE
  5
345
330
1E
100
AcDbEntity
  8
0
100
AcDbLine
 10
373.0
 20
9.059999999999989
 30
0.0
 11
382.0
 21
9.059999999999989
 31
0.0
  0
LINE
  5
346
330
1E
100
AcDbEntity
  8
0
100
AcDbLine
 10
382.0
 20
0.0599999999999859
 30
0.0
 11
391.216
 21
0.0599999999999859
 31
0.0
  0
LINE
  5
347
330
1E
100
AcDbEntity
  8
0
100
AcDbLine
 10
382.0
 20
1.05999999999999
 30
0.0
 11
391.216
 21
1.05999999999999
 31
0.0
  0
LINE
  5
348
330
1E
100
AcDbEntity
  8
0
100
AcDbLine
 10
382.0
 20
0.0599999999999903
 30
0.0
 11
391.216
 21
0.0599999999999902
 31
0.0
  0
LINE
  5
349
330
1E
100
AcDbEntity
  8
0
100
AcDbLine
 10
382.0
 20
16.46
 30
0.0
 11
385.1
 21
16.66
 31
0.0
  0
LINE
  5
34A
330
1E
100
AcDbEntity
  8
0
100
AcDbLine
 10
378.8999999999999
 20
42.65399999999999
 30
0.0
 11
382.0
 21
42.4662
 31
0.0
  0
LINE
  5
34B
330
1E
100
AcDbEntity
  8
0
100
AcDbLine
 10
378.8999999999999
 20
43.4864
 30
0.0
 11
382.0
 21
43.2567
 31
0.0
  0
LINE
  5
34F
330
1E
100
AcDbEntity
  8
0
100
AcDbLine
 10
382.0
 20
42.4662
 30
0.0
 11
385.1
 21
42.65399999999999
 31
0.0
  0
LINE
  5
352
330
1E
100
AcDbEntity
  8
0
100
AcDbLine
 10
382.0
 20
43.2567
 30
0.0
 11
385.1
 21
43.4864
 31
0.0
  0
LINE
  5
353
330
1E
100
AcDbEntity
  8
0
100
AcDbLine
 10
382.0
 20
40.65999999999999
 30
0.0
 11
385.1
 21
40.96
 31
0.0
  0
LINE
  5
354
330
1E
100
AcDbEntity
  8
0
100
AcDbLine
 10
378.8999999999999
 20
40.96
 30
0.0
 11
382.0
 21
40.65999999999999
 31
0.0
  0
LINE
  5
355
330
1E
100
AcDbEntity
  8
0
100
AcDbLine
 10
378.8999999999999
 20
16.66
 30
0.0
 11
382.0
 21
16.46
 31
0.0
  0
LINE
  5
356
330
1E
100
AcDbEntity
  8
0
100
AcDbLine
 10
382.0
 20
11.06
 30
0.0
 11
390.5
 21
11.06
 31
0.0
  0
LINE
  5
357
330
1E
100
AcDbEntity
  8
0
100
AcDbLine
 10
382.0
 20
9.059999999999989
 30
0.0
 11
391.0
 21
9.059999999999989
 31
0.0
  0
LINE
  5
359
330
1E
100
AcDbEntity
  8
0
100
AcDbLine
 10
385.1
 20
42.65399999999999
 30
0.0
 11
388.0
 21
43.2595
 31
0.0
  0
LINE
  5
35A
330
1E
100
AcDbEntity
  8
0
100
AcDbLine
 10
385.1
 20
43.4864
 30
0.0
 11
388.0
 21
44.0918
 31
0.0
  0
LINE
  5
35B
330
1E
100
AcDbEntity
  8
0
100
AcDbLine
 10
385.1
 20
40.96
 30
0.0
 11
388.0
 21
41.65999999999999
 31
0.0
  0
LINE
  5
35C
330
1E
100
AcDbEntity
  8
0
100
AcDbLine
 10
385.1
 20
16.66
 30
0.0
 11
388.0
 21
17.26
 31
0.0
  0
LINE
  5
35D
330
1E
100
AcDbEntity
  8
0
100
AcDbLine
 10
382.0
 20
103.7279999999999
 30
0.0
 11
386.3999999999999
 21
103.9139999999999
 31
0.0
  0
LINE
  5
35F
330
1E
100
AcDbEntity
  8
0
100
AcDbLine
 10
391.216
 20
0.0599999999999859
 30
0.0
 11
399.8559999999999
 21
0.0599999999999862
 31
0.0
  0
LINE
  5
360
330
1E
100
AcDbEntity
  8
0
100
AcDbLine
 10
391.216
 20
0.0599999999999902
 30
0.0
 11
399.8559999999999
 21
0.05999999999999
 31
0.0
  0
LINE
  5
361
330
1E
100
AcDbEntity
  8
0
100
AcDbLine
 10
399.8559999999999
 20
0.0599999999999862
 30
0.0
 11
407.488
 21
0.0599999999999865
 31
0.0
  0
LINE
  5
362
330
1E
100
AcDbEntity
  8
0
100
AcDbLine
 10
407.488
 20
0.0599999999999865
 30
0.0
 11
413.248
 21
0.059999999999987
 31
0.0
  0
LINE
  5
363
330
1E
100
AcDbEntity
  8
0
100
AcDbLine
 10
413.248
 20
0.059999999999987
 30
0.0
 11
416.704
 21
0.0599999999999875
 31
0.0
  0
LINE
  5
364
330
1E
100
AcDbEntity
  8
0
100
AcDbLine
 10
416.704
 20
0.0599999999999875
 30
0.0
 11
418.0
 21
0.0599999999999881
 31
0.0
  0
LINE
  5
365
330
1E
100
AcDbEntity
  8
0
100
AcDbLine
 10
418.0
 20
0.0599999999999881
 30
0.0
 11
418.0
 21
1.05999999999999
 31
0.0
  0
LINE
  5
366
330
1E
100
AcDbEntity
  8
0
100
AcDbLine
 10
399.8559999999999
 20
0.05999999999999
 30
0.0
 11
407.488
 21
0.0599999999999896
 31
0.0
  0
LINE
  5
367
330
1E
100
AcDbEntity
  8
0
100
AcDbLine
 10
407.488
 20
0.0599999999999896
 30
0.0
 11
413.248
 21
0.0599999999999892
 31
0.0
  0
LINE
  5
368
330
1E
100
AcDbEntity
  8
0
100
AcDbLine
 10
418.0
 20
1.05999999999999
 30
0.0
 11
418.0
 21
0.0599999999999881
 31
0.0
  0
LINE
  5
369
330
1E
100
AcDbEntity
  8
0
100
AcDbLine
 10
413.248
 20
0.0599999999999892
 30
0.0
 11
416.704
 21
0.0599999999999886
 31
0.0
  0
LINE
  5
36A
330
1E
100
AcDbEntity
  8
0
100
AcDbLine
 10
416.704
 20
0.0599999999999886
 30
0.0
 11
418.0
 21
0.0599999999999881
 31
0.0
  0
LINE
  5
36B
330
1E
100
AcDbEntity
  8
0
100
AcDbLine
 10
391.216
 20
1.05999999999999
 30
0.0
 11
399.8559999999999
 21
1.05999999999999
 31
0.0
  0
LINE
  5
36C
330
1E
100
AcDbEntity
  8
0
100
AcDbLine
 10
399.8559999999999
 20
1.05999999999999
 30
0.0
 11
407.488
 21
1.05999999999999
 31
0.0
  0
LINE
  5
36D
330
1E
100
AcDbEntity
  8
0
100
AcDbLine
 10
407.488
 20
1.05999999999999
 30
0.0
 11
413.248
 21
1.05999999999999
 31
0.0
  0
LINE
  5
36E
330
1E
100
AcDbEntity
  8
0
100
AcDbLine
 10
391.0
 20
9.059999999999989
 30
0.0
 11
399.3999999999999
 21
9.059999999999989
 31
0.0
  0
LINE
  5
36F
330
1E
100
AcDbEntity
  8
0
100
AcDbLine
 10
399.3999999999999
 20
9.059999999999989
 30
0.0
 11
406.7
 21
9.059999999999989
 31
0.0
  0
LINE
  5
370
330
1E
100
AcDbEntity
  8
0
100
AcDbLine
 10
406.7
 20
9.059999999999989
 30
0.0
 11
412.3
 21
9.059999999999989
 31
0.0
  0
LINE
  5
371
330
1E
100
AcDbEntity
  8
0
100
AcDbLine
 10
413.248
 20
1.05999999999999
 30
0.0
 11
416.704
 21
1.05999999999999
 31
0.0
  0
LINE
  5
372
330
1E
100
AcDbEntity
  8
0
100
AcDbLine
 10
412.3
 20
9.059999999999989
 30
0.0
 11
415.7
 21
9.059999999999989
 31
0.0
  0
LINE
  5
373
330
1E
100
AcDbEntity
  8
0
100
AcDbLine
 10
390.5
 20
11.06
 30
0.0
 11
398.3999999999999
 21
11.06
 31
0.0
  0
LINE
  5
374
330
1E
100
AcDbEntity
  8
0
100
AcDbLine
 10
398.3999999999999
 20
11.06
 30
0.0
 11
405.2999999999999
 21
11.06
 31
0.0
  0
LINE
  5
375
330
1E
100
AcDbEntity
  8
0
100
AcDbLine
 10
405.2999999999999
 20
11.06
 30
0.0
 11
410.5999999999999
 21
11.06
 31
0.0
  0
LINE
  5
376
330
1E
100
AcDbEntity
  8
0
100
AcDbLine
 10
394.0
 20
22.26
 30
0.0
 11
394.0
 21
48.2518
 31
0.0
  0
LINE
  5
377
330
1E
100
AcDbEntity
  8
0
100
AcDbLine
 10
393.6
 20
20.76
 30
0.0
 11
394.0
 21
22.26
 31
0.0
  0
LINE
  5
378
330
1E
100
AcDbEntity
  8
0
100
AcDbLine
 10
392.3999999999999
 20
19.35999999999999
 30
0.0
 11
393.6
 21
20.76
 31
0.0
  0
LINE
  5
379
330
1E
100
AcDbEntity
  8
0
100
AcDbLine
 10
390.5
 20
18.16
 30
0.0
 11
392.3999999999999
 21
19.35999999999999
 31
0.0
  0
LINE
  5
37A
330
1E
100
AcDbEntity
  8
0
100
AcDbLine
 10
388.0
 20
17.26
 30
0.0
 11
390.5
 21
18.16
 31
0.0
  0
LINE
  5
37C
330
1E
100
AcDbEntity
  8
0
100
AcDbLine
 10
388.0
 20
43.2595
 30
0.0
 11
390.5
 21
44.1929
 31
0.0
  0
LINE
  5
37D
330
1E
100
AcDbEntity
  8
0
100
AcDbLine
 10
388.0
 20
44.0918
 30
0.0
 11
390.5
 21
45.02519999999999
 31
0.0
  0
LINE
  5
37F
330
1E
100
AcDbEntity
  8
0
100
AcDbLine
 10
390.5
 20
44.1929
 30
0.0
 11
392.3999999999999
 21
45.4048
 31
0.0
  0
LINE
  5
380
330
1E
100
AcDbEntity
  8
0
100
AcDbLine
 10
392.3
 20
80.2665
 30
0.0
 11
392.8
 21
73.7466
 31
0.0
  0
LINE
  5
381
330
1E
100
AcDbEntity
  8
0
100
AcDbLine
 10
391.6999999999999
 20
87.03459999999999
 30
0.0
 11
392.3
 21
80.2665
 31
0.0
  0
LINE
  5
382
330
1E
100
AcDbEntity
  8
0
100
AcDbLine
 10
391.0
 20
93.1564
 30
0.0
 11
391.6999999999999
 21
87.03459999999999
 31
0.0
  0
LINE
  5
383
330
1E
100
AcDbEntity
  8
0
100
AcDbLine
 10
390.5
 20
100.065
 30
0.0
 11
391.0
 21
93.1564
 31
0.0
  0
LINE
  5
384
330
1E
100
AcDbEntity
  8
0
100
AcDbLine
 10
390.1577296336009
 20
104.3960892164079
 30
0.0
 11
390.5
 21
100.065
 31
0.0
  0
LINE
  5
385
330
1E
100
AcDbEntity
  8
0
100
AcDbLine
 10
392.3999999999999
 20
45.4048
 30
0.0
 11
393.6
 21
46.71289999999999
 31
0.0
  0
LINE
  5
386
330
1E
100
AcDbEntity
  8
0
100
AcDbLine
 10
392.3999999999999
 20
46.1953
 30
0.0
 11
393.6
 21
47.5034
 31
0.0
  0
LINE
  5
387
330
1E
100
AcDbEntity
  8
0
100
AcDbLine
 10
390.5
 20
45.02519999999999
 30
0.0
 11
392.3999999999999
 21
46.1953
 31
0.0
  0
LINE
  5
388
330
1E
100
AcDbEntity
  8
0
100
AcDbLine
 10
393.0
 20
49.8747
 30
0.0
 11
393.0
 21
51.6544
 31
0.0
  0
LINE
  5
389
330
1E
100
AcDbEntity
  8
0
100
AcDbLine
 10
393.6
 20
46.71289999999999
 30
0.0
 11
394.0
 21
48.2518
 31
0.0
  0
LINE
  5
38A
330
1E
100
AcDbEntity
  8
0
100
AcDbLine
 10
393.0
 20
51.23235
 30
0.0
 11
393.6
 21
50.5325
 31
0.0
  0
LINE
  5
38B
330
1E
100
AcDbEntity
  8
0
100
AcDbLine
 10
393.6
 20
50.5325
 30
0.0
 11
394.0
 21
49.0852
 31
0.0
  0
LINE
  5
38C
330
1E
100
AcDbEntity
  8
0
100
AcDbLine
 10
394.0
 20
49.0852
 30
0.0
 11
394.0
 21
48.2518
 31
0.0
  0
LINE
  5
38D
330
1E
100
AcDbEntity
  8
0
100
AcDbLine
 10
393.6
 20
47.5034
 30
0.0
 11
394.0
 21
49.0852
 31
0.0
  0
LINE
  5
38E
330
1E
100
AcDbEntity
  8
0
100
AcDbLine
 10
393.0
 20
51.6544
 30
0.0
 11
393.2
 21
56.56539999999999
 31
0.0
  0
LINE
  5
38F
330
1E
100
AcDbEntity
  8
0
100
AcDbLine
 10
393.0
 20
51.6544
 30
0.0
 11
393.0
 21
49.8747
 31
0.0
  0
LINE
  5
390
330
1E
100
AcDbEntity
  8
0
100
AcDbLine
 10
393.2
 20
62.2652
 30
0.0
 11
393.2
 21
56.56539999999999
 31
0.0
  0
LINE
  5
391
330
1E
100
AcDbEntity
  8
0
100
AcDbLine
 10
393.2
 20
56.56539999999999
 30
0.0
 11
393.2
 21
62.2652
 31
0.0
  0
LINE
  5
392
330
1E
100
AcDbEntity
  8
0
100
AcDbLine
 10
393.0
 20
67.74550000000001
 30
0.0
 11
393.2
 21
62.2652
 31
0.0
  0
LINE
  5
393
330
1E
100
AcDbEntity
  8
0
100
AcDbLine
 10
392.8
 20
73.7466
 30
0.0
 11
393.0
 21
67.74550000000001
 31
0.0
  0
LINE
  5
394
330
1E
100
AcDbEntity
  8
0
100
AcDbLine
 10
393.0
 20
51.26
 30
0.0
 11
393.0828878341249
 21
51.1356682488134
 31
0.0
  0
LINE
  5
395
330
1E
100
AcDbEntity
  8
0
100
AcDbLine
 10
394.0
 20
48.2518
 30
0.0
 11
394.0
 21
22.26
 31
0.0
  0
LINE
  5
396
330
1E
100
AcDbEntity
  8
0
100
AcDbLine
 10
394.0
 20
48.2518
 30
0.0
 11
394.0
 21
49.0852
 31
0.0
  0
LINE
  5
397
330
1E
100
AcDbEntity
  8
0
100
AcDbLine
 10
393.6
 20
46.36
 30
0.0
 11
393.9061374972889
 21
47.8906874864455
 31
0.0
  0
LINE
  5
398
330
1E
100
AcDbEntity
  8
0
100
AcDbLine
 10
392.3999999999999
 20
44.46
 30
0.0
 11
393.6
 21
46.36
 31
0.0
  0
LINE
  5
399
330
1E
100
AcDbEntity
  8
0
100
AcDbLine
 10
390.5
 20
42.86
 30
0.0
 11
392.3999999999999
 21
44.46
 31
0.0
  0
LINE
  5
39A
330
1E
100
AcDbEntity
  8
0
100
AcDbLine
 10
388.0
 20
41.65999999999999
 30
0.0
 11
390.5
 21
42.86
 31
0.0
  0
LINE
  5
39C
330
1E
100
AcDbEntity
  8
0
100
AcDbLine
 10
401.0
 20
22.05999999999999
 30
0.0
 11
407.0
 21
16.05999999999999
 31
0.0
  0
LINE
  5
39D
330
1E
100
AcDbEntity
  8
0
100
AcDbLine
 10
407.0
 20
16.05999999999999
 30
0.0
 11
409.0
 21
11.06
 31
0.0
  0
LINE
  5
39E
330
1E
100
AcDbEntity
  8
0
100
AcDbLine
 10
394.0
 20
24.6209756097561
 30
0.0
 11
401.0
 21
22.05999999999999
 31
0.0
  0
LINE
  5
39F
330
1E
100
AcDbEntity
  8
0
100
AcDbLine
 10
410.5999999999999
 20
11.06
 30
0.0
 11
413.7999999999999
 21
11.06
 31
0.0
  0
LINE
  5
3A0
330
1E
100
AcDbEntity
  8
0
100
AcDbLine
 10
413.7999999999999
 20
11.06
 30
0.0
 11
415.0
 21
11.06
 31
0.0
  0
LINE
  5
3A1
330
1E
100
AcDbEntity
  8
0
100
AcDbLine
 10
416.704
 20
1.05999999999999
 30
0.0
 11
418.0
 21
1.05999999999999
 31
0.0
  0
LINE
  5
3A2
330
1E
100
AcDbEntity
  8
0
100
AcDbLine
 10
415.7
 20
9.059999999999989
 30
0.0
 11
417.0
 21
9.059999999999989
 31
0.0
  0
LINE
  5
3A3
330
1E
100
AcDbEntity
  8
0
100
AcDbLine
 10
417.0
 20
9.059999999999989
 30
0.0
 11
417.0
 21
1.05999999999999
 31
0.0
  0
LINE
  5
3A4
330
1E
100
AcDbEntity
  8
0
100
AcDbLine
 10
415.0
 20
11.06
 30
0.0
 11
417.0
 21
9.059999999999989
 31
0.0
  0
LINE
  5
3A5
330
1E
100
AcDbEntity
  8
0
100
AcDbLine
 10
417.0
 20
1.05999999999999
 30
0.0
 11
417.0
 21
9.059999999999989
 31
0.0
  0
LINE
  5
3A6
330
1E
100
AcDbEntity
  8
0
100
AcDbLine
 10
386.3999999999999
 20
103.9139999999999
 30
0.0
 11
390.5
 21
104.4399999999999
 31
0.0
  0
LINE
  5
3A7
330
1E
100
AcDbEntity
  8
0
100
AcDbLine
 10
390.5
 20
104.4399999999999
 30
0.0
 11
394.0
 21
105.2729999999999
 31
0.0
  0
LINE
  5
3A8
330
1E
100
AcDbEntity
  8
0
100
AcDbLine
 10
377.6
 20
103.9139999999999
 30
0.0
 11
382.0
 21
103.7279999999999
 31
0.0
  0
LINE
  5
3A9
330
1E
100
AcDbEntity
  8
0
100
AcDbLine
 10
394.0
 20
105.2729999999999
 30
0.0
 11
401.7999999999999
 21
107.1429999999999
 31
0.0
  0
LINE
  5
3AA
330
1E
100
AcDbEntity
  8
0
100
AcDbLine
 10
401.7999999999999
 20
107.1429999999999
 30
0.0
 11
406.2
 21
108.966
 31
0.0
  0
LINE
  5
3AB
330
1E
100
AcDbEntity
  8
0
100
AcDbLine
 10
373.4999999999999
 20
104.4399999999999
 30
0.0
 11
377.6
 21
103.9139999999999
 31
0.0
  0
LINE
  5
3AC
330
1E
100
AcDbEntity
  8
0
100
AcDbLine
 10
370.0
 20
105.2729999999999
 30
0.0
 11
373.4999999999999
 21
104.4399999999999
 31
0.0
  0
LINE
  5
3AD
330
1E
100
AcDbEntity
  8
0
100
AcDbLine
 10
414.0
 20
114.2329999999999
 30
0.0
 11
417.6999999999999
 21
116.952
 31
0.0
  0
LINE
  5
3AE
330
1E
100
AcDbEntity
  8
0
100
AcDbLine
 10
406.2
 20
108.966
 30
0.0
 11
414.0
 21
114.2329999999999
 31
0.0
  0
LINE
  5
3AF
330
1E
100
AcDbEntity
  8
0
100
AcDbLine
 10
362.1999999999999
 20
107.1429999999999
 30
0.0
 11
370.0
 21
105.2729999999999
 31
0.0
  0
LINE
  5
3B0
330
1E
100
AcDbEntity
  8
0
100
AcDbLine
 10
357.8
 20
108.966
 30
0.0
 11
362.1999999999999
 21
107.1429999999999
 31
0.0
  0
LINE
  5
3B1
330
1E
100
AcDbEntity
  8
0
100
AcDbLine
 10
345.3999999999999
 20
132.458
 30
0.0
 11
348.8999999999999
 21
138.8379999999999
 31
0.0
  0
LINE
  5
3B2
330
1E
100
AcDbEntity
  8
0
100
AcDbLine
 10
345.3999999999999
 20
132.458
 30
0.0
 11
349.1
 21
135.27
 31
0.0
  0
LINE
  5
3B3
330
1E
100
AcDbEntity
  8
0
100
AcDbLine
 10
346.3
 20
122.8849999999999
 30
0.0
 11
350.0
 21
125.605
 31
0.0
  0
LINE
  5
3B4
330
1E
100
AcDbEntity
  8
0
100
AcDbLine
 10
414.0
 20
125.605
 30
0.0
 11
417.6999999999999
 21
122.8849999999999
 31
0.0
  0
LINE
  5
3B5
330
1E
100
AcDbEntity
  8
0
100
AcDbLine
 10
417.6999999999999
 20
122.8849999999999
 30
0.0
 11
419.0
 21
119.9189999999999
 31
0.0
  0
LINE
  5
3B6
330
1E
100
AcDbEntity
  8
0
100
AcDbLine
 10
420.0
 20
120.6879999999999
 30
0.0
 11
420.0
 21
129.4299999999999
 31
0.0
  0
LINE
  5
3B7
330
1E
100
AcDbEntity
  8
0
100
AcDbLine
 10
420.0
 20
129.4299999999999
 30
0.0
 11
420.0
 21
120.6879999999999
 31
0.0
  0
LINE
  5
3B8
330
1E
100
AcDbEntity
  8
0
100
AcDbLine
 10
417.6999999999999
 20
116.952
 30
0.0
 11
419.0
 21
119.9189999999999
 31
0.0
  0
LINE
  5
3B9
330
1E
100
AcDbEntity
  8
0
100
AcDbLine
 10
417.6999999999999
 20
116.952
 30
0.0
 11
420.0
 21
120.6879999999999
 31
0.0
  0
LINE
  5
3BA
330
1E
100
AcDbEntity
  8
0
100
AcDbLine
 10
347.3999999999999
 20
130.8239999999999
 30
0.0
 11
353.8
 21
133.388
 31
0.0
  0
LINE
  5
3BB
330
1E
100
AcDbEntity
  8
0
100
AcDbLine
 10
353.8
 20
133.388
 30
0.0
 11
362.1
 21
135.366
 31
0.0
  0
LINE
  5
3BC
330
1E
100
AcDbEntity
  8
0
100
AcDbLine
 10
355.2
 20
137.711
 30
0.0
 11
363.1
 21
139.596
 31
0.0
  0
LINE
  5
3BD
330
1E
100
AcDbEntity
  8
0
100
AcDbLine
 10
349.1
 20
135.27
 30
0.0
 11
355.2
 21
137.711
 31
0.0
  0
LINE
  5
3BE
330
1E
100
AcDbEntity
  8
0
100
AcDbLine
 10
348.8999999999999
 20
138.8379999999999
 30
0.0
 11
354.3
 21
145.0309999999999
 31
0.0
  0
LINE
  5
3BF
330
1E
100
AcDbEntity
  8
0
100
AcDbLine
 10
354.3
 20
145.0309999999999
 30
0.0
 11
357.1
 21
147.1629999999999
 31
0.0
  0
LINE
  5
3C0
330
1E
100
AcDbEntity
  8
0
100
AcDbLine
 10
400.3999999999999
 20
129.8079999999999
 30
0.0
 11
408.1
 21
127.9849999999999
 31
0.0
  0
LINE
  5
3C1
330
1E
100
AcDbEntity
  8
0
100
AcDbLine
 10
408.1
 20
127.9849999999999
 30
0.0
 11
414.0
 21
125.605
 31
0.0
  0
LINE
  5
3C2
330
1E
100
AcDbEntity
  8
0
100
AcDbLine
 10
362.1
 20
135.366
 30
0.0
 11
369.1
 21
136.417
 31
0.0
  0
LINE
  5
3C3
330
1E
100
AcDbEntity
  8
0
100
AcDbLine
 10
372.1999999999999
 20
140.74
 30
0.0
 11
382.0
 21
141.173
 31
0.0
  0
LINE
  5
3C4
330
1E
100
AcDbEntity
  8
0
100
AcDbLine
 10
363.1
 20
139.596
 30
0.0
 11
372.1999999999999
 21
140.74
 31
0.0
  0
LINE
  5
3C5
330
1E
100
AcDbEntity
  8
0
100
AcDbLine
 10
357.1
 20
147.1629999999999
 30
0.0
 11
363.8
 21
151.696
 31
0.0
  0
LINE
  5
3C6
330
1E
100
AcDbEntity
  8
0
100
AcDbLine
 10
371.4999999999999
 20
154.0739999999999
 30
0.0
 11
376.6
 21
154.6929999999999
 31
0.0
  0
LINE
  5
3C7
330
1E
100
AcDbEntity
  8
0
100
AcDbLine
 10
367.2
 20
153.024
 30
0.0
 11
371.4999999999999
 21
154.0739999999999
 31
0.0
  0
LINE
  5
3C8
330
1E
100
AcDbEntity
  8
0
100
AcDbLine
 10
363.8
 20
151.696
 30
0.0
 11
367.2
 21
153.024
 31
0.0
  0
LINE
  5
3C9
330
1E
100
AcDbEntity
  8
0
100
AcDbLine
 10
416.6
 20
130.8239999999999
 30
0.0
 11
420.0
 21
128.6599999999999
 31
0.0
  0
LINE
  5
3CA
330
1E
100
AcDbEntity
  8
0
100
AcDbLine
 10
382.0
 20
141.173
 30
0.0
 11
391.8
 21
140.74
 31
0.0
  0
LINE
  5
3CB
330
1E
100
AcDbEntity
  8
0
100
AcDbLine
 10
382.0
 20
154.94
 30
0.0
 11
387.3999999999999
 21
154.6929999999999
 31
0.0
  0
LINE
  5
3CC
330
1E
100
AcDbEntity
  8
0
100
AcDbLine
 10
376.6
 20
154.6929999999999
 30
0.0
 11
382.0
 21
154.94
 31
0.0
  0
LINE
  5
3CD
330
1E
100
AcDbEntity
  8
0
100
AcDbLine
 10
394.8999999999999
 20
136.417
 30
0.0
 11
401.9
 21
135.366
 31
0.0
  0
LINE
  5
3CE
330
1E
100
AcDbEntity
  8
0
100
AcDbLine
 10
391.8
 20
140.74
 30
0.0
 11
400.8999999999999
 21
139.596
 31
0.0
  0
LINE
  5
3CF
330
1E
100
AcDbEntity
  8
0
100
AcDbLine
 10
401.9
 20
135.366
 30
0.0
 11
410.2
 21
133.388
 31
0.0
  0
LINE
  5
3D0
330
1E
100
AcDbEntity
  8
0
100
AcDbLine
 10
400.8999999999999
 20
139.596
 30
0.0
 11
408.8
 21
137.711
 31
0.0
  0
LINE
  5
3D1
330
1E
100
AcDbEntity
  8
0
100
AcDbLine
 10
400.1999999999999
 20
151.696
 30
0.0
 11
406.8999999999999
 21
147.1629999999999
 31
0.0
  0
LINE
  5
3D2
330
1E
100
AcDbEntity
  8
0
100
AcDbLine
 10
410.2
 20
133.388
 30
0.0
 11
416.6
 21
130.8239999999999
 31
0.0
  0
LINE
  5
3D3
330
1E
100
AcDbEntity
  8
0
100
AcDbLine
 10
408.8
 20
137.711
 30
0.0
 11
414.9
 21
135.27
 31
0.0
  0
LINE
  5
3D4
330
1E
100
AcDbEntity
  8
0
100
AcDbLine
 10
414.9
 20
135.27
 30
0.0
 11
418.5999999999999
 21
132.458
 31
0.0
  0
LINE
  5
3D5
330
1E
100
AcDbEntity
  8
0
100
AcDbLine
 10
415.1
 20
138.8379999999999
 30
0.0
 11
418.5999999999999
 21
132.458
 31
0.0
  0
LINE
  5
3D6
330
1E
100
AcDbEntity
  8
0
100
AcDbLine
 10
418.5999999999999
 20
132.458
 30
0.0
 11
420.0
 21
129.4299999999999
 31
0.0
  0
LINE
  5
3D7
330
1E
100
AcDbEntity
  8
0
100
AcDbLine
 10
409.6999999999999
 20
145.0309999999999
 30
0.0
 11
415.1
 21
138.8379999999999
 31
0.0
  0
LINE
  5
3D8
330
1E
100
AcDbEntity
  8
0
100
AcDbLine
 10
406.8999999999999
 20
147.1629999999999
 30
0.0
 11
409.6999999999999
 21
145.0309999999999
 31
0.0
  0
LINE
  5
3D9
330
1E
100
AcDbEntity
  8
0
100
AcDbLine
 10
387.3999999999999
 20
154.6929999999999
 30
0.0
 11
392.5
 21
154.0739999999999
 31
0.0
  0
LINE
  5
3DA
330
1E
100
AcDbEntity
  8
0
100
AcDbLine
 10
392.5
 20
154.0739999999999
 30
0.0
 11
396.8
 21
153.024
 31
0.0
  0
LINE
  5
3DB
330
1E
100
AcDbEntity
  8
0
100
AcDbLine
 10
396.8
 20
153.024
 30
0.0
 11
400.1999999999999
 21
151.696
 31
0.0
  0
LINE
  5
3DC
330
1E
100
AcDbEntity
  8
0
100
AcDbLine
 10
382.0
 20
131.3529999999999
 30
0.0
 11
391.6
 21
130.9509999999999
 31
0.0
  0
LINE
  5
3DD
330
1E
100
AcDbEntity
  8
0
100
AcDbLine
 10
391.6
 20
130.9509999999999
 30
0.0
 11
400.3999999999999
 21
129.8079999999999
 31
0.0
  0
LINE
  5
3DE
330
1E
100
AcDbEntity
  8
0
100
AcDbLine
 10
372.3999999999999
 20
130.9509999999999
 30
0.0
 11
382.0
 21
131.3529999999999
 31
0.0
  0
LINE
  5
3DF
330
1E
100
AcDbEntity
  8
0
100
AcDbLine
 10
363.6
 20
129.8079999999999
 30
0.0
 11
372.3999999999999
 21
130.9509999999999
 31
0.0
  0
LINE
  5
3E0
330
1E
100
AcDbEntity
  8
0
100
AcDbLine
 10
355.8999999999999
 20
127.9849999999999
 30
0.0
 11
363.6
 21
129.8079999999999
 31
0.0
  0
LINE
  5
3E1
330
1E
100
AcDbEntity
  8
0
100
AcDbLine
 10
350.0
 20
125.605
 30
0.0
 11
355.8999999999999
 21
127.9849999999999
 31
0.0
  0
LINE
  5
3E2
330
1E
100
AcDbEntity
  8
0
100
AcDbLine
 10
346.3
 20
116.952
 30
0.0
 11
350.0
 21
114.2329999999999
 31
0.0
  0
LINE
  5
3E3
330
1E
100
AcDbEntity
  8
0
100
AcDbLine
 10
350.0
 20
114.2329999999999
 30
0.0
 11
357.8
 21
108.966
 31
0.0
  0
LINE
  5
3E4
330
1E
100
AcDbEntity
  8
0
100
AcDbLine
 10
345.0
 20
119.9189999999999
 30
0.0
 11
346.3
 21
116.952
 31
0.0
  0
LINE
  5
3E5
330
1E
100
AcDbEntity
  8
0
100
AcDbLine
 10
345.0
 20
119.9189999999999
 30
0.0
 11
346.3
 21
122.8849999999999
 31
0.0
  0
LINE
  5
3EA
330
1E
100
AcDbEntity
  8
0
100
AcDbLine
 10
369.1
 20
136.417
 30
0.0
 11
377.9300941607576
 21
136.9897858764894
 31
0.0
  0
LINE
  5
3EB
330
1E
100
AcDbEntity
  8
0
100
AcDbLine
 10
377.9300941607576
 20
136.9897858764894
 30
0.0
 11
386.6304216810425
 21
137.2099012845548
 31
0.0
  0
LINE
  5
3EC
330
1E
100
AcDbEntity
  8
0
100
AcDbLine
 10
386.6304216810425
 20
137.2099012845548
 30
0.0
 11
394.8999999999999
 21
136.417
 31
0.0
  0
LINE
  5
3ED
330
1E
100
AcDbEntity
  8
0
100
AcDbLine
 10
293.0
 20
59.06
 30
0.0
 11
293.5
 21
59.56
 31
0.0
  0
ENDSEC
  0
SECTION
  2
OBJECTS
  0
DICTIONARY
  5
C
330
0
100
AcDbDictionary
281
     1
  3
ACAD_GROUP
350
D
  3
ACAD_LAYOUT
350
19
  3
ACAD_MLINESTYLE
350
16
  3
ACAD_PLOTSETTINGS
350
18
  3
ACAD_PLOTSTYLENAME
350
E
  3
AcDbVariableDictionary
350
3EE
  0
DICTIONARY
  5
D
102
{ACAD_REACTORS
330
C
102
}
330
C
100
AcDbDictionary
281
     1
  0
DICTIONARY
  5
19
102
{ACAD_REACTORS
330
C
102
}
330
C
100
AcDbDictionary
281
     1
  3
Layout1
350
1D
  3
Model
350
21
  0
DICTIONARY
  5
16
102
{ACAD_REACTORS
330
C
102
}
330
C
100
AcDbDictionary
281
     1
  3
Standard
350
17
  0
DICTIONARY
  5
18
102
{ACAD_REACTORS
330
C
102
}
330
C
100
AcDbDictionary
281
     1
  0
ACDBDICTIONARYWDFLT
  5
E
102
{ACAD_REACTORS
330
C
102
}
330
C
100
AcDbDictionary
281
     1
  3
Normal
350
F
100
AcDbDictionaryWithDefault
340
F
  0
DICTIONARY
  5
3EE
102
{ACAD_REACTORS
330
C
102
}
330
C
100
AcDbDictionary
281
     1
  3
DIMASSOC
350
3EF
  0
LAYOUT
  5
1D
102
{ACAD_REACTORS
330
19
102
}
330
19
100
AcDbPlotSettings
  1

  2
hp deskjet 980c series
  4

  6

 40
0.0
 41
0.0
 42
0.0
 43
0.0
 44
0.0
 45
0.0
 46
0.0
 47
0.0
 48
0.0
 49
0.0
140
0.0
141
0.0
142
1.0
143
1.0
 70
   688
 72
     0
 73
     0
 74
     5
  7

 75
    16
147
1.0
148
0.0
149
0.0
100
AcDbLayout
  1
Layout1
 70
     1
 71
     1
 10
0.0
 20
0.0
 11
12.0
 21
9.0
 12
0.0
 22
0.0
 32
0.0
 14
1.000000000000000E+20
 24
1.000000000000000E+20
 34
1.000000000000000E+20
 15
-1.000000000000000E+20
 25
-1.000000000000000E+20
 35
-1.000000000000000E+20
146
0.0
 13
0.0
 23
0.0
 33
0.0
 16
1.0
 26
0.0
 36
0.0
 17
0.0
 27
1.0
 37
0.0
 76
     0
330
1A
  0
LAYOUT
  5
21
102
{ACAD_REACTORS
330
19
102
}
330
19
100
AcDbPlotSettings
  1

  2
hp deskjet 980c series
  4

  6

 40
0.0
 41
0.0
 42
0.0
 43
0.0
 44
0.0
 45
0.0
 46
0.0
 47
0.0
 48
0.0
 49
0.0
140
0.0
141
0.0
142
1.0
143
1.0
 70
  1712
 72
     0
 73
     0
 74
     0
  7

 75
     0
147
1.0
148
0.0
149
0.0
100
AcDbLayout
  1
Model
 70
     1
 71
     0
 10
0.0
 20
0.0
 11
12.0
 21
9.0
 12
0.0
 22
0.0
 32
0.0
 14
0.0
 24
0.0
 34
0.0
 15
0.0
 25
0.0
 35
0.0
146
0.0
 13
0.0
 23
0.0
 33
0.0
 16
1.0
 26
0.0
 36
0.0
 17
0.0
 27
1.0
 37
0.0
 76
     0
330
1E
  0
MLINESTYLE
  5
17
102
{ACAD_REACTORS
330
16
102
}
330
16
100
AcDbMlineStyle
  2
STANDARD
 70
     0
  3

 62
   256
 51
90.0
 52
90.0
 71
     2
 49
0.5
 62
   256
  6
BYLAYER
 49
-0.5
 62
   256
  6
BYLAYER
  0
ACDBPLACEHOLDER
  5
F
102
{ACAD_REACTORS
330
E
102
}
330
E
  0
DICTIONARYVAR
  5
3EF
102
{ACAD_REACTORS
330
3EE
102
}
330
3EE
100
DictionaryVariables
280
     0
  1
1
  0
ENDSEC
  0
EOF
