  0
SECTION
  2
HEADER
  9
$ACADVER
  1
AC1015
  9
$ACADMAINTVER
 70
    13
  9
$DWGCODEPAGE
  3
ANSI_1252
  9
$INSBASE
 10
0.0
 20
0.0
 30
0.0
  9
$EXTMIN
 10
0.0000000000000052
 20
0.0599999999999859
 30
0.0
  9
$EXTMAX
 10
374.0
 20
154.94
 30
0.0
  9
$LIMMIN
 10
0.0
 20
0.0
  9
$LIMMAX
 10
12.0
 20
9.0
  9
$ORTHOMODE
 70
     0
  9
$REGENMODE
 70
     1
  9
$FILLMODE
 70
     1
  9
$QTEXTMODE
 70
     0
  9
$MIRRTEXT
 70
     1
  9
$LTSCALE
 40
1.0
  9
$ATTMODE
 70
     1
  9
$TEXTSIZE
 40
0.2
  9
$TRACEWID
 40
0.05
  9
$TEXTSTYLE
  7
Standard
  9
$CLAYER
  8
0
  9
$CELTYPE
  6
Continuous
  9
$CECOLOR
 62
   256
  9
$CELTSCALE
 40
1.0
  9
$DISPSILH
 70
     0
  9
$DIMSCALE
 40
1.0
  9
$DIMASZ
 40
0.18
  9
$DIMEXO
 40
0.0625
  9
$DIMDLI
 40
0.38
  9
$DIMRND
 40
0.0
  9
$DIMDLE
 40
0.0
  9
$DIMEXE
 40
0.18
  9
$DIMTP
 40
0.0
  9
$DIMTM
 40
0.0
  9
$DIMTXT
 40
0.18
  9
$DIMCEN
 40
0.09
  9
$DIMTSZ
 40
0.0
  9
$DIMTOL
 70
     0
  9
$DIMLIM
 70
     0
  9
$DIMTIH
 70
     1
  9
$DIMTOH
 70
     1
  9
$DIMSE1
 70
     0
  9
$DIMSE2
 70
     0
  9
$DIMTAD
 70
     0
  9
$DIMZIN
 70
     0
  9
$DIMBLK
  1

  9
$DIMASO
 70
     1
  9
$DIMSHO
 70
     1
  9
$DIMPOST
  1

  9
$DIMAPOST
  1

  9
$DIMALT
 70
     0
  9
$DIMALTD
 70
     2
  9
$DIMALTF
 40
25.4
  9
$DIMLFAC
 40
1.0
  9
$DIMTOFL
 70
     0
  9
$DIMTVP
 40
0.0
  9
$DIMTIX
 70
     0
  9
$DIMSOXD
 70
     0
  9
$DIMSAH
 70
     0
  9
$DIMBLK1
  1

  9
$DIMBLK2
  1

  9
$DIMSTYLE
  2
Standard
  9
$DIMCLRD
 70
     0
  9
$DIMCLRE
 70
     0
  9
$DIMCLRT
 70
     0
  9
$DIMTFAC
 40
1.0
  9
$DIMGAP
 40
0.09
  9
$DIMJUST
 70
     0
  9
$DIMSD1
 70
     0
  9
$DIMSD2
 70
     0
  9
$DIMTOLJ
 70
     1
  9
$DIMTZIN
 70
     0
  9
$DIMALTZ
 70
     0
  9
$DIMALTTZ
 70
     0
  9
$DIMUPT
 70
     0
  9
$DIMDEC
 70
     4
  9
$DIMTDEC
 70
     4
  9
$DIMALTU
 70
     2
  9
$DIMALTTD
 70
     2
  9
$DIMTXSTY
  7
Standard
  9
$DIMAUNIT
 70
     0
  9
$DIMADEC
 70
     0
  9
$DIMALTRND
 40
0.0
  9
$DIMAZIN
 70
     0
  9
$DIMDSEP
 70
    46
  9
$DIMATFIT
 70
     3
  9
$DIMFRAC
 70
     0
  9
$DIMLDRBLK
  1

  9
$DIMLUNIT
 70
     2
  9
$DIMLWD
 70
    -2
  9
$DIMLWE
 70
    -2
  9
$DIMTMOVE
 70
     0
  9
$LUNITS
 70
     2
  9
$LUPREC
 70
     4
  9
$SKETCHINC
 40
0.1
  9
$FILLETRAD
 40
0.0
  9
$AUNITS
 70
     0
  9
$AUPREC
 70
     0
  9
$MENU
  1
.
  9
$ELEVATION
 40
0.0
  9
$PELEVATION
 40
0.0
  9
$THICKNESS
 40
0.0
  9
$LIMCHECK
 70
     0
  9
$CHAMFERA
 40
0.0
  9
$CHAMFERB
 40
0.0
  9
$CHAMFERC
 40
0.0
  9
$CHAMFERD
 40
0.0
  9
$SKPOLY
 70
     0
  9
$TDCREATE
 40
2454753.388373113
  9
$TDUCREATE
 40
2454753.305039780
  9
$TDUPDATE
 40
2454753.390759004
  9
$TDUUPDATE
 40
2454753.307425671
  9
$TDINDWG
 40
0.0023858912
  9
$TDUSRTIMER
 40
0.0023858912
  9
$USRTIMER
 70
     1
  9
$ANGBASE
 50
0.0
  9
$ANGDIR
 70
     0
  9
$PDMODE
 70
     0
  9
$PDSIZE
 40
0.0
  9
$PLINEWID
 40
0.0
  9
$SPLFRAME
 70
     0
  9
$SPLINETYPE
 70
     6
  9
$SPLINESEGS
 70
     8
  9
$HANDSEED
  5
514
  9
$SURFTAB1
 70
     6
  9
$SURFTAB2
 70
     6
  9
$SURFTYPE
 70
     6
  9
$SURFU
 70
     6
  9
$SURFV
 70
     6
  9
$UCSBASE
  2

  9
$UCSNAME
  2

  9
$UCSORG
 10
0.0
 20
0.0
 30
0.0
  9
$UCSXDIR
 10
1.0
 20
0.0
 30
0.0
  9
$UCSYDIR
 10
0.0
 20
1.0
 30
0.0
  9
$UCSORTHOREF
  2

  9
$UCSORTHOVIEW
 70
     1
  9
$UCSORGTOP
 10
0.0
 20
0.0
 30
0.0
  9
$UCSORGBOTTOM
 10
0.0
 20
0.0
 30
0.0
  9
$UCSORGLEFT
 10
0.0
 20
0.0
 30
0.0
  9
$UCSORGRIGHT
 10
0.0
 20
0.0
 30
0.0
  9
$UCSORGFRONT
 10
0.0
 20
0.0
 30
0.0
  9
$UCSORGBACK
 10
0.0
 20
0.0
 30
0.0
  9
$PUCSBASE
  2

  9
$PUCSNAME
  2

  9
$PUCSORG
 10
0.0
 20
0.0
 30
0.0
  9
$PUCSXDIR
 10
1.0
 20
0.0
 30
0.0
  9
$PUCSYDIR
 10
0.0
 20
1.0
 30
0.0
  9
$PUCSORTHOREF
  2

  9
$PUCSORTHOVIEW
 70
     0
  9
$PUCSORGTOP
 10
0.0
 20
0.0
 30
0.0
  9
$PUCSORGBOTTOM
 10
0.0
 20
0.0
 30
0.0
  9
$PUCSORGLEFT
 10
0.0
 20
0.0
 30
0.0
  9
$PUCSORGRIGHT
 10
0.0
 20
0.0
 30
0.0
  9
$PUCSORGFRONT
 10
0.0
 20
0.0
 30
0.0
  9
$PUCSORGBACK
 10
0.0
 20
0.0
 30
0.0
  9
$USERI1
 70
     0
  9
$USERI2
 70
     0
  9
$USERI3
 70
     0
  9
$USERI4
 70
     0
  9
$USERI5
 70
     0
  9
$USERR1
 40
0.0
  9
$USERR2
 40
0.0
  9
$USERR3
 40
0.0
  9
$USERR4
 40
0.0
  9
$USERR5
 40
0.0
  9
$WORLDVIEW
 70
     1
  9
$SHADEDGE
 70
     3
  9
$SHADEDIF
 70
    70
  9
$TILEMODE
 70
     1
  9
$MAXACTVP
 70
    64
  9
$PINSBASE
 10
0.0
 20
0.0
 30
0.0
  9
$PLIMCHECK
 70
     0
  9
$PEXTMIN
 10
1.000000000000000E+20
 20
1.000000000000000E+20
 30
1.000000000000000E+20
  9
$PEXTMAX
 10
-1.000000000000000E+20
 20
-1.000000000000000E+20
 30
-1.000000000000000E+20
  9
$PLIMMIN
 10
0.0
 20
0.0
  9
$PLIMMAX
 10
12.0
 20
9.0
  9
$UNITMODE
 70
     0
  9
$VISRETAIN
 70
     1
  9
$PLINEGEN
 70
     0
  9
$PSLTSCALE
 70
     1
  9
$TREEDEPTH
 70
  3020
  9
$CMLSTYLE
  2
Standard
  9
$CMLJUST
 70
     0
  9
$CMLSCALE
 40
1.0
  9
$PROXYGRAPHICS
 70
     1
  9
$MEASUREMENT
 70
     0
  9
$CELWEIGHT
370
    -1
  9
$ENDCAPS
280
     0
  9
$JOINSTYLE
280
     0
  9
$LWDISPLAY
290
     0
  9
$INSUNITS
 70
     0
  9
$HYPERLINKBASE
  1

  9
$STYLESHEET
  1

  9
$XEDIT
290
     1
  9
$CEPSNTYPE
380
     0
  9
$PSTYLEMODE
290
     1
  9
$FINGERPRINTGUID
  2
{9498F7AA-4B91-4B10-829F-25BEDDAE016D}
  9
$VERSIONGUID
  2
{596DF5F2-F95E-4258-9BDB-89E30F8ACC96}
  9
$EXTNAMES
290
     1
  9
$PSVPSCALE
 40
0.0
  9
$OLESTARTUP
290
     0
  0
ENDSEC
  0
SECTION
  2
CLASSES
  0
CLASS
  1
ACDBDICTIONARYWDFLT
  2
AcDbDictionaryWithDefault
  3
AutoCAD 2000
 90
        0
280
     0
281
     0
  0
CLASS
  1
ACDBPLACEHOLDER
  2
AcDbPlaceHolder
  3
AutoCAD 2000
 90
        0
280
     0
281
     0
  0
CLASS
  1
LAYOUT
  2
AcDbLayout
  3
AutoCAD 2000
 90
        0
280
     0
281
     0
  0
CLASS
  1
DICTIONARYVAR
  2
AcDbDictionaryVar
  3
AutoCAD 2000
 90
        0
280
     0
281
     0
  0
ENDSEC
  0
SECTION
  2
TABLES
  0
TABLE
  2
VPORT
  5
8
330
0
100
AcDbSymbolTable
 70
     2
  0
VPORT
  5
513
330
8
100
AcDbSymbolTableRecord
100
AcDbViewportTableRecord
  2
*Active
 70
     0
 10
0.0
 20
0.0
 11
1.0
 21
1.0
 12
187.0
 22
77.5
 13
0.0
 23
0.0
 14
1.0
 24
1.0
 15
0.0
 25
0.0
 16
0.0
 26
0.0
 36
1.0
 17
0.0
 27
0.0
 37
0.0
 40
180.6365773411155
 41
2.078104993597951
 42
50.0
 43
0.0
 44
0.0
 50
0.0
 51
0.0
 71
     0
 72
   100
 73
     1
 74
     3
 75
     0
 76
     0
 77
     0
 78
     0
281
     0
 65
     1
110
0.0
120
0.0
130
0.0
111
1.0
121
0.0
131
0.0
112
0.0
122
1.0
132
0.0
 79
     1
146
0.0
  0
ENDTAB
  0
TABLE
  2
LTYPE
  5
5
330
0
100
AcDbSymbolTable
 70
     1
  0
LTYPE
  5
13
330
5
100
AcDbSymbolTableRecord
100
AcDbLinetypeTableRecord
  2
ByBlock
 70
     0
  3

 72
    65
 73
     0
 40
0.0
  0
LTYPE
  5
14
330
5
100
AcDbSymbolTableRecord
100
AcDbLinetypeTableRecord
  2
ByLayer
 70
     0
  3

 72
    65
 73
     0
 40
0.0
  0
LTYPE
  5
15
330
5
100
AcDbSymbolTableRecord
100
AcDbLinetypeTableRecord
  2
Continuous
 70
     0
  3
Solid line
 72
    65
 73
     0
 40
0.0
  0
ENDTAB
  0
TABLE
  2
LAYER
  5
2
330
0
100
AcDbSymbolTable
 70
     1
  0
LAYER
  5
10
330
2
100
AcDbSymbolTableRecord
100
AcDbLayerTableRecord
  2
0
 70
     0
 62
     7
  6
Continuous
370
    -3
390
F
  0
ENDTAB
  0
TABLE
  2
STYLE
  5
3
330
0
100
AcDbSymbolTable
 70
     1
  0
STYLE
  5
11
330
3
100
AcDbSymbolTableRecord
100
AcDbTextStyleTableRecord
  2
Standard
 70
     0
 40
0.0
 41
1.0
 50
0.0
 71
     0
 42
0.2
  3
txt
  4

  0
ENDTAB
  0
TABLE
  2
VIEW
  5
6
330
0
100
AcDbSymbolTable
 70
     0
  0
ENDTAB
  0
TABLE
  2
UCS
  5
7
330
0
100
AcDbSymbolTable
 70
     0
  0
ENDTAB
  0
TABLE
  2
APPID
  5
9
330
0
100
AcDbSymbolTable
 70
     1
  0
APPID
  5
12
330
9
100
AcDbSymbolTableRecord
100
AcDbRegAppTableRecord
  2
ACAD
 70
     0
  0
ENDTAB
  0
TABLE
  2
DIMSTYLE
  5
A
330
0
100
AcDbSymbolTable
 70
     1
100
AcDbDimStyleTable
 71
     0
  0
DIMSTYLE
105
434
330
A
100
AcDbSymbolTableRecord
100
AcDbDimStyleTableRecord
  2
Standard
 70
     0
340
11
  0
ENDTAB
  0
TABLE
  2
BLOCK_RECORD
  5
1
330
0
100
AcDbSymbolTable
 70
     0
  0
BLOCK_RECORD
  5
1E
330
1
100
AcDbSymbolTableRecord
100
AcDbBlockTableRecord
  2
*Model_Space
340
21
  0
BLOCK_RECORD
  5
1A
330
1
100
AcDbSymbolTableRecord
100
AcDbBlockTableRecord
  2
*Paper_Space
340
1D
  0
ENDTAB
  0
ENDSEC
  0
SECTION
  2
BLOCKS
  0
BLOCK
  5
1F
330
1E
100
AcDbEntity
  8
0
100
AcDbBlockBegin
  2
*Model_Space
 70
     0
 10
0.0
 20
0.0
 30
0.0
  3
*Model_Space
  1

  0
ENDBLK
  5
20
330
1E
100
AcDbEntity
  8
0
100
AcDbBlockEnd
  0
BLOCK
  5
1B
330
1A
100
AcDbEntity
 67
     1
  8
0
100
AcDbBlockBegin
  2
*Paper_Space
 70
     0
 10
0.0
 20
0.0
 30
0.0
  3
*Paper_Space
  1

  0
ENDBLK
  5
1C
330
1A
100
AcDbEntity
 67
     1
  8
0
100
AcDbBlockEnd
  0
ENDSEC
  0
SECTION
  2
ENTITIES
  0
LINE
  5
22
330
1E
100
AcDbEntity
  8
0
100
AcDbLine
 10
36.0
 20
0.0599999999999864
 30
0.0
 11
43.1
 21
0.0599999999999865
 31
0.0
  0
LINE
  5
23
330
1E
100
AcDbEntity
  8
0
100
AcDbLine
 10
43.1
 20
0.0599999999999865
 30
0.0
 11
49.7
 21
0.0599999999999866
 31
0.0
  0
LINE
  5
24
330
1E
100
AcDbEntity
  8
0
100
AcDbLine
 10
49.7
 20
0.0599999999999866
 30
0.0
 11
55.4
 21
0.0599999999999869
 31
0.0
  0
LINE
  5
25
330
1E
100
AcDbEntity
  8
0
100
AcDbLine
 10
55.4
 20
0.0599999999999869
 30
0.0
 11
59.8
 21
0.0599999999999872
 31
0.0
  0
LINE
  5
26
330
1E
100
AcDbEntity
  8
0
100
AcDbLine
 10
28.9
 20
0.0599999999999865
 30
0.0
 11
36.0
 21
0.0599999999999864
 31
0.0
  0
LINE
  5
27
330
1E
100
AcDbEntity
  8
0
100
AcDbLine
 10
22.29999999999999
 20
0.0599999999999866
 30
0.0
 11
28.9
 21
0.0599999999999865
 31
0.0
  0
LINE
  5
28
330
1E
100
AcDbEntity
  8
0
100
AcDbLine
 10
59.8
 20
0.0599999999999872
 30
0.0
 11
62.5
 21
0.0599999999999876
 31
0.0
  0
LINE
  5
29
330
1E
100
AcDbEntity
  8
0
100
AcDbLine
 10
62.5
 20
0.0599999999999876
 30
0.0
 11
63.5
 21
0.0599999999999881
 31
0.0
  0
LINE
  5
2A
330
1E
100
AcDbEntity
  8
0
100
AcDbLine
 10
16.6
 20
0.0599999999999869
 30
0.0
 11
22.29999999999999
 21
0.0599999999999866
 31
0.0
  0
LINE
  5
2B
330
1E
100
AcDbEntity
  8
0
100
AcDbLine
 10
12.19999999999999
 20
0.0599999999999872
 30
0.0
 11
16.6
 21
0.0599999999999869
 31
0.0
  0
LINE
  5
2C
330
1E
100
AcDbEntity
  8
0
100
AcDbLine
 10
9.500000000000008
 20
0.0599999999999876
 30
0.0
 11
12.19999999999999
 21
0.0599999999999872
 31
0.0
  0
LINE
  5
2D
330
1E
100
AcDbEntity
  8
0
100
AcDbLine
 10
8.500000000000008
 20
0.0599999999999878
 30
0.0
 11
9.000000000000008
 21
3.05999999999999
 31
0.0
  0
LINE
  5
2E
330
1E
100
AcDbEntity
  8
0
100
AcDbLine
 10
8.500000000000008
 20
0.0599999999999881
 30
0.0
 11
9.500000000000008
 21
0.0599999999999885
 31
0.0
  0
LINE
  5
2F
330
1E
100
AcDbEntity
  8
0
100
AcDbLine
 10
8.500000000000008
 20
0.0599999999999881
 30
0.0
 11
9.500000000000008
 21
0.0599999999999876
 31
0.0
  0
LINE
  5
30
330
1E
100
AcDbEntity
  8
0
100
AcDbLine
 10
8.500000000000008
 20
0.0599999999999881
 30
0.0
 11
9.000000000000008
 21
3.05999999999999
 31
0.0
  0
LINE
  5
31
330
1E
100
AcDbEntity
  8
0
100
AcDbLine
 10
103.0
 20
0.0599999999999878
 30
0.0
 11
104.6229
 21
3.07462999999999
 31
0.0
  0
LINE
  5
32
330
1E
100
AcDbEntity
  8
0
100
AcDbLine
 10
107.3279
 20
0.0599999999999871
 30
0.0
 11
112.6295
 21
0.0599999999999866
 31
0.0
  0
LINE
  5
33
330
1E
100
AcDbEntity
  8
0
100
AcDbLine
 10
104.082
 20
0.0599999999999876
 30
0.0
 11
107.3279
 21
0.0599999999999871
 31
0.0
  0
LINE
  5
34
330
1E
100
AcDbEntity
  8
0
100
AcDbLine
 10
62.5
 20
0.0599999999999885
 30
0.0
 11
63.5
 21
0.0599999999999881
 31
0.0
  0
LINE
  5
35
330
1E
100
AcDbEntity
  8
0
100
AcDbLine
 10
9.500000000000008
 20
0.0599999999999885
 30
0.0
 11
12.19999999999999
 21
0.0599999999999889
 31
0.0
  0
LINE
  5
36
330
1E
100
AcDbEntity
  8
0
100
AcDbLine
 10
12.0
 20
7.05999999999999
 30
0.0
 11
12.9
 21
7.05999999999999
 31
0.0
  0
LINE
  5
37
330
1E
100
AcDbEntity
  8
0
100
AcDbLine
 10
10.0
 20
5.05999999999999
 30
0.0
 11
12.0
 21
7.05999999999999
 31
0.0
  0
LINE
  5
38
330
1E
100
AcDbEntity
  8
0
100
AcDbLine
 10
9.000000000000008
 20
3.05999999999999
 30
0.0
 11
10.0
 21
5.05999999999999
 31
0.0
  0
LINE
  5
39
330
1E
100
AcDbEntity
  8
0
100
AcDbLine
 10
55.4
 20
0.0599999999999893
 30
0.0
 11
59.8
 21
0.0599999999999889
 31
0.0
  0
LINE
  5
3A
330
1E
100
AcDbEntity
  8
0
100
AcDbLine
 10
59.8
 20
0.0599999999999889
 30
0.0
 11
62.5
 21
0.0599999999999885
 31
0.0
  0
LINE
  5
3B
330
1E
100
AcDbEntity
  8
0
100
AcDbLine
 10
15.2
 20
7.05999999999999
 30
0.0
 11
19.1
 21
7.05999999999999
 31
0.0
  0
LINE
  5
3C
330
1E
100
AcDbEntity
  8
0
100
AcDbLine
 10
14.0
 20
9.559999999999989
 30
0.0
 11
14.0
 21
8.059999999999989
 31
0.0
  0
LINE
  5
3E
330
1E
100
AcDbEntity
  8
0
100
AcDbLine
 10
14.0
 20
9.559999999999989
 30
0.0
 11
15.0
 21
10.56
 31
0.0
  0
LINE
  5
40
330
1E
100
AcDbEntity
  8
0
100
AcDbLine
 10
17.8
 20
10.56
 30
0.0
 11
21.2
 21
10.56
 31
0.0
  0
LINE
  5
41
330
1E
100
AcDbEntity
  8
0
100
AcDbLine
 10
15.8
 20
10.56
 30
0.0
 11
17.8
 21
10.56
 31
0.0
  0
LINE
  5
42
330
1E
100
AcDbEntity
  8
0
100
AcDbLine
 10
15.0
 20
10.56
 30
0.0
 11
15.8
 21
10.56
 31
0.0
  0
LINE
  5
46
330
1E
100
AcDbEntity
  8
0
100
AcDbLine
 10
14.0
 20
8.059999999999989
 30
0.0
 11
15.0
 21
7.05999999999999
 31
0.0
  0
LINE
  5
48
330
1E
100
AcDbEntity
  8
0
100
AcDbLine
 10
14.0
 20
8.059999999999989
 30
0.0
 11
14.0
 21
9.559999999999989
 31
0.0
  0
LINE
  5
49
330
1E
100
AcDbEntity
  8
0
100
AcDbLine
 10
16.0
 20
10.56
 30
0.0
 11
17.0
 21
16.55999999999999
 31
0.0
  0
LINE
  5
4A
330
1E
100
AcDbEntity
  8
0
100
AcDbLine
 10
21.2
 20
10.56
 30
0.0
 11
25.5
 21
10.56
 31
0.0
  0
LINE
  5
4D
330
1E
100
AcDbEntity
  8
0
100
AcDbLine
 10
19.1
 20
7.05999999999999
 30
0.0
 11
24.0
 21
7.05999999999999
 31
0.0
  0
LINE
  5
4E
330
1E
100
AcDbEntity
  8
0
100
AcDbLine
 10
12.9
 20
7.05999999999999
 30
0.0
 11
15.2
 21
7.05999999999999
 31
0.0
  0
LINE
  5
4F
330
1E
100
AcDbEntity
  8
0
100
AcDbLine
 10
43.1
 20
0.0599999999999897
 30
0.0
 11
49.7
 21
0.0599999999999895
 31
0.0
  0
LINE
  5
50
330
1E
100
AcDbEntity
  8
0
100
AcDbLine
 10
49.7
 20
0.0599999999999895
 30
0.0
 11
55.4
 21
0.0599999999999893
 31
0.0
  0
LINE
  5
51
330
1E
100
AcDbEntity
  8
0
100
AcDbLine
 10
57.0
 20
7.05999999999999
 30
0.0
 11
58.0
 21
8.059999999999989
 31
0.0
  0
LINE
  5
52
330
1E
100
AcDbEntity
  8
0
100
AcDbLine
 10
56.79999999999999
 20
7.05999999999999
 30
0.0
 11
59.1
 21
7.05999999999999
 31
0.0
  0
LINE
  5
53
330
1E
100
AcDbEntity
  8
0
100
AcDbLine
 10
59.1
 20
7.05999999999999
 30
0.0
 11
60.0
 21
7.05999999999999
 31
0.0
  0
LINE
  5
54
330
1E
100
AcDbEntity
  8
0
100
AcDbLine
 10
36.0
 20
7.05999999999999
 30
0.0
 11
42.2
 21
7.05999999999999
 31
0.0
  0
LINE
  5
55
330
1E
100
AcDbEntity
  8
0
100
AcDbLine
 10
42.2
 20
7.05999999999999
 30
0.0
 11
48.0
 21
7.05999999999999
 31
0.0
  0
LINE
  5
56
330
1E
100
AcDbEntity
  8
0
100
AcDbLine
 10
48.0
 20
7.05999999999999
 30
0.0
 11
52.9
 21
7.05999999999999
 31
0.0
  0
LINE
  5
57
330
1E
100
AcDbEntity
  8
0
100
AcDbLine
 10
52.9
 20
7.05999999999999
 30
0.0
 11
56.79999999999999
 21
7.05999999999999
 31
0.0
  0
LINE
  5
58
330
1E
100
AcDbEntity
  8
0
100
AcDbLine
 10
60.0
 20
7.05999999999999
 30
0.0
 11
62.0
 21
5.05999999999999
 31
0.0
  0
LINE
  5
59
330
1E
100
AcDbEntity
  8
0
100
AcDbLine
 10
62.0
 20
5.05999999999999
 30
0.0
 11
63.0
 21
3.05999999999999
 31
0.0
  0
LINE
  5
5A
330
1E
100
AcDbEntity
  8
0
100
AcDbLine
 10
36.0
 20
0.0599999999999898
 30
0.0
 11
43.1
 21
0.0599999999999897
 31
0.0
  0
LINE
  5
5B
330
1E
100
AcDbEntity
  8
0
100
AcDbLine
 10
63.0
 20
3.05999999999999
 30
0.0
 11
63.5
 21
0.0599999999999881
 31
0.0
  0
LINE
  5
5C
330
1E
100
AcDbEntity
  8
0
100
AcDbLine
 10
63.0
 20
3.05999999999999
 30
0.0
 11
63.5
 21
0.0599999999999878
 31
0.0
  0
LINE
  5
64
330
1E
100
AcDbEntity
  8
0
100
AcDbLine
 10
36.0
 20
10.56
 30
0.0
 11
41.39999999999999
 21
10.56
 31
0.0
  0
LINE
  5
65
330
1E
100
AcDbEntity
  8
0
100
AcDbLine
 10
41.39999999999999
 20
10.56
 30
0.0
 11
46.5
 21
10.56
 31
0.0
  0
LINE
  5
66
330
1E
100
AcDbEntity
  8
0
100
AcDbLine
 10
46.5
 20
10.56
 30
0.0
 11
50.8
 21
10.56
 31
0.0
  0
LINE
  5
67
330
1E
100
AcDbEntity
  8
0
100
AcDbLine
 10
30.6
 20
10.56
 30
0.0
 11
36.0
 21
10.56
 31
0.0
  0
LINE
  5
68
330
1E
100
AcDbEntity
  8
0
100
AcDbLine
 10
25.5
 20
10.56
 30
0.0
 11
30.6
 21
10.56
 31
0.0
  0
LINE
  5
6D
330
1E
100
AcDbEntity
  8
0
100
AcDbLine
 10
58.0
 20
8.059999999999989
 30
0.0
 11
58.0
 21
9.559999999999989
 31
0.0
  0
LINE
  5
6F
330
1E
100
AcDbEntity
  8
0
100
AcDbLine
 10
54.2
 20
10.56
 30
0.0
 11
56.2
 21
10.56
 31
0.0
  0
LINE
  5
70
330
1E
100
AcDbEntity
  8
0
100
AcDbLine
 10
56.2
 20
10.56
 30
0.0
 11
57.0
 21
10.56
 31
0.0
  0
LINE
  5
71
330
1E
100
AcDbEntity
  8
0
100
AcDbLine
 10
57.0
 20
10.56
 30
0.0
 11
58.0
 21
9.559999999999989
 31
0.0
  0
LINE
  5
74
330
1E
100
AcDbEntity
  8
0
100
AcDbLine
 10
58.0
 20
9.559999999999989
 30
0.0
 11
58.0
 21
8.059999999999989
 31
0.0
  0
LINE
  5
77
330
1E
100
AcDbEntity
  8
0
100
AcDbLine
 10
50.8
 20
10.56
 30
0.0
 11
54.2
 21
10.56
 31
0.0
  0
LINE
  5
78
330
1E
100
AcDbEntity
  8
0
100
AcDbLine
 10
29.8
 20
7.05999999999999
 30
0.0
 11
36.0
 21
7.05999999999999
 31
0.0
  0
LINE
  5
79
330
1E
100
AcDbEntity
  8
0
100
AcDbLine
 10
24.0
 20
7.05999999999999
 30
0.0
 11
29.8
 21
7.05999999999999
 31
0.0
  0
LINE
  5
7A
330
1E
100
AcDbEntity
  8
0
100
AcDbLine
 10
28.9
 20
0.0599999999999897
 30
0.0
 11
36.0
 21
0.0599999999999898
 31
0.0
  0
LINE
  5
7B
330
1E
100
AcDbEntity
  8
0
100
AcDbLine
 10
22.29999999999999
 20
0.0599999999999895
 30
0.0
 11
28.9
 21
0.0599999999999897
 31
0.0
  0
LINE
  5
7C
330
1E
100
AcDbEntity
  8
0
100
AcDbLine
 10
16.6
 20
0.0599999999999893
 30
0.0
 11
22.29999999999999
 21
0.0599999999999895
 31
0.0
  0
LINE
  5
7D
330
1E
100
AcDbEntity
  8
0
100
AcDbLine
 10
12.19999999999999
 20
0.0599999999999889
 30
0.0
 11
16.6
 21
0.0599999999999893
 31
0.0
  0
LINE
  5
7E
330
1E
100
AcDbEntity
  8
0
100
AcDbLine
 10
104.082
 20
0.0599999999999886
 30
0.0
 11
107.3279
 21
0.0599999999999891
 31
0.0
  0
LINE
  5
7F
330
1E
100
AcDbEntity
  8
0
100
AcDbLine
 10
107.3279
 20
0.0599999999999891
 30
0.0
 11
112.6295
 21
0.0599999999999895
 31
0.0
  0
LINE
  5
82
330
1E
100
AcDbEntity
  8
0
100
AcDbLine
 10
110.0327999999999
 20
9.60633999999999
 30
0.0
 11
111.1148
 21
10.6112
 31
0.0
  0
LINE
  5
83
330
1E
100
AcDbEntity
  8
0
100
AcDbLine
 10
110.0327999999999
 20
9.60633999999999
 30
0.0
 11
110.0327999999999
 21
8.09901999999999
 31
0.0
  0
LINE
  5
85
330
1E
100
AcDbEntity
  8
0
100
AcDbLine
 10
110.0327999999999
 20
8.09901999999999
 30
0.0
 11
111.1148
 21
7.09414999999999
 31
0.0
  0
LINE
  5
86
330
1E
100
AcDbEntity
  8
0
100
AcDbLine
 10
110.0327999999999
 20
8.09901999999999
 30
0.0
 11
110.0327999999999
 21
9.60633999999999
 31
0.0
  0
LINE
  5
88
330
1E
100
AcDbEntity
  8
0
100
AcDbLine
 10
109.4918
 20
7.09414999999999
 30
0.0
 11
110.3574
 21
7.09414999999999
 31
0.0
  0
LINE
  5
89
330
1E
100
AcDbEntity
  8
0
100
AcDbLine
 10
106.7868999999999
 20
5.58682999999999
 30
0.0
 11
109.4918
 21
7.09414999999999
 31
0.0
  0
LINE
  5
8A
330
1E
100
AcDbEntity
  8
0
100
AcDbLine
 10
104.6229
 20
3.07462999999999
 30
0.0
 11
106.7868999999999
 21
5.58682999999999
 31
0.0
  0
LINE
  5
8B
330
1E
100
AcDbEntity
  8
0
100
AcDbLine
 10
103.0
 20
0.0599999999999881
 30
0.0
 11
104.082
 21
0.0599999999999876
 31
0.0
  0
LINE
  5
8C
330
1E
100
AcDbEntity
  8
0
100
AcDbLine
 10
103.0
 20
0.0599999999999881
 30
0.0
 11
104.6229
 21
3.07462999999999
 31
0.0
  0
LINE
  5
8D
330
1E
100
AcDbEntity
  8
0
100
AcDbLine
 10
103.0
 20
0.0599999999999881
 30
0.0
 11
104.082
 21
0.0599999999999886
 31
0.0
  0
LINE
  5
91
330
1E
100
AcDbEntity
  8
0
100
AcDbLine
 10
112.6295
 20
0.0599999999999895
 30
0.0
 11
119.5541
 21
0.0599999999999898
 31
0.0
  0
LINE
  5
92
330
1E
100
AcDbEntity
  8
0
100
AcDbLine
 10
112.6295
 20
0.0599999999999866
 30
0.0
 11
119.5541
 21
0.0599999999999863
 31
0.0
  0
LINE
  5
96
330
1E
100
AcDbEntity
  8
0
100
AcDbLine
 10
114.3607
 20
10.6112
 30
0.0
 11
118.3639
 21
10.6112
 31
0.0
  0
LINE
  5
97
330
1E
100
AcDbEntity
  8
0
100
AcDbLine
 10
111.9803
 20
10.6112
 30
0.0
 11
114.3607
 21
10.6112
 31
0.0
  0
LINE
  5
98
330
1E
100
AcDbEntity
  8
0
100
AcDbLine
 10
111.1148
 20
10.6112
 30
0.0
 11
111.9803
 21
10.6112
 31
0.0
  0
LINE
  5
99
330
1E
100
AcDbEntity
  8
0
100
AcDbLine
 10
17.0
 20
44.06
 30
0.0
 11
21.0
 21
45.06
 31
0.0
  0
LINE
  5
9A
330
1E
100
AcDbEntity
  8
0
100
AcDbLine
 10
14.0
 20
43.86
 30
0.0
 11
17.0
 21
44.06
 31
0.0
  0
LINE
  5
9B
330
1E
100
AcDbEntity
  8
0
100
AcDbLine
 10
10.0
 20
43.56
 30
0.0
 11
14.0
 21
43.86
 31
0.0
  0
LINE
  5
9C
330
1E
100
AcDbEntity
  8
0
100
AcDbLine
 10
6.500000000000009
 20
44.06
 30
0.0
 11
10.0
 21
43.56
 31
0.0
  0
LINE
  5
9D
330
1E
100
AcDbEntity
  8
0
100
AcDbLine
 10
4.000000000000009
 20
45.06
 30
0.0
 11
6.500000000000009
 21
44.06
 31
0.0
  0
LINE
  5
9E
330
1E
100
AcDbEntity
  8
0
100
AcDbLine
 10
2.00000000000001
 20
46.56
 30
0.0
 11
4.000000000000009
 21
45.06
 31
0.0
  0
LINE
  5
9F
330
1E
100
AcDbEntity
  8
0
100
AcDbLine
 10
0.500000000000005
 20
48.56
 30
0.0
 11
2.00000000000001
 21
46.56
 31
0.0
  0
LINE
  5
A0
330
1E
100
AcDbEntity
  8
0
100
AcDbLine
 10
0.0000000000000052
 20
51.06
 30
0.0
 11
0.500000000000005
 21
53.56
 31
0.0
  0
LINE
  5
A1
330
1E
100
AcDbEntity
  8
0
100
AcDbLine
 10
0.0000000000000052
 20
51.06
 30
0.0
 11
0.500000000000005
 21
48.56
 31
0.0
  0
LINE
  5
A2
330
1E
100
AcDbEntity
  8
0
100
AcDbLine
 10
53.0
 20
23.06
 30
0.0
 11
55.0
 21
16.55999999999999
 31
0.0
  0
LINE
  5
A3
330
1E
100
AcDbEntity
  8
0
100
AcDbLine
 10
55.0
 20
16.55999999999999
 30
0.0
 11
56.0
 21
10.56
 31
0.0
  0
LINE
  5
A4
330
1E
100
AcDbEntity
  8
0
100
AcDbLine
 10
21.0
 20
45.06
 30
0.0
 11
23.9803921568628
 21
46.1776470588235
 31
0.0
  0
LINE
  5
A5
330
1E
100
AcDbEntity
  8
0
100
AcDbLine
 10
48.0
 20
34.06
 30
0.0
 11
50.5
 21
29.06
 31
0.0
  0
LINE
  5
A6
330
1E
100
AcDbEntity
  8
0
100
AcDbLine
 10
50.5
 20
29.06
 30
0.0
 11
53.0
 21
23.06
 31
0.0
  0
LINE
  5
A7
330
1E
100
AcDbEntity
  8
0
100
AcDbLine
 10
26.0
 20
39.06
 30
0.0
 11
26.0
 21
38.06
 31
0.0
  0
LINE
  5
A9
330
1E
100
AcDbEntity
  8
0
100
AcDbLine
 10
26.0
 20
39.06
 30
0.0
 11
27.0
 21
40.06
 31
0.0
  0
LINE
  5
AC
330
1E
100
AcDbEntity
  8
0
100
AcDbLine
 10
26.0
 20
38.06
 30
0.0
 11
27.0
 21
37.06
 31
0.0
  0
LINE
  5
AE
330
1E
100
AcDbEntity
  8
0
100
AcDbLine
 10
26.0
 20
38.06
 30
0.0
 11
26.0
 21
39.06
 31
0.0
  0
LINE
  5
AF
330
1E
100
AcDbEntity
  8
0
100
AcDbLine
 10
23.9803921568628
 20
46.1776470588235
 30
0.0
 11
24.0
 21
46.06
 31
0.0
  0
LINE
  5
B0
330
1E
100
AcDbEntity
  8
0
100
AcDbLine
 10
24.0
 20
46.06
 30
0.0
 11
25.0
 21
43.06
 31
0.0
  0
LINE
  5
B1
330
1E
100
AcDbEntity
  8
0
100
AcDbLine
 10
25.0
 20
43.06
 30
0.0
 11
27.0
 21
40.06
 31
0.0
  0
LINE
  5
B2
330
1E
100
AcDbEntity
  8
0
100
AcDbLine
 10
27.0
 20
40.06
 30
0.0
 11
27.3
 21
40.06
 31
0.0
  0
LINE
  5
B3
330
1E
100
AcDbEntity
  8
0
100
AcDbLine
 10
36.0
 20
37.06
 30
0.0
 11
38.3
 21
37.06
 31
0.0
  0
LINE
  5
B4
330
1E
100
AcDbEntity
  8
0
100
AcDbLine
 10
38.3
 20
37.06
 30
0.0
 11
40.49999999999999
 21
37.06
 31
0.0
  0
LINE
  5
B5
330
1E
100
AcDbEntity
  8
0
100
AcDbLine
 10
40.49999999999999
 20
37.06
 30
0.0
 11
42.4
 21
37.06
 31
0.0
  0
LINE
  5
B6
330
1E
100
AcDbEntity
  8
0
100
AcDbLine
 10
42.4
 20
37.06
 30
0.0
 11
43.79999999999999
 21
37.06
 31
0.0
  0
LINE
  5
B7
330
1E
100
AcDbEntity
  8
0
100
AcDbLine
 10
43.79999999999999
 20
37.06
 30
0.0
 11
44.7
 21
37.06
 31
0.0
  0
LINE
  5
B8
330
1E
100
AcDbEntity
  8
0
100
AcDbLine
 10
44.7
 20
37.06
 30
0.0
 11
45.0
 21
37.06
 31
0.0
  0
LINE
  5
B9
330
1E
100
AcDbEntity
  8
0
100
AcDbLine
 10
45.0
 20
37.06
 30
0.0
 11
48.0
 21
34.06
 31
0.0
  0
LINE
  5
BA
330
1E
100
AcDbEntity
  8
0
100
AcDbLine
 10
45.0
 20
37.06
 30
0.0
 11
46.0
 21
38.06
 31
0.0
  0
LINE
  5
BB
330
1E
100
AcDbEntity
  8
0
100
AcDbLine
 10
33.7
 20
37.06
 30
0.0
 11
36.0
 21
37.06
 31
0.0
  0
LINE
  5
BC
330
1E
100
AcDbEntity
  8
0
100
AcDbLine
 10
31.5
 20
37.06
 30
0.0
 11
33.7
 21
37.06
 31
0.0
  0
LINE
  5
BD
330
1E
100
AcDbEntity
  8
0
100
AcDbLine
 10
29.6
 20
37.06
 30
0.0
 11
31.5
 21
37.06
 31
0.0
  0
LINE
  5
BE
330
1E
100
AcDbEntity
  8
0
100
AcDbLine
 10
28.2
 20
37.06
 30
0.0
 11
29.6
 21
37.06
 31
0.0
  0
LINE
  5
C9
330
1E
100
AcDbEntity
  8
0
100
AcDbLine
 10
36.0
 20
40.06
 30
0.0
 11
38.3
 21
40.06
 31
0.0
  0
LINE
  5
CE
330
1E
100
AcDbEntity
  8
0
100
AcDbLine
 10
38.3
 20
40.06
 30
0.0
 11
40.49999999999999
 21
40.06
 31
0.0
  0
LINE
  5
CF
330
1E
100
AcDbEntity
  8
0
100
AcDbLine
 10
40.49999999999999
 20
40.06
 30
0.0
 11
42.4
 21
40.06
 31
0.0
  0
LINE
  5
D4
330
1E
100
AcDbEntity
  8
0
100
AcDbLine
 10
42.4
 20
40.06
 30
0.0
 11
43.79999999999999
 21
40.06
 31
0.0
  0
LINE
  5
D5
330
1E
100
AcDbEntity
  8
0
100
AcDbLine
 10
43.79999999999999
 20
40.06
 30
0.0
 11
44.7
 21
40.06
 31
0.0
  0
LINE
  5
D6
330
1E
100
AcDbEntity
  8
0
100
AcDbLine
 10
46.0
 20
38.06
 30
0.0
 11
46.0
 21
39.06
 31
0.0
  0
LINE
  5
D7
330
1E
100
AcDbEntity
  8
0
100
AcDbLine
 10
46.0
 20
39.06
 30
0.0
 11
46.0
 21
38.06
 31
0.0
  0
LINE
  5
DA
330
1E
100
AcDbEntity
  8
0
100
AcDbLine
 10
44.7
 20
40.06
 30
0.0
 11
45.0
 21
40.06
 31
0.0
  0
LINE
  5
DB
330
1E
100
AcDbEntity
  8
0
100
AcDbLine
 10
45.0
 20
40.06
 30
0.0
 11
47.0
 21
43.06
 31
0.0
  0
LINE
  5
DC
330
1E
100
AcDbEntity
  8
0
100
AcDbLine
 10
45.0
 20
40.06
 30
0.0
 11
46.0
 21
39.06
 31
0.0
  0
LINE
  5
DD
330
1E
100
AcDbEntity
  8
0
100
AcDbLine
 10
33.7
 20
40.06
 30
0.0
 11
36.0
 21
40.06
 31
0.0
  0
LINE
  5
DE
330
1E
100
AcDbEntity
  8
0
100
AcDbLine
 10
31.5
 20
40.06
 30
0.0
 11
33.7
 21
40.06
 31
0.0
  0
LINE
  5
DF
330
1E
100
AcDbEntity
  8
0
100
AcDbLine
 10
29.6
 20
40.06
 30
0.0
 11
31.5
 21
40.06
 31
0.0
  0
LINE
  5
E0
330
1E
100
AcDbEntity
  8
0
100
AcDbLine
 10
34.0
 20
43.86
 30
0.0
 11
36.0
 21
43.56
 31
0.0
  0
LINE
  5
E1
330
1E
100
AcDbEntity
  8
0
100
AcDbLine
 10
36.0
 20
43.56
 30
0.0
 11
38.0
 21
43.86
 31
0.0
  0
LINE
  5
E2
330
1E
100
AcDbEntity
  8
0
100
AcDbLine
 10
32.2
 20
44.56
 30
0.0
 11
34.0
 21
43.86
 31
0.0
  0
LINE
  5
E3
330
1E
100
AcDbEntity
  8
0
100
AcDbLine
 10
30.7
 20
45.75999999999999
 30
0.0
 11
32.2
 21
44.56
 31
0.0
  0
LINE
  5
E4
330
1E
100
AcDbEntity
  8
0
100
AcDbLine
 10
38.0
 20
43.86
 30
0.0
 11
39.8
 21
44.56
 31
0.0
  0
LINE
  5
E5
330
1E
100
AcDbEntity
  8
0
100
AcDbLine
 10
39.8
 20
44.56
 30
0.0
 11
41.29999999999999
 21
45.75999999999999
 31
0.0
  0
LINE
  5
E6
330
1E
100
AcDbEntity
  8
0
100
AcDbLine
 10
29.5
 20
47.25999999999999
 30
0.0
 11
30.7
 21
45.75999999999999
 31
0.0
  0
LINE
  5
E7
330
1E
100
AcDbEntity
  8
0
100
AcDbLine
 10
28.8
 20
49.06
 30
0.0
 11
29.5
 21
47.25999999999999
 31
0.0
  0
LINE
  5
E8
330
1E
100
AcDbEntity
  8
0
100
AcDbLine
 10
41.29999999999999
 20
45.75999999999999
 30
0.0
 11
42.5
 21
47.25999999999999
 31
0.0
  0
LINE
  5
E9
330
1E
100
AcDbEntity
  8
0
100
AcDbLine
 10
42.5
 20
47.25999999999999
 30
0.0
 11
43.2
 21
49.06
 31
0.0
  0
LINE
  5
EA
330
1E
100
AcDbEntity
  8
0
100
AcDbLine
 10
28.5
 20
51.06
 30
0.0
 11
28.8
 21
53.06
 31
0.0
  0
LINE
  5
EB
330
1E
100
AcDbEntity
  8
0
100
AcDbLine
 10
28.5
 20
51.06
 30
0.0
 11
28.8
 21
49.06
 31
0.0
  0
LINE
  5
EC
330
1E
100
AcDbEntity
  8
0
100
AcDbLine
 10
43.2
 20
49.06
 30
0.0
 11
43.5
 21
51.06
 31
0.0
  0
LINE
  5
ED
330
1E
100
AcDbEntity
  8
0
100
AcDbLine
 10
55.0
 20
44.06
 30
0.0
 11
58.0
 21
43.86
 31
0.0
  0
LINE
  5
EE
330
1E
100
AcDbEntity
  8
0
100
AcDbLine
 10
58.0
 20
43.86
 30
0.0
 11
62.0
 21
43.56
 31
0.0
  0
LINE
  5
EF
330
1E
100
AcDbEntity
  8
0
100
AcDbLine
 10
62.0
 20
43.56
 30
0.0
 11
65.5
 21
44.06
 31
0.0
  0
LINE
  5
F0
330
1E
100
AcDbEntity
  8
0
100
AcDbLine
 10
51.0
 20
45.06
 30
0.0
 11
55.0
 21
44.06
 31
0.0
  0
LINE
  5
F1
330
1E
100
AcDbEntity
  8
0
100
AcDbLine
 10
65.5
 20
44.06
 30
0.0
 11
68.0
 21
45.06
 31
0.0
  0
LINE
  5
F2
330
1E
100
AcDbEntity
  8
0
100
AcDbLine
 10
68.0
 20
45.06
 30
0.0
 11
70.0
 21
46.56
 31
0.0
  0
LINE
  5
F3
330
1E
100
AcDbEntity
  8
0
100
AcDbLine
 10
48.01960784313729
 20
46.1776470588235
 30
0.0
 11
51.0
 21
45.06
 31
0.0
  0
LINE
  5
F4
330
1E
100
AcDbEntity
  8
0
100
AcDbLine
 10
70.0
 20
46.56
 30
0.0
 11
71.5
 21
48.56
 31
0.0
  0
LINE
  5
F5
330
1E
100
AcDbEntity
  8
0
100
AcDbLine
 10
71.5
 20
48.56
 30
0.0
 11
72.0
 21
51.06
 31
0.0
  0
LINE
  5
F6
330
1E
100
AcDbEntity
  8
0
100
AcDbLine
 10
48.0
 20
46.06
 30
0.0
 11
48.01960784313729
 21
46.1776470588235
 31
0.0
  0
LINE
  5
F7
330
1E
100
AcDbEntity
  8
0
100
AcDbLine
 10
47.0
 20
43.06
 30
0.0
 11
48.0
 21
46.06
 31
0.0
  0
LINE
  5
F8
330
1E
100
AcDbEntity
  8
0
100
AcDbLine
 10
28.2
 20
40.06
 30
0.0
 11
29.6
 21
40.06
 31
0.0
  0
LINE
  5
F9
330
1E
100
AcDbEntity
  8
0
100
AcDbLine
 10
27.3
 20
40.06
 30
0.0
 11
28.2
 21
40.06
 31
0.0
  0
LINE
  5
FA
330
1E
100
AcDbEntity
  8
0
100
AcDbLine
 10
27.3
 20
37.06
 30
0.0
 11
28.2
 21
37.06
 31
0.0
  0
LINE
  5
FB
330
1E
100
AcDbEntity
  8
0
100
AcDbLine
 10
27.0
 20
37.06
 30
0.0
 11
27.3
 21
37.06
 31
0.0
  0
LINE
  5
FC
330
1E
100
AcDbEntity
  8
0
100
AcDbLine
 10
24.0
 20
34.06
 30
0.0
 11
27.0
 21
37.06
 31
0.0
  0
LINE
  5
FD
330
1E
100
AcDbEntity
  8
0
100
AcDbLine
 10
21.49999999999999
 20
29.06
 30
0.0
 11
24.0
 21
34.06
 31
0.0
  0
LINE
  5
FE
330
1E
100
AcDbEntity
  8
0
100
AcDbLine
 10
19.0
 20
23.06
 30
0.0
 11
21.49999999999999
 21
29.06
 31
0.0
  0
LINE
  5
FF
330
1E
100
AcDbEntity
  8
0
100
AcDbLine
 10
17.0
 20
16.55999999999999
 30
0.0
 11
19.0
 21
23.06
 31
0.0
  0
LINE
  5
100
330
1E
100
AcDbEntity
  8
0
100
AcDbLine
 10
112.1967
 20
10.6112
 30
0.0
 11
112.1967
 21
55.3771
 31
0.0
  0
LINE
  5
101
330
1E
100
AcDbEntity
  8
0
100
AcDbLine
 10
119.5541
 20
0.0599999999999898
 30
0.0
 11
127.4525
 21
0.05999999999999
 31
0.0
  0
LINE
  5
102
330
1E
100
AcDbEntity
  8
0
100
AcDbLine
 10
119.5541
 20
0.0599999999999863
 30
0.0
 11
127.4525
 21
0.0599999999999861
 31
0.0
  0
LINE
  5
103
330
1E
100
AcDbEntity
  8
0
100
AcDbLine
 10
118.3639
 20
10.6112
 30
0.0
 11
123.5573999999999
 21
10.6112
 31
0.0
  0
LINE
  5
105
330
1E
100
AcDbEntity
  8
0
100
AcDbLine
 10
0.500000000000005
 20
53.56
 30
0.0
 11
2.00000000000001
 21
55.56
 31
0.0
  0
LINE
  5
106
330
1E
100
AcDbEntity
  8
0
100
AcDbLine
 10
28.8
 20
53.06
 30
0.0
 11
29.5
 21
54.86
 31
0.0
  0
LINE
  5
107
330
1E
100
AcDbEntity
  8
0
100
AcDbLine
 10
71.5
 20
53.56
 30
0.0
 11
72.0
 21
51.06
 31
0.0
  0
LINE
  5
108
330
1E
100
AcDbEntity
  8
0
100
AcDbLine
 10
43.2
 20
53.06
 30
0.0
 11
43.5
 21
51.06
 31
0.0
  0
LINE
  5
109
330
1E
100
AcDbEntity
  8
0
100
AcDbLine
 10
2.00000000000001
 20
55.56
 30
0.0
 11
4.000000000000009
 21
57.06
 31
0.0
  0
LINE
  5
10A
330
1E
100
AcDbEntity
  8
0
100
AcDbLine
 10
29.5
 20
54.86
 30
0.0
 11
30.7
 21
56.36
 31
0.0
  0
LINE
  5
10B
330
1E
100
AcDbEntity
  8
0
100
AcDbLine
 10
48.0
 20
55.935
 30
0.0
 11
51.0
 21
57.06
 31
0.0
  0
LINE
  5
10C
330
1E
100
AcDbEntity
  8
0
100
AcDbLine
 10
70.0
 20
55.56
 30
0.0
 11
71.5
 21
53.56
 31
0.0
  0
LINE
  5
10D
330
1E
100
AcDbEntity
  8
0
100
AcDbLine
 10
42.5
 20
54.86
 30
0.0
 11
43.2
 21
53.06
 31
0.0
  0
LINE
  5
10E
330
1E
100
AcDbEntity
  8
0
100
AcDbLine
 10
48.0
 20
56.06
 30
0.0
 11
48.01960784313729
 21
55.9423529411765
 31
0.0
  0
LINE
  5
10F
330
1E
100
AcDbEntity
  8
0
100
AcDbLine
 10
24.0
 20
56.06
 30
0.0
 11
25.0
 21
59.06
 31
0.0
  0
LINE
  5
110
330
1E
100
AcDbEntity
  8
0
100
AcDbLine
 10
23.9803921568628
 20
55.9423529411765
 30
0.0
 11
24.0
 21
56.06
 31
0.0
  0
LINE
  5
111
330
1E
100
AcDbEntity
  8
0
100
AcDbLine
 10
112.1967
 20
55.3771
 30
0.0
 11
113.0622999999999
 21
61.00439999999999
 31
0.0
  0
LINE
  5
112
330
1E
100
AcDbEntity
  8
0
100
AcDbLine
 10
112.1967
 20
55.3771
 30
0.0
 11
112.1967
 21
10.6112
 31
0.0
  0
LINE
  5
113
330
1E
100
AcDbEntity
  8
0
100
AcDbLine
 10
30.7
 20
56.36
 30
0.0
 11
32.2
 21
57.56
 31
0.0
  0
LINE
  5
114
330
1E
100
AcDbEntity
  8
0
100
AcDbLine
 10
41.29999999999999
 20
56.36
 30
0.0
 11
42.5
 21
54.86
 31
0.0
  0
LINE
  5
115
330
1E
100
AcDbEntity
  8
0
100
AcDbLine
 10
21.0
 20
57.06
 30
0.0
 11
23.9803921568628
 21
55.9423529411765
 31
0.0
  0
LINE
  5
116
330
1E
100
AcDbEntity
  8
0
100
AcDbLine
 10
17.0
 20
58.06
 30
0.0
 11
21.0
 21
57.06
 31
0.0
  0
LINE
  5
117
330
1E
100
AcDbEntity
  8
0
100
AcDbLine
 10
14.0
 20
58.26
 30
0.0
 11
17.0
 21
58.06
 31
0.0
  0
LINE
  5
118
330
1E
100
AcDbEntity
  8
0
100
AcDbLine
 10
24.5
 20
60.56
 30
0.0
 11
24.5
 21
59.56
 31
0.0
  0
LINE
  5
11A
330
1E
100
AcDbEntity
  8
0
100
AcDbLine
 10
24.5
 20
60.56
 30
0.0
 11
25.0
 21
61.06
 31
0.0
  0
LINE
  5
11D
330
1E
100
AcDbEntity
  8
0
100
AcDbLine
 10
24.5
 20
59.56
 30
0.0
 11
25.0
 21
59.06
 31
0.0
  0
LINE
  5
11F
330
1E
100
AcDbEntity
  8
0
100
AcDbLine
 10
24.5
 20
59.56
 30
0.0
 11
24.5
 21
60.56
 31
0.0
  0
LINE
  5
120
330
1E
100
AcDbEntity
  8
0
100
AcDbLine
 10
10.0
 20
58.56
 30
0.0
 11
14.0
 21
58.26
 31
0.0
  0
LINE
  5
121
330
1E
100
AcDbEntity
  8
0
100
AcDbLine
 10
6.500000000000009
 20
58.06
 30
0.0
 11
10.0
 21
58.56
 31
0.0
  0
LINE
  5
122
330
1E
100
AcDbEntity
  8
0
100
AcDbLine
 10
4.000000000000009
 20
57.06
 30
0.0
 11
6.500000000000009
 21
58.06
 31
0.0
  0
LINE
  5
123
330
1E
100
AcDbEntity
  8
0
100
AcDbLine
 10
34.0
 20
58.26
 30
0.0
 11
36.0
 21
58.56
 31
0.0
  0
LINE
  5
124
330
1E
100
AcDbEntity
  8
0
100
AcDbLine
 10
32.2
 20
57.56
 30
0.0
 11
34.0
 21
58.26
 31
0.0
  0
LINE
  5
125
330
1E
100
AcDbEntity
  8
0
100
AcDbLine
 10
36.0
 20
58.56
 30
0.0
 11
38.0
 21
58.26
 31
0.0
  0
LINE
  5
126
330
1E
100
AcDbEntity
  8
0
100
AcDbLine
 10
38.0
 20
58.26
 30
0.0
 11
39.8
 21
57.56
 31
0.0
  0
LINE
  5
127
330
1E
100
AcDbEntity
  8
0
100
AcDbLine
 10
39.8
 20
57.56
 30
0.0
 11
41.29999999999999
 21
56.36
 31
0.0
  0
LINE
  5
128
330
1E
100
AcDbEntity
  8
0
100
AcDbLine
 10
36.0
 20
59.06
 30
0.0
 11
38.79999999999999
 21
59.06
 31
0.0
  0
LINE
  5
129
330
1E
100
AcDbEntity
  8
0
100
AcDbLine
 10
38.79999999999999
 20
59.06
 30
0.0
 11
41.5
 21
59.06
 31
0.0
  0
LINE
  5
12A
330
1E
100
AcDbEntity
  8
0
100
AcDbLine
 10
41.5
 20
59.06
 30
0.0
 11
43.79999999999999
 21
59.06
 31
0.0
  0
LINE
  5
12B
330
1E
100
AcDbEntity
  8
0
100
AcDbLine
 10
43.79999999999999
 20
59.06
 30
0.0
 11
45.49999999999999
 21
59.06
 31
0.0
  0
LINE
  5
12C
330
1E
100
AcDbEntity
  8
0
100
AcDbLine
 10
45.49999999999999
 20
59.06
 30
0.0
 11
46.6
 21
59.06
 31
0.0
  0
LINE
  5
12D
330
1E
100
AcDbEntity
  8
0
100
AcDbLine
 10
46.6
 20
59.06
 30
0.0
 11
47.0
 21
59.06
 31
0.0
  0
LINE
  5
12E
330
1E
100
AcDbEntity
  8
0
100
AcDbLine
 10
51.0
 20
57.06
 30
0.0
 11
55.0
 21
58.06
 31
0.0
  0
LINE
  5
12F
330
1E
100
AcDbEntity
  8
0
100
AcDbLine
 10
55.0
 20
58.06
 30
0.0
 11
58.0
 21
58.26
 31
0.0
  0
LINE
  5
130
330
1E
100
AcDbEntity
  8
0
100
AcDbLine
 10
58.0
 20
58.26
 30
0.0
 11
62.0
 21
58.56
 31
0.0
  0
LINE
  5
131
330
1E
100
AcDbEntity
  8
0
100
AcDbLine
 10
62.0
 20
58.56
 30
0.0
 11
65.5
 21
58.06
 31
0.0
  0
LINE
  5
132
330
1E
100
AcDbEntity
  8
0
100
AcDbLine
 10
65.5
 20
58.06
 30
0.0
 11
68.0
 21
57.06
 31
0.0
  0
LINE
  5
133
330
1E
100
AcDbEntity
  8
0
100
AcDbLine
 10
68.0
 20
57.06
 30
0.0
 11
70.0
 21
55.56
 31
0.0
  0
LINE
  5
134
330
1E
100
AcDbEntity
  8
0
100
AcDbLine
 10
47.0
 20
59.06
 30
0.0
 11
48.0
 21
56.06
 31
0.0
  0
LINE
  5
135
330
1E
100
AcDbEntity
  8
0
100
AcDbLine
 10
47.0
 20
59.06
 30
0.0
 11
47.5
 21
59.56
 31
0.0
  0
LINE
  5
136
330
1E
100
AcDbEntity
  8
0
100
AcDbLine
 10
33.2
 20
59.06
 30
0.0
 11
36.0
 21
59.06
 31
0.0
  0
LINE
  5
137
330
1E
100
AcDbEntity
  8
0
100
AcDbLine
 10
30.5
 20
59.06
 30
0.0
 11
33.2
 21
59.06
 31
0.0
  0
LINE
  5
138
330
1E
100
AcDbEntity
  8
0
100
AcDbLine
 10
28.2
 20
59.06
 30
0.0
 11
30.5
 21
59.06
 31
0.0
  0
LINE
  5
139
330
1E
100
AcDbEntity
  8
0
100
AcDbLine
 10
26.5
 20
59.06
 30
0.0
 11
28.2
 21
59.06
 31
0.0
  0
LINE
  5
140
330
1E
100
AcDbEntity
  8
0
100
AcDbLine
 10
47.5
 20
59.56
 30
0.0
 11
47.5
 21
60.56
 31
0.0
  0
LINE
  5
148
330
1E
100
AcDbEntity
  8
0
100
AcDbLine
 10
47.5
 20
60.56
 30
0.0
 11
47.5
 21
59.56
 31
0.0
  0
LINE
  5
150
330
1E
100
AcDbEntity
  8
0
100
AcDbLine
 10
25.4
 20
59.06
 30
0.0
 11
26.5
 21
59.06
 31
0.0
  0
LINE
  5
151
330
1E
100
AcDbEntity
  8
0
100
AcDbLine
 10
25.0
 20
59.06
 30
0.0
 11
25.4
 21
59.06
 31
0.0
  0
LINE
  5
152
330
1E
100
AcDbEntity
  8
0
100
AcDbLine
 10
36.0
 20
61.06
 30
0.0
 11
38.79999999999999
 21
61.06
 31
0.0
  0
LINE
  5
153
330
1E
100
AcDbEntity
  8
0
100
AcDbLine
 10
38.79999999999999
 20
61.06
 30
0.0
 11
41.5
 21
61.06
 31
0.0
  0
LINE
  5
154
330
1E
100
AcDbEntity
  8
0
100
AcDbLine
 10
41.5
 20
61.06
 30
0.0
 11
43.79999999999999
 21
61.06
 31
0.0
  0
LINE
  5
155
330
1E
100
AcDbEntity
  8
0
100
AcDbLine
 10
43.79999999999999
 20
61.06
 30
0.0
 11
45.49999999999999
 21
61.06
 31
0.0
  0
LINE
  5
156
330
1E
100
AcDbEntity
  8
0
100
AcDbLine
 10
45.49999999999999
 20
61.06
 30
0.0
 11
46.6
 21
61.06
 31
0.0
  0
LINE
  5
157
330
1E
100
AcDbEntity
  8
0
100
AcDbLine
 10
46.6
 20
61.06
 30
0.0
 11
47.0
 21
61.06
 31
0.0
  0
LINE
  5
158
330
1E
100
AcDbEntity
  8
0
100
AcDbLine
 10
47.0
 20
61.06
 30
0.0
 11
47.5
 21
60.56
 31
0.0
  0
LINE
  5
159
330
1E
100
AcDbEntity
  8
0
100
AcDbLine
 10
33.2
 20
61.06
 30
0.0
 11
36.0
 21
61.06
 31
0.0
  0
LINE
  5
15A
330
1E
100
AcDbEntity
  8
0
100
AcDbLine
 10
30.5
 20
61.06
 30
0.0
 11
33.2
 21
61.06
 31
0.0
  0
LINE
  5
15B
330
1E
100
AcDbEntity
  8
0
100
AcDbLine
 10
28.2
 20
61.06
 30
0.0
 11
30.5
 21
61.06
 31
0.0
  0
LINE
  5
15C
330
1E
100
AcDbEntity
  8
0
100
AcDbLine
 10
26.5
 20
61.06
 30
0.0
 11
28.2
 21
61.06
 31
0.0
  0
LINE
  5
15D
330
1E
100
AcDbEntity
  8
0
100
AcDbLine
 10
25.4
 20
61.06
 30
0.0
 11
26.5
 21
61.06
 31
0.0
  0
LINE
  5
15E
330
1E
100
AcDbEntity
  8
0
100
AcDbLine
 10
39.29999999999999
 20
64.86
 30
0.0
 11
43.2
 21
63.56
 31
0.0
  0
LINE
  5
15F
330
1E
100
AcDbEntity
  8
0
100
AcDbLine
 10
43.2
 20
63.56
 30
0.0
 11
47.0
 21
61.06
 31
0.0
  0
LINE
  5
160
330
1E
100
AcDbEntity
  8
0
100
AcDbLine
 10
36.0
 20
65.06
 30
0.0
 11
39.29999999999999
 21
64.86
 31
0.0
  0
LINE
  5
161
330
1E
100
AcDbEntity
  8
0
100
AcDbLine
 10
32.7
 20
64.86
 30
0.0
 11
36.0
 21
65.06
 31
0.0
  0
LINE
  5
162
330
1E
100
AcDbEntity
  8
0
100
AcDbLine
 10
28.8
 20
63.56
 30
0.0
 11
32.7
 21
64.86
 31
0.0
  0
LINE
  5
163
330
1E
100
AcDbEntity
  8
0
100
AcDbLine
 10
25.0
 20
61.06
 30
0.0
 11
25.4
 21
61.06
 31
0.0
  0
LINE
  5
164
330
1E
100
AcDbEntity
  8
0
100
AcDbLine
 10
25.0
 20
61.06
 30
0.0
 11
28.8
 21
63.56
 31
0.0
  0
LINE
  5
165
330
1E
100
AcDbEntity
  8
0
100
AcDbLine
 10
115.4425999999999
 20
66.33020000000001
 30
0.0
 11
118.0
 21
69.451904164356
 31
0.0
  0
LINE
  5
166
330
1E
100
AcDbEntity
  8
0
100
AcDbLine
 10
113.0622999999999
 20
61.00439999999999
 30
0.0
 11
115.4425999999999
 21
66.33020000000001
 31
0.0
  0
LINE
  5
167
330
1E
100
AcDbEntity
  8
0
100
AcDbLine
 10
118.0
 20
65.08079999999999
 30
0.0
 11
118.0
 21
70.58969999999999
 31
0.0
  0
LINE
  5
168
330
1E
100
AcDbEntity
  8
0
100
AcDbLine
 10
118.0
 20
65.08079999999999
 30
0.0
 11
118.0
 21
56.9169
 31
0.0
  0
LINE
  5
16A
330
1E
100
AcDbEntity
  8
0
100
AcDbLine
 10
118.0
 20
56.9169
 30
0.0
 11
118.0
 21
65.08079999999999
 31
0.0
  0
LINE
  5
16B
330
1E
100
AcDbEntity
  8
0
100
AcDbLine
 10
118.0
 20
60.2616
 30
0.0
 11
118.0
 21
66.85819999999999
 31
0.0
  0
LINE
  5
16C
330
1E
100
AcDbEntity
  8
0
100
AcDbLine
 10
118.0
 20
60.2616
 30
0.0
 11
118.0
 21
56.277
 31
0.0
  0
LINE
  5
16D
330
1E
100
AcDbEntity
  8
0
100
AcDbLine
 10
118.0
 20
70.58969999999999
 30
0.0
 11
118.0
 21
74.75480000000001
 31
0.0
  0
LINE
  5
16E
330
1E
100
AcDbEntity
  8
0
100
AcDbLine
 10
118.0
 20
70.58969999999999
 30
0.0
 11
118.0
 21
65.08079999999999
 31
0.0
  0
LINE
  5
16F
330
1E
100
AcDbEntity
  8
0
100
AcDbLine
 10
118.0
 20
74.75480000000001
 30
0.0
 11
118.0
 21
76.6446
 31
0.0
  0
LINE
  5
170
330
1E
100
AcDbEntity
  8
0
100
AcDbLine
 10
118.0
 20
74.75480000000001
 30
0.0
 11
118.0
 21
70.58969999999999
 31
0.0
  0
LINE
  5
171
330
1E
100
AcDbEntity
  8
0
100
AcDbLine
 10
118.0
 20
66.85819999999999
 30
0.0
 11
118.0
 21
71.81529999999999
 31
0.0
  0
LINE
  5
172
330
1E
100
AcDbEntity
  8
0
100
AcDbLine
 10
118.0
 20
66.85819999999999
 30
0.0
 11
118.0
 21
60.2616
 31
0.0
  0
LINE
  5
173
330
1E
100
AcDbEntity
  8
0
100
AcDbLine
 10
118.0
 20
71.81529999999999
 30
0.0
 11
118.0
 21
75.3322
 31
0.0
  0
LINE
  5
174
330
1E
100
AcDbEntity
  8
0
100
AcDbLine
 10
118.0
 20
71.81529999999999
 30
0.0
 11
118.0
 21
66.85819999999999
 31
0.0
  0
LINE
  5
175
330
1E
100
AcDbEntity
  8
0
100
AcDbLine
 10
118.0
 20
76.6446
 30
0.0
 11
118.0
 21
77.06
 31
0.0
  0
LINE
  5
176
330
1E
100
AcDbEntity
  8
0
100
AcDbLine
 10
118.0
 20
76.6446
 30
0.0
 11
118.0
 21
74.75480000000001
 31
0.0
  0
LINE
  5
177
330
1E
100
AcDbEntity
  8
0
100
AcDbLine
 10
118.5999999999999
 20
81.66
 30
0.0
 11
120.4
 21
86.05999999999999
 31
0.0
  0
LINE
  5
178
330
1E
100
AcDbEntity
  8
0
100
AcDbLine
 10
118.0
 20
77.06
 30
0.0
 11
118.0
 21
75.3322
 31
0.0
  0
LINE
  5
179
330
1E
100
AcDbEntity
  8
0
100
AcDbLine
 10
118.0
 20
77.06
 30
0.0
 11
118.5999999999999
 21
81.66
 31
0.0
  0
LINE
  5
17A
330
1E
100
AcDbEntity
  8
0
100
AcDbLine
 10
118.0
 20
77.06
 30
0.0
 11
118.0
 21
76.6446
 31
0.0
  0
LINE
  5
17B
330
1E
100
AcDbEntity
  8
0
100
AcDbLine
 10
118.0
 20
75.3322
 30
0.0
 11
118.0
 21
77.06
 31
0.0
  0
LINE
  5
17C
330
1E
100
AcDbEntity
  8
0
100
AcDbLine
 10
118.0
 20
75.3322
 30
0.0
 11
118.0
 21
71.81529999999999
 31
0.0
  0
LINE
  5
17D
330
1E
100
AcDbEntity
  8
0
100
AcDbLine
 10
118.5999999999999
 20
58.577
 30
0.0
 11
120.4
 21
60.777
 31
0.0
  0
LINE
  5
17E
330
1E
100
AcDbEntity
  8
0
100
AcDbLine
 10
118.0
 20
56.277
 30
0.0
 11
118.5999999999999
 21
54.077
 31
0.0
  0
LINE
  5
17F
330
1E
100
AcDbEntity
  8
0
100
AcDbLine
 10
118.0
 20
56.277
 30
0.0
 11
118.5999999999999
 21
58.577
 31
0.0
  0
LINE
  5
180
330
1E
100
AcDbEntity
  8
0
100
AcDbLine
 10
118.0
 20
56.277
 30
0.0
 11
118.0
 21
60.2616
 31
0.0
  0
LINE
  5
181
330
1E
100
AcDbEntity
  8
0
100
AcDbLine
 10
120.4
 20
86.05999999999999
 30
0.0
 11
123.3
 21
89.76
 31
0.0
  0
LINE
  5
182
330
1E
100
AcDbEntity
  8
0
100
AcDbLine
 10
120.4
 20
60.777
 30
0.0
 11
123.3
 21
62.677
 31
0.0
  0
LINE
  5
183
330
1E
100
AcDbEntity
  8
0
100
AcDbLine
 10
120.5999999999999
 20
56.577
 30
0.0
 11
122.0999999999999
 21
58.577
 31
0.0
  0
LINE
  5
184
330
1E
100
AcDbEntity
  8
0
100
AcDbLine
 10
120.0
 20
54.57699999999999
 30
0.0
 11
120.5999999999999
 21
52.477
 31
0.0
  0
LINE
  5
185
330
1E
100
AcDbEntity
  8
0
100
AcDbLine
 10
120.0
 20
54.57699999999999
 30
0.0
 11
120.5999999999999
 21
56.577
 31
0.0
  0
LINE
  5
186
330
1E
100
AcDbEntity
  8
0
100
AcDbLine
 10
118.5999999999999
 20
54.077
 30
0.0
 11
120.4
 21
51.777
 31
0.0
  0
LINE
  5
187
330
1E
100
AcDbEntity
  8
0
100
AcDbLine
 10
122.0999999999999
 20
58.577
 30
0.0
 11
124.7
 21
60.177
 31
0.0
  0
LINE
  5
188
330
1E
100
AcDbEntity
  8
0
100
AcDbLine
 10
120.5999999999999
 20
52.477
 30
0.0
 11
122.0999999999999
 21
50.577
 31
0.0
  0
LINE
  5
189
330
1E
100
AcDbEntity
  8
0
100
AcDbLine
 10
120.4
 20
51.777
 30
0.0
 11
122.0999999999999
 21
50.577
 31
0.0
  0
LINE
  5
18C
330
1E
100
AcDbEntity
  8
0
100
AcDbLine
 10
123.5
 20
50.41129999999999
 30
0.0
 11
124.7
 21
48.8613
 31
0.0
  0
LINE
  5
18E
330
1E
100
AcDbEntity
  8
0
100
AcDbLine
 10
123.5
 20
53.8113
 30
0.0
 11
124.7
 21
55.36129999999999
 31
0.0
  0
LINE
  5
18F
330
1E
100
AcDbEntity
  8
0
100
AcDbLine
 10
123.0
 20
52.1113
 30
0.0
 11
123.5
 21
53.8113
 31
0.0
  0
LINE
  5
190
330
1E
100
AcDbEntity
  8
0
100
AcDbLine
 10
123.0
 20
52.1113
 30
0.0
 11
123.5
 21
50.41129999999999
 31
0.0
  0
LINE
  5
192
330
1E
100
AcDbEntity
  8
0
100
AcDbLine
 10
124.7
 20
48.8613
 30
0.0
 11
126.5
 21
47.62929999999999
 31
0.0
  0
LINE
  5
193
330
1E
100
AcDbEntity
  8
0
100
AcDbLine
 10
124.7
 20
55.36129999999999
 30
0.0
 11
126.8
 21
56.7113
 31
0.0
  0
LINE
  5
194
330
1E
100
AcDbEntity
  8
0
100
AcDbLine
 10
123.5573999999999
 20
10.6112
 30
0.0
 11
129.5081999999999
 21
10.6112
 31
0.0
  0
LINE
  5
195
330
1E
100
AcDbEntity
  8
0
100
AcDbLine
 10
127.4525
 20
0.05999999999999
 30
0.0
 11
136.0
 21
0.0599999999999901
 31
0.0
  0
LINE
  5
196
330
1E
100
AcDbEntity
  8
0
100
AcDbLine
 10
136.0
 20
0.0599999999999861
 30
0.0
 11
144.548
 21
0.0599999999999861
 31
0.0
  0
LINE
  5
197
330
1E
100
AcDbEntity
  8
0
100
AcDbLine
 10
136.0
 20
0.0599999999999901
 30
0.0
 11
144.548
 21
0.05999999999999
 31
0.0
  0
LINE
  5
19D
330
1E
100
AcDbEntity
  8
0
100
AcDbLine
 10
127.4525
 20
0.0599999999999861
 30
0.0
 11
136.0
 21
0.0599999999999861
 31
0.0
  0
LINE
  5
19E
330
1E
100
AcDbEntity
  8
0
100
AcDbLine
 10
136.0
 20
10.6112
 30
0.0
 11
142.492
 21
10.6112
 31
0.0
  0
LINE
  5
1A2
330
1E
100
AcDbEntity
  8
0
100
AcDbLine
 10
144.548
 20
0.05999999999999
 30
0.0
 11
152.4459999999999
 21
0.0599999999999898
 31
0.0
  0
LINE
  5
1A3
330
1E
100
AcDbEntity
  8
0
100
AcDbLine
 10
144.548
 20
0.0599999999999861
 30
0.0
 11
152.4459999999999
 21
0.0599999999999863
 31
0.0
  0
LINE
  5
1A4
330
1E
100
AcDbEntity
  8
0
100
AcDbLine
 10
142.492
 20
10.6112
 30
0.0
 11
148.4429999999999
 21
10.6112
 31
0.0
  0
LINE
  5
1A5
330
1E
100
AcDbEntity
  8
0
100
AcDbLine
 10
136.0
 20
44.8793
 30
0.0
 11
138.8
 21
45.0793
 31
0.0
  0
LINE
  5
1A6
330
1E
100
AcDbEntity
  8
0
100
AcDbLine
 10
138.8
 20
45.0793
 30
0.0
 11
141.5
 21
45.6293
 31
0.0
  0
LINE
  5
1A7
330
1E
100
AcDbEntity
  8
0
100
AcDbLine
 10
141.5
 20
45.6293
 30
0.0
 11
143.8
 21
46.4793
 31
0.0
  0
LINE
  5
1A8
330
1E
100
AcDbEntity
  8
0
100
AcDbLine
 10
133.1999999999999
 20
45.0793
 30
0.0
 11
136.0
 21
44.8793
 31
0.0
  0
LINE
  5
1A9
330
1E
100
AcDbEntity
  8
0
100
AcDbLine
 10
143.8
 20
46.4793
 30
0.0
 11
145.5
 21
47.62929999999999
 31
0.0
  0
LINE
  5
1AA
330
1E
100
AcDbEntity
  8
0
100
AcDbLine
 10
145.5
 20
47.62929999999999
 30
0.0
 11
146.6
 21
48.9793
 31
0.0
  0
LINE
  5
1AB
330
1E
100
AcDbEntity
  8
0
100
AcDbLine
 10
145.5
 20
47.62929999999999
 30
0.0
 11
147.3
 21
48.8613
 31
0.0
  0
LINE
  5
1AC
330
1E
100
AcDbEntity
  8
0
100
AcDbLine
 10
130.4999999999999
 20
45.6293
 30
0.0
 11
133.1999999999999
 21
45.0793
 31
0.0
  0
LINE
  5
1AD
330
1E
100
AcDbEntity
  8
0
100
AcDbLine
 10
128.1999999999999
 20
46.4793
 30
0.0
 11
130.4999999999999
 21
45.6293
 31
0.0
  0
LINE
  5
1AE
330
1E
100
AcDbEntity
  8
0
100
AcDbLine
 10
146.6
 20
51.77929999999999
 30
0.0
 11
147.0
 21
50.3793
 31
0.0
  0
LINE
  5
1AF
330
1E
100
AcDbEntity
  8
0
100
AcDbLine
 10
147.3
 20
48.8613
 30
0.0
 11
148.5
 21
50.41129999999999
 31
0.0
  0
LINE
  5
1B0
330
1E
100
AcDbEntity
  8
0
100
AcDbLine
 10
146.6
 20
48.9793
 30
0.0
 11
147.0
 21
50.3793
 31
0.0
  0
LINE
  5
1B1
330
1E
100
AcDbEntity
  8
0
100
AcDbLine
 10
126.5
 20
47.62929999999999
 30
0.0
 11
128.1999999999999
 21
46.4793
 31
0.0
  0
LINE
  5
1B2
330
1E
100
AcDbEntity
  8
0
100
AcDbLine
 10
125.4
 20
48.9793
 30
0.0
 11
126.5
 21
47.62929999999999
 31
0.0
  0
LINE
  5
1B3
330
1E
100
AcDbEntity
  8
0
100
AcDbLine
 10
143.8
 20
54.27929999999999
 30
0.0
 11
145.5
 21
53.1293
 31
0.0
  0
LINE
  5
1B4
330
1E
100
AcDbEntity
  8
0
100
AcDbLine
 10
145.5
 20
53.1293
 30
0.0
 11
146.6
 21
51.77929999999999
 31
0.0
  0
LINE
  5
1B5
330
1E
100
AcDbEntity
  8
0
100
AcDbLine
 10
129.4999999999999
 20
57.7613
 30
0.0
 11
132.6
 21
58.3613
 31
0.0
  0
LINE
  5
1B6
330
1E
100
AcDbEntity
  8
0
100
AcDbLine
 10
126.8
 20
56.7113
 30
0.0
 11
129.4999999999999
 21
57.7613
 31
0.0
  0
LINE
  5
1B7
330
1E
100
AcDbEntity
  8
0
100
AcDbLine
 10
138.8
 20
55.6793
 30
0.0
 11
141.5
 21
55.1293
 31
0.0
  0
LINE
  5
1B8
330
1E
100
AcDbEntity
  8
0
100
AcDbLine
 10
147.3
 20
55.36129999999999
 30
0.0
 11
148.5
 21
53.8113
 31
0.0
  0
LINE
  5
1B9
330
1E
100
AcDbEntity
  8
0
100
AcDbLine
 10
141.5
 20
55.1293
 30
0.0
 11
143.8
 21
54.27929999999999
 31
0.0
  0
LINE
  5
1BA
330
1E
100
AcDbEntity
  8
0
100
AcDbLine
 10
136.0
 20
58.6113
 30
0.0
 11
139.4
 21
58.3613
 31
0.0
  0
LINE
  5
1BB
330
1E
100
AcDbEntity
  8
0
100
AcDbLine
 10
139.4
 20
58.3613
 30
0.0
 11
142.5
 21
57.7613
 31
0.0
  0
LINE
  5
1BC
330
1E
100
AcDbEntity
  8
0
100
AcDbLine
 10
142.5
 20
57.7613
 30
0.0
 11
145.1999999999999
 21
56.7113
 31
0.0
  0
LINE
  5
1BD
330
1E
100
AcDbEntity
  8
0
100
AcDbLine
 10
145.1999999999999
 20
56.7113
 30
0.0
 11
147.3
 21
55.36129999999999
 31
0.0
  0
LINE
  5
1BE
330
1E
100
AcDbEntity
  8
0
100
AcDbLine
 10
136.0
 20
55.8793
 30
0.0
 11
138.8
 21
55.6793
 31
0.0
  0
LINE
  5
1BF
330
1E
100
AcDbEntity
  8
0
100
AcDbLine
 10
132.6
 20
58.3613
 30
0.0
 11
136.0
 21
58.6113
 31
0.0
  0
LINE
  5
1C0
330
1E
100
AcDbEntity
  8
0
100
AcDbLine
 10
133.1999999999999
 20
55.6793
 30
0.0
 11
136.0
 21
55.8793
 31
0.0
  0
LINE
  5
1C1
330
1E
100
AcDbEntity
  8
0
100
AcDbLine
 10
130.4999999999999
 20
55.1293
 30
0.0
 11
133.1999999999999
 21
55.6793
 31
0.0
  0
LINE
  5
1C2
330
1E
100
AcDbEntity
  8
0
100
AcDbLine
 10
128.1999999999999
 20
54.27929999999999
 30
0.0
 11
130.4999999999999
 21
55.1293
 31
0.0
  0
LINE
  5
1C3
330
1E
100
AcDbEntity
  8
0
100
AcDbLine
 10
126.5
 20
53.1293
 30
0.0
 11
128.1999999999999
 21
54.27929999999999
 31
0.0
  0
LINE
  5
1C4
330
1E
100
AcDbEntity
  8
0
100
AcDbLine
 10
125.4
 20
51.77929999999999
 30
0.0
 11
126.5
 21
53.1293
 31
0.0
  0
LINE
  5
1C5
330
1E
100
AcDbEntity
  8
0
100
AcDbLine
 10
125.0
 20
50.3793
 30
0.0
 11
125.4
 21
51.77929999999999
 31
0.0
  0
LINE
  5
1C6
330
1E
100
AcDbEntity
  8
0
100
AcDbLine
 10
125.0
 20
50.3793
 30
0.0
 11
125.4
 21
48.9793
 31
0.0
  0
LINE
  5
1C7
330
1E
100
AcDbEntity
  8
0
100
AcDbLine
 10
129.5081999999999
 20
10.6112
 30
0.0
 11
136.0
 21
10.6112
 31
0.0
  0
LINE
  5
1CA
330
1E
100
AcDbEntity
  8
0
100
AcDbLine
 10
148.4429999999999
 20
10.6112
 30
0.0
 11
153.6359999999999
 21
10.6112
 31
0.0
  0
LINE
  5
1CC
330
1E
100
AcDbEntity
  8
0
100
AcDbLine
 10
148.5
 20
50.41129999999999
 30
0.0
 11
149.0
 21
52.1113
 31
0.0
  0
LINE
  5
1CD
330
1E
100
AcDbEntity
  8
0
100
AcDbLine
 10
147.324615075377
 20
48.89309447236179
 30
0.0
 11
149.9
 21
50.577
 31
0.0
  0
LINE
  5
1CE
330
1E
100
AcDbEntity
  8
0
100
AcDbLine
 10
149.9
 20
50.577
 30
0.0
 11
151.4
 21
52.477
 31
0.0
  0
LINE
  5
1CF
330
1E
100
AcDbEntity
  8
0
100
AcDbLine
 10
149.9
 20
50.577
 30
0.0
 11
151.6
 21
51.777
 31
0.0
  0
LINE
  5
1D0
330
1E
100
AcDbEntity
  8
0
100
AcDbLine
 10
148.5
 20
53.8113
 30
0.0
 11
149.0
 21
52.1113
 31
0.0
  0
LINE
  5
1D2
330
1E
100
AcDbEntity
  8
0
100
AcDbLine
 10
151.4
 20
52.477
 30
0.0
 11
152.0
 21
54.57699999999999
 31
0.0
  0
LINE
  5
1D3
330
1E
100
AcDbEntity
  8
0
100
AcDbLine
 10
151.4
 20
56.577
 30
0.0
 11
152.0
 21
54.57699999999999
 31
0.0
  0
LINE
  5
1D4
330
1E
100
AcDbEntity
  8
0
100
AcDbLine
 10
149.9
 20
58.577
 30
0.0
 11
151.4
 21
56.577
 31
0.0
  0
LINE
  5
1D5
330
1E
100
AcDbEntity
  8
0
100
AcDbLine
 10
147.3
 20
60.177
 30
0.0
 11
149.9
 21
58.577
 31
0.0
  0
LINE
  5
1D6
330
1E
100
AcDbEntity
  8
0
100
AcDbLine
 10
144.0
 20
61.477
 30
0.0
 11
147.3
 21
60.177
 31
0.0
  0
LINE
  5
1D7
330
1E
100
AcDbEntity
  8
0
100
AcDbLine
 10
151.6
 20
60.777
 30
0.0
 11
153.3999999999999
 21
58.577
 31
0.0
  0
LINE
  5
1D8
330
1E
100
AcDbEntity
  8
0
100
AcDbLine
 10
152.4459999999999
 20
0.0599999999999863
 30
0.0
 11
159.37
 21
0.0599999999999866
 31
0.0
  0
LINE
  5
1D9
330
1E
100
AcDbEntity
  8
0
100
AcDbLine
 10
152.4459999999999
 20
0.0599999999999898
 30
0.0
 11
159.37
 21
0.0599999999999895
 31
0.0
  0
LINE
  5
1DA
330
1E
100
AcDbEntity
  8
0
100
AcDbLine
 10
153.6359999999999
 20
10.6112
 30
0.0
 11
157.639
 21
10.6112
 31
0.0
  0
LINE
  5
1DF
330
1E
100
AcDbEntity
  8
0
100
AcDbLine
 10
110.3574
 20
7.09414999999999
 30
0.0
 11
159.046
 21
7.09414999999999
 31
0.0
  0
LINE
  5
1E0
330
1E
100
AcDbEntity
  8
0
100
AcDbLine
 10
159.37
 20
0.0599999999999866
 30
0.0
 11
164.672
 21
0.0599999999999871
 31
0.0
  0
LINE
  5
1E1
330
1E
100
AcDbEntity
  8
0
100
AcDbLine
 10
159.37
 20
0.0599999999999895
 30
0.0
 11
164.672
 21
0.0599999999999891
 31
0.0
  0
LINE
  5
1E2
330
1E
100
AcDbEntity
  8
0
100
AcDbLine
 10
159.046
 20
7.09414999999999
 30
0.0
 11
161.643
 21
7.09414999999999
 31
0.0
  0
LINE
  5
1E3
330
1E
100
AcDbEntity
  8
0
100
AcDbLine
 10
157.639
 20
10.6112
 30
0.0
 11
160.02
 21
10.6112
 31
0.0
  0
LINE
  5
1E4
330
1E
100
AcDbEntity
  8
0
100
AcDbLine
 10
164.672
 20
0.0599999999999871
 30
0.0
 11
167.918
 21
0.0599999999999876
 31
0.0
  0
LINE
  5
1E5
330
1E
100
AcDbEntity
  8
0
100
AcDbLine
 10
164.672
 20
0.0599999999999891
 30
0.0
 11
167.918
 21
0.0599999999999886
 31
0.0
  0
LINE
  5
1F7
330
1E
100
AcDbEntity
  8
0
100
AcDbLine
 10
167.918
 20
0.0599999999999876
 30
0.0
 11
169.0
 21
0.0599999999999881
 31
0.0
  0
LINE
  5
206
330
1E
100
AcDbEntity
  8
0
100
AcDbLine
 10
167.918
 20
0.0599999999999886
 30
0.0
 11
169.0
 21
0.0599999999999881
 31
0.0
  0
LINE
  5
207
330
1E
100
AcDbEntity
  8
0
100
AcDbLine
 10
167.377
 20
3.07462999999999
 30
0.0
 11
169.0
 21
0.0599999999999881
 31
0.0
  0
LINE
  5
208
330
1E
100
AcDbEntity
  8
0
100
AcDbLine
 10
167.377
 20
3.07462999999999
 30
0.0
 11
169.0
 21
0.0599999999999878
 31
0.0
  0
LINE
  5
209
330
1E
100
AcDbEntity
  8
0
100
AcDbLine
 10
160.8849999999999
 20
7.09414999999999
 30
0.0
 11
161.967
 21
8.09901999999999
 31
0.0
  0
LINE
  5
20A
330
1E
100
AcDbEntity
  8
0
100
AcDbLine
 10
160.8849999999999
 20
10.6112
 30
0.0
 11
161.967
 21
9.60633999999999
 31
0.0
  0
LINE
  5
20B
330
1E
100
AcDbEntity
  8
0
100
AcDbLine
 10
161.967
 20
9.60633999999999
 30
0.0
 11
161.967
 21
8.09901999999999
 31
0.0
  0
LINE
  5
20E
330
1E
100
AcDbEntity
  8
0
100
AcDbLine
 10
161.967
 20
8.09901999999999
 30
0.0
 11
161.967
 21
9.60633999999999
 31
0.0
  0
LINE
  5
20F
330
1E
100
AcDbEntity
  8
0
100
AcDbLine
 10
161.643
 20
7.09414999999999
 30
0.0
 11
162.5079999999999
 21
7.09414999999999
 31
0.0
  0
LINE
  5
24A
330
1E
100
AcDbEntity
  8
0
100
AcDbLine
 10
162.5079999999999
 20
7.09414999999999
 30
0.0
 11
165.2129999999999
 21
5.58682999999999
 31
0.0
  0
LINE
  5
24B
330
1E
100
AcDbEntity
  8
0
100
AcDbLine
 10
165.2129999999999
 20
5.58682999999999
 30
0.0
 11
167.377
 21
3.07462999999999
 31
0.0
  0
LINE
  5
24C
330
1E
100
AcDbEntity
  8
0
100
AcDbLine
 10
160.02
 20
10.6112
 30
0.0
 11
160.8849999999999
 21
10.6112
 31
0.0
  0
LINE
  5
2B8
330
1E
100
AcDbEntity
  8
0
100
AcDbLine
 10
159.803
 20
10.6112
 30
0.0
 11
159.803
 21
55.3771
 31
0.0
  0
LINE
  5
2BA
330
1E
100
AcDbEntity
  8
0
100
AcDbLine
 10
153.3999999999999
 20
58.577
 30
0.0
 11
154.0
 21
56.277
 31
0.0
  0
LINE
  5
2BB
330
1E
100
AcDbEntity
  8
0
100
AcDbLine
 10
154.0
 20
56.277
 30
0.0
 11
154.0
 21
60.2616
 31
0.0
  0
LINE
  5
312
330
1E
100
AcDbEntity
  8
0
100
AcDbLine
 10
158.938
 20
61.00439999999999
 30
0.0
 11
159.803
 21
55.3771
 31
0.0
  0
LINE
  5
313
330
1E
100
AcDbEntity
  8
0
100
AcDbLine
 10
159.803
 20
55.3771
 30
0.0
 11
159.803
 21
10.6112
 31
0.0
  0
LINE
  5
314
330
1E
100
AcDbEntity
  8
0
100
AcDbLine
 10
154.0
 20
60.2616
 30
0.0
 11
154.0
 21
56.277
 31
0.0
  0
LINE
  5
315
330
1E
100
AcDbEntity
  8
0
100
AcDbLine
 10
154.0
 20
60.2616
 30
0.0
 11
154.0
 21
66.85819999999999
 31
0.0
  0
LINE
  5
316
330
1E
100
AcDbEntity
  8
0
100
AcDbLine
 10
153.3999999999999
 20
54.077
 30
0.0
 11
154.0
 21
56.277
 31
0.0
  0
LINE
  5
317
330
1E
100
AcDbEntity
  8
0
100
AcDbLine
 10
151.6
 20
51.777
 30
0.0
 11
153.3999999999999
 21
54.077
 31
0.0
  0
LINE
  5
318
330
1E
100
AcDbEntity
  8
0
100
AcDbLine
 10
140.0999999999999
 20
62.277
 30
0.0
 11
144.0
 21
61.477
 31
0.0
  0
LINE
  5
319
330
1E
100
AcDbEntity
  8
0
100
AcDbLine
 10
136.0
 20
62.57699999999999
 30
0.0
 11
140.0999999999999
 21
62.277
 31
0.0
  0
LINE
  5
31A
330
1E
100
AcDbEntity
  8
0
100
AcDbLine
 10
148.6999999999999
 20
62.677
 30
0.0
 11
151.6
 21
60.777
 31
0.0
  0
LINE
  5
31B
330
1E
100
AcDbEntity
  8
0
100
AcDbLine
 10
131.9
 20
62.277
 30
0.0
 11
136.0
 21
62.57699999999999
 31
0.0
  0
LINE
  5
31C
330
1E
100
AcDbEntity
  8
0
100
AcDbLine
 10
128.0
 20
61.477
 30
0.0
 11
131.9
 21
62.277
 31
0.0
  0
LINE
  5
31D
330
1E
100
AcDbEntity
  8
0
100
AcDbLine
 10
124.7
 20
60.177
 30
0.0
 11
128.0
 21
61.477
 31
0.0
  0
LINE
  5
31E
330
1E
100
AcDbEntity
  8
0
100
AcDbLine
 10
127.0
 20
92.66
 30
0.0
 11
131.3
 21
94.35999999999999
 31
0.0
  0
LINE
  5
31F
330
1E
100
AcDbEntity
  8
0
100
AcDbLine
 10
123.3
 20
89.76
 30
0.0
 11
127.0
 21
92.66
 31
0.0
  0
LINE
  5
320
330
1E
100
AcDbEntity
  8
0
100
AcDbLine
 10
140.6999999999999
 20
64.977
 30
0.0
 11
145.0
 21
64.077
 31
0.0
  0
LINE
  5
325
330
1E
100
AcDbEntity
  8
0
100
AcDbLine
 10
145.0
 20
64.077
 30
0.0
 11
148.6999999999999
 21
62.677
 31
0.0
  0
LINE
  5
327
330
1E
100
AcDbEntity
  8
0
100
AcDbLine
 10
154.0
 20
69.45215787110409
 30
0.0
 11
156.557
 21
66.33020000000001
 31
0.0
  0
LINE
  5
328
330
1E
100
AcDbEntity
  8
0
100
AcDbLine
 10
154.0
 20
77.06
 30
0.0
 11
154.0
 21
75.3322
 31
0.0
  0
LINE
  5
329
330
1E
100
AcDbEntity
  8
0
100
AcDbLine
 10
136.0
 20
95.06
 30
0.0
 11
140.6999999999999
 21
94.35999999999999
 31
0.0
  0
LINE
  5
32A
330
1E
100
AcDbEntity
  8
0
100
AcDbLine
 10
140.6999999999999
 20
94.35999999999999
 30
0.0
 11
145.0
 21
92.66
 31
0.0
  0
LINE
  5
32B
330
1E
100
AcDbEntity
  8
0
100
AcDbLine
 10
145.0
 20
92.66
 30
0.0
 11
148.6999999999999
 21
89.76
 31
0.0
  0
LINE
  5
32C
330
1E
100
AcDbEntity
  8
0
100
AcDbLine
 10
148.6999999999999
 20
89.76
 30
0.0
 11
151.6
 21
86.05999999999999
 31
0.0
  0
LINE
  5
32D
330
1E
100
AcDbEntity
  8
0
100
AcDbLine
 10
151.6
 20
86.05999999999999
 30
0.0
 11
153.3999999999999
 21
81.66
 31
0.0
  0
LINE
  5
32E
330
1E
100
AcDbEntity
  8
0
100
AcDbLine
 10
153.3999999999999
 20
81.66
 30
0.0
 11
154.0
 21
77.06
 31
0.0
  0
LINE
  5
32F
330
1E
100
AcDbEntity
  8
0
100
AcDbLine
 10
154.0
 20
75.3322
 30
0.0
 11
154.0
 21
71.81529999999999
 31
0.0
  0
LINE
  5
330
330
1E
100
AcDbEntity
  8
0
100
AcDbLine
 10
154.0
 20
75.3322
 30
0.0
 11
154.0
 21
77.06
 31
0.0
  0
LINE
  5
331
330
1E
100
AcDbEntity
  8
0
100
AcDbLine
 10
154.0
 20
71.81529999999999
 30
0.0
 11
154.0
 21
66.85819999999999
 31
0.0
  0
LINE
  5
332
330
1E
100
AcDbEntity
  8
0
100
AcDbLine
 10
154.0
 20
71.81529999999999
 30
0.0
 11
154.0
 21
75.3322
 31
0.0
  0
LINE
  5
333
330
1E
100
AcDbEntity
  8
0
100
AcDbLine
 10
298.0
 20
128.6599999999999
 30
0.0
 11
301.3999999999999
 21
130.8239999999999
 31
0.0
  0
LINE
  5
334
330
1E
100
AcDbEntity
  8
0
100
AcDbLine
 10
298.0
 20
124.6739999999999
 30
0.0
 11
298.0
 21
129.4299999999999
 31
0.0
  0
LINE
  5
335
330
1E
100
AcDbEntity
  8
0
100
AcDbLine
 10
298.0
 20
124.6739999999999
 30
0.0
 11
298.0
 21
120.6879999999999
 31
0.0
  0
LINE
  5
336
330
1E
100
AcDbEntity
  8
0
100
AcDbLine
 10
298.0
 20
120.6879999999999
 30
0.0
 11
298.0
 21
124.6739999999999
 31
0.0
  0
LINE
  5
337
330
1E
100
AcDbEntity
  8
0
100
AcDbLine
 10
298.0
 20
120.6879999999999
 30
0.0
 11
300.3
 21
116.952
 31
0.0
  0
LINE
  5
338
330
1E
100
AcDbEntity
  8
0
100
AcDbLine
 10
156.557
 20
66.33020000000001
 30
0.0
 11
158.938
 21
61.00439999999999
 31
0.0
  0
LINE
  5
339
330
1E
100
AcDbEntity
  8
0
100
AcDbLine
 10
154.0
 20
66.85819999999999
 30
0.0
 11
154.0
 21
60.2616
 31
0.0
  0
LINE
  5
33A
330
1E
100
AcDbEntity
  8
0
100
AcDbLine
 10
154.0
 20
66.85819999999999
 30
0.0
 11
154.0
 21
71.81529999999999
 31
0.0
  0
LINE
  5
33B
330
1E
100
AcDbEntity
  8
0
100
AcDbLine
 10
136.0
 20
65.277
 30
0.0
 11
140.6999999999999
 21
64.977
 31
0.0
  0
LINE
  5
33C
330
1E
100
AcDbEntity
  8
0
100
AcDbLine
 10
131.3
 20
94.35999999999999
 30
0.0
 11
136.0
 21
95.06
 31
0.0
  0
LINE
  5
33D
330
1E
100
AcDbEntity
  8
0
100
AcDbLine
 10
131.3
 20
64.977
 30
0.0
 11
136.0
 21
65.277
 31
0.0
  0
LINE
  5
33E
330
1E
100
AcDbEntity
  8
0
100
AcDbLine
 10
127.0
 20
64.077
 30
0.0
 11
131.3
 21
64.977
 31
0.0
  0
LINE
  5
33F
330
1E
100
AcDbEntity
  8
0
100
AcDbLine
 10
123.3
 20
62.677
 30
0.0
 11
127.0
 21
64.077
 31
0.0
  0
LINE
  5
340
330
1E
100
AcDbEntity
  8
0
100
AcDbLine
 10
122.0999999999999
 20
50.577
 30
0.0
 11
124.675384924623
 21
48.89309447236179
 31
0.0
  0
LINE
  5
341
330
1E
100
AcDbEntity
  8
0
100
AcDbLine
 10
298.0
 20
129.4299999999999
 30
0.0
 11
299.3999999999999
 21
132.458
 31
0.0
  0
LINE
  5
342
330
1E
100
AcDbEntity
  8
0
100
AcDbLine
 10
298.0
 20
129.4299999999999
 30
0.0
 11
298.0
 21
124.6739999999999
 31
0.0
  0
LINE
  5
343
330
1E
100
AcDbEntity
  8
0
100
AcDbLine
 10
304.752
 20
0.059999999999987
 30
0.0
 11
310.5119999999999
 21
0.0599999999999865
 31
0.0
  0
LINE
  5
344
330
1E
100
AcDbEntity
  8
0
100
AcDbLine
 10
301.296
 20
0.0599999999999875
 30
0.0
 11
304.752
 21
0.059999999999987
 31
0.0
  0
LINE
  5
345
330
1E
100
AcDbEntity
  8
0
100
AcDbLine
 10
304.752
 20
0.0599999999999892
 30
0.0
 11
310.5119999999999
 21
0.0599999999999896
 31
0.0
  0
LINE
  5
346
330
1E
100
AcDbEntity
  8
0
100
AcDbLine
 10
301.296
 20
0.0599999999999886
 30
0.0
 11
304.752
 21
0.0599999999999892
 31
0.0
  0
LINE
  5
347
330
1E
100
AcDbEntity
  8
0
100
AcDbLine
 10
300.0
 20
0.0599999999999881
 30
0.0
 11
301.296
 21
0.0599999999999886
 31
0.0
  0
LINE
  5
348
330
1E
100
AcDbEntity
  8
0
100
AcDbLine
 10
300.0
 20
0.0599999999999881
 30
0.0
 11
301.296
 21
0.0599999999999875
 31
0.0
  0
LINE
  5
349
330
1E
100
AcDbEntity
  8
0
100
AcDbLine
 10
300.0
 20
0.0599999999999881
 30
0.0
 11
300.0
 21
1.05999999999999
 31
0.0
  0
LINE
  5
34A
330
1E
100
AcDbEntity
  8
0
100
AcDbLine
 10
310.5119999999999
 20
0.0599999999999865
 30
0.0
 11
318.144
 21
0.0599999999999862
 31
0.0
  0
LINE
  5
34B
330
1E
100
AcDbEntity
  8
0
100
AcDbLine
 10
310.5119999999999
 20
0.0599999999999896
 30
0.0
 11
318.144
 21
0.05999999999999
 31
0.0
  0
LINE
  5
34C
330
1E
100
AcDbEntity
  8
0
100
AcDbLine
 10
300.0
 20
1.05999999999999
 30
0.0
 11
300.0
 21
0.0599999999999881
 31
0.0
  0
LINE
  5
34D
330
1E
100
AcDbEntity
  8
0
100
AcDbLine
 10
300.0
 20
1.05999999999999
 30
0.0
 11
301.296
 21
1.05999999999999
 31
0.0
  0
LINE
  5
34E
330
1E
100
AcDbEntity
  8
0
100
AcDbLine
 10
301.0
 20
1.05999999999999
 30
0.0
 11
301.0
 21
9.059999999999989
 31
0.0
  0
LINE
  5
34F
330
1E
100
AcDbEntity
  8
0
100
AcDbLine
 10
301.296
 20
1.05999999999999
 30
0.0
 11
304.752
 21
1.05999999999999
 31
0.0
  0
LINE
  5
350
330
1E
100
AcDbEntity
  8
0
100
AcDbLine
 10
310.5119999999999
 20
1.05999999999999
 30
0.0
 11
318.144
 21
1.05999999999999
 31
0.0
  0
LINE
  5
351
330
1E
100
AcDbEntity
  8
0
100
AcDbLine
 10
304.752
 20
1.05999999999999
 30
0.0
 11
310.5119999999999
 21
1.05999999999999
 31
0.0
  0
LINE
  5
352
330
1E
100
AcDbEntity
  8
0
100
AcDbLine
 10
304.1999999999999
 20
11.06
 30
0.0
 11
307.3999999999999
 21
11.06
 31
0.0
  0
LINE
  5
353
330
1E
100
AcDbEntity
  8
0
100
AcDbLine
 10
303.0
 20
11.06
 30
0.0
 11
304.1999999999999
 21
11.06
 31
0.0
  0
LINE
  5
354
330
1E
100
AcDbEntity
  8
0
100
AcDbLine
 10
305.6999999999999
 20
9.059999999999989
 30
0.0
 11
311.2999999999999
 21
9.059999999999989
 31
0.0
  0
LINE
  5
355
330
1E
100
AcDbEntity
  8
0
100
AcDbLine
 10
302.3
 20
9.059999999999989
 30
0.0
 11
305.6999999999999
 21
9.059999999999989
 31
0.0
  0
LINE
  5
356
330
1E
100
AcDbEntity
  8
0
100
AcDbLine
 10
311.0
 20
16.05999999999999
 30
0.0
 11
317.0
 21
22.05999999999999
 31
0.0
  0
LINE
  5
357
330
1E
100
AcDbEntity
  8
0
100
AcDbLine
 10
309.0
 20
11.06
 30
0.0
 11
311.0
 21
16.05999999999999
 31
0.0
  0
LINE
  5
358
330
1E
100
AcDbEntity
  8
0
100
AcDbLine
 10
307.3999999999999
 20
11.06
 30
0.0
 11
312.6999999999999
 21
11.06
 31
0.0
  0
LINE
  5
359
330
1E
100
AcDbEntity
  8
0
100
AcDbLine
 10
311.2999999999999
 20
9.059999999999989
 30
0.0
 11
318.6
 21
9.059999999999989
 31
0.0
  0
LINE
  5
35A
330
1E
100
AcDbEntity
  8
0
100
AcDbLine
 10
301.0
 20
9.059999999999989
 30
0.0
 11
301.0
 21
1.05999999999999
 31
0.0
  0
LINE
  5
35B
330
1E
100
AcDbEntity
  8
0
100
AcDbLine
 10
301.0
 20
9.059999999999989
 30
0.0
 11
303.0
 21
11.06
 31
0.0
  0
LINE
  5
35C
330
1E
100
AcDbEntity
  8
0
100
AcDbLine
 10
301.0
 20
9.059999999999989
 30
0.0
 11
302.3
 21
9.059999999999989
 31
0.0
  0
LINE
  5
35D
330
1E
100
AcDbEntity
  8
0
100
AcDbLine
 10
318.144
 20
0.0599999999999862
 30
0.0
 11
326.784
 21
0.0599999999999859
 31
0.0
  0
LINE
  5
35E
330
1E
100
AcDbEntity
  8
0
100
AcDbLine
 10
318.144
 20
0.05999999999999
 30
0.0
 11
326.784
 21
0.0599999999999902
 31
0.0
  0
LINE
  5
35F
330
1E
100
AcDbEntity
  8
0
100
AcDbLine
 10
318.144
 20
1.05999999999999
 30
0.0
 11
326.784
 21
1.05999999999999
 31
0.0
  0
LINE
  5
360
330
1E
100
AcDbEntity
  8
0
100
AcDbLine
 10
317.0
 20
22.05999999999999
 30
0.0
 11
324.0
 21
24.6209756097561
 31
0.0
  0
LINE
  5
361
330
1E
100
AcDbEntity
  8
0
100
AcDbLine
 10
312.6999999999999
 20
11.06
 30
0.0
 11
319.6
 21
11.06
 31
0.0
  0
LINE
  5
362
330
1E
100
AcDbEntity
  8
0
100
AcDbLine
 10
324.0
 20
48.2518
 30
0.0
 11
324.3999999999999
 21
46.71289999999999
 31
0.0
  0
LINE
  5
363
330
1E
100
AcDbEntity
  8
0
100
AcDbLine
 10
324.0
 20
48.2518
 30
0.0
 11
324.0
 21
49.0852
 31
0.0
  0
LINE
  5
365
330
1E
100
AcDbEntity
  8
0
100
AcDbLine
 10
324.0
 20
49.0852
 30
0.0
 11
324.3999999999999
 21
47.5034
 31
0.0
  0
LINE
  5
366
330
1E
100
AcDbEntity
  8
0
100
AcDbLine
 10
324.0
 20
49.0852
 30
0.0
 11
324.3999999999999
 21
50.5325
 31
0.0
  0
LINE
  5
367
330
1E
100
AcDbEntity
  8
0
100
AcDbLine
 10
324.0
 20
49.0852
 30
0.0
 11
324.0
 21
48.2518
 31
0.0
  0
LINE
  5
368
330
1E
100
AcDbEntity
  8
0
100
AcDbLine
 10
324.0
 20
48.36
 30
0.0
 11
324.0
 21
22.26
 31
0.0
  0
LINE
  5
369
330
1E
100
AcDbEntity
  8
0
100
AcDbLine
 10
324.0
 20
22.26
 30
0.0
 11
324.3999999999999
 21
20.76
 31
0.0
  0
LINE
  5
36A
330
1E
100
AcDbEntity
  8
0
100
AcDbLine
 10
324.0
 20
22.26
 30
0.0
 11
324.0
 21
48.36
 31
0.0
  0
LINE
  5
36B
330
1E
100
AcDbEntity
  8
0
100
AcDbLine
 10
319.6
 20
11.06
 30
0.0
 11
327.4999999999999
 21
11.06
 31
0.0
  0
LINE
  5
36C
330
1E
100
AcDbEntity
  8
0
100
AcDbLine
 10
318.6
 20
9.059999999999989
 30
0.0
 11
327.0
 21
9.059999999999989
 31
0.0
  0
LINE
  5
36D
330
1E
100
AcDbEntity
  8
0
100
AcDbLine
 10
326.784
 20
0.0599999999999859
 30
0.0
 11
336.0
 21
0.0599999999999859
 31
0.0
  0
LINE
  5
36E
330
1E
100
AcDbEntity
  8
0
100
AcDbLine
 10
326.784
 20
0.0599999999999902
 30
0.0
 11
336.0
 21
0.0599999999999903
 31
0.0
  0
LINE
  5
36F
330
1E
100
AcDbEntity
  8
0
100
AcDbLine
 10
326.784
 20
1.05999999999999
 30
0.0
 11
336.0
 21
1.05999999999999
 31
0.0
  0
LINE
  5
370
330
1E
100
AcDbEntity
  8
0
100
AcDbLine
 10
324.3999999999999
 20
46.71289999999999
 30
0.0
 11
325.6
 21
45.4048
 31
0.0
  0
LINE
  5
371
330
1E
100
AcDbEntity
  8
0
100
AcDbLine
 10
324.3999999999999
 20
47.5034
 30
0.0
 11
325.6
 21
46.1953
 31
0.0
  0
LINE
  5
372
330
1E
100
AcDbEntity
  8
0
100
AcDbLine
 10
324.3999999999999
 20
50.5325
 30
0.0
 11
325.0
 21
51.23235
 31
0.0
  0
LINE
  5
373
330
1E
100
AcDbEntity
  8
0
100
AcDbLine
 10
324.0938625027109
 20
47.8906874864455
 30
0.0
 11
324.3999999999999
 21
46.36
 31
0.0
  0
LINE
  5
374
330
1E
100
AcDbEntity
  8
0
100
AcDbLine
 10
325.0
 20
49.8747
 30
0.0
 11
325.0
 21
51.6544
 31
0.0
  0
LINE
  5
375
330
1E
100
AcDbEntity
  8
0
100
AcDbLine
 10
325.6
 20
45.4048
 30
0.0
 11
327.4999999999999
 21
44.1929
 31
0.0
  0
LINE
  5
376
330
1E
100
AcDbEntity
  8
0
100
AcDbLine
 10
325.6
 20
46.1953
 30
0.0
 11
327.4999999999999
 21
45.02519999999999
 31
0.0
  0
LINE
  5
377
330
1E
100
AcDbEntity
  8
0
100
AcDbLine
 10
324.8
 20
56.56539999999999
 30
0.0
 11
324.8
 21
62.2652
 31
0.0
  0
LINE
  5
378
330
1E
100
AcDbEntity
  8
0
100
AcDbLine
 10
324.8
 20
56.56539999999999
 30
0.0
 11
325.0
 21
51.6544
 31
0.0
  0
LINE
  5
379
330
1E
100
AcDbEntity
  8
0
100
AcDbLine
 10
325.0
 20
51.6544
 30
0.0
 11
325.0
 21
49.8747
 31
0.0
  0
LINE
  5
37A
330
1E
100
AcDbEntity
  8
0
100
AcDbLine
 10
324.8
 20
62.2652
 30
0.0
 11
325.0
 21
67.74550000000001
 31
0.0
  0
LINE
  5
37B
330
1E
100
AcDbEntity
  8
0
100
AcDbLine
 10
324.8
 20
62.2652
 30
0.0
 11
324.8
 21
56.56539999999999
 31
0.0
  0
LINE
  5
37C
330
1E
100
AcDbEntity
  8
0
100
AcDbLine
 10
325.0
 20
67.74550000000001
 30
0.0
 11
325.1999999999999
 21
73.7466
 31
0.0
  0
LINE
  5
37D
330
1E
100
AcDbEntity
  8
0
100
AcDbLine
 10
325.1999999999999
 20
73.7466
 30
0.0
 11
325.7
 21
80.2665
 31
0.0
  0
LINE
  5
37E
330
1E
100
AcDbEntity
  8
0
100
AcDbLine
 10
324.9171121658759
 20
51.1356682488134
 30
0.0
 11
325.0
 21
51.26
 31
0.0
  0
LINE
  5
37F
330
1E
100
AcDbEntity
  8
0
100
AcDbLine
 10
324.3999999999999
 20
46.36
 30
0.0
 11
325.6
 21
44.46
 31
0.0
  0
LINE
  5
380
330
1E
100
AcDbEntity
  8
0
100
AcDbLine
 10
324.3999999999999
 20
20.76
 30
0.0
 11
325.6
 21
19.35999999999999
 31
0.0
  0
LINE
  5
381
330
1E
100
AcDbEntity
  8
0
100
AcDbLine
 10
325.7
 20
80.2665
 30
0.0
 11
326.3
 21
87.03459999999999
 31
0.0
  0
LINE
  5
382
330
1E
100
AcDbEntity
  8
0
100
AcDbLine
 10
326.3
 20
87.03459999999999
 30
0.0
 11
327.0
 21
93.1564
 31
0.0
  0
LINE
  5
383
330
1E
100
AcDbEntity
  8
0
100
AcDbLine
 10
327.0
 20
93.1564
 30
0.0
 11
327.4999999999999
 21
100.065
 31
0.0
  0
LINE
  5
385
330
1E
100
AcDbEntity
  8
0
100
AcDbLine
 10
325.6
 20
44.46
 30
0.0
 11
327.4999999999999
 21
42.86
 31
0.0
  0
LINE
  5
386
330
1E
100
AcDbEntity
  8
0
100
AcDbLine
 10
325.6
 20
19.35999999999999
 30
0.0
 11
327.4999999999999
 21
18.16
 31
0.0
  0
LINE
  5
387
330
1E
100
AcDbEntity
  8
0
100
AcDbLine
 10
327.4999999999999
 20
18.16
 30
0.0
 11
330.0
 21
17.26
 31
0.0
  0
LINE
  5
388
330
1E
100
AcDbEntity
  8
0
100
AcDbLine
 10
327.4999999999999
 20
44.1929
 30
0.0
 11
330.0
 21
43.2595
 31
0.0
  0
LINE
  5
389
330
1E
100
AcDbEntity
  8
0
100
AcDbLine
 10
327.4999999999999
 20
100.065
 30
0.0
 11
327.842270366399
 21
104.3960892164079
 31
0.0
  0
LINE
  5
38A
330
1E
100
AcDbEntity
  8
0
100
AcDbLine
 10
327.4999999999999
 20
45.02519999999999
 30
0.0
 11
330.0
 21
44.0918
 31
0.0
  0
LINE
  5
38C
330
1E
100
AcDbEntity
  8
0
100
AcDbLine
 10
330.0
 20
43.2595
 30
0.0
 11
332.8999999999999
 21
42.65399999999999
 31
0.0
  0
LINE
  5
38D
330
1E
100
AcDbEntity
  8
0
100
AcDbLine
 10
330.0
 20
44.0918
 30
0.0
 11
332.8999999999999
 21
43.4864
 31
0.0
  0
LINE
  5
38E
330
1E
100
AcDbEntity
  8
0
100
AcDbLine
 10
327.4999999999999
 20
42.86
 30
0.0
 11
330.0
 21
41.65999999999999
 31
0.0
  0
LINE
  5
38F
330
1E
100
AcDbEntity
  8
0
100
AcDbLine
 10
330.0
 20
41.65999999999999
 30
0.0
 11
332.8999999999999
 21
40.96
 31
0.0
  0
LINE
  5
391
330
1E
100
AcDbEntity
  8
0
100
AcDbLine
 10
330.0
 20
17.26
 30
0.0
 11
332.8999999999999
 21
16.66
 31
0.0
  0
LINE
  5
392
330
1E
100
AcDbEntity
  8
0
100
AcDbLine
 10
327.4999999999999
 20
11.06
 30
0.0
 11
336.0
 21
11.06
 31
0.0
  0
LINE
  5
393
330
1E
100
AcDbEntity
  8
0
100
AcDbLine
 10
327.0
 20
9.059999999999989
 30
0.0
 11
336.0
 21
9.059999999999989
 31
0.0
  0
LINE
  5
394
330
1E
100
AcDbEntity
  8
0
100
AcDbLine
 10
336.0
 20
0.0599999999999859
 30
0.0
 11
345.216
 21
0.0599999999999859
 31
0.0
  0
LINE
  5
395
330
1E
100
AcDbEntity
  8
0
100
AcDbLine
 10
336.0
 20
1.05999999999999
 30
0.0
 11
345.216
 21
1.05999999999999
 31
0.0
  0
LINE
  5
396
330
1E
100
AcDbEntity
  8
0
100
AcDbLine
 10
336.0
 20
0.0599999999999903
 30
0.0
 11
345.216
 21
0.0599999999999902
 31
0.0
  0
LINE
  5
397
330
1E
100
AcDbEntity
  8
0
100
AcDbLine
 10
336.0
 20
16.46
 30
0.0
 11
339.1
 21
16.66
 31
0.0
  0
LINE
  5
398
330
1E
100
AcDbEntity
  8
0
100
AcDbLine
 10
332.8999999999999
 20
42.65399999999999
 30
0.0
 11
336.0
 21
42.4662
 31
0.0
  0
LINE
  5
399
330
1E
100
AcDbEntity
  8
0
100
AcDbLine
 10
332.8999999999999
 20
43.4864
 30
0.0
 11
336.0
 21
43.2567
 31
0.0
  0
LINE
  5
39D
330
1E
100
AcDbEntity
  8
0
100
AcDbLine
 10
336.0
 20
42.4662
 30
0.0
 11
339.1
 21
42.65399999999999
 31
0.0
  0
LINE
  5
3A0
330
1E
100
AcDbEntity
  8
0
100
AcDbLine
 10
336.0
 20
43.2567
 30
0.0
 11
339.1
 21
43.4864
 31
0.0
  0
LINE
  5
3A1
330
1E
100
AcDbEntity
  8
0
100
AcDbLine
 10
336.0
 20
40.65999999999999
 30
0.0
 11
339.1
 21
40.96
 31
0.0
  0
LINE
  5
3A2
330
1E
100
AcDbEntity
  8
0
100
AcDbLine
 10
332.8999999999999
 20
40.96
 30
0.0
 11
336.0
 21
40.65999999999999
 31
0.0
  0
LINE
  5
3A3
330
1E
100
AcDbEntity
  8
0
100
AcDbLine
 10
332.8999999999999
 20
16.66
 30
0.0
 11
336.0
 21
16.46
 31
0.0
  0
LINE
  5
3A4
330
1E
100
AcDbEntity
  8
0
100
AcDbLine
 10
336.0
 20
11.06
 30
0.0
 11
344.5
 21
11.06
 31
0.0
  0
LINE
  5
3A5
330
1E
100
AcDbEntity
  8
0
100
AcDbLine
 10
336.0
 20
9.059999999999989
 30
0.0
 11
345.0
 21
9.059999999999989
 31
0.0
  0
LINE
  5
3A7
330
1E
100
AcDbEntity
  8
0
100
AcDbLine
 10
339.1
 20
42.65399999999999
 30
0.0
 11
342.0
 21
43.2595
 31
0.0
  0
LINE
  5
3A8
330
1E
100
AcDbEntity
  8
0
100
AcDbLine
 10
339.1
 20
43.4864
 30
0.0
 11
342.0
 21
44.0918
 31
0.0
  0
LINE
  5
3A9
330
1E
100
AcDbEntity
  8
0
100
AcDbLine
 10
339.1
 20
40.96
 30
0.0
 11
342.0
 21
41.65999999999999
 31
0.0
  0
LINE
  5
3AA
330
1E
100
AcDbEntity
  8
0
100
AcDbLine
 10
339.1
 20
16.66
 30
0.0
 11
342.0
 21
17.26
 31
0.0
  0
LINE
  5
3AB
330
1E
100
AcDbEntity
  8
0
100
AcDbLine
 10
336.0
 20
103.7279999999999
 30
0.0
 11
340.3999999999999
 21
103.9139999999999
 31
0.0
  0
LINE
  5
3AD
330
1E
100
AcDbEntity
  8
0
100
AcDbLine
 10
345.216
 20
0.0599999999999859
 30
0.0
 11
353.8559999999999
 21
0.0599999999999862
 31
0.0
  0
LINE
  5
3AE
330
1E
100
AcDbEntity
  8
0
100
AcDbLine
 10
345.216
 20
0.0599999999999902
 30
0.0
 11
353.8559999999999
 21
0.05999999999999
 31
0.0
  0
LINE
  5
3AF
330
1E
100
AcDbEntity
  8
0
100
AcDbLine
 10
353.8559999999999
 20
0.0599999999999862
 30
0.0
 11
361.488
 21
0.0599999999999865
 31
0.0
  0
LINE
  5
3B0
330
1E
100
AcDbEntity
  8
0
100
AcDbLine
 10
361.488
 20
0.0599999999999865
 30
0.0
 11
367.248
 21
0.059999999999987
 31
0.0
  0
LINE
  5
3B1
330
1E
100
AcDbEntity
  8
0
100
AcDbLine
 10
367.248
 20
0.059999999999987
 30
0.0
 11
370.704
 21
0.0599999999999875
 31
0.0
  0
LINE
  5
3B2
330
1E
100
AcDbEntity
  8
0
100
AcDbLine
 10
370.704
 20
0.0599999999999875
 30
0.0
 11
372.0
 21
0.0599999999999881
 31
0.0
  0
LINE
  5
3B3
330
1E
100
AcDbEntity
  8
0
100
AcDbLine
 10
372.0
 20
0.0599999999999881
 30
0.0
 11
372.0
 21
1.05999999999999
 31
0.0
  0
LINE
  5
3B4
330
1E
100
AcDbEntity
  8
0
100
AcDbLine
 10
353.8559999999999
 20
0.05999999999999
 30
0.0
 11
361.488
 21
0.0599999999999896
 31
0.0
  0
LINE
  5
3B5
330
1E
100
AcDbEntity
  8
0
100
AcDbLine
 10
361.488
 20
0.0599999999999896
 30
0.0
 11
367.248
 21
0.0599999999999892
 31
0.0
  0
LINE
  5
3B6
330
1E
100
AcDbEntity
  8
0
100
AcDbLine
 10
372.0
 20
1.05999999999999
 30
0.0
 11
372.0
 21
0.0599999999999881
 31
0.0
  0
LINE
  5
3B7
330
1E
100
AcDbEntity
  8
0
100
AcDbLine
 10
367.248
 20
0.0599999999999892
 30
0.0
 11
370.704
 21
0.0599999999999886
 31
0.0
  0
LINE
  5
3B8
330
1E
100
AcDbEntity
  8
0
100
AcDbLine
 10
370.704
 20
0.0599999999999886
 30
0.0
 11
372.0
 21
0.0599999999999881
 31
0.0
  0
LINE
  5
3B9
330
1E
100
AcDbEntity
  8
0
100
AcDbLine
 10
345.216
 20
1.05999999999999
 30
0.0
 11
353.8559999999999
 21
1.05999999999999
 31
0.0
  0
LINE
  5
3BA
330
1E
100
AcDbEntity
  8
0
100
AcDbLine
 10
353.8559999999999
 20
1.05999999999999
 30
0.0
 11
361.488
 21
1.05999999999999
 31
0.0
  0
LINE
  5
3BB
330
1E
100
AcDbEntity
  8
0
100
AcDbLine
 10
361.488
 20
1.05999999999999
 30
0.0
 11
367.248
 21
1.05999999999999
 31
0.0
  0
LINE
  5
3BC
330
1E
100
AcDbEntity
  8
0
100
AcDbLine
 10
345.0
 20
9.059999999999989
 30
0.0
 11
353.3999999999999
 21
9.059999999999989
 31
0.0
  0
LINE
  5
3BD
330
1E
100
AcDbEntity
  8
0
100
AcDbLine
 10
353.3999999999999
 20
9.059999999999989
 30
0.0
 11
360.6999999999999
 21
9.059999999999989
 31
0.0
  0
LINE
  5
3BE
330
1E
100
AcDbEntity
  8
0
100
AcDbLine
 10
360.6999999999999
 20
9.059999999999989
 30
0.0
 11
366.3
 21
9.059999999999989
 31
0.0
  0
LINE
  5
3BF
330
1E
100
AcDbEntity
  8
0
100
AcDbLine
 10
367.248
 20
1.05999999999999
 30
0.0
 11
370.704
 21
1.05999999999999
 31
0.0
  0
LINE
  5
3C0
330
1E
100
AcDbEntity
  8
0
100
AcDbLine
 10
366.3
 20
9.059999999999989
 30
0.0
 11
369.7
 21
9.059999999999989
 31
0.0
  0
LINE
  5
3C1
330
1E
100
AcDbEntity
  8
0
100
AcDbLine
 10
344.5
 20
11.06
 30
0.0
 11
352.4
 21
11.06
 31
0.0
  0
LINE
  5
3C2
330
1E
100
AcDbEntity
  8
0
100
AcDbLine
 10
352.4
 20
11.06
 30
0.0
 11
359.2999999999999
 21
11.06
 31
0.0
  0
LINE
  5
3C3
330
1E
100
AcDbEntity
  8
0
100
AcDbLine
 10
359.2999999999999
 20
11.06
 30
0.0
 11
364.6
 21
11.06
 31
0.0
  0
LINE
  5
3C4
330
1E
100
AcDbEntity
  8
0
100
AcDbLine
 10
348.0
 20
22.26
 30
0.0
 11
348.0
 21
48.2518
 31
0.0
  0
LINE
  5
3C5
330
1E
100
AcDbEntity
  8
0
100
AcDbLine
 10
347.6
 20
20.76
 30
0.0
 11
348.0
 21
22.26
 31
0.0
  0
LINE
  5
3C6
330
1E
100
AcDbEntity
  8
0
100
AcDbLine
 10
346.3999999999999
 20
19.35999999999999
 30
0.0
 11
347.6
 21
20.76
 31
0.0
  0
LINE
  5
3C7
330
1E
100
AcDbEntity
  8
0
100
AcDbLine
 10
344.5
 20
18.16
 30
0.0
 11
346.3999999999999
 21
19.35999999999999
 31
0.0
  0
LINE
  5
3C8
330
1E
100
AcDbEntity
  8
0
100
AcDbLine
 10
342.0
 20
17.26
 30
0.0
 11
344.5
 21
18.16
 31
0.0
  0
LINE
  5
3CA
330
1E
100
AcDbEntity
  8
0
100
AcDbLine
 10
342.0
 20
43.2595
 30
0.0
 11
344.5
 21
44.1929
 31
0.0
  0
LINE
  5
3CB
330
1E
100
AcDbEntity
  8
0
100
AcDbLine
 10
342.0
 20
44.0918
 30
0.0
 11
344.5
 21
45.02519999999999
 31
0.0
  0
LINE
  5
3CD
330
1E
100
AcDbEntity
  8
0
100
AcDbLine
 10
344.5
 20
44.1929
 30
0.0
 11
346.3999999999999
 21
45.4048
 31
0.0
  0
LINE
  5
3CE
330
1E
100
AcDbEntity
  8
0
100
AcDbLine
 10
346.3
 20
80.2665
 30
0.0
 11
346.7999999999999
 21
73.7466
 31
0.0
  0
LINE
  5
3CF
330
1E
100
AcDbEntity
  8
0
100
AcDbLine
 10
345.6999999999999
 20
87.03459999999999
 30
0.0
 11
346.3
 21
80.2665
 31
0.0
  0
LINE
  5
3D0
330
1E
100
AcDbEntity
  8
0
100
AcDbLine
 10
345.0
 20
93.1564
 30
0.0
 11
345.6999999999999
 21
87.03459999999999
 31
0.0
  0
LINE
  5
3D1
330
1E
100
AcDbEntity
  8
0
100
AcDbLine
 10
344.5
 20
100.065
 30
0.0
 11
345.0
 21
93.1564
 31
0.0
  0
LINE
  5
3D2
330
1E
100
AcDbEntity
  8
0
100
AcDbLine
 10
344.157729633601
 20
104.3960892164079
 30
0.0
 11
344.5
 21
100.065
 31
0.0
  0
LINE
  5
3D3
330
1E
100
AcDbEntity
  8
0
100
AcDbLine
 10
346.3999999999999
 20
45.4048
 30
0.0
 11
347.6
 21
46.71289999999999
 31
0.0
  0
LINE
  5
3D4
330
1E
100
AcDbEntity
  8
0
100
AcDbLine
 10
346.3999999999999
 20
46.1953
 30
0.0
 11
347.6
 21
47.5034
 31
0.0
  0
LINE
  5
3D5
330
1E
100
AcDbEntity
  8
0
100
AcDbLine
 10
344.5
 20
45.02519999999999
 30
0.0
 11
346.3999999999999
 21
46.1953
 31
0.0
  0
LINE
  5
3D6
330
1E
100
AcDbEntity
  8
0
100
AcDbLine
 10
347.0
 20
49.8747
 30
0.0
 11
347.0
 21
51.6544
 31
0.0
  0
LINE
  5
3D7
330
1E
100
AcDbEntity
  8
0
100
AcDbLine
 10
347.6
 20
46.71289999999999
 30
0.0
 11
348.0
 21
48.2518
 31
0.0
  0
LINE
  5
3D8
330
1E
100
AcDbEntity
  8
0
100
AcDbLine
 10
347.0
 20
51.23235
 30
0.0
 11
347.6
 21
50.5325
 31
0.0
  0
LINE
  5
3D9
330
1E
100
AcDbEntity
  8
0
100
AcDbLine
 10
347.6
 20
50.5325
 30
0.0
 11
348.0
 21
49.0852
 31
0.0
  0
LINE
  5
3DA
330
1E
100
AcDbEntity
  8
0
100
AcDbLine
 10
348.0
 20
49.0852
 30
0.0
 11
348.0
 21
48.2518
 31
0.0
  0
LINE
  5
3DB
330
1E
100
AcDbEntity
  8
0
100
AcDbLine
 10
347.6
 20
47.5034
 30
0.0
 11
348.0
 21
49.0852
 31
0.0
  0
LINE
  5
3DC
330
1E
100
AcDbEntity
  8
0
100
AcDbLine
 10
347.0
 20
51.6544
 30
0.0
 11
347.1999999999999
 21
56.56539999999999
 31
0.0
  0
LINE
  5
3DD
330
1E
100
AcDbEntity
  8
0
100
AcDbLine
 10
347.0
 20
51.6544
 30
0.0
 11
347.0
 21
49.8747
 31
0.0
  0
LINE
  5
3DE
330
1E
100
AcDbEntity
  8
0
100
AcDbLine
 10
347.1999999999999
 20
62.2652
 30
0.0
 11
347.1999999999999
 21
56.56539999999999
 31
0.0
  0
LINE
  5
3DF
330
1E
100
AcDbEntity
  8
0
100
AcDbLine
 10
347.1999999999999
 20
56.56539999999999
 30
0.0
 11
347.1999999999999
 21
62.2652
 31
0.0
  0
LINE
  5
3E0
330
1E
100
AcDbEntity
  8
0
100
AcDbLine
 10
347.0
 20
67.74550000000001
 30
0.0
 11
347.1999999999999
 21
62.2652
 31
0.0
  0
LINE
  5
3E1
330
1E
100
AcDbEntity
  8
0
100
AcDbLine
 10
346.7999999999999
 20
73.7466
 30
0.0
 11
347.0
 21
67.74550000000001
 31
0.0
  0
LINE
  5
3E2
330
1E
100
AcDbEntity
  8
0
100
AcDbLine
 10
347.0
 20
51.26
 30
0.0
 11
347.082887834124
 21
51.1356682488134
 31
0.0
  0
LINE
  5
3E3
330
1E
100
AcDbEntity
  8
0
100
AcDbLine
 10
348.0
 20
48.2518
 30
0.0
 11
348.0
 21
22.26
 31
0.0
  0
LINE
  5
3E4
330
1E
100
AcDbEntity
  8
0
100
AcDbLine
 10
348.0
 20
48.2518
 30
0.0
 11
348.0
 21
49.0852
 31
0.0
  0
LINE
  5
3E5
330
1E
100
AcDbEntity
  8
0
100
AcDbLine
 10
347.6
 20
46.36
 30
0.0
 11
347.9061374972889
 21
47.8906874864455
 31
0.0
  0
LINE
  5
3E6
330
1E
100
AcDbEntity
  8
0
100
AcDbLine
 10
346.3999999999999
 20
44.46
 30
0.0
 11
347.6
 21
46.36
 31
0.0
  0
LINE
  5
3E7
330
1E
100
AcDbEntity
  8
0
100
AcDbLine
 10
344.5
 20
42.86
 30
0.0
 11
346.3999999999999
 21
44.46
 31
0.0
  0
LINE
  5
3E8
330
1E
100
AcDbEntity
  8
0
100
AcDbLine
 10
342.0
 20
41.65999999999999
 30
0.0
 11
344.5
 21
42.86
 31
0.0
  0
LINE
  5
3EA
330
1E
100
AcDbEntity
  8
0
100
AcDbLine
 10
355.0
 20
22.05999999999999
 30
0.0
 11
361.0
 21
16.05999999999999
 31
0.0
  0
LINE
  5
3EB
330
1E
100
AcDbEntity
  8
0
100
AcDbLine
 10
361.0
 20
16.05999999999999
 30
0.0
 11
363.0
 21
11.06
 31
0.0
  0
LINE
  5
3EC
330
1E
100
AcDbEntity
  8
0
100
AcDbLine
 10
348.0
 20
24.6209756097561
 30
0.0
 11
355.0
 21
22.05999999999999
 31
0.0
  0
LINE
  5
3ED
330
1E
100
AcDbEntity
  8
0
100
AcDbLine
 10
364.6
 20
11.06
 30
0.0
 11
367.8
 21
11.06
 31
0.0
  0
LINE
  5
3EE
330
1E
100
AcDbEntity
  8
0
100
AcDbLine
 10
367.8
 20
11.06
 30
0.0
 11
369.0
 21
11.06
 31
0.0
  0
LINE
  5
3EF
330
1E
100
AcDbEntity
  8
0
100
AcDbLine
 10
370.704
 20
1.05999999999999
 30
0.0
 11
372.0
 21
1.05999999999999
 31
0.0
  0
LINE
  5
3F0
330
1E
100
AcDbEntity
  8
0
100
AcDbLine
 10
369.7
 20
9.059999999999989
 30
0.0
 11
371.0
 21
9.059999999999989
 31
0.0
  0
LINE
  5
3F1
330
1E
100
AcDbEntity
  8
0
100
AcDbLine
 10
371.0
 20
9.059999999999989
 30
0.0
 11
371.0
 21
1.05999999999999
 31
0.0
  0
LINE
  5
3F2
330
1E
100
AcDbEntity
  8
0
100
AcDbLine
 10
369.0
 20
11.06
 30
0.0
 11
371.0
 21
9.059999999999989
 31
0.0
  0
LINE
  5
3F3
330
1E
100
AcDbEntity
  8
0
100
AcDbLine
 10
371.0
 20
1.05999999999999
 30
0.0
 11
371.0
 21
9.059999999999989
 31
0.0
  0
LINE
  5
3F4
330
1E
100
AcDbEntity
  8
0
100
AcDbLine
 10
340.3999999999999
 20
103.9139999999999
 30
0.0
 11
344.5
 21
104.4399999999999
 31
0.0
  0
LINE
  5
3F5
330
1E
100
AcDbEntity
  8
0
100
AcDbLine
 10
344.5
 20
104.4399999999999
 30
0.0
 11
348.0
 21
105.2729999999999
 31
0.0
  0
LINE
  5
3F6
330
1E
100
AcDbEntity
  8
0
100
AcDbLine
 10
331.6
 20
103.9139999999999
 30
0.0
 11
336.0
 21
103.7279999999999
 31
0.0
  0
LINE
  5
3F7
330
1E
100
AcDbEntity
  8
0
100
AcDbLine
 10
348.0
 20
105.2729999999999
 30
0.0
 11
355.8
 21
107.1429999999999
 31
0.0
  0
LINE
  5
3F8
330
1E
100
AcDbEntity
  8
0
100
AcDbLine
 10
355.8
 20
107.1429999999999
 30
0.0
 11
360.1999999999999
 21
108.966
 31
0.0
  0
LINE
  5
3F9
330
1E
100
AcDbEntity
  8
0
100
AcDbLine
 10
327.4999999999999
 20
104.4399999999999
 30
0.0
 11
331.6
 21
103.9139999999999
 31
0.0
  0
LINE
  5
3FA
330
1E
100
AcDbEntity
  8
0
100
AcDbLine
 10
324.0
 20
105.2729999999999
 30
0.0
 11
327.4999999999999
 21
104.4399999999999
 31
0.0
  0
LINE
  5
3FB
330
1E
100
AcDbEntity
  8
0
100
AcDbLine
 10
368.0
 20
114.2329999999999
 30
0.0
 11
371.7
 21
116.952
 31
0.0
  0
LINE
  5
3FC
330
1E
100
AcDbEntity
  8
0
100
AcDbLine
 10
360.1999999999999
 20
108.966
 30
0.0
 11
368.0
 21
114.2329999999999
 31
0.0
  0
LINE
  5
3FD
330
1E
100
AcDbEntity
  8
0
100
AcDbLine
 10
316.1999999999999
 20
107.1429999999999
 30
0.0
 11
324.0
 21
105.2729999999999
 31
0.0
  0
LINE
  5
3FE
330
1E
100
AcDbEntity
  8
0
100
AcDbLine
 10
311.8
 20
108.966
 30
0.0
 11
316.1999999999999
 21
107.1429999999999
 31
0.0
  0
LINE
  5
3FF
330
1E
100
AcDbEntity
  8
0
100
AcDbLine
 10
299.3999999999999
 20
132.458
 30
0.0
 11
302.8999999999999
 21
138.8379999999999
 31
0.0
  0
LINE
  5
400
330
1E
100
AcDbEntity
  8
0
100
AcDbLine
 10
299.3999999999999
 20
132.458
 30
0.0
 11
303.1
 21
135.27
 31
0.0
  0
LINE
  5
401
330
1E
100
AcDbEntity
  8
0
100
AcDbLine
 10
300.3
 20
122.8849999999999
 30
0.0
 11
304.0
 21
125.605
 31
0.0
  0
LINE
  5
402
330
1E
100
AcDbEntity
  8
0
100
AcDbLine
 10
368.0
 20
125.605
 30
0.0
 11
371.7
 21
122.8849999999999
 31
0.0
  0
LINE
  5
403
330
1E
100
AcDbEntity
  8
0
100
AcDbLine
 10
371.7
 20
122.8849999999999
 30
0.0
 11
373.0
 21
119.9189999999999
 31
0.0
  0
LINE
  5
404
330
1E
100
AcDbEntity
  8
0
100
AcDbLine
 10
374.0
 20
120.6879999999999
 30
0.0
 11
374.0
 21
129.4299999999999
 31
0.0
  0
LINE
  5
405
330
1E
100
AcDbEntity
  8
0
100
AcDbLine
 10
374.0
 20
129.4299999999999
 30
0.0
 11
374.0
 21
120.6879999999999
 31
0.0
  0
LINE
  5
406
330
1E
100
AcDbEntity
  8
0
100
AcDbLine
 10
371.7
 20
116.952
 30
0.0
 11
373.0
 21
119.9189999999999
 31
0.0
  0
LINE
  5
407
330
1E
100
AcDbEntity
  8
0
100
AcDbLine
 10
371.7
 20
116.952
 30
0.0
 11
374.0
 21
120.6879999999999
 31
0.0
  0
LINE
  5
408
330
1E
100
AcDbEntity
  8
0
100
AcDbLine
 10
301.3999999999999
 20
130.8239999999999
 30
0.0
 11
307.8
 21
133.388
 31
0.0
  0
LINE
  5
409
330
1E
100
AcDbEntity
  8
0
100
AcDbLine
 10
307.8
 20
133.388
 30
0.0
 11
316.1
 21
135.366
 31
0.0
  0
LINE
  5
40A
330
1E
100
AcDbEntity
  8
0
100
AcDbLine
 10
309.2
 20
137.711
 30
0.0
 11
317.1
 21
139.596
 31
0.0
  0
LINE
  5
40B
330
1E
100
AcDbEntity
  8
0
100
AcDbLine
 10
303.1
 20
135.27
 30
0.0
 11
309.2
 21
137.711
 31
0.0
  0
LINE
  5
40C
330
1E
100
AcDbEntity
  8
0
100
AcDbLine
 10
302.8999999999999
 20
138.8379999999999
 30
0.0
 11
308.3
 21
145.0309999999999
 31
0.0
  0
LINE
  5
40D
330
1E
100
AcDbEntity
  8
0
100
AcDbLine
 10
308.3
 20
145.0309999999999
 30
0.0
 11
311.1
 21
147.1629999999999
 31
0.0
  0
LINE
  5
40E
330
1E
100
AcDbEntity
  8
0
100
AcDbLine
 10
354.4
 20
129.8079999999999
 30
0.0
 11
362.1
 21
127.9849999999999
 31
0.0
  0
LINE
  5
40F
330
1E
100
AcDbEntity
  8
0
100
AcDbLine
 10
362.1
 20
127.9849999999999
 30
0.0
 11
368.0
 21
125.605
 31
0.0
  0
LINE
  5
410
330
1E
100
AcDbEntity
  8
0
100
AcDbLine
 10
316.1
 20
135.366
 30
0.0
 11
323.1
 21
136.417
 31
0.0
  0
LINE
  5
411
330
1E
100
AcDbEntity
  8
0
100
AcDbLine
 10
326.2
 20
140.74
 30
0.0
 11
336.0
 21
141.173
 31
0.0
  0
LINE
  5
412
330
1E
100
AcDbEntity
  8
0
100
AcDbLine
 10
317.1
 20
139.596
 30
0.0
 11
326.2
 21
140.74
 31
0.0
  0
LINE
  5
413
330
1E
100
AcDbEntity
  8
0
100
AcDbLine
 10
311.1
 20
147.1629999999999
 30
0.0
 11
317.8
 21
151.696
 31
0.0
  0
LINE
  5
414
330
1E
100
AcDbEntity
  8
0
100
AcDbLine
 10
325.4999999999999
 20
154.0739999999999
 30
0.0
 11
330.6
 21
154.6929999999999
 31
0.0
  0
LINE
  5
415
330
1E
100
AcDbEntity
  8
0
100
AcDbLine
 10
321.1999999999999
 20
153.024
 30
0.0
 11
325.4999999999999
 21
154.0739999999999
 31
0.0
  0
LINE
  5
416
330
1E
100
AcDbEntity
  8
0
100
AcDbLine
 10
317.8
 20
151.696
 30
0.0
 11
321.1999999999999
 21
153.024
 31
0.0
  0
LINE
  5
417
330
1E
100
AcDbEntity
  8
0
100
AcDbLine
 10
370.6
 20
130.8239999999999
 30
0.0
 11
374.0
 21
128.6599999999999
 31
0.0
  0
LINE
  5
418
330
1E
100
AcDbEntity
  8
0
100
AcDbLine
 10
336.0
 20
141.173
 30
0.0
 11
345.8
 21
140.74
 31
0.0
  0
LINE
  5
419
330
1E
100
AcDbEntity
  8
0
100
AcDbLine
 10
336.0
 20
154.94
 30
0.0
 11
341.3999999999999
 21
154.6929999999999
 31
0.0
  0
LINE
  5
41A
330
1E
100
AcDbEntity
  8
0
100
AcDbLine
 10
330.6
 20
154.6929999999999
 30
0.0
 11
336.0
 21
154.94
 31
0.0
  0
LINE
  5
41B
330
1E
100
AcDbEntity
  8
0
100
AcDbLine
 10
348.8999999999999
 20
136.417
 30
0.0
 11
355.8999999999999
 21
135.366
 31
0.0
  0
LINE
  5
41C
330
1E
100
AcDbEntity
  8
0
100
AcDbLine
 10
345.8
 20
140.74
 30
0.0
 11
354.8999999999999
 21
139.596
 31
0.0
  0
LINE
  5
41D
330
1E
100
AcDbEntity
  8
0
100
AcDbLine
 10
355.8999999999999
 20
135.366
 30
0.0
 11
364.1999999999999
 21
133.388
 31
0.0
  0
LINE
  5
41E
330
1E
100
AcDbEntity
  8
0
100
AcDbLine
 10
354.8999999999999
 20
139.596
 30
0.0
 11
362.8
 21
137.711
 31
0.0
  0
LINE
  5
41F
330
1E
100
AcDbEntity
  8
0
100
AcDbLine
 10
354.1999999999999
 20
151.696
 30
0.0
 11
360.8999999999999
 21
147.1629999999999
 31
0.0
  0
LINE
  5
420
330
1E
100
AcDbEntity
  8
0
100
AcDbLine
 10
364.1999999999999
 20
133.388
 30
0.0
 11
370.6
 21
130.8239999999999
 31
0.0
  0
LINE
  5
421
330
1E
100
AcDbEntity
  8
0
100
AcDbLine
 10
362.8
 20
137.711
 30
0.0
 11
368.9
 21
135.27
 31
0.0
  0
LINE
  5
422
330
1E
100
AcDbEntity
  8
0
100
AcDbLine
 10
368.9
 20
135.27
 30
0.0
 11
372.6
 21
132.458
 31
0.0
  0
LINE
  5
423
330
1E
100
AcDbEntity
  8
0
100
AcDbLine
 10
369.1
 20
138.8379999999999
 30
0.0
 11
372.6
 21
132.458
 31
0.0
  0
LINE
  5
424
330
1E
100
AcDbEntity
  8
0
100
AcDbLine
 10
372.6
 20
132.458
 30
0.0
 11
374.0
 21
129.4299999999999
 31
0.0
  0
LINE
  5
425
330
1E
100
AcDbEntity
  8
0
100
AcDbLine
 10
363.7
 20
145.0309999999999
 30
0.0
 11
369.1
 21
138.8379999999999
 31
0.0
  0
LINE
  5
426
330
1E
100
AcDbEntity
  8
0
100
AcDbLine
 10
360.8999999999999
 20
147.1629999999999
 30
0.0
 11
363.7
 21
145.0309999999999
 31
0.0
  0
LINE
  5
427
330
1E
100
AcDbEntity
  8
0
100
AcDbLine
 10
341.3999999999999
 20
154.6929999999999
 30
0.0
 11
346.4999999999999
 21
154.0739999999999
 31
0.0
  0
LINE
  5
428
330
1E
100
AcDbEntity
  8
0
100
AcDbLine
 10
346.4999999999999
 20
154.0739999999999
 30
0.0
 11
350.8
 21
153.024
 31
0.0
  0
LINE
  5
429
330
1E
100
AcDbEntity
  8
0
100
AcDbLine
 10
350.8
 20
153.024
 30
0.0
 11
354.1999999999999
 21
151.696
 31
0.0
  0
LINE
  5
42A
330
1E
100
AcDbEntity
  8
0
100
AcDbLine
 10
336.0
 20
131.3529999999999
 30
0.0
 11
345.6
 21
130.9509999999999
 31
0.0
  0
LINE
  5
42B
330
1E
100
AcDbEntity
  8
0
100
AcDbLine
 10
345.6
 20
130.9509999999999
 30
0.0
 11
354.4
 21
129.8079999999999
 31
0.0
  0
LINE
  5
42C
330
1E
100
AcDbEntity
  8
0
100
AcDbLine
 10
326.3999999999999
 20
130.9509999999999
 30
0.0
 11
336.0
 21
131.3529999999999
 31
0.0
  0
LINE
  5
42D
330
1E
100
AcDbEntity
  8
0
100
AcDbLine
 10
317.6
 20
129.8079999999999
 30
0.0
 11
326.3999999999999
 21
130.9509999999999
 31
0.0
  0
LINE
  5
42E
330
1E
100
AcDbEntity
  8
0
100
AcDbLine
 10
309.8999999999999
 20
127.9849999999999
 30
0.0
 11
317.6
 21
129.8079999999999
 31
0.0
  0
LINE
  5
42F
330
1E
100
AcDbEntity
  8
0
100
AcDbLine
 10
304.0
 20
125.605
 30
0.0
 11
309.8999999999999
 21
127.9849999999999
 31
0.0
  0
LINE
  5
430
330
1E
100
AcDbEntity
  8
0
100
AcDbLine
 10
300.3
 20
116.952
 30
0.0
 11
304.0
 21
114.2329999999999
 31
0.0
  0
LINE
  5
431
330
1E
100
AcDbEntity
  8
0
100
AcDbLine
 10
304.0
 20
114.2329999999999
 30
0.0
 11
311.8
 21
108.966
 31
0.0
  0
LINE
  5
432
330
1E
100
AcDbEntity
  8
0
100
AcDbLine
 10
299.0
 20
119.9189999999999
 30
0.0
 11
300.3
 21
116.952
 31
0.0
  0
LINE
  5
433
330
1E
100
AcDbEntity
  8
0
100
AcDbLine
 10
299.0
 20
119.9189999999999
 30
0.0
 11
300.3
 21
122.8849999999999
 31
0.0
  0
LINE
  5
438
330
1E
100
AcDbEntity
  8
0
100
AcDbLine
 10
323.1
 20
136.417
 30
0.0
 11
330.853142399141
 21
137.0004659165164
 31
0.0
  0
LINE
  5
439
330
1E
100
AcDbEntity
  8
0
100
AcDbLine
 10
330.853142399141
 20
137.0004659165164
 30
0.0
 11
339.5174226235449
 21
137.0004659165164
 31
0.0
  0
LINE
  5
43A
330
1E
100
AcDbEntity
  8
0
100
AcDbLine
 10
339.5174226235449
 20
137.0004659165164
 30
0.0
 11
348.8999999999999
 21
136.417
 31
0.0
  0
LINE
  5
43B
330
1E
100
AcDbEntity
  8
0
100
AcDbLine
 10
202.0
 20
55.56
 30
0.0
 11
200.4999999999999
 21
53.56
 31
0.0
  0
LINE
  5
43C
330
1E
100
AcDbEntity
  8
0
100
AcDbLine
 10
202.0
 20
46.56
 30
0.0
 11
200.4999999999999
 21
48.56
 31
0.0
  0
LINE
  5
43D
330
1E
100
AcDbEntity
  8
0
100
AcDbLine
 10
253.0
 20
23.06
 30
0.0
 11
250.4999999999999
 21
29.06
 31
0.0
  0
LINE
  5
43E
330
1E
100
AcDbEntity
  8
0
100
AcDbLine
 10
221.4999999999999
 20
29.06
 30
0.0
 11
219.0
 21
23.06
 31
0.0
  0
LINE
  5
43F
330
1E
100
AcDbEntity
  8
0
100
AcDbLine
 10
262.0
 20
5.05999999999999
 30
0.0
 11
260.0
 21
7.05999999999999
 31
0.0
  0
LINE
  5
440
330
1E
100
AcDbEntity
  8
0
100
AcDbLine
 10
262.5
 20
0.0599999999999885
 30
0.0
 11
259.8
 21
0.0599999999999889
 31
0.0
  0
LINE
  5
441
330
1E
100
AcDbEntity
  8
0
100
AcDbLine
 10
262.5
 20
0.0599999999999876
 30
0.0
 11
259.8
 21
0.0599999999999872
 31
0.0
  0
LINE
  5
442
330
1E
100
AcDbEntity
  8
0
100
AcDbLine
 10
263.0
 20
3.05999999999999
 30
0.0
 11
262.0
 21
5.05999999999999
 31
0.0
  0
LINE
  5
443
330
1E
100
AcDbEntity
  8
0
100
AcDbLine
 10
263.5
 20
0.0599999999999881
 30
0.0
 11
263.0
 21
3.05999999999999
 31
0.0
  0
LINE
  5
444
330
1E
100
AcDbEntity
  8
0
100
AcDbLine
 10
263.5
 20
0.0599999999999878
 30
0.0
 11
263.0
 21
3.05999999999999
 31
0.0
  0
LINE
  5
445
330
1E
100
AcDbEntity
  8
0
100
AcDbLine
 10
263.5
 20
0.0599999999999881
 30
0.0
 11
262.5
 21
0.0599999999999876
 31
0.0
  0
LINE
  5
446
330
1E
100
AcDbEntity
  8
0
100
AcDbLine
 10
263.5
 20
0.0599999999999881
 30
0.0
 11
262.5
 21
0.0599999999999885
 31
0.0
  0
LINE
  5
447
330
1E
100
AcDbEntity
  8
0
100
AcDbLine
 10
210.0
 20
5.05999999999999
 30
0.0
 11
209.0
 21
3.05999999999999
 31
0.0
  0
LINE
  5
448
330
1E
100
AcDbEntity
  8
0
100
AcDbLine
 10
236.0
 20
0.0599999999999898
 30
0.0
 11
228.9
 21
0.0599999999999897
 31
0.0
  0
LINE
  5
449
330
1E
100
AcDbEntity
  8
0
100
AcDbLine
 10
236.0
 20
0.0599999999999864
 30
0.0
 11
228.9
 21
0.0599999999999865
 31
0.0
  0
LINE
  5
44A
330
1E
100
AcDbEntity
  8
0
100
AcDbLine
 10
249.6999999999999
 20
0.0599999999999895
 30
0.0
 11
243.1
 21
0.0599999999999897
 31
0.0
  0
LINE
  5
44B
330
1E
100
AcDbEntity
  8
0
100
AcDbLine
 10
249.6999999999999
 20
0.0599999999999866
 30
0.0
 11
243.1
 21
0.0599999999999865
 31
0.0
  0
LINE
  5
44C
330
1E
100
AcDbEntity
  8
0
100
AcDbLine
 10
255.4
 20
0.0599999999999893
 30
0.0
 11
249.6999999999999
 21
0.0599999999999895
 31
0.0
  0
LINE
  5
44D
330
1E
100
AcDbEntity
  8
0
100
AcDbLine
 10
255.4
 20
0.0599999999999869
 30
0.0
 11
249.6999999999999
 21
0.0599999999999866
 31
0.0
  0
LINE
  5
44E
330
1E
100
AcDbEntity
  8
0
100
AcDbLine
 10
259.8
 20
0.0599999999999889
 30
0.0
 11
255.4
 21
0.0599999999999893
 31
0.0
  0
LINE
  5
44F
330
1E
100
AcDbEntity
  8
0
100
AcDbLine
 10
259.8
 20
0.0599999999999872
 30
0.0
 11
255.4
 21
0.0599999999999869
 31
0.0
  0
LINE
  5
450
330
1E
100
AcDbEntity
  8
0
100
AcDbLine
 10
243.1
 20
0.0599999999999897
 30
0.0
 11
236.0
 21
0.0599999999999898
 31
0.0
  0
LINE
  5
451
330
1E
100
AcDbEntity
  8
0
100
AcDbLine
 10
243.1
 20
0.0599999999999865
 30
0.0
 11
236.0
 21
0.0599999999999864
 31
0.0
  0
LINE
  5
452
330
1E
100
AcDbEntity
  8
0
100
AcDbLine
 10
216.5999999999999
 20
0.0599999999999893
 30
0.0
 11
212.1999999999999
 21
0.0599999999999889
 31
0.0
  0
LINE
  5
453
330
1E
100
AcDbEntity
  8
0
100
AcDbLine
 10
216.5999999999999
 20
0.0599999999999869
 30
0.0
 11
212.1999999999999
 21
0.0599999999999872
 31
0.0
  0
LINE
  5
454
330
1E
100
AcDbEntity
  8
0
100
AcDbLine
 10
228.9
 20
0.0599999999999897
 30
0.0
 11
222.3
 21
0.0599999999999895
 31
0.0
  0
LINE
  5
455
330
1E
100
AcDbEntity
  8
0
100
AcDbLine
 10
228.9
 20
0.0599999999999865
 30
0.0
 11
222.3
 21
0.0599999999999866
 31
0.0
  0
LINE
  5
456
330
1E
100
AcDbEntity
  8
0
100
AcDbLine
 10
222.3
 20
0.0599999999999895
 30
0.0
 11
216.5999999999999
 21
0.0599999999999893
 31
0.0
  0
LINE
  5
457
330
1E
100
AcDbEntity
  8
0
100
AcDbLine
 10
222.3
 20
0.0599999999999866
 30
0.0
 11
216.5999999999999
 21
0.0599999999999869
 31
0.0
  0
LINE
  5
458
330
1E
100
AcDbEntity
  8
0
100
AcDbLine
 10
209.5
 20
0.0599999999999885
 30
0.0
 11
208.4999999999999
 21
0.0599999999999881
 31
0.0
  0
LINE
  5
459
330
1E
100
AcDbEntity
  8
0
100
AcDbLine
 10
209.5
 20
0.0599999999999876
 30
0.0
 11
208.4999999999999
 21
0.0599999999999881
 31
0.0
  0
LINE
  5
45A
330
1E
100
AcDbEntity
  8
0
100
AcDbLine
 10
212.1999999999999
 20
0.0599999999999889
 30
0.0
 11
209.5
 21
0.0599999999999885
 31
0.0
  0
LINE
  5
45B
330
1E
100
AcDbEntity
  8
0
100
AcDbLine
 10
212.1999999999999
 20
0.0599999999999872
 30
0.0
 11
209.5
 21
0.0599999999999876
 31
0.0
  0
LINE
  5
45C
330
1E
100
AcDbEntity
  8
0
100
AcDbLine
 10
209.0
 20
3.05999999999999
 30
0.0
 11
208.4999999999999
 21
0.0599999999999878
 31
0.0
  0
LINE
  5
45D
330
1E
100
AcDbEntity
  8
0
100
AcDbLine
 10
209.0
 20
3.05999999999999
 30
0.0
 11
208.4999999999999
 21
0.0599999999999881
 31
0.0
  0
LINE
  5
45E
330
1E
100
AcDbEntity
  8
0
100
AcDbLine
 10
236.0
 20
10.56
 30
0.0
 11
230.6
 21
10.56
 31
0.0
  0
LINE
  5
45F
330
1E
100
AcDbEntity
  8
0
100
AcDbLine
 10
236.0
 20
7.05999999999999
 30
0.0
 11
229.8
 21
7.05999999999999
 31
0.0
  0
LINE
  5
460
330
1E
100
AcDbEntity
  8
0
100
AcDbLine
 10
255.0
 20
16.55999999999999
 30
0.0
 11
253.0
 21
23.06
 31
0.0
  0
LINE
  5
461
330
1E
100
AcDbEntity
  8
0
100
AcDbLine
 10
248.0
 20
7.05999999999999
 30
0.0
 11
242.2
 21
7.05999999999999
 31
0.0
  0
LINE
  5
462
330
1E
100
AcDbEntity
  8
0
100
AcDbLine
 10
246.4999999999999
 20
10.56
 30
0.0
 11
241.4
 21
10.56
 31
0.0
  0
LINE
  5
463
330
1E
100
AcDbEntity
  8
0
100
AcDbLine
 10
256.0
 20
10.56
 30
0.0
 11
255.0
 21
16.55999999999999
 31
0.0
  0
LINE
  5
464
330
1E
100
AcDbEntity
  8
0
100
AcDbLine
 10
256.8
 20
7.05999999999999
 30
0.0
 11
252.8999999999999
 21
7.05999999999999
 31
0.0
  0
LINE
  5
465
330
1E
100
AcDbEntity
  8
0
100
AcDbLine
 10
254.1999999999999
 20
10.56
 30
0.0
 11
250.8
 21
10.56
 31
0.0
  0
LINE
  5
466
330
1E
100
AcDbEntity
  8
0
100
AcDbLine
 10
258.0
 20
8.059999999999989
 30
0.0
 11
257.0
 21
7.05999999999999
 31
0.0
  0
LINE
  5
467
330
1E
100
AcDbEntity
  8
0
100
AcDbLine
 10
260.0
 20
7.05999999999999
 30
0.0
 11
259.1
 21
7.05999999999999
 31
0.0
  0
LINE
  5
468
330
1E
100
AcDbEntity
  8
0
100
AcDbLine
 10
259.1
 20
7.05999999999999
 30
0.0
 11
256.8
 21
7.05999999999999
 31
0.0
  0
LINE
  5
469
330
1E
100
AcDbEntity
  8
0
100
AcDbLine
 10
257.0
 20
10.56
 30
0.0
 11
256.1999999999999
 21
10.56
 31
0.0
  0
LINE
  5
46A
330
1E
100
AcDbEntity
  8
0
100
AcDbLine
 10
258.0
 20
8.059999999999989
 30
0.0
 11
258.0
 21
9.559999999999989
 31
0.0
  0
LINE
  5
46B
330
1E
100
AcDbEntity
  8
0
100
AcDbLine
 10
258.0
 20
9.559999999999989
 30
0.0
 11
258.0
 21
8.059999999999989
 31
0.0
  0
LINE
  5
46C
330
1E
100
AcDbEntity
  8
0
100
AcDbLine
 10
258.0
 20
9.559999999999989
 30
0.0
 11
257.0
 21
10.56
 31
0.0
  0
LINE
  5
46D
330
1E
100
AcDbEntity
  8
0
100
AcDbLine
 10
256.1999999999999
 20
10.56
 30
0.0
 11
254.1999999999999
 21
10.56
 31
0.0
  0
LINE
  5
46E
330
1E
100
AcDbEntity
  8
0
100
AcDbLine
 10
252.8999999999999
 20
7.05999999999999
 30
0.0
 11
248.0
 21
7.05999999999999
 31
0.0
  0
LINE
  5
46F
330
1E
100
AcDbEntity
  8
0
100
AcDbLine
 10
250.8
 20
10.56
 30
0.0
 11
246.4999999999999
 21
10.56
 31
0.0
  0
LINE
  5
470
330
1E
100
AcDbEntity
  8
0
100
AcDbLine
 10
241.4
 20
10.56
 30
0.0
 11
236.0
 21
10.56
 31
0.0
  0
LINE
  5
471
330
1E
100
AcDbEntity
  8
0
100
AcDbLine
 10
242.2
 20
7.05999999999999
 30
0.0
 11
236.0
 21
7.05999999999999
 31
0.0
  0
LINE
  5
472
330
1E
100
AcDbEntity
  8
0
100
AcDbLine
 10
219.0
 20
23.06
 30
0.0
 11
217.0
 21
16.55999999999999
 31
0.0
  0
LINE
  5
473
330
1E
100
AcDbEntity
  8
0
100
AcDbLine
 10
217.0
 20
16.55999999999999
 30
0.0
 11
216.0
 21
10.56
 31
0.0
  0
LINE
  5
474
330
1E
100
AcDbEntity
  8
0
100
AcDbLine
 10
217.8
 20
10.56
 30
0.0
 11
215.8
 21
10.56
 31
0.0
  0
LINE
  5
475
330
1E
100
AcDbEntity
  8
0
100
AcDbLine
 10
219.0999999999999
 20
7.05999999999999
 30
0.0
 11
215.2
 21
7.05999999999999
 31
0.0
  0
LINE
  5
476
330
1E
100
AcDbEntity
  8
0
100
AcDbLine
 10
225.4999999999999
 20
10.56
 30
0.0
 11
221.1999999999999
 21
10.56
 31
0.0
  0
LINE
  5
477
330
1E
100
AcDbEntity
  8
0
100
AcDbLine
 10
224.0
 20
7.05999999999999
 30
0.0
 11
219.0999999999999
 21
7.05999999999999
 31
0.0
  0
LINE
  5
478
330
1E
100
AcDbEntity
  8
0
100
AcDbLine
 10
229.8
 20
7.05999999999999
 30
0.0
 11
224.0
 21
7.05999999999999
 31
0.0
  0
LINE
  5
479
330
1E
100
AcDbEntity
  8
0
100
AcDbLine
 10
230.6
 20
10.56
 30
0.0
 11
225.4999999999999
 21
10.56
 31
0.0
  0
LINE
  5
47A
330
1E
100
AcDbEntity
  8
0
100
AcDbLine
 10
221.1999999999999
 20
10.56
 30
0.0
 11
217.8
 21
10.56
 31
0.0
  0
LINE
  5
47B
330
1E
100
AcDbEntity
  8
0
100
AcDbLine
 10
215.0
 20
7.05999999999999
 30
0.0
 11
214.0
 21
8.059999999999989
 31
0.0
  0
LINE
  5
47C
330
1E
100
AcDbEntity
  8
0
100
AcDbLine
 10
212.9
 20
7.05999999999999
 30
0.0
 11
212.0
 21
7.05999999999999
 31
0.0
  0
LINE
  5
47D
330
1E
100
AcDbEntity
  8
0
100
AcDbLine
 10
215.2
 20
7.05999999999999
 30
0.0
 11
212.9
 21
7.05999999999999
 31
0.0
  0
LINE
  5
47E
330
1E
100
AcDbEntity
  8
0
100
AcDbLine
 10
212.0
 20
7.05999999999999
 30
0.0
 11
210.0
 21
5.05999999999999
 31
0.0
  0
LINE
  5
47F
330
1E
100
AcDbEntity
  8
0
100
AcDbLine
 10
214.0
 20
9.559999999999989
 30
0.0
 11
214.0
 21
8.059999999999989
 31
0.0
  0
LINE
  5
480
330
1E
100
AcDbEntity
  8
0
100
AcDbLine
 10
215.0
 20
10.56
 30
0.0
 11
214.0
 21
9.559999999999989
 31
0.0
  0
LINE
  5
481
330
1E
100
AcDbEntity
  8
0
100
AcDbLine
 10
215.8
 20
10.56
 30
0.0
 11
215.0
 21
10.56
 31
0.0
  0
LINE
  5
482
330
1E
100
AcDbEntity
  8
0
100
AcDbLine
 10
214.0
 20
8.059999999999989
 30
0.0
 11
214.0
 21
9.559999999999989
 31
0.0
  0
LINE
  5
483
330
1E
100
AcDbEntity
  8
0
100
AcDbLine
 10
262.0
 20
58.56
 30
0.0
 11
258.0
 21
58.26
 31
0.0
  0
LINE
  5
484
330
1E
100
AcDbEntity
  8
0
100
AcDbLine
 10
262.0
 20
43.56
 30
0.0
 11
258.0
 21
43.86
 31
0.0
  0
LINE
  5
485
330
1E
100
AcDbEntity
  8
0
100
AcDbLine
 10
272.0
 20
51.06
 30
0.0
 11
271.4999999999999
 21
53.56
 31
0.0
  0
LINE
  5
486
330
1E
100
AcDbEntity
  8
0
100
AcDbLine
 10
271.4999999999999
 20
48.56
 30
0.0
 11
270.0
 21
46.56
 31
0.0
  0
LINE
  5
487
330
1E
100
AcDbEntity
  8
0
100
AcDbLine
 10
268.0
 20
45.06
 30
0.0
 11
265.5
 21
44.06
 31
0.0
  0
LINE
  5
488
330
1E
100
AcDbEntity
  8
0
100
AcDbLine
 10
270.0
 20
46.56
 30
0.0
 11
268.0
 21
45.06
 31
0.0
  0
LINE
  5
489
330
1E
100
AcDbEntity
  8
0
100
AcDbLine
 10
265.5
 20
44.06
 30
0.0
 11
262.0
 21
43.56
 31
0.0
  0
LINE
  5
48A
330
1E
100
AcDbEntity
  8
0
100
AcDbLine
 10
272.0
 20
51.06
 30
0.0
 11
271.4999999999999
 21
48.56
 31
0.0
  0
LINE
  5
48B
330
1E
100
AcDbEntity
  8
0
100
AcDbLine
 10
268.0
 20
57.06
 30
0.0
 11
265.5
 21
58.06
 31
0.0
  0
LINE
  5
48C
330
1E
100
AcDbEntity
  8
0
100
AcDbLine
 10
270.0
 20
55.56
 30
0.0
 11
268.0
 21
57.06
 31
0.0
  0
LINE
  5
48D
330
1E
100
AcDbEntity
  8
0
100
AcDbLine
 10
271.4999999999999
 20
53.56
 30
0.0
 11
270.0
 21
55.56
 31
0.0
  0
LINE
  5
48E
330
1E
100
AcDbEntity
  8
0
100
AcDbLine
 10
265.5
 20
58.06
 30
0.0
 11
262.0
 21
58.56
 31
0.0
  0
LINE
  5
48F
330
1E
100
AcDbEntity
  8
0
100
AcDbLine
 10
229.4999999999999
 20
54.86
 30
0.0
 11
228.8
 21
53.06
 31
0.0
  0
LINE
  5
490
330
1E
100
AcDbEntity
  8
0
100
AcDbLine
 10
243.1999999999999
 20
53.06
 30
0.0
 11
242.5
 21
54.86
 31
0.0
  0
LINE
  5
491
330
1E
100
AcDbEntity
  8
0
100
AcDbLine
 10
232.2
 20
44.56
 30
0.0
 11
230.6999999999999
 21
45.75999999999999
 31
0.0
  0
LINE
  5
492
330
1E
100
AcDbEntity
  8
0
100
AcDbLine
 10
231.4999999999999
 20
40.06
 30
0.0
 11
229.5999999999999
 21
40.06
 31
0.0
  0
LINE
  5
493
330
1E
100
AcDbEntity
  8
0
100
AcDbLine
 10
231.4999999999999
 20
37.06
 30
0.0
 11
229.5999999999999
 21
37.06
 31
0.0
  0
LINE
  5
494
330
1E
100
AcDbEntity
  8
0
100
AcDbLine
 10
247.0
 20
43.06
 30
0.0
 11
245.0
 21
40.06
 31
0.0
  0
LINE
  5
495
330
1E
100
AcDbEntity
  8
0
100
AcDbLine
 10
248.0
 20
34.06
 30
0.0
 11
245.0
 21
37.06
 31
0.0
  0
LINE
  5
496
330
1E
100
AcDbEntity
  8
0
100
AcDbLine
 10
246.0
 20
38.06
 30
0.0
 11
245.0
 21
37.06
 31
0.0
  0
LINE
  5
497
330
1E
100
AcDbEntity
  8
0
100
AcDbLine
 10
246.0
 20
39.06
 30
0.0
 11
245.0
 21
40.06
 31
0.0
  0
LINE
  5
498
330
1E
100
AcDbEntity
  8
0
100
AcDbLine
 10
250.4999999999999
 20
29.06
 30
0.0
 11
248.0
 21
34.06
 31
0.0
  0
LINE
  5
499
330
1E
100
AcDbEntity
  8
0
100
AcDbLine
 10
246.0
 20
38.06
 30
0.0
 11
246.0
 21
39.06
 31
0.0
  0
LINE
  5
49A
330
1E
100
AcDbEntity
  8
0
100
AcDbLine
 10
246.0
 20
39.06
 30
0.0
 11
246.0
 21
38.06
 31
0.0
  0
LINE
  5
49B
330
1E
100
AcDbEntity
  8
0
100
AcDbLine
 10
240.5
 20
40.06
 30
0.0
 11
238.3
 21
40.06
 31
0.0
  0
LINE
  5
49C
330
1E
100
AcDbEntity
  8
0
100
AcDbLine
 10
240.5
 20
37.06
 30
0.0
 11
238.3
 21
37.06
 31
0.0
  0
LINE
  5
49D
330
1E
100
AcDbEntity
  8
0
100
AcDbLine
 10
242.3999999999999
 20
37.06
 30
0.0
 11
240.5
 21
37.06
 31
0.0
  0
LINE
  5
49E
330
1E
100
AcDbEntity
  8
0
100
AcDbLine
 10
245.0
 20
37.06
 30
0.0
 11
244.7
 21
37.06
 31
0.0
  0
LINE
  5
49F
330
1E
100
AcDbEntity
  8
0
100
AcDbLine
 10
244.7
 20
37.06
 30
0.0
 11
243.8
 21
37.06
 31
0.0
  0
LINE
  5
4A0
330
1E
100
AcDbEntity
  8
0
100
AcDbLine
 10
243.8
 20
37.06
 30
0.0
 11
242.3999999999999
 21
37.06
 31
0.0
  0
LINE
  5
4A1
330
1E
100
AcDbEntity
  8
0
100
AcDbLine
 10
242.3999999999999
 20
40.06
 30
0.0
 11
240.5
 21
40.06
 31
0.0
  0
LINE
  5
4A2
330
1E
100
AcDbEntity
  8
0
100
AcDbLine
 10
244.7
 20
40.06
 30
0.0
 11
243.8
 21
40.06
 31
0.0
  0
LINE
  5
4A3
330
1E
100
AcDbEntity
  8
0
100
AcDbLine
 10
243.8
 20
40.06
 30
0.0
 11
242.3999999999999
 21
40.06
 31
0.0
  0
LINE
  5
4A4
330
1E
100
AcDbEntity
  8
0
100
AcDbLine
 10
245.0
 20
40.06
 30
0.0
 11
244.7
 21
40.06
 31
0.0
  0
LINE
  5
4A5
330
1E
100
AcDbEntity
  8
0
100
AcDbLine
 10
236.0
 20
37.06
 30
0.0
 11
233.6999999999999
 21
37.06
 31
0.0
  0
LINE
  5
4A6
330
1E
100
AcDbEntity
  8
0
100
AcDbLine
 10
238.3
 20
37.06
 30
0.0
 11
236.0
 21
37.06
 31
0.0
  0
LINE
  5
4A7
330
1E
100
AcDbEntity
  8
0
100
AcDbLine
 10
233.6999999999999
 20
37.06
 30
0.0
 11
231.4999999999999
 21
37.06
 31
0.0
  0
LINE
  5
4A8
330
1E
100
AcDbEntity
  8
0
100
AcDbLine
 10
236.0
 20
40.06
 30
0.0
 11
233.6999999999999
 21
40.06
 31
0.0
  0
LINE
  5
4A9
330
1E
100
AcDbEntity
  8
0
100
AcDbLine
 10
238.3
 20
40.06
 30
0.0
 11
236.0
 21
40.06
 31
0.0
  0
LINE
  5
4AA
330
1E
100
AcDbEntity
  8
0
100
AcDbLine
 10
233.6999999999999
 20
40.06
 30
0.0
 11
231.4999999999999
 21
40.06
 31
0.0
  0
LINE
  5
4AB
330
1E
100
AcDbEntity
  8
0
100
AcDbLine
 10
255.0
 20
44.06
 30
0.0
 11
251.0
 21
45.06
 31
0.0
  0
LINE
  5
4AC
330
1E
100
AcDbEntity
  8
0
100
AcDbLine
 10
258.0
 20
43.86
 30
0.0
 11
255.0
 21
44.06
 31
0.0
  0
LINE
  5
4AD
330
1E
100
AcDbEntity
  8
0
100
AcDbLine
 10
248.0
 20
46.06
 30
0.0
 11
247.0
 21
43.06
 31
0.0
  0
LINE
  5
4AE
330
1E
100
AcDbEntity
  8
0
100
AcDbLine
 10
251.0
 20
45.06
 30
0.0
 11
248.0196078431372
 21
46.1776470588235
 31
0.0
  0
LINE
  5
4AF
330
1E
100
AcDbEntity
  8
0
100
AcDbLine
 10
248.0196078431372
 20
46.1776470588235
 30
0.0
 11
248.0
 21
46.06
 31
0.0
  0
LINE
  5
4B0
330
1E
100
AcDbEntity
  8
0
100
AcDbLine
 10
242.5
 20
47.25999999999999
 30
0.0
 11
241.3
 21
45.75999999999999
 31
0.0
  0
LINE
  5
4B1
330
1E
100
AcDbEntity
  8
0
100
AcDbLine
 10
239.8
 20
44.56
 30
0.0
 11
238.0
 21
43.86
 31
0.0
  0
LINE
  5
4B2
330
1E
100
AcDbEntity
  8
0
100
AcDbLine
 10
241.3
 20
45.75999999999999
 30
0.0
 11
239.8
 21
44.56
 31
0.0
  0
LINE
  5
4B3
330
1E
100
AcDbEntity
  8
0
100
AcDbLine
 10
234.0
 20
43.86
 30
0.0
 11
232.2
 21
44.56
 31
0.0
  0
LINE
  5
4B4
330
1E
100
AcDbEntity
  8
0
100
AcDbLine
 10
236.0
 20
43.56
 30
0.0
 11
234.0
 21
43.86
 31
0.0
  0
LINE
  5
4B5
330
1E
100
AcDbEntity
  8
0
100
AcDbLine
 10
238.0
 20
43.86
 30
0.0
 11
236.0
 21
43.56
 31
0.0
  0
LINE
  5
4B6
330
1E
100
AcDbEntity
  8
0
100
AcDbLine
 10
243.5
 20
51.06
 30
0.0
 11
243.1999999999999
 21
49.06
 31
0.0
  0
LINE
  5
4B7
330
1E
100
AcDbEntity
  8
0
100
AcDbLine
 10
243.1999999999999
 20
49.06
 30
0.0
 11
242.5
 21
47.25999999999999
 31
0.0
  0
LINE
  5
4B8
330
1E
100
AcDbEntity
  8
0
100
AcDbLine
 10
243.5
 20
51.06
 30
0.0
 11
243.1999999999999
 21
53.06
 31
0.0
  0
LINE
  5
4B9
330
1E
100
AcDbEntity
  8
0
100
AcDbLine
 10
227.0
 20
40.06
 30
0.0
 11
225.0
 21
43.06
 31
0.0
  0
LINE
  5
4BA
330
1E
100
AcDbEntity
  8
0
100
AcDbLine
 10
227.0
 20
37.06
 30
0.0
 11
224.0
 21
34.06
 31
0.0
  0
LINE
  5
4BB
330
1E
100
AcDbEntity
  8
0
100
AcDbLine
 10
224.0
 20
34.06
 30
0.0
 11
221.4999999999999
 21
29.06
 31
0.0
  0
LINE
  5
4BC
330
1E
100
AcDbEntity
  8
0
100
AcDbLine
 10
226.0
 20
39.06
 30
0.0
 11
226.0
 21
38.06
 31
0.0
  0
LINE
  5
4BD
330
1E
100
AcDbEntity
  8
0
100
AcDbLine
 10
226.0
 20
38.06
 30
0.0
 11
226.0
 21
39.06
 31
0.0
  0
LINE
  5
4BE
330
1E
100
AcDbEntity
  8
0
100
AcDbLine
 10
228.2
 20
37.06
 30
0.0
 11
227.3
 21
37.06
 31
0.0
  0
LINE
  5
4BF
330
1E
100
AcDbEntity
  8
0
100
AcDbLine
 10
229.5999999999999
 20
37.06
 30
0.0
 11
228.2
 21
37.06
 31
0.0
  0
LINE
  5
4C0
330
1E
100
AcDbEntity
  8
0
100
AcDbLine
 10
227.0
 20
37.06
 30
0.0
 11
226.0
 21
38.06
 31
0.0
  0
LINE
  5
4C1
330
1E
100
AcDbEntity
  8
0
100
AcDbLine
 10
227.3
 20
37.06
 30
0.0
 11
227.0
 21
37.06
 31
0.0
  0
LINE
  5
4C2
330
1E
100
AcDbEntity
  8
0
100
AcDbLine
 10
228.2
 20
40.06
 30
0.0
 11
227.3
 21
40.06
 31
0.0
  0
LINE
  5
4C3
330
1E
100
AcDbEntity
  8
0
100
AcDbLine
 10
229.5999999999999
 20
40.06
 30
0.0
 11
228.2
 21
40.06
 31
0.0
  0
LINE
  5
4C4
330
1E
100
AcDbEntity
  8
0
100
AcDbLine
 10
227.0
 20
40.06
 30
0.0
 11
226.0
 21
39.06
 31
0.0
  0
LINE
  5
4C5
330
1E
100
AcDbEntity
  8
0
100
AcDbLine
 10
227.3
 20
40.06
 30
0.0
 11
227.0
 21
40.06
 31
0.0
  0
LINE
  5
4C6
330
1E
100
AcDbEntity
  8
0
100
AcDbLine
 10
217.0
 20
44.06
 30
0.0
 11
214.0
 21
43.86
 31
0.0
  0
LINE
  5
4C7
330
1E
100
AcDbEntity
  8
0
100
AcDbLine
 10
230.6999999999999
 20
45.75999999999999
 30
0.0
 11
229.4999999999999
 21
47.25999999999999
 31
0.0
  0
LINE
  5
4C8
330
1E
100
AcDbEntity
  8
0
100
AcDbLine
 10
223.9803921568626
 20
46.1776470588235
 30
0.0
 11
221.0
 21
45.06
 31
0.0
  0
LINE
  5
4C9
330
1E
100
AcDbEntity
  8
0
100
AcDbLine
 10
225.0
 20
43.06
 30
0.0
 11
224.0
 21
46.06
 31
0.0
  0
LINE
  5
4CA
330
1E
100
AcDbEntity
  8
0
100
AcDbLine
 10
224.0
 20
46.06
 30
0.0
 11
223.9803921568626
 21
46.1776470588235
 31
0.0
  0
LINE
  5
4CB
330
1E
100
AcDbEntity
  8
0
100
AcDbLine
 10
221.0
 20
45.06
 30
0.0
 11
217.0
 21
44.06
 31
0.0
  0
LINE
  5
4CC
330
1E
100
AcDbEntity
  8
0
100
AcDbLine
 10
228.8
 20
49.06
 30
0.0
 11
228.5
 21
51.06
 31
0.0
  0
LINE
  5
4CD
330
1E
100
AcDbEntity
  8
0
100
AcDbLine
 10
229.4999999999999
 20
47.25999999999999
 30
0.0
 11
228.8
 21
49.06
 31
0.0
  0
LINE
  5
4CE
330
1E
100
AcDbEntity
  8
0
100
AcDbLine
 10
228.8
 20
53.06
 30
0.0
 11
228.5
 21
51.06
 31
0.0
  0
LINE
  5
4CF
330
1E
100
AcDbEntity
  8
0
100
AcDbLine
 10
210.0
 20
43.56
 30
0.0
 11
206.4999999999999
 21
44.06
 31
0.0
  0
LINE
  5
4D0
330
1E
100
AcDbEntity
  8
0
100
AcDbLine
 10
214.0
 20
43.86
 30
0.0
 11
210.0
 21
43.56
 31
0.0
  0
LINE
  5
4D1
330
1E
100
AcDbEntity
  8
0
100
AcDbLine
 10
206.4999999999999
 20
44.06
 30
0.0
 11
204.0
 21
45.06
 31
0.0
  0
LINE
  5
4D2
330
1E
100
AcDbEntity
  8
0
100
AcDbLine
 10
204.0
 20
45.06
 30
0.0
 11
202.0
 21
46.56
 31
0.0
  0
LINE
  5
4D3
330
1E
100
AcDbEntity
  8
0
100
AcDbLine
 10
232.6999999999999
 20
64.86
 30
0.0
 11
228.8
 21
63.56
 31
0.0
  0
LINE
  5
4D4
330
1E
100
AcDbEntity
  8
0
100
AcDbLine
 10
233.1999999999999
 20
61.06
 30
0.0
 11
230.5
 21
61.06
 31
0.0
  0
LINE
  5
4D5
330
1E
100
AcDbEntity
  8
0
100
AcDbLine
 10
233.1999999999999
 20
59.06
 30
0.0
 11
230.5
 21
59.06
 31
0.0
  0
LINE
  5
4D6
330
1E
100
AcDbEntity
  8
0
100
AcDbLine
 10
232.2
 20
57.56
 30
0.0
 11
230.6999999999999
 21
56.36
 31
0.0
  0
LINE
  5
4D7
330
1E
100
AcDbEntity
  8
0
100
AcDbLine
 10
247.0
 20
61.06
 30
0.0
 11
243.1999999999999
 21
63.56
 31
0.0
  0
LINE
  5
4D8
330
1E
100
AcDbEntity
  8
0
100
AcDbLine
 10
246.6
 20
61.06
 30
0.0
 11
245.5
 21
61.06
 31
0.0
  0
LINE
  5
4D9
330
1E
100
AcDbEntity
  8
0
100
AcDbLine
 10
246.6
 20
59.06
 30
0.0
 11
245.5
 21
59.06
 31
0.0
  0
LINE
  5
4DA
330
1E
100
AcDbEntity
  8
0
100
AcDbLine
 10
247.5
 20
59.56
 30
0.0
 11
247.0
 21
59.06
 31
0.0
  0
LINE
  5
4DB
330
1E
100
AcDbEntity
  8
0
100
AcDbLine
 10
255.0
 20
58.06
 30
0.0
 11
251.0
 21
57.06
 31
0.0
  0
LINE
  5
4DC
330
1E
100
AcDbEntity
  8
0
100
AcDbLine
 10
258.0
 20
58.26
 30
0.0
 11
255.0
 21
58.06
 31
0.0
  0
LINE
  5
4DD
330
1E
100
AcDbEntity
  8
0
100
AcDbLine
 10
251.0
 20
57.06
 30
0.0
 11
248.0196078431372
 21
55.9423529411765
 31
0.0
  0
LINE
  5
4DE
330
1E
100
AcDbEntity
  8
0
100
AcDbLine
 10
248.0
 20
56.06
 30
0.0
 11
247.0
 21
59.06
 31
0.0
  0
LINE
  5
4DF
330
1E
100
AcDbEntity
  8
0
100
AcDbLine
 10
248.0196078431372
 20
55.9423529411765
 30
0.0
 11
248.0
 21
56.06
 31
0.0
  0
LINE
  5
4E0
330
1E
100
AcDbEntity
  8
0
100
AcDbLine
 10
247.0
 20
59.06
 30
0.0
 11
246.6
 21
59.06
 31
0.0
  0
LINE
  5
4E1
330
1E
100
AcDbEntity
  8
0
100
AcDbLine
 10
247.0
 20
61.06
 30
0.0
 11
246.6
 21
61.06
 31
0.0
  0
LINE
  5
4E2
330
1E
100
AcDbEntity
  8
0
100
AcDbLine
 10
247.5
 20
59.56
 30
0.0
 11
247.5
 21
60.56
 31
0.0
  0
LINE
  5
4E3
330
1E
100
AcDbEntity
  8
0
100
AcDbLine
 10
247.5
 20
60.56
 30
0.0
 11
247.0
 21
61.06
 31
0.0
  0
LINE
  5
4E4
330
1E
100
AcDbEntity
  8
0
100
AcDbLine
 10
247.5
 20
60.56
 30
0.0
 11
247.5
 21
59.56
 31
0.0
  0
LINE
  5
4E5
330
1E
100
AcDbEntity
  8
0
100
AcDbLine
 10
238.8
 20
59.06
 30
0.0
 11
236.0
 21
59.06
 31
0.0
  0
LINE
  5
4E6
330
1E
100
AcDbEntity
  8
0
100
AcDbLine
 10
239.8
 20
57.56
 30
0.0
 11
238.0
 21
58.26
 31
0.0
  0
LINE
  5
4E7
330
1E
100
AcDbEntity
  8
0
100
AcDbLine
 10
242.5
 20
54.86
 30
0.0
 11
241.3
 21
56.36
 31
0.0
  0
LINE
  5
4E8
330
1E
100
AcDbEntity
  8
0
100
AcDbLine
 10
243.8
 20
59.06
 30
0.0
 11
241.5
 21
59.06
 31
0.0
  0
LINE
  5
4E9
330
1E
100
AcDbEntity
  8
0
100
AcDbLine
 10
245.5
 20
59.06
 30
0.0
 11
243.8
 21
59.06
 31
0.0
  0
LINE
  5
4EA
330
1E
100
AcDbEntity
  8
0
100
AcDbLine
 10
241.5
 20
59.06
 30
0.0
 11
238.8
 21
59.06
 31
0.0
  0
LINE
  5
4EB
330
1E
100
AcDbEntity
  8
0
100
AcDbLine
 10
241.3
 20
56.36
 30
0.0
 11
239.8
 21
57.56
 31
0.0
  0
LINE
  5
4EC
330
1E
100
AcDbEntity
  8
0
100
AcDbLine
 10
236.0
 20
59.06
 30
0.0
 11
233.1999999999999
 21
59.06
 31
0.0
  0
LINE
  5
4ED
330
1E
100
AcDbEntity
  8
0
100
AcDbLine
 10
236.0
 20
58.56
 30
0.0
 11
234.0
 21
58.26
 31
0.0
  0
LINE
  5
4EE
330
1E
100
AcDbEntity
  8
0
100
AcDbLine
 10
238.0
 20
58.26
 30
0.0
 11
236.0
 21
58.56
 31
0.0
  0
LINE
  5
4EF
330
1E
100
AcDbEntity
  8
0
100
AcDbLine
 10
234.0
 20
58.26
 30
0.0
 11
232.2
 21
57.56
 31
0.0
  0
LINE
  5
4F0
330
1E
100
AcDbEntity
  8
0
100
AcDbLine
 10
239.3
 20
64.86
 30
0.0
 11
236.0
 21
65.06
 31
0.0
  0
LINE
  5
4F1
330
1E
100
AcDbEntity
  8
0
100
AcDbLine
 10
238.8
 20
61.06
 30
0.0
 11
236.0
 21
61.06
 31
0.0
  0
LINE
  5
4F2
330
1E
100
AcDbEntity
  8
0
100
AcDbLine
 10
243.8
 20
61.06
 30
0.0
 11
241.5
 21
61.06
 31
0.0
  0
LINE
  5
4F3
330
1E
100
AcDbEntity
  8
0
100
AcDbLine
 10
245.5
 20
61.06
 30
0.0
 11
243.8
 21
61.06
 31
0.0
  0
LINE
  5
4F4
330
1E
100
AcDbEntity
  8
0
100
AcDbLine
 10
241.5
 20
61.06
 30
0.0
 11
238.8
 21
61.06
 31
0.0
  0
LINE
  5
4F5
330
1E
100
AcDbEntity
  8
0
100
AcDbLine
 10
243.1999999999999
 20
63.56
 30
0.0
 11
239.3
 21
64.86
 31
0.0
  0
LINE
  5
4F6
330
1E
100
AcDbEntity
  8
0
100
AcDbLine
 10
236.0
 20
61.06
 30
0.0
 11
233.1999999999999
 21
61.06
 31
0.0
  0
LINE
  5
4F7
330
1E
100
AcDbEntity
  8
0
100
AcDbLine
 10
236.0
 20
65.06
 30
0.0
 11
232.6999999999999
 21
64.86
 31
0.0
  0
LINE
  5
4F8
330
1E
100
AcDbEntity
  8
0
100
AcDbLine
 10
217.0
 20
58.06
 30
0.0
 11
214.0
 21
58.26
 31
0.0
  0
LINE
  5
4F9
330
1E
100
AcDbEntity
  8
0
100
AcDbLine
 10
225.0
 20
59.06
 30
0.0
 11
224.5
 21
59.56
 31
0.0
  0
LINE
  5
4FA
330
1E
100
AcDbEntity
  8
0
100
AcDbLine
 10
224.0
 20
55.935
 30
0.0
 11
221.0
 21
57.06
 31
0.0
  0
LINE
  5
4FB
330
1E
100
AcDbEntity
  8
0
100
AcDbLine
 10
225.0
 20
59.06
 30
0.0
 11
224.0
 21
56.06
 31
0.0
  0
LINE
  5
4FC
330
1E
100
AcDbEntity
  8
0
100
AcDbLine
 10
230.6999999999999
 20
56.36
 30
0.0
 11
229.4999999999999
 21
54.86
 31
0.0
  0
LINE
  5
4FD
330
1E
100
AcDbEntity
  8
0
100
AcDbLine
 10
224.0
 20
56.06
 30
0.0
 11
223.9803921568626
 21
55.9423529411765
 31
0.0
  0
LINE
  5
4FE
330
1E
100
AcDbEntity
  8
0
100
AcDbLine
 10
228.2
 20
59.06
 30
0.0
 11
226.5
 21
59.06
 31
0.0
  0
LINE
  5
4FF
330
1E
100
AcDbEntity
  8
0
100
AcDbLine
 10
230.5
 20
59.06
 30
0.0
 11
228.2
 21
59.06
 31
0.0
  0
LINE
  5
500
330
1E
100
AcDbEntity
  8
0
100
AcDbLine
 10
225.4
 20
59.06
 30
0.0
 11
225.0
 21
59.06
 31
0.0
  0
LINE
  5
501
330
1E
100
AcDbEntity
  8
0
100
AcDbLine
 10
226.5
 20
59.06
 30
0.0
 11
225.4
 21
59.06
 31
0.0
  0
LINE
  5
502
330
1E
100
AcDbEntity
  8
0
100
AcDbLine
 10
221.0
 20
57.06
 30
0.0
 11
217.0
 21
58.06
 31
0.0
  0
LINE
  5
503
330
1E
100
AcDbEntity
  8
0
100
AcDbLine
 10
228.8
 20
63.56
 30
0.0
 11
225.0
 21
61.06
 31
0.0
  0
LINE
  5
504
330
1E
100
AcDbEntity
  8
0
100
AcDbLine
 10
228.2
 20
61.06
 30
0.0
 11
226.5
 21
61.06
 31
0.0
  0
LINE
  5
505
330
1E
100
AcDbEntity
  8
0
100
AcDbLine
 10
230.5
 20
61.06
 30
0.0
 11
228.2
 21
61.06
 31
0.0
  0
LINE
  5
506
330
1E
100
AcDbEntity
  8
0
100
AcDbLine
 10
225.0
 20
61.06
 30
0.0
 11
224.5
 21
60.56
 31
0.0
  0
LINE
  5
507
330
1E
100
AcDbEntity
  8
0
100
AcDbLine
 10
225.4
 20
61.06
 30
0.0
 11
225.0
 21
61.06
 31
0.0
  0
LINE
  5
508
330
1E
100
AcDbEntity
  8
0
100
AcDbLine
 10
226.5
 20
61.06
 30
0.0
 11
225.4
 21
61.06
 31
0.0
  0
LINE
  5
509
330
1E
100
AcDbEntity
  8
0
100
AcDbLine
 10
224.5
 20
60.56
 30
0.0
 11
224.5
 21
59.56
 31
0.0
  0
LINE
  5
50A
330
1E
100
AcDbEntity
  8
0
100
AcDbLine
 10
224.5
 20
59.56
 30
0.0
 11
224.5
 21
60.56
 31
0.0
  0
LINE
  5
50B
330
1E
100
AcDbEntity
  8
0
100
AcDbLine
 10
210.0
 20
58.56
 30
0.0
 11
206.4999999999999
 21
58.06
 31
0.0
  0
LINE
  5
50C
330
1E
100
AcDbEntity
  8
0
100
AcDbLine
 10
214.0
 20
58.26
 30
0.0
 11
210.0
 21
58.56
 31
0.0
  0
LINE
  5
50D
330
1E
100
AcDbEntity
  8
0
100
AcDbLine
 10
204.0
 20
57.06
 30
0.0
 11
202.0
 21
55.56
 31
0.0
  0
LINE
  5
50E
330
1E
100
AcDbEntity
  8
0
100
AcDbLine
 10
206.4999999999999
 20
58.06
 30
0.0
 11
204.0
 21
57.06
 31
0.0
  0
LINE
  5
50F
330
1E
100
AcDbEntity
  8
0
100
AcDbLine
 10
200.4999999999999
 20
53.56
 30
0.0
 11
200.0
 21
51.06
 31
0.0
  0
LINE
  5
510
330
1E
100
AcDbEntity
  8
0
100
AcDbLine
 10
200.4999999999999
 20
48.56
 30
0.0
 11
200.0
 21
51.06
 31
0.0
  0
ENDSEC
  0
SECTION
  2
OBJECTS
  0
DICTIONARY
  5
C
330
0
100
AcDbDictionary
281
     1
  3
ACAD_GROUP
350
D
  3
ACAD_LAYOUT
350
19
  3
ACAD_MLINESTYLE
350
16
  3
ACAD_PLOTSETTINGS
350
18
  3
ACAD_PLOTSTYLENAME
350
E
  3
AcDbVariableDictionary
350
511
  0
DICTIONARY
  5
D
102
{ACAD_REACTORS
330
C
102
}
330
C
100
AcDbDictionary
281
     1
  0
DICTIONARY
  5
19
102
{ACAD_REACTORS
330
C
102
}
330
C
100
AcDbDictionary
281
     1
  3
Layout1
350
1D
  3
Model
350
21
  0
DICTIONARY
  5
16
102
{ACAD_REACTORS
330
C
102
}
330
C
100
AcDbDictionary
281
     1
  3
Standard
350
17
  0
DICTIONARY
  5
18
102
{ACAD_REACTORS
330
C
102
}
330
C
100
AcDbDictionary
281
     1
  0
ACDBDICTIONARYWDFLT
  5
E
102
{ACAD_REACTORS
330
C
102
}
330
C
100
AcDbDictionary
281
     1
  3
Normal
350
F
100
AcDbDictionaryWithDefault
340
F
  0
DICTIONARY
  5
511
102
{ACAD_REACTORS
330
C
102
}
330
C
100
AcDbDictionary
281
     1
  3
DIMASSOC
350
512
  0
LAYOUT
  5
1D
102
{ACAD_REACTORS
330
19
102
}
330
19
100
AcDbPlotSettings
  1

  2
hp deskjet 980c series
  4

  6

 40
0.0
 41
0.0
 42
0.0
 43
0.0
 44
0.0
 45
0.0
 46
0.0
 47
0.0
 48
0.0
 49
0.0
140
0.0
141
0.0
142
1.0
143
1.0
 70
   688
 72
     0
 73
     0
 74
     5
  7

 75
    16
147
1.0
148
0.0
149
0.0
100
AcDbLayout
  1
Layout1
 70
     1
 71
     1
 10
0.0
 20
0.0
 11
12.0
 21
9.0
 12
0.0
 22
0.0
 32
0.0
 14
1.000000000000000E+20
 24
1.000000000000000E+20
 34
1.000000000000000E+20
 15
-1.000000000000000E+20
 25
-1.000000000000000E+20
 35
-1.000000000000000E+20
146
0.0
 13
0.0
 23
0.0
 33
0.0
 16
1.0
 26
0.0
 36
0.0
 17
0.0
 27
1.0
 37
0.0
 76
     0
330
1A
  0
LAYOUT
  5
21
102
{ACAD_REACTORS
330
19
102
}
330
19
100
AcDbPlotSettings
  1

  2
hp deskjet 980c series
  4

  6

 40
0.0
 41
0.0
 42
0.0
 43
0.0
 44
0.0
 45
0.0
 46
0.0
 47
0.0
 48
0.0
 49
0.0
140
0.0
141
0.0
142
1.0
143
1.0
 70
  1712
 72
     0
 73
     0
 74
     0
  7

 75
     0
147
1.0
148
0.0
149
0.0
100
AcDbLayout
  1
Model
 70
     1
 71
     0
 10
0.0
 20
0.0
 11
12.0
 21
9.0
 12
0.0
 22
0.0
 32
0.0
 14
0.0
 24
0.0
 34
0.0
 15
0.0
 25
0.0
 35
0.0
146
0.0
 13
0.0
 23
0.0
 33
0.0
 16
1.0
 26
0.0
 36
0.0
 17
0.0
 27
1.0
 37
0.0
 76
     0
330
1E
  0
MLINESTYLE
  5
17
102
{ACAD_REACTORS
330
16
102
}
330
16
100
AcDbMlineStyle
  2
STANDARD
 70
     0
  3

 62
   256
 51
90.0
 52
90.0
 71
     2
 49
0.5
 62
   256
  6
BYLAYER
 49
-0.5
 62
   256
  6
BYLAYER
  0
ACDBPLACEHOLDER
  5
F
102
{ACAD_REACTORS
330
E
102
}
330
E
  0
DICTIONARYVAR
  5
512
102
{ACAD_REACTORS
330
511
102
}
330
511
100
DictionaryVariables
280
     0
  1
1
  0
ENDSEC
  0
EOF
