  0
SECTION
  2
HEADER
  9
$ACADVER
  1
AC1015
  9
$ACADMAINTVER
 70
    13
  9
$DWGCODEPAGE
  3
ANSI_1252
  9
$INSBASE
 10
0.0
 20
0.0
 30
0.0
  9
$EXTMIN
 10
0.0000000000000012
 20
0.0000174999999955
 30
0.0
  9
$EXTMAX
 10
170.0
 20
85.9999825
 30
0.0
  9
$LIMMIN
 10
0.0
 20
0.0
  9
$LIMMAX
 10
12.0
 20
9.0
  9
$ORTHOMODE
 70
     0
  9
$REGENMODE
 70
     1
  9
$FILLMODE
 70
     1
  9
$QTEXTMODE
 70
     0
  9
$MIRRTEXT
 70
     1
  9
$LTSCALE
 40
1.0
  9
$ATTMODE
 70
     1
  9
$TEXTSIZE
 40
0.2
  9
$TRACEWID
 40
0.05
  9
$TEXTSTYLE
  7
Standard
  9
$CLAYER
  8
0
  9
$CELTYPE
  6
Continuous
  9
$CECOLOR
 62
   256
  9
$CELTSCALE
 40
1.0
  9
$DISPSILH
 70
     0
  9
$DIMSCALE
 40
1.0
  9
$DIMASZ
 40
0.18
  9
$DIMEXO
 40
0.0625
  9
$DIMDLI
 40
0.38
  9
$DIMRND
 40
0.0
  9
$DIMDLE
 40
0.0
  9
$DIMEXE
 40
0.18
  9
$DIMTP
 40
0.0
  9
$DIMTM
 40
0.0
  9
$DIMTXT
 40
0.18
  9
$DIMCEN
 40
0.09
  9
$DIMTSZ
 40
0.0
  9
$DIMTOL
 70
     0
  9
$DIMLIM
 70
     0
  9
$DIMTIH
 70
     1
  9
$DIMTOH
 70
     1
  9
$DIMSE1
 70
     0
  9
$DIMSE2
 70
     0
  9
$DIMTAD
 70
     0
  9
$DIMZIN
 70
     0
  9
$DIMBLK
  1

  9
$DIMASO
 70
     1
  9
$DIMSHO
 70
     1
  9
$DIMPOST
  1

  9
$DIMAPOST
  1

  9
$DIMALT
 70
     0
  9
$DIMALTD
 70
     2
  9
$DIMALTF
 40
25.4
  9
$DIMLFAC
 40
1.0
  9
$DIMTOFL
 70
     0
  9
$DIMTVP
 40
0.0
  9
$DIMTIX
 70
     0
  9
$DIMSOXD
 70
     0
  9
$DIMSAH
 70
     0
  9
$DIMBLK1
  1

  9
$DIMBLK2
  1

  9
$DIMSTYLE
  2
Standard
  9
$DIMCLRD
 70
     0
  9
$DIMCLRE
 70
     0
  9
$DIMCLRT
 70
     0
  9
$DIMTFAC
 40
1.0
  9
$DIMGAP
 40
0.09
  9
$DIMJUST
 70
     0
  9
$DIMSD1
 70
     0
  9
$DIMSD2
 70
     0
  9
$DIMTOLJ
 70
     1
  9
$DIMTZIN
 70
     0
  9
$DIMALTZ
 70
     0
  9
$DIMALTTZ
 70
     0
  9
$DIMUPT
 70
     0
  9
$DIMDEC
 70
     4
  9
$DIMTDEC
 70
     4
  9
$DIMALTU
 70
     2
  9
$DIMALTTD
 70
     2
  9
$DIMTXSTY
  7
Standard
  9
$DIMAUNIT
 70
     0
  9
$DIMADEC
 70
     0
  9
$DIMALTRND
 40
0.0
  9
$DIMAZIN
 70
     0
  9
$DIMDSEP
 70
    46
  9
$DIMATFIT
 70
     3
  9
$DIMFRAC
 70
     0
  9
$DIMLDRBLK
  1

  9
$DIMLUNIT
 70
     2
  9
$DIMLWD
 70
    -2
  9
$DIMLWE
 70
    -2
  9
$DIMTMOVE
 70
     0
  9
$LUNITS
 70
     2
  9
$LUPREC
 70
     4
  9
$SKETCHINC
 40
0.1
  9
$FILLETRAD
 40
0.0
  9
$AUNITS
 70
     0
  9
$AUPREC
 70
     0
  9
$MENU
  1
.
  9
$ELEVATION
 40
0.0
  9
$PELEVATION
 40
0.0
  9
$THICKNESS
 40
0.0
  9
$LIMCHECK
 70
     0
  9
$CHAMFERA
 40
0.0
  9
$CHAMFERB
 40
0.0
  9
$CHAMFERC
 40
0.0
  9
$CHAMFERD
 40
0.0
  9
$SKPOLY
 70
     0
  9
$TDCREATE
 40
2454752.779963287
  9
$TDUCREATE
 40
2454752.696629953
  9
$TDUPDATE
 40
2454752.780663518
  9
$TDUUPDATE
 40
2454752.697330185
  9
$TDINDWG
 40
0.0007002315
  9
$TDUSRTIMER
 40
0.0007002315
  9
$USRTIMER
 70
     1
  9
$ANGBASE
 50
0.0
  9
$ANGDIR
 70
     0
  9
$PDMODE
 70
     0
  9
$PDSIZE
 40
0.0
  9
$PLINEWID
 40
0.0
  9
$SPLFRAME
 70
     0
  9
$SPLINETYPE
 70
     6
  9
$SPLINESEGS
 70
     8
  9
$HANDSEED
  5
156
  9
$SURFTAB1
 70
     6
  9
$SURFTAB2
 70
     6
  9
$SURFTYPE
 70
     6
  9
$SURFU
 70
     6
  9
$SURFV
 70
     6
  9
$UCSBASE
  2

  9
$UCSNAME
  2

  9
$UCSORG
 10
0.0
 20
0.0
 30
0.0
  9
$UCSXDIR
 10
1.0
 20
0.0
 30
0.0
  9
$UCSYDIR
 10
0.0
 20
1.0
 30
0.0
  9
$UCSORTHOREF
  2

  9
$UCSORTHOVIEW
 70
     1
  9
$UCSORGTOP
 10
0.0
 20
0.0
 30
0.0
  9
$UCSORGBOTTOM
 10
0.0
 20
0.0
 30
0.0
  9
$UCSORGLEFT
 10
0.0
 20
0.0
 30
0.0
  9
$UCSORGRIGHT
 10
0.0
 20
0.0
 30
0.0
  9
$UCSORGFRONT
 10
0.0
 20
0.0
 30
0.0
  9
$UCSORGBACK
 10
0.0
 20
0.0
 30
0.0
  9
$PUCSBASE
  2

  9
$PUCSNAME
  2

  9
$PUCSORG
 10
0.0
 20
0.0
 30
0.0
  9
$PUCSXDIR
 10
1.0
 20
0.0
 30
0.0
  9
$PUCSYDIR
 10
0.0
 20
1.0
 30
0.0
  9
$PUCSORTHOREF
  2

  9
$PUCSORTHOVIEW
 70
     0
  9
$PUCSORGTOP
 10
0.0
 20
0.0
 30
0.0
  9
$PUCSORGBOTTOM
 10
0.0
 20
0.0
 30
0.0
  9
$PUCSORGLEFT
 10
0.0
 20
0.0
 30
0.0
  9
$PUCSORGRIGHT
 10
0.0
 20
0.0
 30
0.0
  9
$PUCSORGFRONT
 10
0.0
 20
0.0
 30
0.0
  9
$PUCSORGBACK
 10
0.0
 20
0.0
 30
0.0
  9
$USERI1
 70
     0
  9
$USERI2
 70
     0
  9
$USERI3
 70
     0
  9
$USERI4
 70
     0
  9
$USERI5
 70
     0
  9
$USERR1
 40
0.0
  9
$USERR2
 40
0.0
  9
$USERR3
 40
0.0
  9
$USERR4
 40
0.0
  9
$USERR5
 40
0.0
  9
$WORLDVIEW
 70
     1
  9
$SHADEDGE
 70
     3
  9
$SHADEDIF
 70
    70
  9
$TILEMODE
 70
     1
  9
$MAXACTVP
 70
    64
  9
$PINSBASE
 10
0.0
 20
0.0
 30
0.0
  9
$PLIMCHECK
 70
     0
  9
$PEXTMIN
 10
1.000000000000000E+20
 20
1.000000000000000E+20
 30
1.000000000000000E+20
  9
$PEXTMAX
 10
-1.000000000000000E+20
 20
-1.000000000000000E+20
 30
-1.000000000000000E+20
  9
$PLIMMIN
 10
0.0
 20
0.0
  9
$PLIMMAX
 10
12.0
 20
9.0
  9
$UNITMODE
 70
     0
  9
$VISRETAIN
 70
     1
  9
$PLINEGEN
 70
     0
  9
$PSLTSCALE
 70
     1
  9
$TREEDEPTH
 70
  3020
  9
$CMLSTYLE
  2
Standard
  9
$CMLJUST
 70
     0
  9
$CMLSCALE
 40
1.0
  9
$PROXYGRAPHICS
 70
     1
  9
$MEASUREMENT
 70
     0
  9
$CELWEIGHT
370
    -1
  9
$ENDCAPS
280
     0
  9
$JOINSTYLE
280
     0
  9
$LWDISPLAY
290
     0
  9
$INSUNITS
 70
     0
  9
$HYPERLINKBASE
  1

  9
$STYLESHEET
  1

  9
$XEDIT
290
     1
  9
$CEPSNTYPE
380
     0
  9
$PSTYLEMODE
290
     1
  9
$FINGERPRINTGUID
  2
{89D37EC9-4CF8-4617-8631-968B75A09987}
  9
$VERSIONGUID
  2
{AA704311-3704-4F38-BB00-083E4281C30A}
  9
$EXTNAMES
290
     1
  9
$PSVPSCALE
 40
0.0
  9
$OLESTARTUP
290
     0
  0
ENDSEC
  0
SECTION
  2
CLASSES
  0
CLASS
  1
ACDBDICTIONARYWDFLT
  2
AcDbDictionaryWithDefault
  3
AutoCAD 2000
 90
        0
280
     0
281
     0
  0
CLASS
  1
ACDBPLACEHOLDER
  2
AcDbPlaceHolder
  3
AutoCAD 2000
 90
        0
280
     0
281
     0
  0
CLASS
  1
LAYOUT
  2
AcDbLayout
  3
AutoCAD 2000
 90
        0
280
     0
281
     0
  0
CLASS
  1
DICTIONARYVAR
  2
AcDbDictionaryVar
  3
AutoCAD 2000
 90
        0
280
     0
281
     0
  0
ENDSEC
  0
SECTION
  2
TABLES
  0
TABLE
  2
VPORT
  5
8
330
0
100
AcDbSymbolTable
 70
     2
  0
VPORT
  5
155
330
8
100
AcDbSymbolTableRecord
100
AcDbViewportTableRecord
  2
*Active
 70
     0
 10
0.0
 20
0.0
 11
1.0
 21
1.0
 12
85.0
 22
43.0
 13
0.0
 23
0.0
 14
1.0
 24
1.0
 15
0.0
 25
0.0
 16
0.0
 26
0.0
 36
1.0
 17
0.0
 27
0.0
 37
0.0
 40
86.65981127877238
 41
2.078104993597951
 42
50.0
 43
0.0
 44
0.0
 50
0.0
 51
0.0
 71
     0
 72
   100
 73
     1
 74
     3
 75
     0
 76
     0
 77
     0
 78
     0
281
     0
 65
     1
110
0.0
120
0.0
130
0.0
111
1.0
121
0.0
131
0.0
112
0.0
122
1.0
132
0.0
 79
     1
146
0.0
  0
ENDTAB
  0
TABLE
  2
LTYPE
  5
5
330
0
100
AcDbSymbolTable
 70
     1
  0
LTYPE
  5
13
330
5
100
AcDbSymbolTableRecord
100
AcDbLinetypeTableRecord
  2
ByBlock
 70
     0
  3

 72
    65
 73
     0
 40
0.0
  0
LTYPE
  5
14
330
5
100
AcDbSymbolTableRecord
100
AcDbLinetypeTableRecord
  2
ByLayer
 70
     0
  3

 72
    65
 73
     0
 40
0.0
  0
LTYPE
  5
15
330
5
100
AcDbSymbolTableRecord
100
AcDbLinetypeTableRecord
  2
Continuous
 70
     0
  3
Solid line
 72
    65
 73
     0
 40
0.0
  0
ENDTAB
  0
TABLE
  2
LAYER
  5
2
330
0
100
AcDbSymbolTable
 70
     1
  0
LAYER
  5
10
330
2
100
AcDbSymbolTableRecord
100
AcDbLayerTableRecord
  2
0
 70
     0
 62
     7
  6
Continuous
370
    -3
390
F
  0
ENDTAB
  0
TABLE
  2
STYLE
  5
3
330
0
100
AcDbSymbolTable
 70
     1
  0
STYLE
  5
11
330
3
100
AcDbSymbolTableRecord
100
AcDbTextStyleTableRecord
  2
Standard
 70
     0
 40
0.0
 41
1.0
 50
0.0
 71
     0
 42
0.2
  3
txt
  4

  0
ENDTAB
  0
TABLE
  2
VIEW
  5
6
330
0
100
AcDbSymbolTable
 70
     0
  0
ENDTAB
  0
TABLE
  2
UCS
  5
7
330
0
100
AcDbSymbolTable
 70
     0
  0
ENDTAB
  0
TABLE
  2
APPID
  5
9
330
0
100
AcDbSymbolTable
 70
     1
  0
APPID
  5
12
330
9
100
AcDbSymbolTableRecord
100
AcDbRegAppTableRecord
  2
ACAD
 70
     0
  0
ENDTAB
  0
TABLE
  2
DIMSTYLE
  5
A
330
0
100
AcDbSymbolTable
 70
     1
100
AcDbDimStyleTable
 71
     0
  0
DIMSTYLE
105
14F
330
A
100
AcDbSymbolTableRecord
100
AcDbDimStyleTableRecord
  2
Standard
 70
     0
340
11
  0
ENDTAB
  0
TABLE
  2
BLOCK_RECORD
  5
1
330
0
100
AcDbSymbolTable
 70
     0
  0
BLOCK_RECORD
  5
1E
330
1
100
AcDbSymbolTableRecord
100
AcDbBlockTableRecord
  2
*Model_Space
340
21
  0
BLOCK_RECORD
  5
1A
330
1
100
AcDbSymbolTableRecord
100
AcDbBlockTableRecord
  2
*Paper_Space
340
1D
  0
ENDTAB
  0
ENDSEC
  0
SECTION
  2
BLOCKS
  0
BLOCK
  5
1F
330
1E
100
AcDbEntity
  8
0
100
AcDbBlockBegin
  2
*Model_Space
 70
     0
 10
0.0
 20
0.0
 30
0.0
  3
*Model_Space
  1

  0
ENDBLK
  5
20
330
1E
100
AcDbEntity
  8
0
100
AcDbBlockEnd
  0
BLOCK
  5
1B
330
1A
100
AcDbEntity
 67
     1
  8
0
100
AcDbBlockBegin
  2
*Paper_Space
 70
     0
 10
0.0
 20
0.0
 30
0.0
  3
*Paper_Space
  1

  0
ENDBLK
  5
1C
330
1A
100
AcDbEntity
 67
     1
  8
0
100
AcDbBlockEnd
  0
ENDSEC
  0
SECTION
  2
ENTITIES
  0
LINE
  5
22
330
1E
100
AcDbEntity
  8
0
100
AcDbLine
 10
80.0
 20
1.962872499999999
 30
0.0
 11
81.5
 21
0.9659324999999959
 31
0.0
  0
LINE
  5
23
330
1E
100
AcDbEntity
  8
0
100
AcDbLine
 10
81.5
 20
0.9659324999999959
 30
0.0
 11
82.0
 21
0.725063499999996
 31
0.0
  0
LINE
  5
24
330
1E
100
AcDbEntity
  8
0
100
AcDbLine
 10
78.9
 20
3.322332499999999
 30
0.0
 11
80.0
 21
1.962872499999999
 31
0.0
  0
LINE
  5
25
330
1E
100
AcDbEntity
  8
0
100
AcDbLine
 10
77.8
 20
6.16095249999999
 30
0.0
 11
78.3
 21
4.86305249999999
 31
0.0
  0
LINE
  5
26
330
1E
100
AcDbEntity
  8
0
100
AcDbLine
 10
78.3
 20
4.86305249999999
 30
0.0
 11
78.9
 21
3.322332499999999
 31
0.0
  0
LINE
  5
27
330
1E
100
AcDbEntity
  8
0
100
AcDbLine
 10
85.0
 20
0.0000174999999955
 30
0.0
 11
86.6
 21
0.181278499999995
 31
0.0
  0
LINE
  5
28
330
1E
100
AcDbEntity
  8
0
100
AcDbLine
 10
85.0
 20
0.0000174999999955
 30
0.0
 11
86.6
 21
0.181278499999995
 31
0.0
  0
LINE
  5
29
330
1E
100
AcDbEntity
  8
0
100
AcDbLine
 10
86.6
 20
0.181278499999995
 30
0.0
 11
88.0
 21
0.725063499999996
 31
0.0
  0
LINE
  5
2A
330
1E
100
AcDbEntity
  8
0
100
AcDbLine
 10
88.49999999999999
 20
0.9659324999999959
 30
0.0
 11
90.0
 21
1.962872499999999
 31
0.0
  0
LINE
  5
2B
330
1E
100
AcDbEntity
  8
0
100
AcDbLine
 10
88.0
 20
0.725063499999996
 30
0.0
 11
88.49999999999999
 21
0.9659324999999959
 31
0.0
  0
LINE
  5
2C
330
1E
100
AcDbEntity
  8
0
100
AcDbLine
 10
90.0
 20
1.962872499999999
 30
0.0
 11
91.09999999999999
 21
3.322332499999999
 31
0.0
  0
LINE
  5
2D
330
1E
100
AcDbEntity
  8
0
100
AcDbLine
 10
92.2
 20
6.16095249999999
 30
0.0
 11
92.5
 21
7.9735725
 31
0.0
  0
LINE
  5
2E
330
1E
100
AcDbEntity
  8
0
100
AcDbLine
 10
91.69999999999999
 20
4.86305249999999
 30
0.0
 11
92.2
 21
6.16095249999999
 31
0.0
  0
LINE
  5
2F
330
1E
100
AcDbEntity
  8
0
100
AcDbLine
 10
91.09999999999999
 20
3.322332499999999
 30
0.0
 11
91.69999999999999
 21
4.86305249999999
 31
0.0
  0
LINE
  5
30
330
1E
100
AcDbEntity
  8
0
100
AcDbLine
 10
83.40000000000001
 20
0.181278499999995
 30
0.0
 11
85.0
 21
0.0000174999999955
 31
0.0
  0
LINE
  5
31
330
1E
100
AcDbEntity
  8
0
100
AcDbLine
 10
83.40000000000001
 20
0.181278499999995
 30
0.0
 11
85.0
 21
0.0000174999999955
 31
0.0
  0
LINE
  5
32
330
1E
100
AcDbEntity
  8
0
100
AcDbLine
 10
82.0
 20
0.725063499999996
 30
0.0
 11
83.40000000000001
 21
0.181278499999995
 31
0.0
  0
LINE
  5
33
330
1E
100
AcDbEntity
  8
0
100
AcDbLine
 10
78.5
 20
14.4999825
 30
0.0
 11
85.0
 21
13.9999825
 31
0.0
  0
LINE
  5
34
330
1E
100
AcDbEntity
  8
0
100
AcDbLine
 10
85.0
 20
13.9999825
 30
0.0
 11
91.5
 21
14.4999825
 31
0.0
  0
LINE
  5
35
330
1E
100
AcDbEntity
  8
0
100
AcDbLine
 10
91.5
 20
14.4999825
 30
0.0
 11
96.5
 21
15.4999825
 31
0.0
  0
LINE
  5
36
330
1E
100
AcDbEntity
  8
0
100
AcDbLine
 10
77.8
 20
11.7771825
 30
0.0
 11
78.00543954072479
 21
14.59889459185499
 31
0.0
  0
LINE
  5
37
330
1E
100
AcDbEntity
  8
0
100
AcDbLine
 10
77.5
 20
7.9735725
 30
0.0
 11
77.8
 21
11.7771825
 31
0.0
  0
LINE
  5
38
330
1E
100
AcDbEntity
  8
0
100
AcDbLine
 10
77.5
 20
7.9735725
 30
0.0
 11
77.8
 21
6.16095249999999
 31
0.0
  0
LINE
  5
39
330
1E
100
AcDbEntity
  8
0
100
AcDbLine
 10
58.0
 20
34.4999825
 30
0.0
 11
60.0
 21
28.9999825
 31
0.0
  0
LINE
  5
3A
330
1E
100
AcDbEntity
  8
0
100
AcDbLine
 10
57.0
 20
41.9999825
 30
0.0
 11
57.0
 21
45.9999825
 31
0.0
  0
LINE
  5
3B
330
1E
100
AcDbEntity
  8
0
100
AcDbLine
 10
57.0
 20
41.9999825
 30
0.0
 11
58.0
 21
34.4999825
 31
0.0
  0
LINE
  5
3C
330
1E
100
AcDbEntity
  8
0
100
AcDbLine
 10
57.0
 20
45.9999825
 30
0.0
 11
58.0
 21
53.99998249999999
 31
0.0
  0
LINE
  5
3D
330
1E
100
AcDbEntity
  8
0
100
AcDbLine
 10
57.0
 20
45.9999825
 30
0.0
 11
57.0
 21
41.9999825
 31
0.0
  0
LINE
  5
3F
330
1E
100
AcDbEntity
  8
0
100
AcDbLine
 10
69.5
 20
17.4999825
 30
0.0
 11
70.0
 21
16.9999825
 31
0.0
  0
LINE
  5
40
330
1E
100
AcDbEntity
  8
0
100
AcDbLine
 10
69.5
 20
17.4999825
 30
0.0
 11
69.5
 21
18.4999825
 31
0.0
  0
LINE
  5
41
330
1E
100
AcDbEntity
  8
0
100
AcDbLine
 10
70.0
 20
16.9999825
 30
0.0
 11
70.5
 21
16.9999825
 31
0.0
  0
LINE
  5
42
330
1E
100
AcDbEntity
  8
0
100
AcDbLine
 10
70.0
 20
16.9999825
 30
0.0
 11
73.5
 21
15.4999825
 31
0.0
  0
LINE
  5
45
330
1E
100
AcDbEntity
  8
0
100
AcDbLine
 10
69.5
 20
18.4999825
 30
0.0
 11
70.0
 21
18.9999825
 31
0.0
  0
LINE
  5
46
330
1E
100
AcDbEntity
  8
0
100
AcDbLine
 10
69.5
 20
18.4999825
 30
0.0
 11
69.5
 21
17.4999825
 31
0.0
  0
LINE
  5
48
330
1E
100
AcDbEntity
  8
0
100
AcDbLine
 10
70.5
 20
16.9999825
 30
0.0
 11
72.0
 21
16.9999825
 31
0.0
  0
LINE
  5
49
330
1E
100
AcDbEntity
  8
0
100
AcDbLine
 10
72.0
 20
16.9999825
 30
0.0
 11
74.40000000000001
 21
16.9999825
 31
0.0
  0
LINE
  5
4C
330
1E
100
AcDbEntity
  8
0
100
AcDbLine
 10
70.0
 20
18.9999825
 30
0.0
 11
70.5
 21
18.9999825
 31
0.0
  0
LINE
  5
4D
330
1E
100
AcDbEntity
  8
0
100
AcDbLine
 10
70.5
 20
18.9999825
 30
0.0
 11
72.0
 21
18.9999825
 31
0.0
  0
LINE
  5
4E
330
1E
100
AcDbEntity
  8
0
100
AcDbLine
 10
73.5
 20
15.4999825
 30
0.0
 11
78.5
 21
14.4999825
 31
0.0
  0
LINE
  5
50
330
1E
100
AcDbEntity
  8
0
100
AcDbLine
 10
74.40000000000001
 20
16.9999825
 30
0.0
 11
77.5
 21
16.9999825
 31
0.0
  0
LINE
  5
51
330
1E
100
AcDbEntity
  8
0
100
AcDbLine
 10
77.5
 20
16.9999825
 30
0.0
 11
81.09999999999999
 21
16.9999825
 31
0.0
  0
LINE
  5
55
330
1E
100
AcDbEntity
  8
0
100
AcDbLine
 10
72.0
 20
18.9999825
 30
0.0
 11
74.40000000000001
 21
18.9999825
 31
0.0
  0
LINE
  5
56
330
1E
100
AcDbEntity
  8
0
100
AcDbLine
 10
64.0
 20
23.9999825
 30
0.0
 11
70.0
 21
18.9999825
 31
0.0
  0
LINE
  5
57
330
1E
100
AcDbEntity
  8
0
100
AcDbLine
 10
74.40000000000001
 20
18.9999825
 30
0.0
 11
77.5
 21
18.9999825
 31
0.0
  0
LINE
  5
58
330
1E
100
AcDbEntity
  8
0
100
AcDbLine
 10
77.5
 20
18.9999825
 30
0.0
 11
81.09999999999999
 21
18.9999825
 31
0.0
  0
LINE
  5
59
330
1E
100
AcDbEntity
  8
0
100
AcDbLine
 10
76.0
 20
43.9999825
 30
0.0
 11
77.5
 21
38.9999825
 31
0.0
  0
LINE
  5
5A
330
1E
100
AcDbEntity
  8
0
100
AcDbLine
 10
75.4
 20
50.9999825
 30
0.0
 11
76.29999999999999
 21
50.9999825
 31
0.0
  0
LINE
  5
5B
330
1E
100
AcDbEntity
  8
0
100
AcDbLine
 10
76.29999999999999
 20
50.9999825
 30
0.0
 11
77.9
 21
50.9999825
 31
0.0
  0
LINE
  5
5C
330
1E
100
AcDbEntity
  8
0
100
AcDbLine
 10
75.0
 20
50.9999825
 30
0.0
 11
76.0
 21
43.9999825
 31
0.0
  0
LINE
  5
5D
330
1E
100
AcDbEntity
  8
0
100
AcDbLine
 10
75.0
 20
50.9999825
 30
0.0
 11
75.4
 21
50.9999825
 31
0.0
  0
LINE
  5
5E
330
1E
100
AcDbEntity
  8
0
100
AcDbLine
 10
77.9
 20
50.9999825
 30
0.0
 11
80.0
 21
50.9999825
 31
0.0
  0
LINE
  5
5F
330
1E
100
AcDbEntity
  8
0
100
AcDbLine
 10
77.5
 20
38.9999825
 30
0.0
 11
81.5
 21
33.9999825
 31
0.0
  0
LINE
  5
60
330
1E
100
AcDbEntity
  8
0
100
AcDbLine
 10
60.0
 20
28.9999825
 30
0.0
 11
64.0
 21
23.9999825
 31
0.0
  0
LINE
  5
61
330
1E
100
AcDbEntity
  8
0
100
AcDbLine
 10
58.0
 20
53.99998249999999
 30
0.0
 11
59.0
 21
57.99998249999999
 31
0.0
  0
LINE
  5
62
330
1E
100
AcDbEntity
  8
0
100
AcDbLine
 10
59.9
 20
57.99998249999999
 30
0.0
 11
60.66666666666669
 21
57.99998249999999
 31
0.0
  0
LINE
  5
63
330
1E
100
AcDbEntity
  8
0
100
AcDbLine
 10
0.0000000000000012
 20
85.9999825
 30
0.0
 11
0.900000000000001
 21
85.9999825
 31
0.0
  0
LINE
  5
64
330
1E
100
AcDbEntity
  8
0
100
AcDbLine
 10
0.0000000000000012
 20
85.9999825
 30
0.0
 11
0.0000000000000012
 21
76.9999825
 31
0.0
  0
LINE
  5
65
330
1E
100
AcDbEntity
  8
0
100
AcDbLine
 10
44.2
 20
73.9999825
 30
0.0
 11
53.7
 21
73.9999825
 31
0.0
  0
LINE
  5
66
330
1E
100
AcDbEntity
  8
0
100
AcDbLine
 10
27.1
 20
73.9999825
 30
0.0
 11
35.2
 21
73.9999825
 31
0.0
  0
LINE
  5
67
330
1E
100
AcDbEntity
  8
0
100
AcDbLine
 10
35.2
 20
73.9999825
 30
0.0
 11
44.2
 21
73.9999825
 31
0.0
  0
LINE
  5
68
330
1E
100
AcDbEntity
  8
0
100
AcDbLine
 10
53.7
 20
73.9999825
 30
0.0
 11
60.5
 21
73.9999825
 31
0.0
  0
LINE
  5
69
330
1E
100
AcDbEntity
  8
0
100
AcDbLine
 10
59.2
 20
73.9999825
 30
0.0
 11
60.5
 21
73.9999825
 31
0.0
  0
LINE
  5
6A
330
1E
100
AcDbEntity
  8
0
100
AcDbLine
 10
59.2
 20
73.9999825
 30
0.0
 11
60.8
 21
73.9999825
 31
0.0
  0
LINE
  5
6B
330
1E
100
AcDbEntity
  8
0
100
AcDbLine
 10
58.0
 20
73.9999825
 30
0.0
 11
59.2
 21
73.9999825
 31
0.0
  0
LINE
  5
6C
330
1E
100
AcDbEntity
  8
0
100
AcDbLine
 10
57.3
 20
73.9999825
 30
0.0
 11
58.0
 21
73.9999825
 31
0.0
  0
LINE
  5
6D
330
1E
100
AcDbEntity
  8
0
100
AcDbLine
 10
57.0
 20
73.9999825
 30
0.0
 11
57.3
 21
73.9999825
 31
0.0
  0
LINE
  5
6E
330
1E
100
AcDbEntity
  8
0
100
AcDbLine
 10
20.0
 20
73.9999825
 30
0.0
 11
27.1
 21
73.9999825
 31
0.0
  0
LINE
  5
6F
330
1E
100
AcDbEntity
  8
0
100
AcDbLine
 10
14.0
 20
73.9999825
 30
0.0
 11
20.0
 21
73.9999825
 31
0.0
  0
LINE
  5
70
330
1E
100
AcDbEntity
  8
0
100
AcDbLine
 10
9.4
 20
73.9999825
 30
0.0
 11
14.0
 21
73.9999825
 31
0.0
  0
LINE
  5
71
330
1E
100
AcDbEntity
  8
0
100
AcDbLine
 10
6.0
 20
73.9999825
 30
0.0
 11
9.4
 21
73.9999825
 31
0.0
  0
LINE
  5
72
330
1E
100
AcDbEntity
  8
0
100
AcDbLine
 10
3.799999999999999
 20
73.9999825
 30
0.0
 11
6.0
 21
73.9999825
 31
0.0
  0
LINE
  5
73
330
1E
100
AcDbEntity
  8
0
100
AcDbLine
 10
3.0
 20
73.9999825
 30
0.0
 11
3.799999999999999
 21
73.9999825
 31
0.0
  0
LINE
  5
74
330
1E
100
AcDbEntity
  8
0
100
AcDbLine
 10
1.6
 20
74.4999825
 30
0.0
 11
3.0
 21
73.9999825
 31
0.0
  0
LINE
  5
75
330
1E
100
AcDbEntity
  8
0
100
AcDbLine
 10
0.900000000000001
 20
85.9999825
 30
0.0
 11
3.1
 21
85.9999825
 31
0.0
  0
LINE
  5
76
330
1E
100
AcDbEntity
  8
0
100
AcDbLine
 10
17.7
 20
85.9999825
 30
0.0
 11
25.0
 21
85.9999825
 31
0.0
  0
LINE
  5
77
330
1E
100
AcDbEntity
  8
0
100
AcDbLine
 10
11.4
 20
85.9999825
 30
0.0
 11
17.7
 21
85.9999825
 31
0.0
  0
LINE
  5
78
330
1E
100
AcDbEntity
  8
0
100
AcDbLine
 10
6.599999999999999
 20
85.9999825
 30
0.0
 11
11.4
 21
85.9999825
 31
0.0
  0
LINE
  5
79
330
1E
100
AcDbEntity
  8
0
100
AcDbLine
 10
3.1
 20
85.9999825
 30
0.0
 11
6.599999999999999
 21
85.9999825
 31
0.0
  0
LINE
  5
7A
330
1E
100
AcDbEntity
  8
0
100
AcDbLine
 10
0.900000000000001
 20
85.9999825
 30
0.0
 11
3.1
 21
85.9999825
 31
0.0
  0
LINE
  5
7B
330
1E
100
AcDbEntity
  8
0
100
AcDbLine
 10
25.0
 20
85.9999825
 30
0.0
 11
33.3
 21
85.9999825
 31
0.0
  0
LINE
  5
7C
330
1E
100
AcDbEntity
  8
0
100
AcDbLine
 10
33.3
 20
85.9999825
 30
0.0
 11
42.7
 21
85.9999825
 31
0.0
  0
LINE
  5
7D
330
1E
100
AcDbEntity
  8
0
100
AcDbLine
 10
42.7
 20
85.9999825
 30
0.0
 11
52.5
 21
85.9999825
 31
0.0
  0
LINE
  5
7E
330
1E
100
AcDbEntity
  8
0
100
AcDbLine
 10
52.5
 20
85.9999825
 30
0.0
 11
63.1
 21
85.9999825
 31
0.0
  0
LINE
  5
7F
330
1E
100
AcDbEntity
  8
0
100
AcDbLine
 10
0.500000000000001
 20
75.59998249999999
 30
0.0
 11
1.6
 21
74.4999825
 31
0.0
  0
LINE
  5
80
330
1E
100
AcDbEntity
  8
0
100
AcDbLine
 10
0.0000000000000012
 20
76.9999825
 30
0.0
 11
0.0000000000000012
 21
85.9999825
 31
0.0
  0
LINE
  5
81
330
1E
100
AcDbEntity
  8
0
100
AcDbLine
 10
0.0000000000000012
 20
76.9999825
 30
0.0
 11
0.500000000000001
 21
75.59998249999999
 31
0.0
  0
LINE
  5
82
330
1E
100
AcDbEntity
  8
0
100
AcDbLine
 10
59.0
 20
57.99998249999999
 30
0.0
 11
59.9
 21
56.9999825
 31
0.0
  0
LINE
  5
83
330
1E
100
AcDbEntity
  8
0
100
AcDbLine
 10
59.0
 20
57.99998249999999
 30
0.0
 11
59.9
 21
57.99998249999999
 31
0.0
  0
LINE
  5
84
330
1E
100
AcDbEntity
  8
0
100
AcDbLine
 10
60.5
 20
73.9999825
 30
0.0
 11
60.5
 21
58.99998249999999
 31
0.0
  0
LINE
  5
85
330
1E
100
AcDbEntity
  8
0
100
AcDbLine
 10
60.5
 20
58.99998249999999
 30
0.0
 11
60.5
 21
73.9999825
 31
0.0
  0
LINE
  5
86
330
1E
100
AcDbEntity
  8
0
100
AcDbLine
 10
60.5
 20
58.99998249999999
 30
0.0
 11
60.9071942446043
 21
56.5568170323741
 31
0.0
  0
LINE
  5
87
330
1E
100
AcDbEntity
  8
0
100
AcDbLine
 10
62.8
 20
73.9999825
 30
0.0
 11
65.2
 21
73.9999825
 31
0.0
  0
LINE
  5
88
330
1E
100
AcDbEntity
  8
0
100
AcDbLine
 10
60.8
 20
73.9999825
 30
0.0
 11
62.8
 21
73.9999825
 31
0.0
  0
LINE
  5
89
330
1E
100
AcDbEntity
  8
0
100
AcDbLine
 10
63.1
 20
85.9999825
 30
0.0
 11
73.9
 21
85.9999825
 31
0.0
  0
LINE
  5
8A
330
1E
100
AcDbEntity
  8
0
100
AcDbLine
 10
65.2
 20
73.9999825
 30
0.0
 11
68.0
 21
73.9999825
 31
0.0
  0
LINE
  5
8B
330
1E
100
AcDbEntity
  8
0
100
AcDbLine
 10
59.9
 20
56.9999825
 30
0.0
 11
62.4
 21
55.89998249999999
 31
0.0
  0
LINE
  5
8C
330
1E
100
AcDbEntity
  8
0
100
AcDbLine
 10
62.4
 20
55.89998249999999
 30
0.0
 11
66.6
 21
55.21998249999999
 31
0.0
  0
LINE
  5
8D
330
1E
100
AcDbEntity
  8
0
100
AcDbLine
 10
70.5
 20
66.9999825
 30
0.0
 11
72.0
 21
66.9999825
 31
0.0
  0
LINE
  5
8E
330
1E
100
AcDbEntity
  8
0
100
AcDbLine
 10
70.0
 20
73.9999825
 30
0.0
 11
70.0
 21
66.9999825
 31
0.0
  0
LINE
  5
8F
330
1E
100
AcDbEntity
  8
0
100
AcDbLine
 10
70.0
 20
66.9999825
 30
0.0
 11
70.0
 21
73.9999825
 31
0.0
  0
LINE
  5
90
330
1E
100
AcDbEntity
  8
0
100
AcDbLine
 10
70.0
 20
66.9999825
 30
0.0
 11
70.5
 21
66.9999825
 31
0.0
  0
LINE
  5
91
330
1E
100
AcDbEntity
  8
0
100
AcDbLine
 10
70.0
 20
66.9999825
 30
0.0
 11
71.0
 21
65.9999825
 31
0.0
  0
LINE
  5
92
330
1E
100
AcDbEntity
  8
0
100
AcDbLine
 10
68.5
 20
73.9999825
 30
0.0
 11
69.1
 21
73.9999825
 31
0.0
  0
LINE
  5
93
330
1E
100
AcDbEntity
  8
0
100
AcDbLine
 10
69.1
 20
73.9999825
 30
0.0
 11
70.7
 21
73.9999825
 31
0.0
  0
LINE
  5
94
330
1E
100
AcDbEntity
  8
0
100
AcDbLine
 10
69.1
 20
73.9999825
 30
0.0
 11
70.0
 21
73.9999825
 31
0.0
  0
LINE
  5
97
330
1E
100
AcDbEntity
  8
0
100
AcDbLine
 10
72.0
 20
66.9999825
 30
0.0
 11
74.40000000000001
 21
66.9999825
 31
0.0
  0
LINE
  5
98
330
1E
100
AcDbEntity
  8
0
100
AcDbLine
 10
74.40000000000001
 20
66.9999825
 30
0.0
 11
77.5
 21
66.9999825
 31
0.0
  0
LINE
  5
9B
330
1E
100
AcDbEntity
  8
0
100
AcDbLine
 10
71.0
 20
65.9999825
 30
0.0
 11
79.0
 21
64.9999825
 31
0.0
  0
LINE
  5
9C
330
1E
100
AcDbEntity
  8
0
100
AcDbLine
 10
70.7
 20
73.9999825
 30
0.0
 11
73.4
 21
73.9999825
 31
0.0
  0
LINE
  5
9D
330
1E
100
AcDbEntity
  8
0
100
AcDbLine
 10
73.4
 20
73.9999825
 30
0.0
 11
76.79999999999999
 21
73.9999825
 31
0.0
  0
LINE
  5
9E
330
1E
100
AcDbEntity
  8
0
100
AcDbLine
 10
77.5
 20
66.9999825
 30
0.0
 11
81.09999999999999
 21
66.9999825
 31
0.0
  0
LINE
  5
A0
330
1E
100
AcDbEntity
  8
0
100
AcDbLine
 10
76.79999999999999
 20
73.9999825
 30
0.0
 11
80.7
 21
73.9999825
 31
0.0
  0
LINE
  5
A1
330
1E
100
AcDbEntity
  8
0
100
AcDbLine
 10
73.9
 20
85.9999825
 30
0.0
 11
85.0
 21
85.9999825
 31
0.0
  0
LINE
  5
A2
330
1E
100
AcDbEntity
  8
0
100
AcDbLine
 10
68.0
 20
73.9999825
 30
0.0
 11
70.0
 21
73.9999825
 31
0.0
  0
LINE
  5
A3
330
1E
100
AcDbEntity
  8
0
100
AcDbLine
 10
66.6
 20
55.21998249999999
 30
0.0
 11
72.09999999999999
 21
54.59998249999999
 31
0.0
  0
LINE
  5
A4
330
1E
100
AcDbEntity
  8
0
100
AcDbLine
 10
72.09999999999999
 20
54.59998249999999
 30
0.0
 11
78.3
 21
54.18998249999999
 31
0.0
  0
LINE
  5
A5
330
1E
100
AcDbEntity
  8
0
100
AcDbLine
 10
81.09999999999999
 20
16.9999825
 30
0.0
 11
85.0
 21
16.9999825
 31
0.0
  0
LINE
  5
A8
330
1E
100
AcDbEntity
  8
0
100
AcDbLine
 10
85.0
 20
16.9999825
 30
0.0
 11
88.9
 21
16.9999825
 31
0.0
  0
LINE
  5
A9
330
1E
100
AcDbEntity
  8
0
100
AcDbLine
 10
88.9
 20
16.9999825
 30
0.0
 11
92.5
 21
16.9999825
 31
0.0
  0
LINE
  5
AE
330
1E
100
AcDbEntity
  8
0
100
AcDbLine
 10
88.9
 20
18.9999825
 30
0.0
 11
92.5
 21
18.9999825
 31
0.0
  0
LINE
  5
AF
330
1E
100
AcDbEntity
  8
0
100
AcDbLine
 10
80.0
 20
50.9999825
 30
0.0
 11
82.4
 21
50.9999825
 31
0.0
  0
LINE
  5
B0
330
1E
100
AcDbEntity
  8
0
100
AcDbLine
 10
79.2
 20
64.9999825
 30
0.0
 11
79.8
 21
64.9999825
 31
0.0
  0
LINE
  5
B1
330
1E
100
AcDbEntity
  8
0
100
AcDbLine
 10
79.8
 20
64.9999825
 30
0.0
 11
80.8
 21
64.9999825
 31
0.0
  0
LINE
  5
B2
330
1E
100
AcDbEntity
  8
0
100
AcDbLine
 10
79.0
 20
50.9999825
 30
0.0
 11
81.0
 21
61.9999825
 31
0.0
  0
LINE
  5
B3
330
1E
100
AcDbEntity
  8
0
100
AcDbLine
 10
79.0
 20
64.9999825
 30
0.0
 11
81.0
 21
61.9999825
 31
0.0
  0
LINE
  5
B4
330
1E
100
AcDbEntity
  8
0
100
AcDbLine
 10
79.0
 20
64.9999825
 30
0.0
 11
79.2
 21
64.9999825
 31
0.0
  0
LINE
  5
B5
330
1E
100
AcDbEntity
  8
0
100
AcDbLine
 10
85.0
 20
18.9999825
 30
0.0
 11
88.9
 21
18.9999825
 31
0.0
  0
LINE
  5
BB
330
1E
100
AcDbEntity
  8
0
100
AcDbLine
 10
82.4
 20
50.9999825
 30
0.0
 11
85.0
 21
50.9999825
 31
0.0
  0
LINE
  5
BC
330
1E
100
AcDbEntity
  8
0
100
AcDbLine
 10
81.5
 20
33.9999825
 30
0.0
 11
84.98125160779478
 21
33.60663393849853
 31
0.0
  0
LINE
  5
BE
330
1E
100
AcDbEntity
  8
0
100
AcDbLine
 10
84.98125160779478
 20
33.60663393849853
 30
0.0
 11
88.49999999999999
 21
33.9999825
 31
0.0
  0
LINE
  5
C0
330
1E
100
AcDbEntity
  8
0
100
AcDbLine
 10
81.0
 20
61.9999825
 30
0.0
 11
81.09999999999999
 21
61.9999825
 31
0.0
  0
LINE
  5
C1
330
1E
100
AcDbEntity
  8
0
100
AcDbLine
 10
81.09999999999999
 20
61.9999825
 30
0.0
 11
81.5
 21
61.9999825
 31
0.0
  0
LINE
  5
C2
330
1E
100
AcDbEntity
  8
0
100
AcDbLine
 10
81.5
 20
61.9999825
 30
0.0
 11
82.2
 21
61.9999825
 31
0.0
  0
LINE
  5
C3
330
1E
100
AcDbEntity
  8
0
100
AcDbLine
 10
82.2
 20
61.9999825
 30
0.0
 11
83.0
 21
61.9999825
 31
0.0
  0
LINE
  5
C4
330
1E
100
AcDbEntity
  8
0
100
AcDbLine
 10
83.0
 20
61.9999825
 30
0.0
 11
84.0
 21
61.9999825
 31
0.0
  0
LINE
  5
C5
330
1E
100
AcDbEntity
  8
0
100
AcDbLine
 10
80.8
 20
64.9999825
 30
0.0
 11
82.0
 21
64.9999825
 31
0.0
  0
LINE
  5
C6
330
1E
100
AcDbEntity
  8
0
100
AcDbLine
 10
82.0
 20
64.9999825
 30
0.0
 11
83.49999999999999
 21
64.9999825
 31
0.0
  0
LINE
  5
C7
330
1E
100
AcDbEntity
  8
0
100
AcDbLine
 10
84.0
 20
61.9999825
 30
0.0
 11
85.0
 21
61.9999825
 31
0.0
  0
LINE
  5
C8
330
1E
100
AcDbEntity
  8
0
100
AcDbLine
 10
83.49999999999999
 20
64.9999825
 30
0.0
 11
85.0
 21
64.9999825
 31
0.0
  0
LINE
  5
C9
330
1E
100
AcDbEntity
  8
0
100
AcDbLine
 10
85.0
 20
50.9999825
 30
0.0
 11
87.59999999999999
 21
50.9999825
 31
0.0
  0
LINE
  5
CA
330
1E
100
AcDbEntity
  8
0
100
AcDbLine
 10
85.0
 20
61.9999825
 30
0.0
 11
86.0
 21
61.9999825
 31
0.0
  0
LINE
  5
CB
330
1E
100
AcDbEntity
  8
0
100
AcDbLine
 10
81.09999999999999
 20
66.9999825
 30
0.0
 11
85.0
 21
66.9999825
 31
0.0
  0
LINE
  5
CD
330
1E
100
AcDbEntity
  8
0
100
AcDbLine
 10
85.0
 20
64.9999825
 30
0.0
 11
86.5
 21
64.9999825
 31
0.0
  0
LINE
  5
CF
330
1E
100
AcDbEntity
  8
0
100
AcDbLine
 10
85.0
 20
66.9999825
 30
0.0
 11
88.9
 21
66.9999825
 31
0.0
  0
LINE
  5
D4
330
1E
100
AcDbEntity
  8
0
100
AcDbLine
 10
87.59999999999999
 20
50.9999825
 30
0.0
 11
90.0
 21
50.9999825
 31
0.0
  0
LINE
  5
D5
330
1E
100
AcDbEntity
  8
0
100
AcDbLine
 10
87.79999999999999
 20
61.9999825
 30
0.0
 11
88.49999999999999
 21
61.9999825
 31
0.0
  0
LINE
  5
D6
330
1E
100
AcDbEntity
  8
0
100
AcDbLine
 10
87.0
 20
61.9999825
 30
0.0
 11
87.79999999999999
 21
61.9999825
 31
0.0
  0
LINE
  5
D7
330
1E
100
AcDbEntity
  8
0
100
AcDbLine
 10
86.0
 20
61.9999825
 30
0.0
 11
87.0
 21
61.9999825
 31
0.0
  0
LINE
  5
D9
330
1E
100
AcDbEntity
  8
0
100
AcDbLine
 10
88.49999999999999
 20
33.9999825
 30
0.0
 11
92.5
 21
38.9999825
 31
0.0
  0
LINE
  5
DA
330
1E
100
AcDbEntity
  8
0
100
AcDbLine
 10
88.49999999999999
 20
61.9999825
 30
0.0
 11
88.9
 21
61.9999825
 31
0.0
  0
LINE
  5
DB
330
1E
100
AcDbEntity
  8
0
100
AcDbLine
 10
88.0
 20
64.9999825
 30
0.0
 11
89.19999999999999
 21
64.9999825
 31
0.0
  0
LINE
  5
DC
330
1E
100
AcDbEntity
  8
0
100
AcDbLine
 10
86.5
 20
64.9999825
 30
0.0
 11
88.0
 21
64.9999825
 31
0.0
  0
LINE
  5
DD
330
1E
100
AcDbEntity
  8
0
100
AcDbLine
 10
88.9
 20
61.9999825
 30
0.0
 11
89.0
 21
61.9999825
 31
0.0
  0
LINE
  5
DF
330
1E
100
AcDbEntity
  8
0
100
AcDbLine
 10
90.0
 20
50.9999825
 30
0.0
 11
92.09999999999999
 21
50.9999825
 31
0.0
  0
LINE
  5
E0
330
1E
100
AcDbEntity
  8
0
100
AcDbLine
 10
89.0
 20
61.9999825
 30
0.0
 11
91.0
 21
64.9999825
 31
0.0
  0
LINE
  5
E1
330
1E
100
AcDbEntity
  8
0
100
AcDbLine
 10
89.0
 20
61.9999825
 30
0.0
 11
91.0
 21
50.9999825
 31
0.0
  0
LINE
  5
E2
330
1E
100
AcDbEntity
  8
0
100
AcDbLine
 10
90.42656587473
 20
54.15387018898489
 30
0.0
 11
91.69999999999999
 21
54.18998249999999
 31
0.0
  0
LINE
  5
E3
330
1E
100
AcDbEntity
  8
0
100
AcDbLine
 10
91.69999999999999
 20
54.18998249999999
 30
0.0
 11
97.9
 21
54.59998249999999
 31
0.0
  0
LINE
  5
E4
330
1E
100
AcDbEntity
  8
0
100
AcDbLine
 10
90.8
 20
64.9999825
 30
0.0
 11
91.0
 21
64.9999825
 31
0.0
  0
LINE
  5
E5
330
1E
100
AcDbEntity
  8
0
100
AcDbLine
 10
91.0
 20
64.9999825
 30
0.0
 11
99.0
 21
65.9999825
 31
0.0
  0
LINE
  5
E6
330
1E
100
AcDbEntity
  8
0
100
AcDbLine
 10
90.20000000000001
 20
64.9999825
 30
0.0
 11
90.8
 21
64.9999825
 31
0.0
  0
LINE
  5
E7
330
1E
100
AcDbEntity
  8
0
100
AcDbLine
 10
89.19999999999999
 20
64.9999825
 30
0.0
 11
90.20000000000001
 21
64.9999825
 31
0.0
  0
LINE
  5
E8
330
1E
100
AcDbEntity
  8
0
100
AcDbLine
 10
92.09999999999999
 20
50.9999825
 30
0.0
 11
93.7
 21
50.9999825
 31
0.0
  0
LINE
  5
EA
330
1E
100
AcDbEntity
  8
0
100
AcDbLine
 10
88.9
 20
66.9999825
 30
0.0
 11
92.5
 21
66.9999825
 31
0.0
  0
LINE
  5
EB
330
1E
100
AcDbEntity
  8
0
100
AcDbLine
 10
89.29999999999999
 20
73.9999825
 30
0.0
 11
93.2
 21
73.9999825
 31
0.0
  0
LINE
  5
EC
330
1E
100
AcDbEntity
  8
0
100
AcDbLine
 10
85.0
 20
73.9999825
 30
0.0
 11
89.29999999999999
 21
73.9999825
 31
0.0
  0
LINE
  5
ED
330
1E
100
AcDbEntity
  8
0
100
AcDbLine
 10
85.0
 20
85.9999825
 30
0.0
 11
96.09999999999999
 21
85.9999825
 31
0.0
  0
LINE
  5
EE
330
1E
100
AcDbEntity
  8
0
100
AcDbLine
 10
80.7
 20
73.9999825
 30
0.0
 11
85.0
 21
73.9999825
 31
0.0
  0
LINE
  5
EF
330
1E
100
AcDbEntity
  8
0
100
AcDbLine
 10
81.09999999999999
 20
18.9999825
 30
0.0
 11
85.0
 21
18.9999825
 31
0.0
  0
LINE
  5
F0
330
1E
100
AcDbEntity
  8
0
100
AcDbLine
 10
78.3
 20
54.18998249999999
 30
0.0
 11
79.57343412526999
 21
54.15387018898489
 31
0.0
  0
LINE
  5
F1
330
1E
100
AcDbEntity
  8
0
100
AcDbLine
 10
91.9945604592752
 20
14.59889459185499
 30
0.0
 11
92.2
 21
11.7771825
 31
0.0
  0
LINE
  5
F2
330
1E
100
AcDbEntity
  8
0
100
AcDbLine
 10
92.5
 20
16.9999825
 30
0.0
 11
95.6
 21
16.9999825
 31
0.0
  0
LINE
  5
F3
330
1E
100
AcDbEntity
  8
0
100
AcDbLine
 10
92.5
 20
18.9999825
 30
0.0
 11
95.6
 21
18.9999825
 31
0.0
  0
LINE
  5
F4
330
1E
100
AcDbEntity
  8
0
100
AcDbLine
 10
92.5
 20
38.9999825
 30
0.0
 11
94.0
 21
43.9999825
 31
0.0
  0
LINE
  5
F7
330
1E
100
AcDbEntity
  8
0
100
AcDbLine
 10
94.0
 20
43.9999825
 30
0.0
 11
95.0
 21
50.9999825
 31
0.0
  0
LINE
  5
F8
330
1E
100
AcDbEntity
  8
0
100
AcDbLine
 10
94.59999999999999
 20
50.9999825
 30
0.0
 11
95.0
 21
50.9999825
 31
0.0
  0
LINE
  5
F9
330
1E
100
AcDbEntity
  8
0
100
AcDbLine
 10
93.7
 20
50.9999825
 30
0.0
 11
94.59999999999999
 21
50.9999825
 31
0.0
  0
LINE
  5
FA
330
1E
100
AcDbEntity
  8
0
100
AcDbLine
 10
95.6
 20
16.9999825
 30
0.0
 11
98.0
 21
16.9999825
 31
0.0
  0
LINE
  5
FC
330
1E
100
AcDbEntity
  8
0
100
AcDbLine
 10
96.5
 20
15.4999825
 30
0.0
 11
100.0
 21
16.9999825
 31
0.0
  0
LINE
  5
FE
330
1E
100
AcDbEntity
  8
0
100
AcDbLine
 10
95.6
 20
18.9999825
 30
0.0
 11
98.0
 21
18.9999825
 31
0.0
  0
LINE
  5
100
330
1E
100
AcDbEntity
  8
0
100
AcDbLine
 10
92.5
 20
66.9999825
 30
0.0
 11
95.6
 21
66.9999825
 31
0.0
  0
LINE
  5
101
330
1E
100
AcDbEntity
  8
0
100
AcDbLine
 10
95.6
 20
66.9999825
 30
0.0
 11
98.0
 21
66.9999825
 31
0.0
  0
LINE
  5
102
330
1E
100
AcDbEntity
  8
0
100
AcDbLine
 10
98.0
 20
16.9999825
 30
0.0
 11
99.50000000000001
 21
16.9999825
 31
0.0
  0
LINE
  5
103
330
1E
100
AcDbEntity
  8
0
100
AcDbLine
 10
98.0
 20
18.9999825
 30
0.0
 11
99.50000000000001
 21
18.9999825
 31
0.0
  0
LINE
  5
104
330
1E
100
AcDbEntity
  8
0
100
AcDbLine
 10
97.9
 20
54.59998249999999
 30
0.0
 11
103.4
 21
55.21998249999999
 31
0.0
  0
LINE
  5
108
330
1E
100
AcDbEntity
  8
0
100
AcDbLine
 10
99.50000000000001
 20
16.9999825
 30
0.0
 11
100.0
 21
16.9999825
 31
0.0
  0
LINE
  5
109
330
1E
100
AcDbEntity
  8
0
100
AcDbLine
 10
100.0
 20
16.9999825
 30
0.0
 11
100.5
 21
17.4999825
 31
0.0
  0
LINE
  5
10C
330
1E
100
AcDbEntity
  8
0
100
AcDbLine
 10
99.50000000000001
 20
18.9999825
 30
0.0
 11
100.0
 21
18.9999825
 31
0.0
  0
LINE
  5
10D
330
1E
100
AcDbEntity
  8
0
100
AcDbLine
 10
100.0
 20
18.9999825
 30
0.0
 11
106.0
 21
23.9999825
 31
0.0
  0
LINE
  5
10E
330
1E
100
AcDbEntity
  8
0
100
AcDbLine
 10
100.0
 20
18.9999825
 30
0.0
 11
100.5
 21
18.4999825
 31
0.0
  0
LINE
  5
110
330
1E
100
AcDbEntity
  8
0
100
AcDbLine
 10
99.0
 20
65.9999825
 30
0.0
 11
100.0
 21
66.9999825
 31
0.0
  0
LINE
  5
111
330
1E
100
AcDbEntity
  8
0
100
AcDbLine
 10
98.0
 20
66.9999825
 30
0.0
 11
99.50000000000001
 21
66.9999825
 31
0.0
  0
LINE
  5
112
330
1E
100
AcDbEntity
  8
0
100
AcDbLine
 10
99.50000000000001
 20
66.9999825
 30
0.0
 11
100.0
 21
66.9999825
 31
0.0
  0
LINE
  5
113
330
1E
100
AcDbEntity
  8
0
100
AcDbLine
 10
100.0
 20
66.9999825
 30
0.0
 11
100.0
 21
73.9999825
 31
0.0
  0
LINE
  5
114
330
1E
100
AcDbEntity
  8
0
100
AcDbLine
 10
99.29999999999999
 20
73.9999825
 30
0.0
 11
100.9
 21
73.9999825
 31
0.0
  0
LINE
  5
115
330
1E
100
AcDbEntity
  8
0
100
AcDbLine
 10
96.6
 20
73.9999825
 30
0.0
 11
99.29999999999999
 21
73.9999825
 31
0.0
  0
LINE
  5
116
330
1E
100
AcDbEntity
  8
0
100
AcDbLine
 10
93.2
 20
73.9999825
 30
0.0
 11
96.6
 21
73.9999825
 31
0.0
  0
LINE
  5
117
330
1E
100
AcDbEntity
  8
0
100
AcDbLine
 10
100.5
 20
18.4999825
 30
0.0
 11
100.5
 21
17.4999825
 31
0.0
  0
LINE
  5
118
330
1E
100
AcDbEntity
  8
0
100
AcDbLine
 10
100.5
 20
17.4999825
 30
0.0
 11
100.5
 21
18.4999825
 31
0.0
  0
LINE
  5
119
330
1E
100
AcDbEntity
  8
0
100
AcDbLine
 10
103.4
 20
55.21998249999999
 30
0.0
 11
107.6
 21
55.89998249999999
 31
0.0
  0
LINE
  5
11A
330
1E
100
AcDbEntity
  8
0
100
AcDbLine
 10
100.9
 20
73.9999825
 30
0.0
 11
101.5
 21
73.9999825
 31
0.0
  0
LINE
  5
11B
330
1E
100
AcDbEntity
  8
0
100
AcDbLine
 10
100.0
 20
73.9999825
 30
0.0
 11
102.0
 21
73.9999825
 31
0.0
  0
LINE
  5
11C
330
1E
100
AcDbEntity
  8
0
100
AcDbLine
 10
100.0
 20
73.9999825
 30
0.0
 11
100.9
 21
73.9999825
 31
0.0
  0
LINE
  5
11D
330
1E
100
AcDbEntity
  8
0
100
AcDbLine
 10
100.0
 20
73.9999825
 30
0.0
 11
100.0
 21
66.9999825
 31
0.0
  0
LINE
  5
11E
330
1E
100
AcDbEntity
  8
0
100
AcDbLine
 10
102.0
 20
73.9999825
 30
0.0
 11
104.8
 21
73.9999825
 31
0.0
  0
LINE
  5
11F
330
1E
100
AcDbEntity
  8
0
100
AcDbLine
 10
107.6
 20
55.89998249999999
 30
0.0
 11
110.0999999999999
 21
56.9999825
 31
0.0
  0
LINE
  5
120
330
1E
100
AcDbEntity
  8
0
100
AcDbLine
 10
106.0
 20
23.9999825
 30
0.0
 11
110.0
 21
28.9999825
 31
0.0
  0
LINE
  5
121
330
1E
100
AcDbEntity
  8
0
100
AcDbLine
 10
109.0928057553959
 20
56.5568170323741
 30
0.0
 11
109.4999999999999
 21
58.99998249999999
 31
0.0
  0
LINE
  5
122
330
1E
100
AcDbEntity
  8
0
100
AcDbLine
 10
104.8
 20
73.9999825
 30
0.0
 11
107.2
 21
73.9999825
 31
0.0
  0
LINE
  5
123
330
1E
100
AcDbEntity
  8
0
100
AcDbLine
 10
107.2
 20
73.9999825
 30
0.0
 11
109.2
 21
73.9999825
 31
0.0
  0
LINE
  5
124
330
1E
100
AcDbEntity
  8
0
100
AcDbLine
 10
109.3333333333329
 20
57.99998249999999
 30
0.0
 11
110.0999999999999
 21
57.99998249999999
 31
0.0
  0
LINE
  5
125
330
1E
100
AcDbEntity
  8
0
100
AcDbLine
 10
109.4999999999999
 20
58.99998249999999
 30
0.0
 11
109.4999999999999
 21
73.9999825
 31
0.0
  0
LINE
  5
126
330
1E
100
AcDbEntity
  8
0
100
AcDbLine
 10
110.0999999999999
 20
56.9999825
 30
0.0
 11
111.0
 21
57.99998249999999
 31
0.0
  0
LINE
  5
127
330
1E
100
AcDbEntity
  8
0
100
AcDbLine
 10
110.0
 20
28.9999825
 30
0.0
 11
112.0
 21
34.4999825
 31
0.0
  0
LINE
  5
128
330
1E
100
AcDbEntity
  8
0
100
AcDbLine
 10
112.0
 20
34.4999825
 30
0.0
 11
113.0
 21
41.9999825
 31
0.0
  0
LINE
  5
129
330
1E
100
AcDbEntity
  8
0
100
AcDbLine
 10
112.0
 20
53.99998249999999
 30
0.0
 11
113.0
 21
45.9999825
 31
0.0
  0
LINE
  5
12A
330
1E
100
AcDbEntity
  8
0
100
AcDbLine
 10
110.0999999999999
 20
57.99998249999999
 30
0.0
 11
111.0
 21
57.99998249999999
 31
0.0
  0
LINE
  5
12B
330
1E
100
AcDbEntity
  8
0
100
AcDbLine
 10
111.0
 20
57.99998249999999
 30
0.0
 11
112.0
 21
53.99998249999999
 31
0.0
  0
LINE
  5
12C
330
1E
100
AcDbEntity
  8
0
100
AcDbLine
 10
109.4999999999999
 20
73.9999825
 30
0.0
 11
116.3
 21
73.9999825
 31
0.0
  0
LINE
  5
12D
330
1E
100
AcDbEntity
  8
0
100
AcDbLine
 10
109.4999999999999
 20
73.9999825
 30
0.0
 11
110.8
 21
73.9999825
 31
0.0
  0
LINE
  5
12E
330
1E
100
AcDbEntity
  8
0
100
AcDbLine
 10
109.4999999999999
 20
73.9999825
 30
0.0
 11
109.4999999999999
 21
58.99998249999999
 31
0.0
  0
LINE
  5
12F
330
1E
100
AcDbEntity
  8
0
100
AcDbLine
 10
109.2
 20
73.9999825
 30
0.0
 11
110.8
 21
73.9999825
 31
0.0
  0
LINE
  5
130
330
1E
100
AcDbEntity
  8
0
100
AcDbLine
 10
110.8
 20
73.9999825
 30
0.0
 11
112.0
 21
73.9999825
 31
0.0
  0
LINE
  5
131
330
1E
100
AcDbEntity
  8
0
100
AcDbLine
 10
113.0
 20
45.9999825
 30
0.0
 11
113.0
 21
41.9999825
 31
0.0
  0
LINE
  5
132
330
1E
100
AcDbEntity
  8
0
100
AcDbLine
 10
113.0
 20
41.9999825
 30
0.0
 11
113.0
 21
45.9999825
 31
0.0
  0
LINE
  5
133
330
1E
100
AcDbEntity
  8
0
100
AcDbLine
 10
134.8
 20
73.9999825
 30
0.0
 11
142.9
 21
73.9999825
 31
0.0
  0
LINE
  5
134
330
1E
100
AcDbEntity
  8
0
100
AcDbLine
 10
125.8
 20
73.9999825
 30
0.0
 11
134.8
 21
73.9999825
 31
0.0
  0
LINE
  5
135
330
1E
100
AcDbEntity
  8
0
100
AcDbLine
 10
116.3
 20
73.9999825
 30
0.0
 11
125.8
 21
73.9999825
 31
0.0
  0
LINE
  5
136
330
1E
100
AcDbEntity
  8
0
100
AcDbLine
 10
142.9
 20
73.9999825
 30
0.0
 11
150.0
 21
73.9999825
 31
0.0
  0
LINE
  5
137
330
1E
100
AcDbEntity
  8
0
100
AcDbLine
 10
150.0
 20
73.9999825
 30
0.0
 11
156.0
 21
73.9999825
 31
0.0
  0
LINE
  5
138
330
1E
100
AcDbEntity
  8
0
100
AcDbLine
 10
156.0
 20
73.9999825
 30
0.0
 11
160.5999999999999
 21
73.9999825
 31
0.0
  0
LINE
  5
139
330
1E
100
AcDbEntity
  8
0
100
AcDbLine
 10
160.5999999999999
 20
73.9999825
 30
0.0
 11
164.0
 21
73.9999825
 31
0.0
  0
LINE
  5
13A
330
1E
100
AcDbEntity
  8
0
100
AcDbLine
 10
164.0
 20
73.9999825
 30
0.0
 11
166.1999999999999
 21
73.9999825
 31
0.0
  0
LINE
  5
13B
330
1E
100
AcDbEntity
  8
0
100
AcDbLine
 10
166.1999999999999
 20
73.9999825
 30
0.0
 11
167.0
 21
73.9999825
 31
0.0
  0
LINE
  5
13C
330
1E
100
AcDbEntity
  8
0
100
AcDbLine
 10
167.0
 20
73.9999825
 30
0.0
 11
168.4
 21
74.4999825
 31
0.0
  0
LINE
  5
13D
330
1E
100
AcDbEntity
  8
0
100
AcDbLine
 10
112.0
 20
73.9999825
 30
0.0
 11
112.7
 21
73.9999825
 31
0.0
  0
LINE
  5
13E
330
1E
100
AcDbEntity
  8
0
100
AcDbLine
 10
136.6999999999999
 20
85.9999825
 30
0.0
 11
145.0
 21
85.9999825
 31
0.0
  0
LINE
  5
13F
330
1E
100
AcDbEntity
  8
0
100
AcDbLine
 10
127.2999999999999
 20
85.9999825
 30
0.0
 11
136.6999999999999
 21
85.9999825
 31
0.0
  0
LINE
  5
140
330
1E
100
AcDbEntity
  8
0
100
AcDbLine
 10
117.5
 20
85.9999825
 30
0.0
 11
127.2999999999999
 21
85.9999825
 31
0.0
  0
LINE
  5
141
330
1E
100
AcDbEntity
  8
0
100
AcDbLine
 10
106.9
 20
85.9999825
 30
0.0
 11
117.5
 21
85.9999825
 31
0.0
  0
LINE
  5
142
330
1E
100
AcDbEntity
  8
0
100
AcDbLine
 10
96.09999999999999
 20
85.9999825
 30
0.0
 11
106.9
 21
85.9999825
 31
0.0
  0
LINE
  5
143
330
1E
100
AcDbEntity
  8
0
100
AcDbLine
 10
145.0
 20
85.9999825
 30
0.0
 11
152.3
 21
85.9999825
 31
0.0
  0
LINE
  5
144
330
1E
100
AcDbEntity
  8
0
100
AcDbLine
 10
152.3
 20
85.9999825
 30
0.0
 11
158.6
 21
85.9999825
 31
0.0
  0
LINE
  5
145
330
1E
100
AcDbEntity
  8
0
100
AcDbLine
 10
158.6
 20
85.9999825
 30
0.0
 11
163.4
 21
85.9999825
 31
0.0
  0
LINE
  5
146
330
1E
100
AcDbEntity
  8
0
100
AcDbLine
 10
168.4
 20
74.4999825
 30
0.0
 11
169.5
 21
75.59998249999999
 31
0.0
  0
LINE
  5
147
330
1E
100
AcDbEntity
  8
0
100
AcDbLine
 10
163.4
 20
85.9999825
 30
0.0
 11
166.9
 21
85.9999825
 31
0.0
  0
LINE
  5
148
330
1E
100
AcDbEntity
  8
0
100
AcDbLine
 10
166.9
 20
85.9999825
 30
0.0
 11
169.1
 21
85.9999825
 31
0.0
  0
LINE
  5
149
330
1E
100
AcDbEntity
  8
0
100
AcDbLine
 10
169.5
 20
75.59998249999999
 30
0.0
 11
170.0
 21
76.9999825
 31
0.0
  0
LINE
  5
14A
330
1E
100
AcDbEntity
  8
0
100
AcDbLine
 10
170.0
 20
85.9999825
 30
0.0
 11
170.0
 21
76.9999825
 31
0.0
  0
LINE
  5
14B
330
1E
100
AcDbEntity
  8
0
100
AcDbLine
 10
170.0
 20
76.9999825
 30
0.0
 11
170.0
 21
85.9999825
 31
0.0
  0
LINE
  5
14C
330
1E
100
AcDbEntity
  8
0
100
AcDbLine
 10
169.1
 20
85.9999825
 30
0.0
 11
170.0
 21
85.9999825
 31
0.0
  0
LINE
  5
14D
330
1E
100
AcDbEntity
  8
0
100
AcDbLine
 10
112.7
 20
73.9999825
 30
0.0
 11
113.0
 21
73.9999825
 31
0.0
  0
LINE
  5
14E
330
1E
100
AcDbEntity
  8
0
100
AcDbLine
 10
92.2
 20
11.7771825
 30
0.0
 11
92.5
 21
7.9735725
 31
0.0
  0
ENDSEC
  0
SECTION
  2
OBJECTS
  0
DICTIONARY
  5
C
330
0
100
AcDbDictionary
281
     1
  3
ACAD_GROUP
350
D
  3
ACAD_LAYOUT
350
19
  3
ACAD_MLINESTYLE
350
16
  3
ACAD_PLOTSETTINGS
350
18
  3
ACAD_PLOTSTYLENAME
350
E
  3
AcDbVariableDictionary
350
153
  0
DICTIONARY
  5
D
102
{ACAD_REACTORS
330
C
102
}
330
C
100
AcDbDictionary
281
     1
  0
DICTIONARY
  5
19
102
{ACAD_REACTORS
330
C
102
}
330
C
100
AcDbDictionary
281
     1
  3
Layout1
350
1D
  3
Model
350
21
  0
DICTIONARY
  5
16
102
{ACAD_REACTORS
330
C
102
}
330
C
100
AcDbDictionary
281
     1
  3
Standard
350
17
  0
DICTIONARY
  5
18
102
{ACAD_REACTORS
330
C
102
}
330
C
100
AcDbDictionary
281
     1
  0
ACDBDICTIONARYWDFLT
  5
E
102
{ACAD_REACTORS
330
C
102
}
330
C
100
AcDbDictionary
281
     1
  3
Normal
350
F
100
AcDbDictionaryWithDefault
340
F
  0
DICTIONARY
  5
153
102
{ACAD_REACTORS
330
C
102
}
330
C
100
AcDbDictionary
281
     1
  3
DIMASSOC
350
154
  0
LAYOUT
  5
1D
102
{ACAD_REACTORS
330
19
102
}
330
19
100
AcDbPlotSettings
  1

  2
hp deskjet 980c series
  4

  6

 40
0.0
 41
0.0
 42
0.0
 43
0.0
 44
0.0
 45
0.0
 46
0.0
 47
0.0
 48
0.0
 49
0.0
140
0.0
141
0.0
142
1.0
143
1.0
 70
   688
 72
     0
 73
     0
 74
     5
  7

 75
    16
147
1.0
148
0.0
149
0.0
100
AcDbLayout
  1
Layout1
 70
     1
 71
     1
 10
0.0
 20
0.0
 11
12.0
 21
9.0
 12
0.0
 22
0.0
 32
0.0
 14
1.000000000000000E+20
 24
1.000000000000000E+20
 34
1.000000000000000E+20
 15
-1.000000000000000E+20
 25
-1.000000000000000E+20
 35
-1.000000000000000E+20
146
0.0
 13
0.0
 23
0.0
 33
0.0
 16
1.0
 26
0.0
 36
0.0
 17
0.0
 27
1.0
 37
0.0
 76
     0
330
1A
  0
LAYOUT
  5
21
102
{ACAD_REACTORS
330
19
102
}
330
19
100
AcDbPlotSettings
  1

  2
hp deskjet 980c series
  4

  6

 40
0.0
 41
0.0
 42
0.0
 43
0.0
 44
0.0
 45
0.0
 46
0.0
 47
0.0
 48
0.0
 49
0.0
140
0.0
141
0.0
142
1.0
143
1.0
 70
  1712
 72
     0
 73
     0
 74
     0
  7

 75
     0
147
1.0
148
0.0
149
0.0
100
AcDbLayout
  1
Model
 70
     1
 71
     0
 10
0.0
 20
0.0
 11
12.0
 21
9.0
 12
0.0
 22
0.0
 32
0.0
 14
0.0
 24
0.0
 34
0.0
 15
0.0
 25
0.0
 35
0.0
146
0.0
 13
0.0
 23
0.0
 33
0.0
 16
1.0
 26
0.0
 36
0.0
 17
0.0
 27
1.0
 37
0.0
 76
     0
330
1E
  0
MLINESTYLE
  5
17
102
{ACAD_REACTORS
330
16
102
}
330
16
100
AcDbMlineStyle
  2
STANDARD
 70
     0
  3

 62
   256
 51
90.0
 52
90.0
 71
     2
 49
0.5
 62
   256
  6
BYLAYER
 49
-0.5
 62
   256
  6
BYLAYER
  0
ACDBPLACEHOLDER
  5
F
102
{ACAD_REACTORS
330
E
102
}
330
E
  0
DICTIONARYVAR
  5
154
102
{ACAD_REACTORS
330
153
102
}
330
153
100
DictionaryVariables
280
     0
  1
1
  0
ENDSEC
  0
EOF
