  0
SECTION
  2
HEADER
  9
$ACADVER
  1
AC1015
  9
$ACADMAINTVER
 70
    13
  9
$DWGCODEPAGE
  3
ANSI_1252
  9
$INSBASE
 10
0.0
 20
0.0
 30
0.0
  9
$EXTMIN
 10
-0.0000000000000027
 20
0.0000000000000052
 30
0.0
  9
$EXTMAX
 10
285.0
 20
114.0
 30
0.0
  9
$LIMMIN
 10
0.0
 20
0.0
  9
$LIMMAX
 10
12.0
 20
9.0
  9
$ORTHOMODE
 70
     0
  9
$REGENMODE
 70
     1
  9
$FILLMODE
 70
     1
  9
$QTEXTMODE
 70
     0
  9
$MIRRTEXT
 70
     1
  9
$LTSCALE
 40
1.0
  9
$ATTMODE
 70
     1
  9
$TEXTSIZE
 40
0.2
  9
$TRACEWID
 40
0.05
  9
$TEXTSTYLE
  7
Standard
  9
$CLAYER
  8
0
  9
$CELTYPE
  6
Continuous
  9
$CECOLOR
 62
   256
  9
$CELTSCALE
 40
1.0
  9
$DISPSILH
 70
     0
  9
$DIMSCALE
 40
1.0
  9
$DIMASZ
 40
0.18
  9
$DIMEXO
 40
0.0625
  9
$DIMDLI
 40
0.38
  9
$DIMRND
 40
0.0
  9
$DIMDLE
 40
0.0
  9
$DIMEXE
 40
0.18
  9
$DIMTP
 40
0.0
  9
$DIMTM
 40
0.0
  9
$DIMTXT
 40
0.18
  9
$DIMCEN
 40
0.09
  9
$DIMTSZ
 40
0.0
  9
$DIMTOL
 70
     0
  9
$DIMLIM
 70
     0
  9
$DIMTIH
 70
     1
  9
$DIMTOH
 70
     1
  9
$DIMSE1
 70
     0
  9
$DIMSE2
 70
     0
  9
$DIMTAD
 70
     0
  9
$DIMZIN
 70
     0
  9
$DIMBLK
  1

  9
$DIMASO
 70
     1
  9
$DIMSHO
 70
     1
  9
$DIMPOST
  1

  9
$DIMAPOST
  1

  9
$DIMALT
 70
     0
  9
$DIMALTD
 70
     2
  9
$DIMALTF
 40
25.4
  9
$DIMLFAC
 40
1.0
  9
$DIMTOFL
 70
     0
  9
$DIMTVP
 40
0.0
  9
$DIMTIX
 70
     0
  9
$DIMSOXD
 70
     0
  9
$DIMSAH
 70
     0
  9
$DIMBLK1
  1

  9
$DIMBLK2
  1

  9
$DIMSTYLE
  2
Standard
  9
$DIMCLRD
 70
     0
  9
$DIMCLRE
 70
     0
  9
$DIMCLRT
 70
     0
  9
$DIMTFAC
 40
1.0
  9
$DIMGAP
 40
0.09
  9
$DIMJUST
 70
     0
  9
$DIMSD1
 70
     0
  9
$DIMSD2
 70
     0
  9
$DIMTOLJ
 70
     1
  9
$DIMTZIN
 70
     0
  9
$DIMALTZ
 70
     0
  9
$DIMALTTZ
 70
     0
  9
$DIMUPT
 70
     0
  9
$DIMDEC
 70
     4
  9
$DIMTDEC
 70
     4
  9
$DIMALTU
 70
     2
  9
$DIMALTTD
 70
     2
  9
$DIMTXSTY
  7
Standard
  9
$DIMAUNIT
 70
     0
  9
$DIMADEC
 70
     0
  9
$DIMALTRND
 40
0.0
  9
$DIMAZIN
 70
     0
  9
$DIMDSEP
 70
    46
  9
$DIMATFIT
 70
     3
  9
$DIMFRAC
 70
     0
  9
$DIMLDRBLK
  1

  9
$DIMLUNIT
 70
     2
  9
$DIMLWD
 70
    -2
  9
$DIMLWE
 70
    -2
  9
$DIMTMOVE
 70
     0
  9
$LUNITS
 70
     2
  9
$LUPREC
 70
     4
  9
$SKETCHINC
 40
0.1
  9
$FILLETRAD
 40
0.0
  9
$AUNITS
 70
     0
  9
$AUPREC
 70
     0
  9
$MENU
  1
.
  9
$ELEVATION
 40
0.0
  9
$PELEVATION
 40
0.0
  9
$THICKNESS
 40
0.0
  9
$LIMCHECK
 70
     0
  9
$CHAMFERA
 40
0.0
  9
$CHAMFERB
 40
0.0
  9
$CHAMFERC
 40
0.0
  9
$CHAMFERD
 40
0.0
  9
$SKPOLY
 70
     0
  9
$TDCREATE
 40
2454753.363131319
  9
$TDUCREATE
 40
2454753.279797986
  9
$TDUPDATE
 40
2454753.386678414
  9
$TDUUPDATE
 40
2454753.303345081
  9
$TDINDWG
 40
0.0235470949
  9
$TDUSRTIMER
 40
0.0235470949
  9
$USRTIMER
 70
     1
  9
$ANGBASE
 50
0.0
  9
$ANGDIR
 70
     0
  9
$PDMODE
 70
     0
  9
$PDSIZE
 40
0.0
  9
$PLINEWID
 40
0.0
  9
$SPLFRAME
 70
     0
  9
$SPLINETYPE
 70
     6
  9
$SPLINESEGS
 70
     8
  9
$HANDSEED
  5
391
  9
$SURFTAB1
 70
     6
  9
$SURFTAB2
 70
     6
  9
$SURFTYPE
 70
     6
  9
$SURFU
 70
     6
  9
$SURFV
 70
     6
  9
$UCSBASE
  2

  9
$UCSNAME
  2

  9
$UCSORG
 10
0.0
 20
0.0
 30
0.0
  9
$UCSXDIR
 10
1.0
 20
0.0
 30
0.0
  9
$UCSYDIR
 10
0.0
 20
1.0
 30
0.0
  9
$UCSORTHOREF
  2

  9
$UCSORTHOVIEW
 70
     1
  9
$UCSORGTOP
 10
0.0
 20
0.0
 30
0.0
  9
$UCSORGBOTTOM
 10
0.0
 20
0.0
 30
0.0
  9
$UCSORGLEFT
 10
0.0
 20
0.0
 30
0.0
  9
$UCSORGRIGHT
 10
0.0
 20
0.0
 30
0.0
  9
$UCSORGFRONT
 10
0.0
 20
0.0
 30
0.0
  9
$UCSORGBACK
 10
0.0
 20
0.0
 30
0.0
  9
$PUCSBASE
  2

  9
$PUCSNAME
  2

  9
$PUCSORG
 10
0.0
 20
0.0
 30
0.0
  9
$PUCSXDIR
 10
1.0
 20
0.0
 30
0.0
  9
$PUCSYDIR
 10
0.0
 20
1.0
 30
0.0
  9
$PUCSORTHOREF
  2

  9
$PUCSORTHOVIEW
 70
     0
  9
$PUCSORGTOP
 10
0.0
 20
0.0
 30
0.0
  9
$PUCSORGBOTTOM
 10
0.0
 20
0.0
 30
0.0
  9
$PUCSORGLEFT
 10
0.0
 20
0.0
 30
0.0
  9
$PUCSORGRIGHT
 10
0.0
 20
0.0
 30
0.0
  9
$PUCSORGFRONT
 10
0.0
 20
0.0
 30
0.0
  9
$PUCSORGBACK
 10
0.0
 20
0.0
 30
0.0
  9
$USERI1
 70
     0
  9
$USERI2
 70
     0
  9
$USERI3
 70
     0
  9
$USERI4
 70
     0
  9
$USERI5
 70
     0
  9
$USERR1
 40
0.0
  9
$USERR2
 40
0.0
  9
$USERR3
 40
0.0
  9
$USERR4
 40
0.0
  9
$USERR5
 40
0.0
  9
$WORLDVIEW
 70
     1
  9
$SHADEDGE
 70
     3
  9
$SHADEDIF
 70
    70
  9
$TILEMODE
 70
     1
  9
$MAXACTVP
 70
    64
  9
$PINSBASE
 10
0.0
 20
0.0
 30
0.0
  9
$PLIMCHECK
 70
     0
  9
$PEXTMIN
 10
1.000000000000000E+20
 20
1.000000000000000E+20
 30
1.000000000000000E+20
  9
$PEXTMAX
 10
-1.000000000000000E+20
 20
-1.000000000000000E+20
 30
-1.000000000000000E+20
  9
$PLIMMIN
 10
0.0
 20
0.0
  9
$PLIMMAX
 10
12.0
 20
9.0
  9
$UNITMODE
 70
     0
  9
$VISRETAIN
 70
     1
  9
$PLINEGEN
 70
     0
  9
$PSLTSCALE
 70
     1
  9
$TREEDEPTH
 70
  3020
  9
$CMLSTYLE
  2
Standard
  9
$CMLJUST
 70
     0
  9
$CMLSCALE
 40
1.0
  9
$PROXYGRAPHICS
 70
     1
  9
$MEASUREMENT
 70
     0
  9
$CELWEIGHT
370
    -1
  9
$ENDCAPS
280
     0
  9
$JOINSTYLE
280
     0
  9
$LWDISPLAY
290
     0
  9
$INSUNITS
 70
     0
  9
$HYPERLINKBASE
  1

  9
$STYLESHEET
  1

  9
$XEDIT
290
     1
  9
$CEPSNTYPE
380
     0
  9
$PSTYLEMODE
290
     1
  9
$FINGERPRINTGUID
  2
{02550B7B-8E6A-4B21-AAA5-3B4F0913FE8F}
  9
$VERSIONGUID
  2
{2789E081-EF73-4092-A689-03D3B5A01FA9}
  9
$EXTNAMES
290
     1
  9
$PSVPSCALE
 40
0.0
  9
$OLESTARTUP
290
     0
  0
ENDSEC
  0
SECTION
  2
CLASSES
  0
CLASS
  1
ACDBDICTIONARYWDFLT
  2
AcDbDictionaryWithDefault
  3
AutoCAD 2000
 90
        0
280
     0
281
     0
  0
CLASS
  1
ACDBPLACEHOLDER
  2
AcDbPlaceHolder
  3
AutoCAD 2000
 90
        0
280
     0
281
     0
  0
CLASS
  1
LAYOUT
  2
AcDbLayout
  3
AutoCAD 2000
 90
        0
280
     0
281
     0
  0
CLASS
  1
DICTIONARYVAR
  2
AcDbDictionaryVar
  3
AutoCAD 2000
 90
        0
280
     0
281
     0
  0
ENDSEC
  0
SECTION
  2
TABLES
  0
TABLE
  2
VPORT
  5
8
330
0
100
AcDbSymbolTable
 70
     2
  0
VPORT
  5
390
330
8
100
AcDbSymbolTableRecord
100
AcDbViewportTableRecord
  2
*Active
 70
     0
 10
0.0
 20
0.0
 11
1.0
 21
1.0
 12
142.5
 22
57.00000000000001
 13
0.0
 23
0.0
 14
1.0
 24
1.0
 15
0.0
 25
0.0
 16
0.0
 26
0.0
 36
1.0
 17
0.0
 27
0.0
 37
0.0
 40
137.650867759941
 41
2.078104993597951
 42
50.0
 43
0.0
 44
0.0
 50
0.0
 51
0.0
 71
     0
 72
   100
 73
     1
 74
     3
 75
     0
 76
     0
 77
     0
 78
     0
281
     0
 65
     1
110
0.0
120
0.0
130
0.0
111
1.0
121
0.0
131
0.0
112
0.0
122
1.0
132
0.0
 79
     1
146
0.0
  0
ENDTAB
  0
TABLE
  2
LTYPE
  5
5
330
0
100
AcDbSymbolTable
 70
     1
  0
LTYPE
  5
13
330
5
100
AcDbSymbolTableRecord
100
AcDbLinetypeTableRecord
  2
ByBlock
 70
     0
  3

 72
    65
 73
     0
 40
0.0
  0
LTYPE
  5
14
330
5
100
AcDbSymbolTableRecord
100
AcDbLinetypeTableRecord
  2
ByLayer
 70
     0
  3

 72
    65
 73
     0
 40
0.0
  0
LTYPE
  5
15
330
5
100
AcDbSymbolTableRecord
100
AcDbLinetypeTableRecord
  2
Continuous
 70
     0
  3
Solid line
 72
    65
 73
     0
 40
0.0
  0
ENDTAB
  0
TABLE
  2
LAYER
  5
2
330
0
100
AcDbSymbolTable
 70
     1
  0
LAYER
  5
10
330
2
100
AcDbSymbolTableRecord
100
AcDbLayerTableRecord
  2
0
 70
     0
 62
     7
  6
Continuous
370
    -3
390
F
  0
ENDTAB
  0
TABLE
  2
STYLE
  5
3
330
0
100
AcDbSymbolTable
 70
     1
  0
STYLE
  5
11
330
3
100
AcDbSymbolTableRecord
100
AcDbTextStyleTableRecord
  2
Standard
 70
     0
 40
0.0
 41
1.0
 50
0.0
 71
     0
 42
0.2
  3
txt
  4

  0
ENDTAB
  0
TABLE
  2
VIEW
  5
6
330
0
100
AcDbSymbolTable
 70
     0
  0
ENDTAB
  0
TABLE
  2
UCS
  5
7
330
0
100
AcDbSymbolTable
 70
     0
  0
ENDTAB
  0
TABLE
  2
APPID
  5
9
330
0
100
AcDbSymbolTable
 70
     1
  0
APPID
  5
12
330
9
100
AcDbSymbolTableRecord
100
AcDbRegAppTableRecord
  2
ACAD
 70
     0
  0
ENDTAB
  0
TABLE
  2
DIMSTYLE
  5
A
330
0
100
AcDbSymbolTable
 70
     1
100
AcDbDimStyleTable
 71
     0
  0
DIMSTYLE
105
38A
330
A
100
AcDbSymbolTableRecord
100
AcDbDimStyleTableRecord
  2
Standard
 70
     0
340
11
  0
ENDTAB
  0
TABLE
  2
BLOCK_RECORD
  5
1
330
0
100
AcDbSymbolTable
 70
     0
  0
BLOCK_RECORD
  5
1E
330
1
100
AcDbSymbolTableRecord
100
AcDbBlockTableRecord
  2
*Model_Space
340
21
  0
BLOCK_RECORD
  5
1A
330
1
100
AcDbSymbolTableRecord
100
AcDbBlockTableRecord
  2
*Paper_Space
340
1D
  0
ENDTAB
  0
ENDSEC
  0
SECTION
  2
BLOCKS
  0
BLOCK
  5
1F
330
1E
100
AcDbEntity
  8
0
100
AcDbBlockBegin
  2
*Model_Space
 70
     0
 10
0.0
 20
0.0
 30
0.0
  3
*Model_Space
  1

  0
ENDBLK
  5
20
330
1E
100
AcDbEntity
  8
0
100
AcDbBlockEnd
  0
BLOCK
  5
1B
330
1A
100
AcDbEntity
 67
     1
  8
0
100
AcDbBlockBegin
  2
*Paper_Space
 70
     0
 10
0.0
 20
0.0
 30
0.0
  3
*Paper_Space
  1

  0
ENDBLK
  5
1C
330
1A
100
AcDbEntity
 67
     1
  8
0
100
AcDbBlockEnd
  0
ENDSEC
  0
SECTION
  2
ENTITIES
  0
LINE
  5
22
330
1E
100
AcDbEntity
  8
0
100
AcDbLine
 10
14.0
 20
0.0000000000000052
 30
0.0
 11
16.5
 21
0.500000000000005
 31
0.0
  0
LINE
  5
23
330
1E
100
AcDbEntity
  8
0
100
AcDbLine
 10
6.799999999999999
 20
14.0
 30
0.0
 11
7.0
 21
17.0
 31
0.0
  0
LINE
  5
24
330
1E
100
AcDbEntity
  8
0
100
AcDbLine
 10
6.5
 20
10.0
 30
0.0
 11
7.0
 21
6.500000000000009
 31
0.0
  0
LINE
  5
25
330
1E
100
AcDbEntity
  8
0
100
AcDbLine
 10
6.5
 20
10.0
 30
0.0
 11
6.799999999999999
 21
14.0
 31
0.0
  0
LINE
  5
26
330
1E
100
AcDbEntity
  8
0
100
AcDbLine
 10
7.0
 20
6.500000000000009
 30
0.0
 11
8.0
 21
4.000000000000009
 31
0.0
  0
LINE
  5
27
330
1E
100
AcDbEntity
  8
0
100
AcDbLine
 10
8.0
 20
4.000000000000009
 30
0.0
 11
9.5
 21
2.0
 31
0.0
  0
LINE
  5
28
330
1E
100
AcDbEntity
  8
0
100
AcDbLine
 10
9.5
 20
2.0
 30
0.0
 11
11.5
 21
0.500000000000005
 31
0.0
  0
LINE
  5
29
330
1E
100
AcDbEntity
  8
0
100
AcDbLine
 10
9.5
 20
2.0
 30
0.0
 11
11.5
 21
0.500000000000005
 31
0.0
  0
LINE
  5
2A
330
1E
100
AcDbEntity
  8
0
100
AcDbLine
 10
11.5
 20
0.500000000000005
 30
0.0
 11
14.0
 21
0.0000000000000052
 31
0.0
  0
LINE
  5
2B
330
1E
100
AcDbEntity
  8
0
100
AcDbLine
 10
11.5
 20
0.500000000000005
 30
0.0
 11
14.0
 21
0.0000000000000052
 31
0.0
  0
LINE
  5
2C
330
1E
100
AcDbEntity
  8
0
100
AcDbLine
 10
16.5
 20
0.500000000000005
 30
0.0
 11
18.5
 21
2.0
 31
0.0
  0
LINE
  5
2D
330
1E
100
AcDbEntity
  8
0
100
AcDbLine
 10
53.14289999999999
 20
14.0
 30
0.0
 11
54.8571
 21
14.0
 31
0.0
  0
LINE
  5
2F
330
1E
100
AcDbEntity
  8
0
100
AcDbLine
 10
54.8571
 20
14.0
 30
0.0
 11
56.0
 21
15.0
 31
0.0
  0
LINE
  5
33
330
1E
100
AcDbEntity
  8
0
100
AcDbLine
 10
56.0
 20
15.0
 30
0.0
 11
56.0
 21
15.8
 31
0.0
  0
LINE
  5
36
330
1E
100
AcDbEntity
  8
0
100
AcDbLine
 10
52.0
 20
15.0
 30
0.0
 11
53.14289999999999
 21
14.0
 31
0.0
  0
LINE
  5
37
330
1E
100
AcDbEntity
  8
0
100
AcDbLine
 10
52.0
 20
15.0
 30
0.0
 11
52.0
 21
15.8
 31
0.0
  0
LINE
  5
38
330
1E
100
AcDbEntity
  8
0
100
AcDbLine
 10
21.2
 20
14.0
 30
0.0
 11
21.49999999999999
 21
10.0
 31
0.0
  0
LINE
  5
39
330
1E
100
AcDbEntity
  8
0
100
AcDbLine
 10
21.0
 20
6.500000000000009
 30
0.0
 11
21.49999999999999
 21
10.0
 31
0.0
  0
LINE
  5
3A
330
1E
100
AcDbEntity
  8
0
100
AcDbLine
 10
20.0
 20
4.000000000000009
 30
0.0
 11
21.0
 21
6.500000000000009
 31
0.0
  0
LINE
  5
3B
330
1E
100
AcDbEntity
  8
0
100
AcDbLine
 10
18.5
 20
2.0
 30
0.0
 11
20.0
 21
4.000000000000009
 31
0.0
  0
LINE
  5
3C
330
1E
100
AcDbEntity
  8
0
100
AcDbLine
 10
16.5
 20
0.500000000000005
 30
0.0
 11
18.5
 21
2.0
 31
0.0
  0
LINE
  5
3D
330
1E
100
AcDbEntity
  8
0
100
AcDbLine
 10
14.0
 20
0.0000000000000052
 30
0.0
 11
16.5
 21
0.500000000000005
 31
0.0
  0
LINE
  5
3E
330
1E
100
AcDbEntity
  8
0
100
AcDbLine
 10
149.0
 20
15.0
 30
0.0
 11
241.0
 21
15.0
 31
0.0
  0
LINE
  5
3F
330
1E
100
AcDbEntity
  8
0
100
AcDbLine
 10
241.0
 20
15.0
 30
0.0
 11
241.0
 21
15.8
 31
0.0
  0
LINE
  5
40
330
1E
100
AcDbEntity
  8
0
100
AcDbLine
 10
57.0
 20
15.0
 30
0.0
 11
57.0
 21
15.8
 31
0.0
  0
LINE
  5
41
330
1E
100
AcDbEntity
  8
0
100
AcDbLine
 10
57.0
 20
15.0
 30
0.0
 11
149.0
 21
15.0
 31
0.0
  0
LINE
  5
42
330
1E
100
AcDbEntity
  8
0
100
AcDbLine
 10
243.0
 20
15.0
 30
0.0
 11
284.3329999999999
 21
15.0
 31
0.0
  0
LINE
  5
43
330
1E
100
AcDbEntity
  8
0
100
AcDbLine
 10
243.0
 20
15.0
 30
0.0
 11
243.0
 21
15.75599999999999
 31
0.0
  0
LINE
  5
44
330
1E
100
AcDbEntity
  8
0
100
AcDbLine
 10
56.0
 20
15.8
 30
0.0
 11
56.0
 21
17.8
 31
0.0
  0
LINE
  5
45
330
1E
100
AcDbEntity
  8
0
100
AcDbLine
 10
52.0
 20
15.8
 30
0.0
 11
52.0
 21
16.0
 31
0.0
  0
LINE
  5
46
330
1E
100
AcDbEntity
  8
0
100
AcDbLine
 10
52.0
 20
15.8
 30
0.0
 11
52.0
 21
15.0
 31
0.0
  0
LINE
  5
47
330
1E
100
AcDbEntity
  8
0
100
AcDbLine
 10
52.0
 20
15.8
 30
0.0
 11
52.0
 21
17.8
 31
0.0
  0
LINE
  5
48
330
1E
100
AcDbEntity
  8
0
100
AcDbLine
 10
52.0
 20
16.0
 30
0.0
 11
52.0
 21
16.69999999999999
 31
0.0
  0
LINE
  5
49
330
1E
100
AcDbEntity
  8
0
100
AcDbLine
 10
52.0
 20
16.0
 30
0.0
 11
52.0
 21
15.8
 31
0.0
  0
LINE
  5
4A
330
1E
100
AcDbEntity
  8
0
100
AcDbLine
 10
56.0
 20
16.5
 30
0.0
 11
57.0
 21
16.5
 31
0.0
  0
LINE
  5
4B
330
1E
100
AcDbEntity
  8
0
100
AcDbLine
 10
7.0
 20
17.0
 30
0.0
 11
8.0
 21
21.0
 31
0.0
  0
LINE
  5
50
330
1E
100
AcDbEntity
  8
0
100
AcDbLine
 10
52.0
 20
16.69999999999999
 30
0.0
 11
52.0
 21
18.7
 31
0.0
  0
LINE
  5
51
330
1E
100
AcDbEntity
  8
0
100
AcDbLine
 10
52.0
 20
16.69999999999999
 30
0.0
 11
52.0
 21
16.0
 31
0.0
  0
LINE
  5
52
330
1E
100
AcDbEntity
  8
0
100
AcDbLine
 10
46.566
 20
17.0
 30
0.0
 11
52.0
 21
16.0
 31
0.0
  0
LINE
  5
53
330
1E
100
AcDbEntity
  8
0
100
AcDbLine
 10
21.0
 20
17.0
 30
0.0
 11
21.2
 21
14.0
 31
0.0
  0
LINE
  5
54
330
1E
100
AcDbEntity
  8
0
100
AcDbLine
 10
52.0
 20
17.8
 30
0.0
 11
52.0
 21
15.8
 31
0.0
  0
LINE
  5
55
330
1E
100
AcDbEntity
  8
0
100
AcDbLine
 10
52.0
 20
17.8
 30
0.0
 11
52.0
 21
21.2
 31
0.0
  0
LINE
  5
56
330
1E
100
AcDbEntity
  8
0
100
AcDbLine
 10
56.0
 20
17.8
 30
0.0
 11
56.0
 21
21.2
 31
0.0
  0
LINE
  5
57
330
1E
100
AcDbEntity
  8
0
100
AcDbLine
 10
52.0
 20
18.7
 30
0.0
 11
52.0
 21
21.89999999999999
 31
0.0
  0
LINE
  5
58
330
1E
100
AcDbEntity
  8
0
100
AcDbLine
 10
52.0
 20
18.7
 30
0.0
 11
52.0
 21
16.69999999999999
 31
0.0
  0
LINE
  5
5D
330
1E
100
AcDbEntity
  8
0
100
AcDbLine
 10
40.67919999999999
 20
19.0
 30
0.0
 11
46.566
 21
17.0
 31
0.0
  0
LINE
  5
5E
330
1E
100
AcDbEntity
  8
0
100
AcDbLine
 10
8.0
 20
21.0
 30
0.0
 11
9.117647058823528
 21
23.98039215686269
 31
0.0
  0
LINE
  5
5F
330
1E
100
AcDbEntity
  8
0
100
AcDbLine
 10
20.0
 20
21.0
 30
0.0
 11
21.0
 21
17.0
 31
0.0
  0
LINE
  5
60
330
1E
100
AcDbEntity
  8
0
100
AcDbLine
 10
57.0
 20
19.1
 30
0.0
 11
57.0
 21
17.19999999999999
 31
0.0
  0
LINE
  5
61
330
1E
100
AcDbEntity
  8
0
100
AcDbLine
 10
57.0
 20
19.1
 30
0.0
 11
57.0
 21
22.2
 31
0.0
  0
LINE
  5
62
330
1E
100
AcDbEntity
  8
0
100
AcDbLine
 10
57.0
 20
17.19999999999999
 30
0.0
 11
57.0
 21
16.5
 31
0.0
  0
LINE
  5
63
330
1E
100
AcDbEntity
  8
0
100
AcDbLine
 10
57.0
 20
17.19999999999999
 30
0.0
 11
57.0
 21
19.1
 31
0.0
  0
LINE
  5
64
330
1E
100
AcDbEntity
  8
0
100
AcDbLine
 10
57.0
 20
17.8
 30
0.0
 11
57.0
 21
15.8
 31
0.0
  0
LINE
  5
65
330
1E
100
AcDbEntity
  8
0
100
AcDbLine
 10
57.0
 20
17.8
 30
0.0
 11
57.0
 21
21.2
 31
0.0
  0
LINE
  5
66
330
1E
100
AcDbEntity
  8
0
100
AcDbLine
 10
57.0
 20
16.5
 30
0.0
 11
57.0
 21
15.8
 31
0.0
  0
LINE
  5
67
330
1E
100
AcDbEntity
  8
0
100
AcDbLine
 10
57.0
 20
16.5
 30
0.0
 11
57.0
 21
17.19999999999999
 31
0.0
  0
LINE
  5
68
330
1E
100
AcDbEntity
  8
0
100
AcDbLine
 10
241.0
 20
15.8
 30
0.0
 11
241.0
 21
17.8
 31
0.0
  0
LINE
  5
69
330
1E
100
AcDbEntity
  8
0
100
AcDbLine
 10
241.0
 20
15.8
 30
0.0
 11
241.0
 21
15.0
 31
0.0
  0
LINE
  5
6A
330
1E
100
AcDbEntity
  8
0
100
AcDbLine
 10
241.0
 20
16.5
 30
0.0
 11
243.0
 21
16.5
 31
0.0
  0
LINE
  5
6B
330
1E
100
AcDbEntity
  8
0
100
AcDbLine
 10
241.0
 20
17.8
 30
0.0
 11
241.0
 21
21.2
 31
0.0
  0
LINE
  5
6C
330
1E
100
AcDbEntity
  8
0
100
AcDbLine
 10
241.0
 20
17.8
 30
0.0
 11
241.0
 21
15.8
 31
0.0
  0
LINE
  5
6D
330
1E
100
AcDbEntity
  8
0
100
AcDbLine
 10
243.0
 20
19.1
 30
0.0
 11
243.0
 21
22.2
 31
0.0
  0
LINE
  5
6E
330
1E
100
AcDbEntity
  8
0
100
AcDbLine
 10
243.0
 20
17.19999999999999
 30
0.0
 11
243.0
 21
19.1
 31
0.0
  0
LINE
  5
6F
330
1E
100
AcDbEntity
  8
0
100
AcDbLine
 10
243.0
 20
16.5
 30
0.0
 11
243.0
 21
17.19999999999999
 31
0.0
  0
LINE
  5
70
330
1E
100
AcDbEntity
  8
0
100
AcDbLine
 10
57.0
 20
15.8
 30
0.0
 11
57.0
 21
16.5
 31
0.0
  0
LINE
  5
71
330
1E
100
AcDbEntity
  8
0
100
AcDbLine
 10
57.0
 20
15.8
 30
0.0
 11
57.0
 21
15.0
 31
0.0
  0
LINE
  5
72
330
1E
100
AcDbEntity
  8
0
100
AcDbLine
 10
57.0
 20
15.8
 30
0.0
 11
57.0
 21
17.8
 31
0.0
  0
LINE
  5
73
330
1E
100
AcDbEntity
  8
0
100
AcDbLine
 10
243.0
 20
15.75599999999999
 30
0.0
 11
243.0
 21
15.0
 31
0.0
  0
LINE
  5
74
330
1E
100
AcDbEntity
  8
0
100
AcDbLine
 10
243.0
 20
15.75599999999999
 30
0.0
 11
243.0
 21
16.5
 31
0.0
  0
LINE
  5
75
330
1E
100
AcDbEntity
  8
0
100
AcDbLine
 10
243.0
 20
17.772
 30
0.0
 11
243.0
 21
15.75599999999999
 31
0.0
  0
LINE
  5
7A
330
1E
100
AcDbEntity
  8
0
100
AcDbLine
 10
4.0
 20
25.0
 30
0.0
 11
4.5
 21
24.5
 31
0.0
  0
LINE
  5
7B
330
1E
100
AcDbEntity
  8
0
100
AcDbLine
 10
4.0
 20
25.0
 30
0.0
 11
4.0
 21
25.4
 31
0.0
  0
LINE
  5
7C
330
1E
100
AcDbEntity
  8
0
100
AcDbLine
 10
4.5
 20
24.5
 30
0.0
 11
5.5
 21
24.5
 31
0.0
  0
LINE
  5
7E
330
1E
100
AcDbEntity
  8
0
100
AcDbLine
 10
5.5
 20
24.5
 30
0.0
 11
6.0
 21
25.0
 31
0.0
  0
LINE
  5
80
330
1E
100
AcDbEntity
  8
0
100
AcDbLine
 10
6.0
 20
25.0
 30
0.0
 11
9.0
 21
24.0
 31
0.0
  0
LINE
  5
81
330
1E
100
AcDbEntity
  8
0
100
AcDbLine
 10
6.0
 20
25.0
 30
0.0
 11
6.0
 21
25.4
 31
0.0
  0
LINE
  5
82
330
1E
100
AcDbEntity
  8
0
100
AcDbLine
 10
18.8823529411765
 20
23.98039215686269
 30
0.0
 11
20.0
 21
21.0
 31
0.0
  0
LINE
  5
83
330
1E
100
AcDbEntity
  8
0
100
AcDbLine
 10
9.0
 20
24.0
 30
0.0
 11
9.117647058823528
 21
23.98039215686269
 31
0.0
  0
LINE
  5
84
330
1E
100
AcDbEntity
  8
0
100
AcDbLine
 10
18.83399209486169
 20
23.9723320158103
 30
0.0
 11
19.0
 21
24.0
 31
0.0
  0
LINE
  5
85
330
1E
100
AcDbEntity
  8
0
100
AcDbLine
 10
52.0
 20
21.2
 30
0.0
 11
52.0
 21
17.8
 31
0.0
  0
LINE
  5
86
330
1E
100
AcDbEntity
  8
0
100
AcDbLine
 10
52.0
 20
21.2
 30
0.0
 11
52.0
 21
25.5
 31
0.0
  0
LINE
  5
87
330
1E
100
AcDbEntity
  8
0
100
AcDbLine
 10
56.0
 20
21.2
 30
0.0
 11
56.0
 21
25.5
 31
0.0
  0
LINE
  5
8C
330
1E
100
AcDbEntity
  8
0
100
AcDbLine
 10
52.0
 20
21.89999999999999
 30
0.0
 11
52.0
 21
26.0
 31
0.0
  0
LINE
  5
8D
330
1E
100
AcDbEntity
  8
0
100
AcDbLine
 10
52.0
 20
21.89999999999999
 30
0.0
 11
52.0
 21
18.7
 31
0.0
  0
LINE
  5
8E
330
1E
100
AcDbEntity
  8
0
100
AcDbLine
 10
30.71699999999999
 20
24.0
 30
0.0
 11
35.2453
 21
21.49999999999999
 31
0.0
  0
LINE
  5
8F
330
1E
100
AcDbEntity
  8
0
100
AcDbLine
 10
35.2453
 20
21.49999999999999
 30
0.0
 11
40.67919999999999
 21
19.0
 31
0.0
  0
LINE
  5
90
330
1E
100
AcDbEntity
  8
0
100
AcDbLine
 10
19.0
 20
24.0
 30
0.0
 11
22.0
 21
25.0
 31
0.0
  0
LINE
  5
91
330
1E
100
AcDbEntity
  8
0
100
AcDbLine
 10
4.0
 20
25.4
 30
0.0
 11
4.0
 21
25.0
 31
0.0
  0
LINE
  5
92
330
1E
100
AcDbEntity
  8
0
100
AcDbLine
 10
4.0
 20
25.4
 30
0.0
 11
4.0
 21
26.5
 31
0.0
  0
LINE
  5
93
330
1E
100
AcDbEntity
  8
0
100
AcDbLine
 10
52.0
 20
25.5
 30
0.0
 11
52.0
 21
21.2
 31
0.0
  0
LINE
  5
94
330
1E
100
AcDbEntity
  8
0
100
AcDbLine
 10
52.0
 20
25.5
 30
0.0
 11
52.0
 21
30.6
 31
0.0
  0
LINE
  5
95
330
1E
100
AcDbEntity
  8
0
100
AcDbLine
 10
56.0
 20
25.5
 30
0.0
 11
56.0
 21
30.6
 31
0.0
  0
LINE
  5
96
330
1E
100
AcDbEntity
  8
0
100
AcDbLine
 10
6.0
 20
25.4
 30
0.0
 11
6.0
 21
25.0
 31
0.0
  0
LINE
  5
97
330
1E
100
AcDbEntity
  8
0
100
AcDbLine
 10
6.0
 20
25.4
 30
0.0
 11
6.0
 21
26.5
 31
0.0
  0
LINE
  5
98
330
1E
100
AcDbEntity
  8
0
100
AcDbLine
 10
22.0
 20
25.0
 30
0.0
 11
25.0
 21
27.0
 31
0.0
  0
LINE
  5
99
330
1E
100
AcDbEntity
  8
0
100
AcDbLine
 10
57.0
 20
22.2
 30
0.0
 11
57.0
 21
19.1
 31
0.0
  0
LINE
  5
9A
330
1E
100
AcDbEntity
  8
0
100
AcDbLine
 10
57.0
 20
22.2
 30
0.0
 11
57.0
 21
26.3
 31
0.0
  0
LINE
  5
9F
330
1E
100
AcDbEntity
  8
0
100
AcDbLine
 10
26.0
 20
26.0
 30
0.0
 11
27.0
 21
26.0
 31
0.0
  0
LINE
  5
A1
330
1E
100
AcDbEntity
  8
0
100
AcDbLine
 10
27.0
 20
26.0
 30
0.0
 11
28.0
 21
27.0
 31
0.0
  0
LINE
  5
A3
330
1E
100
AcDbEntity
  8
0
100
AcDbLine
 10
52.0
 20
26.0
 30
0.0
 11
52.0
 21
30.8
 31
0.0
  0
LINE
  5
A4
330
1E
100
AcDbEntity
  8
0
100
AcDbLine
 10
52.0
 20
26.0
 30
0.0
 11
52.0
 21
21.89999999999999
 31
0.0
  0
LINE
  5
A5
330
1E
100
AcDbEntity
  8
0
100
AcDbLine
 10
4.0
 20
26.5
 30
0.0
 11
4.0
 21
25.4
 31
0.0
  0
LINE
  5
A6
330
1E
100
AcDbEntity
  8
0
100
AcDbLine
 10
4.0
 20
26.5
 30
0.0
 11
4.0
 21
28.2
 31
0.0
  0
LINE
  5
A7
330
1E
100
AcDbEntity
  8
0
100
AcDbLine
 10
6.0
 20
26.5
 30
0.0
 11
6.0
 21
25.4
 31
0.0
  0
LINE
  5
A8
330
1E
100
AcDbEntity
  8
0
100
AcDbLine
 10
6.0
 20
26.5
 30
0.0
 11
6.0
 21
28.2
 31
0.0
  0
LINE
  5
AB
330
1E
100
AcDbEntity
  8
0
100
AcDbLine
 10
4.0
 20
28.2
 30
0.0
 11
4.0
 21
26.5
 31
0.0
  0
LINE
  5
AC
330
1E
100
AcDbEntity
  8
0
100
AcDbLine
 10
4.0
 20
28.2
 30
0.0
 11
4.0
 21
30.5
 31
0.0
  0
LINE
  5
AF
330
1E
100
AcDbEntity
  8
0
100
AcDbLine
 10
6.0
 20
28.2
 30
0.0
 11
6.0
 21
26.5
 31
0.0
  0
LINE
  5
B0
330
1E
100
AcDbEntity
  8
0
100
AcDbLine
 10
6.0
 20
28.2
 30
0.0
 11
6.0
 21
30.5
 31
0.0
  0
LINE
  5
B1
330
1E
100
AcDbEntity
  8
0
100
AcDbLine
 10
25.0
 20
27.0
 30
0.0
 11
25.0
 21
27.3
 31
0.0
  0
LINE
  5
B2
330
1E
100
AcDbEntity
  8
0
100
AcDbLine
 10
25.0
 20
27.0
 30
0.0
 11
26.0
 21
26.0
 31
0.0
  0
LINE
  5
B3
330
1E
100
AcDbEntity
  8
0
100
AcDbLine
 10
25.0
 20
27.3
 30
0.0
 11
25.0
 21
28.2
 31
0.0
  0
LINE
  5
B4
330
1E
100
AcDbEntity
  8
0
100
AcDbLine
 10
25.0
 20
27.3
 30
0.0
 11
25.0
 21
27.0
 31
0.0
  0
LINE
  5
B5
330
1E
100
AcDbEntity
  8
0
100
AcDbLine
 10
1.5
 20
28.8
 30
0.0
 11
4.0
 21
25.0
 31
0.0
  0
LINE
  5
B6
330
1E
100
AcDbEntity
  8
0
100
AcDbLine
 10
1.5
 20
28.8
 30
0.0
 11
4.0
 21
25.0
 31
0.0
  0
LINE
  5
B9
330
1E
100
AcDbEntity
  8
0
100
AcDbLine
 10
4.0
 20
30.5
 30
0.0
 11
4.0
 21
28.2
 31
0.0
  0
LINE
  5
BA
330
1E
100
AcDbEntity
  8
0
100
AcDbLine
 10
4.0
 20
30.5
 30
0.0
 11
4.0
 21
33.2
 31
0.0
  0
LINE
  5
BD
330
1E
100
AcDbEntity
  8
0
100
AcDbLine
 10
10.2
 20
29.5
 30
0.0
 11
12.0
 21
28.8
 31
0.0
  0
LINE
  5
BE
330
1E
100
AcDbEntity
  8
0
100
AcDbLine
 10
12.0
 20
28.8
 30
0.0
 11
14.0
 21
28.5
 31
0.0
  0
LINE
  5
BF
330
1E
100
AcDbEntity
  8
0
100
AcDbLine
 10
17.8
 20
29.5
 30
0.0
 11
19.3
 21
30.7
 31
0.0
  0
LINE
  5
C0
330
1E
100
AcDbEntity
  8
0
100
AcDbLine
 10
16.0
 20
28.8
 30
0.0
 11
17.8
 21
29.5
 31
0.0
  0
LINE
  5
C1
330
1E
100
AcDbEntity
  8
0
100
AcDbLine
 10
14.0
 20
28.5
 30
0.0
 11
16.0
 21
28.8
 31
0.0
  0
LINE
  5
C2
330
1E
100
AcDbEntity
  8
0
100
AcDbLine
 10
6.0
 20
30.5
 30
0.0
 11
6.0
 21
28.2
 31
0.0
  0
LINE
  5
C3
330
1E
100
AcDbEntity
  8
0
100
AcDbLine
 10
6.0
 20
30.5
 30
0.0
 11
6.0
 21
33.2
 31
0.0
  0
LINE
  5
C4
330
1E
100
AcDbEntity
  8
0
100
AcDbLine
 10
25.0
 20
28.2
 30
0.0
 11
25.0
 21
29.6
 31
0.0
  0
LINE
  5
C5
330
1E
100
AcDbEntity
  8
0
100
AcDbLine
 10
25.0
 20
28.2
 30
0.0
 11
25.0
 21
27.3
 31
0.0
  0
LINE
  5
CE
330
1E
100
AcDbEntity
  8
0
100
AcDbLine
 10
28.0
 20
27.3
 30
0.0
 11
28.0
 21
27.0
 31
0.0
  0
LINE
  5
CF
330
1E
100
AcDbEntity
  8
0
100
AcDbLine
 10
28.0
 20
27.3
 30
0.0
 11
28.0
 21
28.2
 31
0.0
  0
LINE
  5
D4
330
1E
100
AcDbEntity
  8
0
100
AcDbLine
 10
28.0
 20
28.2
 30
0.0
 11
28.0
 21
27.3
 31
0.0
  0
LINE
  5
D5
330
1E
100
AcDbEntity
  8
0
100
AcDbLine
 10
28.0
 20
28.2
 30
0.0
 11
28.0
 21
29.6
 31
0.0
  0
LINE
  5
D6
330
1E
100
AcDbEntity
  8
0
100
AcDbLine
 10
52.0
 20
30.6
 30
0.0
 11
52.0
 21
25.5
 31
0.0
  0
LINE
  5
D7
330
1E
100
AcDbEntity
  8
0
100
AcDbLine
 10
52.0
 20
30.6
 30
0.0
 11
52.0
 21
36.0
 31
0.0
  0
LINE
  5
DC
330
1E
100
AcDbEntity
  8
0
100
AcDbLine
 10
56.0
 20
30.6
 30
0.0
 11
56.0
 21
36.0
 31
0.0
  0
LINE
  5
DD
330
1E
100
AcDbEntity
  8
0
100
AcDbLine
 10
28.0
 20
29.6
 30
0.0
 11
28.0
 21
28.2
 31
0.0
  0
LINE
  5
DE
330
1E
100
AcDbEntity
  8
0
100
AcDbLine
 10
28.0
 20
29.6
 30
0.0
 11
28.0
 21
31.5
 31
0.0
  0
LINE
  5
DF
330
1E
100
AcDbEntity
  8
0
100
AcDbLine
 10
28.0
 20
27.0
 30
0.0
 11
30.71699999999999
 21
24.0
 31
0.0
  0
LINE
  5
E0
330
1E
100
AcDbEntity
  8
0
100
AcDbLine
 10
28.0
 20
27.0
 30
0.0
 11
28.0
 21
27.3
 31
0.0
  0
LINE
  5
E1
330
1E
100
AcDbEntity
  8
0
100
AcDbLine
 10
25.0
 20
29.6
 30
0.0
 11
25.0
 21
31.5
 31
0.0
  0
LINE
  5
E2
330
1E
100
AcDbEntity
  8
0
100
AcDbLine
 10
25.0
 20
29.6
 30
0.0
 11
25.0
 21
28.2
 31
0.0
  0
LINE
  5
E3
330
1E
100
AcDbEntity
  8
0
100
AcDbLine
 10
57.0
 20
26.3
 30
0.0
 11
57.0
 21
22.2
 31
0.0
  0
LINE
  5
E4
330
1E
100
AcDbEntity
  8
0
100
AcDbLine
 10
57.0
 20
26.3
 30
0.0
 11
57.0
 21
31.0
 31
0.0
  0
LINE
  5
E5
330
1E
100
AcDbEntity
  8
0
100
AcDbLine
 10
57.0
 20
30.6
 30
0.0
 11
57.0
 21
25.5
 31
0.0
  0
LINE
  5
E6
330
1E
100
AcDbEntity
  8
0
100
AcDbLine
 10
57.0
 20
30.6
 30
0.0
 11
57.0
 21
36.0
 31
0.0
  0
LINE
  5
E7
330
1E
100
AcDbEntity
  8
0
100
AcDbLine
 10
57.0
 20
25.5
 30
0.0
 11
57.0
 21
21.2
 31
0.0
  0
LINE
  5
E8
330
1E
100
AcDbEntity
  8
0
100
AcDbLine
 10
57.0
 20
25.5
 30
0.0
 11
57.0
 21
30.6
 31
0.0
  0
LINE
  5
E9
330
1E
100
AcDbEntity
  8
0
100
AcDbLine
 10
241.0
 20
21.2
 30
0.0
 11
241.0
 21
25.5
 31
0.0
  0
LINE
  5
EA
330
1E
100
AcDbEntity
  8
0
100
AcDbLine
 10
241.0
 20
21.2
 30
0.0
 11
241.0
 21
17.8
 31
0.0
  0
LINE
  5
EB
330
1E
100
AcDbEntity
  8
0
100
AcDbLine
 10
241.0
 20
30.6
 30
0.0
 11
241.0
 21
36.0
 31
0.0
  0
LINE
  5
EC
330
1E
100
AcDbEntity
  8
0
100
AcDbLine
 10
241.0
 20
30.6
 30
0.0
 11
241.0
 21
25.5
 31
0.0
  0
LINE
  5
ED
330
1E
100
AcDbEntity
  8
0
100
AcDbLine
 10
241.0
 20
25.5
 30
0.0
 11
241.0
 21
30.6
 31
0.0
  0
LINE
  5
EE
330
1E
100
AcDbEntity
  8
0
100
AcDbLine
 10
241.0
 20
25.5
 30
0.0
 11
241.0
 21
21.2
 31
0.0
  0
LINE
  5
EF
330
1E
100
AcDbEntity
  8
0
100
AcDbLine
 10
243.0
 20
26.3
 30
0.0
 11
243.0
 21
31.0
 31
0.0
  0
LINE
  5
F0
330
1E
100
AcDbEntity
  8
0
100
AcDbLine
 10
243.0
 20
22.2
 30
0.0
 11
243.0
 21
26.3
 31
0.0
  0
LINE
  5
F1
330
1E
100
AcDbEntity
  8
0
100
AcDbLine
 10
57.0
 20
21.2
 30
0.0
 11
57.0
 21
17.8
 31
0.0
  0
LINE
  5
F2
330
1E
100
AcDbEntity
  8
0
100
AcDbLine
 10
57.0
 20
21.2
 30
0.0
 11
57.0
 21
25.5
 31
0.0
  0
LINE
  5
F3
330
1E
100
AcDbEntity
  8
0
100
AcDbLine
 10
243.0
 20
21.13199999999999
 30
0.0
 11
243.0
 21
17.772
 31
0.0
  0
LINE
  5
F4
330
1E
100
AcDbEntity
  8
0
100
AcDbLine
 10
243.0
 20
25.584
 30
0.0
 11
243.0
 21
21.13199999999999
 31
0.0
  0
LINE
  5
F5
330
1E
100
AcDbEntity
  8
0
100
AcDbLine
 10
0.199999999999997
 20
32.7
 30
0.0
 11
1.5
 21
28.8
 31
0.0
  0
LINE
  5
F6
330
1E
100
AcDbEntity
  8
0
100
AcDbLine
 10
0.199999999999997
 20
32.7
 30
0.0
 11
1.5
 21
28.8
 31
0.0
  0
LINE
  5
F9
330
1E
100
AcDbEntity
  8
0
100
AcDbLine
 10
4.0
 20
33.2
 30
0.0
 11
4.0
 21
30.5
 31
0.0
  0
LINE
  5
FA
330
1E
100
AcDbEntity
  8
0
100
AcDbLine
 10
4.0
 20
33.2
 30
0.0
 11
4.0
 21
36.0
 31
0.0
  0
LINE
  5
FD
330
1E
100
AcDbEntity
  8
0
100
AcDbLine
 10
7.5
 20
32.2
 30
0.0
 11
8.699999999999999
 21
30.7
 31
0.0
  0
LINE
  5
FE
330
1E
100
AcDbEntity
  8
0
100
AcDbLine
 10
8.699999999999999
 20
30.7
 30
0.0
 11
10.2
 21
29.5
 31
0.0
  0
LINE
  5
FF
330
1E
100
AcDbEntity
  8
0
100
AcDbLine
 10
20.5
 20
32.2
 30
0.0
 11
21.2
 21
34.0
 31
0.0
  0
LINE
  5
100
330
1E
100
AcDbEntity
  8
0
100
AcDbLine
 10
19.3
 20
30.7
 30
0.0
 11
20.5
 21
32.2
 31
0.0
  0
LINE
  5
101
330
1E
100
AcDbEntity
  8
0
100
AcDbLine
 10
6.0
 20
33.2
 30
0.0
 11
6.0
 21
30.5
 31
0.0
  0
LINE
  5
102
330
1E
100
AcDbEntity
  8
0
100
AcDbLine
 10
6.0
 20
33.2
 30
0.0
 11
6.0
 21
36.0
 31
0.0
  0
LINE
  5
10B
330
1E
100
AcDbEntity
  8
0
100
AcDbLine
 10
28.0
 20
31.5
 30
0.0
 11
28.0
 21
29.6
 31
0.0
  0
LINE
  5
10C
330
1E
100
AcDbEntity
  8
0
100
AcDbLine
 10
28.0
 20
31.5
 30
0.0
 11
28.0
 21
33.7
 31
0.0
  0
LINE
  5
10D
330
1E
100
AcDbEntity
  8
0
100
AcDbLine
 10
28.0
 20
33.7
 30
0.0
 11
28.0
 21
31.5
 31
0.0
  0
LINE
  5
10E
330
1E
100
AcDbEntity
  8
0
100
AcDbLine
 10
28.0
 20
33.7
 30
0.0
 11
28.0
 21
36.0
 31
0.0
  0
LINE
  5
10F
330
1E
100
AcDbEntity
  8
0
100
AcDbLine
 10
52.0
 20
30.8
 30
0.0
 11
52.0
 21
36.0
 31
0.0
  0
LINE
  5
110
330
1E
100
AcDbEntity
  8
0
100
AcDbLine
 10
52.0
 20
30.8
 30
0.0
 11
52.0
 21
26.0
 31
0.0
  0
LINE
  5
111
330
1E
100
AcDbEntity
  8
0
100
AcDbLine
 10
25.0
 20
31.5
 30
0.0
 11
25.0
 21
33.7
 31
0.0
  0
LINE
  5
112
330
1E
100
AcDbEntity
  8
0
100
AcDbLine
 10
25.0
 20
31.5
 30
0.0
 11
25.0
 21
29.6
 31
0.0
  0
LINE
  5
113
330
1E
100
AcDbEntity
  8
0
100
AcDbLine
 10
-0.0000000000000027
 20
36.0
 30
0.0
 11
0.199999999999997
 21
32.7
 31
0.0
  0
LINE
  5
114
330
1E
100
AcDbEntity
  8
0
100
AcDbLine
 10
-0.0000000000000027
 20
36.0
 30
0.0
 11
0.199999999999997
 21
39.29999999999999
 31
0.0
  0
LINE
  5
115
330
1E
100
AcDbEntity
  8
0
100
AcDbLine
 10
4.0
 20
36.0
 30
0.0
 11
4.0
 21
33.2
 31
0.0
  0
LINE
  5
116
330
1E
100
AcDbEntity
  8
0
100
AcDbLine
 10
4.0
 20
36.0
 30
0.0
 11
4.0
 21
38.79999999999999
 31
0.0
  0
LINE
  5
117
330
1E
100
AcDbEntity
  8
0
100
AcDbLine
 10
4.0
 20
38.79999999999999
 30
0.0
 11
4.0
 21
36.0
 31
0.0
  0
LINE
  5
118
330
1E
100
AcDbEntity
  8
0
100
AcDbLine
 10
4.0
 20
38.79999999999999
 30
0.0
 11
4.0
 21
41.5
 31
0.0
  0
LINE
  5
11D
330
1E
100
AcDbEntity
  8
0
100
AcDbLine
 10
0.199999999999997
 20
39.29999999999999
 30
0.0
 11
1.5
 21
43.2
 31
0.0
  0
LINE
  5
11E
330
1E
100
AcDbEntity
  8
0
100
AcDbLine
 10
0.199999999999997
 20
39.29999999999999
 30
0.0
 11
1.5
 21
43.2
 31
0.0
  0
LINE
  5
123
330
1E
100
AcDbEntity
  8
0
100
AcDbLine
 10
6.0
 20
38.79999999999999
 30
0.0
 11
6.0
 21
36.0
 31
0.0
  0
LINE
  5
124
330
1E
100
AcDbEntity
  8
0
100
AcDbLine
 10
6.0
 20
38.79999999999999
 30
0.0
 11
6.0
 21
41.5
 31
0.0
  0
LINE
  5
125
330
1E
100
AcDbEntity
  8
0
100
AcDbLine
 10
6.5
 20
36.0
 30
0.0
 11
6.799999999999999
 21
34.0
 31
0.0
  0
LINE
  5
126
330
1E
100
AcDbEntity
  8
0
100
AcDbLine
 10
6.5
 20
36.0
 30
0.0
 11
6.799999999999999
 21
38.0
 31
0.0
  0
LINE
  5
127
330
1E
100
AcDbEntity
  8
0
100
AcDbLine
 10
6.799999999999999
 20
34.0
 30
0.0
 11
7.5
 21
32.2
 31
0.0
  0
LINE
  5
12C
330
1E
100
AcDbEntity
  8
0
100
AcDbLine
 10
56.0
 20
36.0
 30
0.0
 11
56.0
 21
41.39999999999999
 31
0.0
  0
LINE
  5
131
330
1E
100
AcDbEntity
  8
0
100
AcDbLine
 10
52.0
 20
36.0
 30
0.0
 11
52.0
 21
41.2
 31
0.0
  0
LINE
  5
132
330
1E
100
AcDbEntity
  8
0
100
AcDbLine
 10
52.0
 20
36.0
 30
0.0
 11
52.0
 21
30.6
 31
0.0
  0
LINE
  5
133
330
1E
100
AcDbEntity
  8
0
100
AcDbLine
 10
52.0
 20
36.0
 30
0.0
 11
52.0
 21
30.8
 31
0.0
  0
LINE
  5
134
330
1E
100
AcDbEntity
  8
0
100
AcDbLine
 10
52.0
 20
36.0
 30
0.0
 11
52.0
 21
41.39999999999999
 31
0.0
  0
LINE
  5
135
330
1E
100
AcDbEntity
  8
0
100
AcDbLine
 10
28.0
 20
36.0
 30
0.0
 11
28.0
 21
33.7
 31
0.0
  0
LINE
  5
136
330
1E
100
AcDbEntity
  8
0
100
AcDbLine
 10
28.0
 20
36.0
 30
0.0
 11
28.0
 21
38.3
 31
0.0
  0
LINE
  5
137
330
1E
100
AcDbEntity
  8
0
100
AcDbLine
 10
21.2
 20
34.0
 30
0.0
 11
21.49999999999999
 21
36.0
 31
0.0
  0
LINE
  5
138
330
1E
100
AcDbEntity
  8
0
100
AcDbLine
 10
6.799999999999999
 20
38.0
 30
0.0
 11
7.5
 21
39.8
 31
0.0
  0
LINE
  5
139
330
1E
100
AcDbEntity
  8
0
100
AcDbLine
 10
21.2
 20
38.0
 30
0.0
 11
21.49999999999999
 21
36.0
 31
0.0
  0
LINE
  5
13A
330
1E
100
AcDbEntity
  8
0
100
AcDbLine
 10
20.5
 20
39.8
 30
0.0
 11
21.2
 21
38.0
 31
0.0
  0
LINE
  5
13B
330
1E
100
AcDbEntity
  8
0
100
AcDbLine
 10
7.5
 20
39.8
 30
0.0
 11
8.699999999999999
 21
41.29999999999999
 31
0.0
  0
LINE
  5
13C
330
1E
100
AcDbEntity
  8
0
100
AcDbLine
 10
25.0
 20
40.49999999999999
 30
0.0
 11
25.0
 21
42.4
 31
0.0
  0
LINE
  5
13D
330
1E
100
AcDbEntity
  8
0
100
AcDbLine
 10
25.0
 20
40.49999999999999
 30
0.0
 11
25.0
 21
38.3
 31
0.0
  0
LINE
  5
146
330
1E
100
AcDbEntity
  8
0
100
AcDbLine
 10
28.0
 20
40.49999999999999
 30
0.0
 11
28.0
 21
38.3
 31
0.0
  0
LINE
  5
147
330
1E
100
AcDbEntity
  8
0
100
AcDbLine
 10
28.0
 20
40.49999999999999
 30
0.0
 11
28.0
 21
42.4
 31
0.0
  0
LINE
  5
148
330
1E
100
AcDbEntity
  8
0
100
AcDbLine
 10
28.0
 20
38.3
 30
0.0
 11
28.0
 21
36.0
 31
0.0
  0
LINE
  5
149
330
1E
100
AcDbEntity
  8
0
100
AcDbLine
 10
28.0
 20
38.3
 30
0.0
 11
28.0
 21
40.49999999999999
 31
0.0
  0
LINE
  5
14A
330
1E
100
AcDbEntity
  8
0
100
AcDbLine
 10
25.0
 20
38.3
 30
0.0
 11
25.0
 21
40.49999999999999
 31
0.0
  0
LINE
  5
14B
330
1E
100
AcDbEntity
  8
0
100
AcDbLine
 10
25.0
 20
38.3
 30
0.0
 11
25.0
 21
36.0
 31
0.0
  0
LINE
  5
14C
330
1E
100
AcDbEntity
  8
0
100
AcDbLine
 10
25.0
 20
36.0
 30
0.0
 11
25.0
 21
38.3
 31
0.0
  0
LINE
  5
14D
330
1E
100
AcDbEntity
  8
0
100
AcDbLine
 10
25.0
 20
36.0
 30
0.0
 11
25.0
 21
33.7
 31
0.0
  0
LINE
  5
14E
330
1E
100
AcDbEntity
  8
0
100
AcDbLine
 10
6.0
 20
36.0
 30
0.0
 11
6.0
 21
33.2
 31
0.0
  0
LINE
  5
14F
330
1E
100
AcDbEntity
  8
0
100
AcDbLine
 10
6.0
 20
36.0
 30
0.0
 11
6.0
 21
38.79999999999999
 31
0.0
  0
LINE
  5
150
330
1E
100
AcDbEntity
  8
0
100
AcDbLine
 10
25.0
 20
33.7
 30
0.0
 11
25.0
 21
36.0
 31
0.0
  0
LINE
  5
151
330
1E
100
AcDbEntity
  8
0
100
AcDbLine
 10
25.0
 20
33.7
 30
0.0
 11
25.0
 21
31.5
 31
0.0
  0
LINE
  5
152
330
1E
100
AcDbEntity
  8
0
100
AcDbLine
 10
57.0
 20
31.0
 30
0.0
 11
57.0
 21
26.3
 31
0.0
  0
LINE
  5
153
330
1E
100
AcDbEntity
  8
0
100
AcDbLine
 10
57.0
 20
31.0
 30
0.0
 11
57.0
 21
36.0
 31
0.0
  0
LINE
  5
154
330
1E
100
AcDbEntity
  8
0
100
AcDbLine
 10
52.0
 20
41.2
 30
0.0
 11
52.0
 21
46.0
 31
0.0
  0
LINE
  5
155
330
1E
100
AcDbEntity
  8
0
100
AcDbLine
 10
52.0
 20
41.2
 30
0.0
 11
52.0
 21
36.0
 31
0.0
  0
LINE
  5
156
330
1E
100
AcDbEntity
  8
0
100
AcDbLine
 10
19.3
 20
41.29999999999999
 30
0.0
 11
20.5
 21
39.8
 31
0.0
  0
LINE
  5
157
330
1E
100
AcDbEntity
  8
0
100
AcDbLine
 10
8.699999999999999
 20
41.29999999999999
 30
0.0
 11
10.2
 21
42.5
 31
0.0
  0
LINE
  5
158
330
1E
100
AcDbEntity
  8
0
100
AcDbLine
 10
57.0
 20
41.0
 30
0.0
 11
57.0
 21
36.0
 31
0.0
  0
LINE
  5
159
330
1E
100
AcDbEntity
  8
0
100
AcDbLine
 10
57.0
 20
41.0
 30
0.0
 11
57.0
 21
45.7
 31
0.0
  0
LINE
  5
15A
330
1E
100
AcDbEntity
  8
0
100
AcDbLine
 10
241.0
 20
36.0
 30
0.0
 11
241.0
 21
30.6
 31
0.0
  0
LINE
  5
15B
330
1E
100
AcDbEntity
  8
0
100
AcDbLine
 10
241.0
 20
36.0
 30
0.0
 11
241.0
 21
41.39999999999999
 31
0.0
  0
LINE
  5
15C
330
1E
100
AcDbEntity
  8
0
100
AcDbLine
 10
243.0
 20
31.0
 30
0.0
 11
243.0
 21
36.0
 31
0.0
  0
LINE
  5
15D
330
1E
100
AcDbEntity
  8
0
100
AcDbLine
 10
243.0
 20
41.0
 30
0.0
 11
243.0
 21
45.7
 31
0.0
  0
LINE
  5
15E
330
1E
100
AcDbEntity
  8
0
100
AcDbLine
 10
57.0
 20
36.0
 30
0.0
 11
57.0
 21
41.39999999999999
 31
0.0
  0
LINE
  5
15F
330
1E
100
AcDbEntity
  8
0
100
AcDbLine
 10
57.0
 20
36.0
 30
0.0
 11
57.0
 21
30.6
 31
0.0
  0
LINE
  5
160
330
1E
100
AcDbEntity
  8
0
100
AcDbLine
 10
57.0
 20
36.0
 30
0.0
 11
57.0
 21
31.0
 31
0.0
  0
LINE
  5
161
330
1E
100
AcDbEntity
  8
0
100
AcDbLine
 10
57.0
 20
36.0
 30
0.0
 11
57.0
 21
41.0
 31
0.0
  0
LINE
  5
162
330
1E
100
AcDbEntity
  8
0
100
AcDbLine
 10
243.0
 20
30.624
 30
0.0
 11
243.0
 21
25.584
 31
0.0
  0
LINE
  5
163
330
1E
100
AcDbEntity
  8
0
100
AcDbLine
 10
243.0
 20
36.0
 30
0.0
 11
243.0
 21
30.624
 31
0.0
  0
LINE
  5
164
330
1E
100
AcDbEntity
  8
0
100
AcDbLine
 10
243.0
 20
36.0
 30
0.0
 11
243.0
 21
41.0
 31
0.0
  0
LINE
  5
165
330
1E
100
AcDbEntity
  8
0
100
AcDbLine
 10
4.0
 20
41.5
 30
0.0
 11
4.0
 21
38.79999999999999
 31
0.0
  0
LINE
  5
166
330
1E
100
AcDbEntity
  8
0
100
AcDbLine
 10
4.0
 20
41.5
 30
0.0
 11
4.0
 21
43.79999999999999
 31
0.0
  0
LINE
  5
167
330
1E
100
AcDbEntity
  8
0
100
AcDbLine
 10
1.5
 20
43.2
 30
0.0
 11
4.0
 21
47.0
 31
0.0
  0
LINE
  5
168
330
1E
100
AcDbEntity
  8
0
100
AcDbLine
 10
1.5
 20
43.2
 30
0.0
 11
4.0
 21
47.0
 31
0.0
  0
LINE
  5
169
330
1E
100
AcDbEntity
  8
0
100
AcDbLine
 10
4.0
 20
43.79999999999999
 30
0.0
 11
4.0
 21
41.5
 31
0.0
  0
LINE
  5
16A
330
1E
100
AcDbEntity
  8
0
100
AcDbLine
 10
4.0
 20
43.79999999999999
 30
0.0
 11
4.0
 21
45.49999999999999
 31
0.0
  0
LINE
  5
16F
330
1E
100
AcDbEntity
  8
0
100
AcDbLine
 10
6.0
 20
43.79999999999999
 30
0.0
 11
6.0
 21
41.5
 31
0.0
  0
LINE
  5
170
330
1E
100
AcDbEntity
  8
0
100
AcDbLine
 10
6.0
 20
43.79999999999999
 30
0.0
 11
6.0
 21
45.49999999999999
 31
0.0
  0
LINE
  5
171
330
1E
100
AcDbEntity
  8
0
100
AcDbLine
 10
17.8
 20
42.5
 30
0.0
 11
19.3
 21
41.29999999999999
 31
0.0
  0
LINE
  5
172
330
1E
100
AcDbEntity
  8
0
100
AcDbLine
 10
16.0
 20
43.2
 30
0.0
 11
17.8
 21
42.5
 31
0.0
  0
LINE
  5
173
330
1E
100
AcDbEntity
  8
0
100
AcDbLine
 10
10.2
 20
42.5
 30
0.0
 11
12.0
 21
43.2
 31
0.0
  0
LINE
  5
174
330
1E
100
AcDbEntity
  8
0
100
AcDbLine
 10
14.0
 20
43.5
 30
0.0
 11
16.0
 21
43.2
 31
0.0
  0
LINE
  5
175
330
1E
100
AcDbEntity
  8
0
100
AcDbLine
 10
12.0
 20
43.2
 30
0.0
 11
14.0
 21
43.5
 31
0.0
  0
LINE
  5
176
330
1E
100
AcDbEntity
  8
0
100
AcDbLine
 10
6.0
 20
41.5
 30
0.0
 11
6.0
 21
38.79999999999999
 31
0.0
  0
LINE
  5
177
330
1E
100
AcDbEntity
  8
0
100
AcDbLine
 10
6.0
 20
41.5
 30
0.0
 11
6.0
 21
43.79999999999999
 31
0.0
  0
LINE
  5
17A
330
1E
100
AcDbEntity
  8
0
100
AcDbLine
 10
4.0
 20
45.49999999999999
 30
0.0
 11
4.0
 21
43.79999999999999
 31
0.0
  0
LINE
  5
17B
330
1E
100
AcDbEntity
  8
0
100
AcDbLine
 10
4.0
 20
45.49999999999999
 30
0.0
 11
4.0
 21
46.6
 31
0.0
  0
LINE
  5
17E
330
1E
100
AcDbEntity
  8
0
100
AcDbLine
 10
25.0
 20
45.0
 30
0.0
 11
25.0
 21
44.7
 31
0.0
  0
LINE
  5
17F
330
1E
100
AcDbEntity
  8
0
100
AcDbLine
 10
25.0
 20
45.0
 30
0.0
 11
26.0
 21
46.0
 31
0.0
  0
LINE
  5
180
330
1E
100
AcDbEntity
  8
0
100
AcDbLine
 10
6.0
 20
45.49999999999999
 30
0.0
 11
6.0
 21
43.79999999999999
 31
0.0
  0
LINE
  5
181
330
1E
100
AcDbEntity
  8
0
100
AcDbLine
 10
6.0
 20
45.49999999999999
 30
0.0
 11
6.0
 21
46.6
 31
0.0
  0
LINE
  5
182
330
1E
100
AcDbEntity
  8
0
100
AcDbLine
 10
25.0
 20
44.7
 30
0.0
 11
25.0
 21
45.0
 31
0.0
  0
LINE
  5
183
330
1E
100
AcDbEntity
  8
0
100
AcDbLine
 10
25.0
 20
44.7
 30
0.0
 11
25.0
 21
43.79999999999999
 31
0.0
  0
LINE
  5
184
330
1E
100
AcDbEntity
  8
0
100
AcDbLine
 10
25.0
 20
43.79999999999999
 30
0.0
 11
25.0
 21
44.7
 31
0.0
  0
LINE
  5
185
330
1E
100
AcDbEntity
  8
0
100
AcDbLine
 10
25.0
 20
43.79999999999999
 30
0.0
 11
25.0
 21
42.4
 31
0.0
  0
LINE
  5
18E
330
1E
100
AcDbEntity
  8
0
100
AcDbLine
 10
28.0
 20
44.7
 30
0.0
 11
28.0
 21
43.79999999999999
 31
0.0
  0
LINE
  5
18F
330
1E
100
AcDbEntity
  8
0
100
AcDbLine
 10
28.0
 20
44.7
 30
0.0
 11
28.0
 21
45.0
 31
0.0
  0
LINE
  5
190
330
1E
100
AcDbEntity
  8
0
100
AcDbLine
 10
28.0
 20
43.79999999999999
 30
0.0
 11
28.0
 21
42.4
 31
0.0
  0
LINE
  5
191
330
1E
100
AcDbEntity
  8
0
100
AcDbLine
 10
28.0
 20
43.79999999999999
 30
0.0
 11
28.0
 21
44.7
 31
0.0
  0
LINE
  5
192
330
1E
100
AcDbEntity
  8
0
100
AcDbLine
 10
52.0
 20
41.39999999999999
 30
0.0
 11
52.0
 21
36.0
 31
0.0
  0
LINE
  5
193
330
1E
100
AcDbEntity
  8
0
100
AcDbLine
 10
52.0
 20
41.39999999999999
 30
0.0
 11
52.0
 21
46.5
 31
0.0
  0
LINE
  5
196
330
1E
100
AcDbEntity
  8
0
100
AcDbLine
 10
56.0
 20
41.39999999999999
 30
0.0
 11
56.0
 21
46.5
 31
0.0
  0
LINE
  5
199
330
1E
100
AcDbEntity
  8
0
100
AcDbLine
 10
28.0
 20
42.4
 30
0.0
 11
28.0
 21
40.49999999999999
 31
0.0
  0
LINE
  5
19A
330
1E
100
AcDbEntity
  8
0
100
AcDbLine
 10
28.0
 20
42.4
 30
0.0
 11
28.0
 21
43.79999999999999
 31
0.0
  0
LINE
  5
19F
330
1E
100
AcDbEntity
  8
0
100
AcDbLine
 10
28.0
 20
45.0
 30
0.0
 11
30.71699999999999
 21
48.0
 31
0.0
  0
LINE
  5
1A0
330
1E
100
AcDbEntity
  8
0
100
AcDbLine
 10
28.0
 20
45.0
 30
0.0
 11
28.0
 21
44.7
 31
0.0
  0
LINE
  5
1A1
330
1E
100
AcDbEntity
  8
0
100
AcDbLine
 10
25.0
 20
42.4
 30
0.0
 11
25.0
 21
43.79999999999999
 31
0.0
  0
LINE
  5
1A2
330
1E
100
AcDbEntity
  8
0
100
AcDbLine
 10
25.0
 20
42.4
 30
0.0
 11
25.0
 21
40.49999999999999
 31
0.0
  0
LINE
  5
1A8
330
1E
100
AcDbEntity
  8
0
100
AcDbLine
 10
26.0
 20
46.0
 30
0.0
 11
27.0
 21
46.0
 31
0.0
  0
LINE
  5
1A9
330
1E
100
AcDbEntity
  8
0
100
AcDbLine
 10
52.0
 20
46.5
 30
0.0
 11
52.0
 21
41.39999999999999
 31
0.0
  0
LINE
  5
1AA
330
1E
100
AcDbEntity
  8
0
100
AcDbLine
 10
52.0
 20
46.5
 30
0.0
 11
52.0
 21
50.8
 31
0.0
  0
LINE
  5
1AC
330
1E
100
AcDbEntity
  8
0
100
AcDbLine
 10
27.0
 20
46.0
 30
0.0
 11
28.0
 21
45.0
 31
0.0
  0
LINE
  5
1AD
330
1E
100
AcDbEntity
  8
0
100
AcDbLine
 10
56.0
 20
46.5
 30
0.0
 11
56.0
 21
50.8
 31
0.0
  0
LINE
  5
1AE
330
1E
100
AcDbEntity
  8
0
100
AcDbLine
 10
52.0
 20
46.0
 30
0.0
 11
52.0
 21
50.1
 31
0.0
  0
LINE
  5
1AF
330
1E
100
AcDbEntity
  8
0
100
AcDbLine
 10
52.0
 20
46.0
 30
0.0
 11
52.0
 21
41.2
 31
0.0
  0
LINE
  5
1B0
330
1E
100
AcDbEntity
  8
0
100
AcDbLine
 10
57.0
 20
45.7
 30
0.0
 11
57.0
 21
41.0
 31
0.0
  0
LINE
  5
1B1
330
1E
100
AcDbEntity
  8
0
100
AcDbLine
 10
57.0
 20
45.7
 30
0.0
 11
57.0
 21
49.8
 31
0.0
  0
LINE
  5
1B2
330
1E
100
AcDbEntity
  8
0
100
AcDbLine
 10
57.0
 20
41.39999999999999
 30
0.0
 11
57.0
 21
36.0
 31
0.0
  0
LINE
  5
1B3
330
1E
100
AcDbEntity
  8
0
100
AcDbLine
 10
57.0
 20
41.39999999999999
 30
0.0
 11
57.0
 21
46.5
 31
0.0
  0
LINE
  5
1B4
330
1E
100
AcDbEntity
  8
0
100
AcDbLine
 10
4.0
 20
47.0
 30
0.0
 11
4.0
 21
46.6
 31
0.0
  0
LINE
  5
1B5
330
1E
100
AcDbEntity
  8
0
100
AcDbLine
 10
4.0
 20
47.0
 30
0.0
 11
4.5
 21
47.5
 31
0.0
  0
LINE
  5
1B6
330
1E
100
AcDbEntity
  8
0
100
AcDbLine
 10
4.0
 20
46.6
 30
0.0
 11
4.0
 21
45.49999999999999
 31
0.0
  0
LINE
  5
1B7
330
1E
100
AcDbEntity
  8
0
100
AcDbLine
 10
4.0
 20
46.6
 30
0.0
 11
4.0
 21
47.0
 31
0.0
  0
LINE
  5
1B8
330
1E
100
AcDbEntity
  8
0
100
AcDbLine
 10
6.0
 20
47.0
 30
0.0
 11
6.0
 21
46.6
 31
0.0
  0
LINE
  5
1B9
330
1E
100
AcDbEntity
  8
0
100
AcDbLine
 10
6.0
 20
47.0
 30
0.0
 11
9.0
 21
48.0
 31
0.0
  0
LINE
  5
1BA
330
1E
100
AcDbEntity
  8
0
100
AcDbLine
 10
6.0
 20
46.6
 30
0.0
 11
6.0
 21
45.49999999999999
 31
0.0
  0
LINE
  5
1BB
330
1E
100
AcDbEntity
  8
0
100
AcDbLine
 10
6.0
 20
46.6
 30
0.0
 11
6.0
 21
47.0
 31
0.0
  0
LINE
  5
1BF
330
1E
100
AcDbEntity
  8
0
100
AcDbLine
 10
4.5
 20
47.5
 30
0.0
 11
5.5
 21
47.5
 31
0.0
  0
LINE
  5
1C1
330
1E
100
AcDbEntity
  8
0
100
AcDbLine
 10
5.5
 20
47.5
 30
0.0
 11
6.0
 21
47.0
 31
0.0
  0
LINE
  5
1C4
330
1E
100
AcDbEntity
  8
0
100
AcDbLine
 10
9.0
 20
48.0
 30
0.0
 11
9.166007905138339
 21
48.0276679841897
 31
0.0
  0
LINE
  5
1C5
330
1E
100
AcDbEntity
  8
0
100
AcDbLine
 10
18.8823529411765
 20
48.01960784313729
 30
0.0
 11
19.0
 21
48.0
 31
0.0
  0
LINE
  5
1C6
330
1E
100
AcDbEntity
  8
0
100
AcDbLine
 10
18.8823529411765
 20
48.01960784313729
 30
0.0
 11
20.0
 21
51.0
 31
0.0
  0
LINE
  5
1CB
330
1E
100
AcDbEntity
  8
0
100
AcDbLine
 10
52.0
 20
50.1
 30
0.0
 11
52.0
 21
53.3
 31
0.0
  0
LINE
  5
1CC
330
1E
100
AcDbEntity
  8
0
100
AcDbLine
 10
52.0
 20
50.1
 30
0.0
 11
52.0
 21
46.0
 31
0.0
  0
LINE
  5
1CD
330
1E
100
AcDbEntity
  8
0
100
AcDbLine
 10
30.71699999999999
 20
48.0
 30
0.0
 11
35.2453
 21
50.5
 31
0.0
  0
LINE
  5
1CE
330
1E
100
AcDbEntity
  8
0
100
AcDbLine
 10
52.0
 20
50.8
 30
0.0
 11
52.0
 21
46.5
 31
0.0
  0
LINE
  5
1CF
330
1E
100
AcDbEntity
  8
0
100
AcDbLine
 10
52.0
 20
50.8
 30
0.0
 11
52.0
 21
54.2
 31
0.0
  0
LINE
  5
1D0
330
1E
100
AcDbEntity
  8
0
100
AcDbLine
 10
56.0
 20
50.8
 30
0.0
 11
56.0
 21
54.2
 31
0.0
  0
LINE
  5
1D1
330
1E
100
AcDbEntity
  8
0
100
AcDbLine
 10
35.2453
 20
50.5
 30
0.0
 11
40.67919999999999
 21
53.0
 31
0.0
  0
LINE
  5
1D2
330
1E
100
AcDbEntity
  8
0
100
AcDbLine
 10
19.0
 20
48.0
 30
0.0
 11
22.0
 21
47.0
 31
0.0
  0
LINE
  5
1D3
330
1E
100
AcDbEntity
  8
0
100
AcDbLine
 10
22.0
 20
47.0
 30
0.0
 11
25.0
 21
45.0
 31
0.0
  0
LINE
  5
1D4
330
1E
100
AcDbEntity
  8
0
100
AcDbLine
 10
57.0
 20
49.8
 30
0.0
 11
57.0
 21
45.7
 31
0.0
  0
LINE
  5
1D5
330
1E
100
AcDbEntity
  8
0
100
AcDbLine
 10
57.0
 20
49.8
 30
0.0
 11
57.0
 21
52.9
 31
0.0
  0
LINE
  5
1D6
330
1E
100
AcDbEntity
  8
0
100
AcDbLine
 10
57.0
 20
46.5
 30
0.0
 11
57.0
 21
41.39999999999999
 31
0.0
  0
LINE
  5
1D7
330
1E
100
AcDbEntity
  8
0
100
AcDbLine
 10
57.0
 20
46.5
 30
0.0
 11
57.0
 21
50.8
 31
0.0
  0
LINE
  5
1D8
330
1E
100
AcDbEntity
  8
0
100
AcDbLine
 10
241.0
 20
41.39999999999999
 30
0.0
 11
241.0
 21
46.5
 31
0.0
  0
LINE
  5
1D9
330
1E
100
AcDbEntity
  8
0
100
AcDbLine
 10
241.0
 20
41.39999999999999
 30
0.0
 11
241.0
 21
36.0
 31
0.0
  0
LINE
  5
1DA
330
1E
100
AcDbEntity
  8
0
100
AcDbLine
 10
241.0
 20
46.5
 30
0.0
 11
241.0
 21
50.8
 31
0.0
  0
LINE
  5
1DB
330
1E
100
AcDbEntity
  8
0
100
AcDbLine
 10
241.0
 20
46.5
 30
0.0
 11
241.0
 21
41.39999999999999
 31
0.0
  0
LINE
  5
1DC
330
1E
100
AcDbEntity
  8
0
100
AcDbLine
 10
243.0
 20
45.7
 30
0.0
 11
243.0
 21
49.8
 31
0.0
  0
LINE
  5
1DD
330
1E
100
AcDbEntity
  8
0
100
AcDbLine
 10
241.0
 20
50.8
 30
0.0
 11
241.0
 21
54.2
 31
0.0
  0
LINE
  5
1DE
330
1E
100
AcDbEntity
  8
0
100
AcDbLine
 10
241.0
 20
50.8
 30
0.0
 11
241.0
 21
46.5
 31
0.0
  0
LINE
  5
1DF
330
1E
100
AcDbEntity
  8
0
100
AcDbLine
 10
243.0
 20
49.8
 30
0.0
 11
243.0
 21
52.9
 31
0.0
  0
LINE
  5
1E0
330
1E
100
AcDbEntity
  8
0
100
AcDbLine
 10
57.0
 20
50.8
 30
0.0
 11
57.0
 21
46.5
 31
0.0
  0
LINE
  5
1E1
330
1E
100
AcDbEntity
  8
0
100
AcDbLine
 10
57.0
 20
50.8
 30
0.0
 11
57.0
 21
54.2
 31
0.0
  0
LINE
  5
1E2
330
1E
100
AcDbEntity
  8
0
100
AcDbLine
 10
20.0
 20
51.0
 30
0.0
 11
21.0
 21
55.0
 31
0.0
  0
LINE
  5
1E7
330
1E
100
AcDbEntity
  8
0
100
AcDbLine
 10
52.0
 20
54.2
 30
0.0
 11
52.0
 21
50.8
 31
0.0
  0
LINE
  5
1E8
330
1E
100
AcDbEntity
  8
0
100
AcDbLine
 10
52.0
 20
54.2
 30
0.0
 11
52.0
 21
56.2
 31
0.0
  0
LINE
  5
1E9
330
1E
100
AcDbEntity
  8
0
100
AcDbLine
 10
56.0
 20
54.2
 30
0.0
 11
56.0
 21
56.2
 31
0.0
  0
LINE
  5
1EA
330
1E
100
AcDbEntity
  8
0
100
AcDbLine
 10
52.0
 20
53.3
 30
0.0
 11
52.0
 21
55.3
 31
0.0
  0
LINE
  5
1EB
330
1E
100
AcDbEntity
  8
0
100
AcDbLine
 10
52.0
 20
53.3
 30
0.0
 11
52.0
 21
50.1
 31
0.0
  0
LINE
  5
1EC
330
1E
100
AcDbEntity
  8
0
100
AcDbLine
 10
40.67919999999999
 20
53.0
 30
0.0
 11
46.566
 21
55.0
 31
0.0
  0
LINE
  5
1ED
330
1E
100
AcDbEntity
  8
0
100
AcDbLine
 10
8.0
 20
51.0
 30
0.0
 11
9.117647058823528
 21
48.01960784313729
 31
0.0
  0
LINE
  5
1EE
330
1E
100
AcDbEntity
  8
0
100
AcDbLine
 10
57.0
 20
52.9
 30
0.0
 11
57.0
 21
49.8
 31
0.0
  0
LINE
  5
1EF
330
1E
100
AcDbEntity
  8
0
100
AcDbLine
 10
57.0
 20
52.9
 30
0.0
 11
57.0
 21
54.8
 31
0.0
  0
LINE
  5
1F0
330
1E
100
AcDbEntity
  8
0
100
AcDbLine
 10
46.566
 20
55.0
 30
0.0
 11
52.0
 21
56.0
 31
0.0
  0
LINE
  5
1F1
330
1E
100
AcDbEntity
  8
0
100
AcDbLine
 10
21.0
 20
55.0
 30
0.0
 11
21.2
 21
58.0
 31
0.0
  0
LINE
  5
1F6
330
1E
100
AcDbEntity
  8
0
100
AcDbLine
 10
52.0
 20
55.3
 30
0.0
 11
52.0
 21
56.0
 31
0.0
  0
LINE
  5
1F7
330
1E
100
AcDbEntity
  8
0
100
AcDbLine
 10
52.0
 20
55.3
 30
0.0
 11
52.0
 21
53.3
 31
0.0
  0
LINE
  5
1F8
330
1E
100
AcDbEntity
  8
0
100
AcDbLine
 10
7.0
 20
55.0
 30
0.0
 11
8.0
 21
51.0
 31
0.0
  0
LINE
  5
1F9
330
1E
100
AcDbEntity
  8
0
100
AcDbLine
 10
56.0
 20
55.5
 30
0.0
 11
57.0
 21
55.5
 31
0.0
  0
LINE
  5
1FA
330
1E
100
AcDbEntity
  8
0
100
AcDbLine
 10
57.0
 20
54.8
 30
0.0
 11
57.0
 21
52.9
 31
0.0
  0
LINE
  5
1FB
330
1E
100
AcDbEntity
  8
0
100
AcDbLine
 10
57.0
 20
54.8
 30
0.0
 11
57.0
 21
55.5
 31
0.0
  0
LINE
  5
1FC
330
1E
100
AcDbEntity
  8
0
100
AcDbLine
 10
57.0
 20
54.2
 30
0.0
 11
57.0
 21
50.8
 31
0.0
  0
LINE
  5
1FD
330
1E
100
AcDbEntity
  8
0
100
AcDbLine
 10
57.0
 20
54.2
 30
0.0
 11
57.0
 21
56.2
 31
0.0
  0
LINE
  5
1FE
330
1E
100
AcDbEntity
  8
0
100
AcDbLine
 10
52.0
 20
56.2
 30
0.0
 11
52.0
 21
57.0
 31
0.0
  0
LINE
  5
1FF
330
1E
100
AcDbEntity
  8
0
100
AcDbLine
 10
52.0
 20
56.2
 30
0.0
 11
52.0
 21
56.0
 31
0.0
  0
LINE
  5
200
330
1E
100
AcDbEntity
  8
0
100
AcDbLine
 10
52.0
 20
56.2
 30
0.0
 11
52.0
 21
54.2
 31
0.0
  0
LINE
  5
201
330
1E
100
AcDbEntity
  8
0
100
AcDbLine
 10
56.0
 20
56.2
 30
0.0
 11
56.0
 21
57.0
 31
0.0
  0
LINE
  5
202
330
1E
100
AcDbEntity
  8
0
100
AcDbLine
 10
52.0
 20
56.0
 30
0.0
 11
52.0
 21
56.2
 31
0.0
  0
LINE
  5
203
330
1E
100
AcDbEntity
  8
0
100
AcDbLine
 10
52.0
 20
56.0
 30
0.0
 11
52.0
 21
55.3
 31
0.0
  0
LINE
  5
204
330
1E
100
AcDbEntity
  8
0
100
AcDbLine
 10
57.0
 20
55.5
 30
0.0
 11
57.0
 21
56.2
 31
0.0
  0
LINE
  5
205
330
1E
100
AcDbEntity
  8
0
100
AcDbLine
 10
57.0
 20
55.5
 30
0.0
 11
57.0
 21
54.8
 31
0.0
  0
LINE
  5
206
330
1E
100
AcDbEntity
  8
0
100
AcDbLine
 10
57.0
 20
55.5
 30
0.0
 11
57.0
 21
70.0
 31
0.0
  0
LINE
  5
207
330
1E
100
AcDbEntity
  8
0
100
AcDbLine
 10
241.0
 20
54.2
 30
0.0
 11
241.0
 21
56.2
 31
0.0
  0
LINE
  5
208
330
1E
100
AcDbEntity
  8
0
100
AcDbLine
 10
241.0
 20
54.2
 30
0.0
 11
241.0
 21
50.8
 31
0.0
  0
LINE
  5
209
330
1E
100
AcDbEntity
  8
0
100
AcDbLine
 10
243.0
 20
52.9
 30
0.0
 11
243.0
 21
54.8
 31
0.0
  0
LINE
  5
20A
330
1E
100
AcDbEntity
  8
0
100
AcDbLine
 10
241.0
 20
56.2
 30
0.0
 11
241.0
 21
57.0
 31
0.0
  0
LINE
  5
20B
330
1E
100
AcDbEntity
  8
0
100
AcDbLine
 10
241.0
 20
56.2
 30
0.0
 11
241.0
 21
54.2
 31
0.0
  0
LINE
  5
20C
330
1E
100
AcDbEntity
  8
0
100
AcDbLine
 10
241.0
 20
55.5
 30
0.0
 11
243.0
 21
55.5
 31
0.0
  0
LINE
  5
20D
330
1E
100
AcDbEntity
  8
0
100
AcDbLine
 10
243.0
 20
54.8
 30
0.0
 11
243.0
 21
55.5
 31
0.0
  0
LINE
  5
20E
330
1E
100
AcDbEntity
  8
0
100
AcDbLine
 10
57.0
 20
56.2
 30
0.0
 11
57.0
 21
57.0
 31
0.0
  0
LINE
  5
20F
330
1E
100
AcDbEntity
  8
0
100
AcDbLine
 10
57.0
 20
56.2
 30
0.0
 11
57.0
 21
55.5
 31
0.0
  0
LINE
  5
210
330
1E
100
AcDbEntity
  8
0
100
AcDbLine
 10
57.0
 20
56.2
 30
0.0
 11
57.0
 21
54.2
 31
0.0
  0
LINE
  5
211
330
1E
100
AcDbEntity
  8
0
100
AcDbLine
 10
52.0
 20
57.0
 30
0.0
 11
53.14289999999999
 21
58.0
 31
0.0
  0
LINE
  5
212
330
1E
100
AcDbEntity
  8
0
100
AcDbLine
 10
52.0
 20
57.0
 30
0.0
 11
52.0
 21
56.2
 31
0.0
  0
LINE
  5
213
330
1E
100
AcDbEntity
  8
0
100
AcDbLine
 10
57.0
 20
57.0
 30
0.0
 11
57.0
 21
56.2
 31
0.0
  0
LINE
  5
214
330
1E
100
AcDbEntity
  8
0
100
AcDbLine
 10
207.0
 20
57.0
 30
0.0
 11
207.0
 21
70.0
 31
0.0
  0
LINE
  5
215
330
1E
100
AcDbEntity
  8
0
100
AcDbLine
 10
241.0
 20
57.0
 30
0.0
 11
241.0
 21
56.2
 31
0.0
  0
LINE
  5
216
330
1E
100
AcDbEntity
  8
0
100
AcDbLine
 10
241.0
 20
57.0
 30
0.0
 11
241.0
 21
70.0
 31
0.0
  0
LINE
  5
217
330
1E
100
AcDbEntity
  8
0
100
AcDbLine
 10
149.0
 20
57.0
 30
0.0
 11
241.0
 21
57.0
 31
0.0
  0
LINE
  5
218
330
1E
100
AcDbEntity
  8
0
100
AcDbLine
 10
57.0
 20
57.0
 30
0.0
 11
149.0
 21
57.0
 31
0.0
  0
LINE
  5
219
330
1E
100
AcDbEntity
  8
0
100
AcDbLine
 10
91.0
 20
57.0
 30
0.0
 11
91.0
 21
70.0
 31
0.0
  0
LINE
  5
21A
330
1E
100
AcDbEntity
  8
0
100
AcDbLine
 10
243.0
 20
56.244
 30
0.0
 11
243.0
 21
54.228
 31
0.0
  0
LINE
  5
21B
330
1E
100
AcDbEntity
  8
0
100
AcDbLine
 10
243.0
 20
54.228
 30
0.0
 11
243.0
 21
50.868
 31
0.0
  0
LINE
  5
21C
330
1E
100
AcDbEntity
  8
0
100
AcDbLine
 10
243.0
 20
50.868
 30
0.0
 11
243.0
 21
46.416
 31
0.0
  0
LINE
  5
21D
330
1E
100
AcDbEntity
  8
0
100
AcDbLine
 10
243.0
 20
46.416
 30
0.0
 11
243.0
 21
41.376
 31
0.0
  0
LINE
  5
21E
330
1E
100
AcDbEntity
  8
0
100
AcDbLine
 10
243.0
 20
41.376
 30
0.0
 11
243.0
 21
36.0
 31
0.0
  0
LINE
  5
21F
330
1E
100
AcDbEntity
  8
0
100
AcDbLine
 10
243.0
 20
56.244
 30
0.0
 11
243.0
 21
57.0
 31
0.0
  0
LINE
  5
220
330
1E
100
AcDbEntity
  8
0
100
AcDbLine
 10
6.799999999999999
 20
58.0
 30
0.0
 11
7.0
 21
55.0
 31
0.0
  0
LINE
  5
221
330
1E
100
AcDbEntity
  8
0
100
AcDbLine
 10
6.5
 20
62.0
 30
0.0
 11
7.0
 21
65.5
 31
0.0
  0
LINE
  5
222
330
1E
100
AcDbEntity
  8
0
100
AcDbLine
 10
6.5
 20
62.0
 30
0.0
 11
6.799999999999999
 21
58.0
 31
0.0
  0
LINE
  5
223
330
1E
100
AcDbEntity
  8
0
100
AcDbLine
 10
7.0
 20
65.5
 30
0.0
 11
8.0
 21
68.0
 31
0.0
  0
LINE
  5
224
330
1E
100
AcDbEntity
  8
0
100
AcDbLine
 10
8.0
 20
68.0
 30
0.0
 11
9.5
 21
70.0
 31
0.0
  0
LINE
  5
225
330
1E
100
AcDbEntity
  8
0
100
AcDbLine
 10
9.5
 20
70.0
 30
0.0
 11
11.5
 21
71.5
 31
0.0
  0
LINE
  5
226
330
1E
100
AcDbEntity
  8
0
100
AcDbLine
 10
21.2
 20
58.0
 30
0.0
 11
21.49999999999999
 21
62.0
 31
0.0
  0
LINE
  5
227
330
1E
100
AcDbEntity
  8
0
100
AcDbLine
 10
21.0
 20
65.5
 30
0.0
 11
21.49999999999999
 21
62.0
 31
0.0
  0
LINE
  5
228
330
1E
100
AcDbEntity
  8
0
100
AcDbLine
 10
20.0
 20
68.0
 30
0.0
 11
21.0
 21
65.5
 31
0.0
  0
LINE
  5
229
330
1E
100
AcDbEntity
  8
0
100
AcDbLine
 10
18.5
 20
70.0
 30
0.0
 11
20.0
 21
68.0
 31
0.0
  0
LINE
  5
22A
330
1E
100
AcDbEntity
  8
0
100
AcDbLine
 10
16.5
 20
71.5
 30
0.0
 11
18.5
 21
70.0
 31
0.0
  0
LINE
  5
22B
330
1E
100
AcDbEntity
  8
0
100
AcDbLine
 10
14.0
 20
72.0
 30
0.0
 11
16.5
 21
71.5
 31
0.0
  0
LINE
  5
22C
330
1E
100
AcDbEntity
  8
0
100
AcDbLine
 10
11.5
 20
71.5
 30
0.0
 11
14.0
 21
72.0
 31
0.0
  0
LINE
  5
22D
330
1E
100
AcDbEntity
  8
0
100
AcDbLine
 10
40.0
 20
114.0
 30
0.0
 11
40.0
 21
90.0
 31
0.0
  0
LINE
  5
22E
330
1E
100
AcDbEntity
  8
0
100
AcDbLine
 10
40.0
 20
114.0
 30
0.0
 11
41.2
 21
114.0
 31
0.0
  0
LINE
  5
233
330
1E
100
AcDbEntity
  8
0
100
AcDbLine
 10
53.14289999999999
 20
58.0
 30
0.0
 11
54.8571
 21
58.0
 31
0.0
  0
LINE
  5
235
330
1E
100
AcDbEntity
  8
0
100
AcDbLine
 10
54.8571
 20
58.0
 30
0.0
 11
56.0
 21
57.0
 31
0.0
  0
LINE
  5
237
330
1E
100
AcDbEntity
  8
0
100
AcDbLine
 10
61.8571
 20
70.0
 30
0.0
 11
61.8571
 21
74.0
 31
0.0
  0
LINE
  5
238
330
1E
100
AcDbEntity
  8
0
100
AcDbLine
 10
61.99989999999999
 20
70.0
 30
0.0
 11
65.54999999999999
 21
70.0
 31
0.0
  0
LINE
  5
239
330
1E
100
AcDbEntity
  8
0
100
AcDbLine
 10
74.0
 20
70.0
 30
0.0
 11
78.4
 21
70.0
 31
0.0
  0
LINE
  5
23A
330
1E
100
AcDbEntity
  8
0
100
AcDbLine
 10
78.4
 20
70.0
 30
0.0
 11
82.45
 21
70.0
 31
0.0
  0
LINE
  5
23B
330
1E
100
AcDbEntity
  8
0
100
AcDbLine
 10
86.1429
 20
70.0
 30
0.0
 11
86.1429
 21
74.0
 31
0.0
  0
LINE
  5
23C
330
1E
100
AcDbEntity
  8
0
100
AcDbLine
 10
86.00010000000001
 20
70.0
 30
0.0
 11
88.7
 21
70.0
 31
0.0
  0
LINE
  5
23D
330
1E
100
AcDbEntity
  8
0
100
AcDbLine
 10
82.45
 20
70.0
 30
0.0
 11
85.9999
 21
70.0
 31
0.0
  0
LINE
  5
23E
330
1E
100
AcDbEntity
  8
0
100
AcDbLine
 10
82.45
 20
70.0
 30
0.0
 11
86.00010000000001
 21
70.0
 31
0.0
  0
LINE
  5
23F
330
1E
100
AcDbEntity
  8
0
100
AcDbLine
 10
85.9999
 20
70.0
 30
0.0
 11
88.7
 21
70.0
 31
0.0
  0
LINE
  5
240
330
1E
100
AcDbEntity
  8
0
100
AcDbLine
 10
69.59999999999999
 20
70.0
 30
0.0
 11
74.0
 21
70.0
 31
0.0
  0
LINE
  5
241
330
1E
100
AcDbEntity
  8
0
100
AcDbLine
 10
65.54999999999999
 20
70.0
 30
0.0
 11
69.59999999999999
 21
70.0
 31
0.0
  0
LINE
  5
242
330
1E
100
AcDbEntity
  8
0
100
AcDbLine
 10
62.0001
 20
70.0
 30
0.0
 11
65.54999999999999
 21
70.0
 31
0.0
  0
LINE
  5
243
330
1E
100
AcDbEntity
  8
0
100
AcDbLine
 10
59.29999999999999
 20
70.0
 30
0.0
 11
62.0001
 21
70.0
 31
0.0
  0
LINE
  5
244
330
1E
100
AcDbEntity
  8
0
100
AcDbLine
 10
59.29999999999999
 20
70.0
 30
0.0
 11
61.99989999999999
 21
70.0
 31
0.0
  0
LINE
  5
245
330
1E
100
AcDbEntity
  8
0
100
AcDbLine
 10
57.6
 20
70.0
 30
0.0
 11
59.29999999999999
 21
70.0
 31
0.0
  0
LINE
  5
246
330
1E
100
AcDbEntity
  8
0
100
AcDbLine
 10
58.2143
 20
84.0
 30
0.0
 11
58.2143
 21
81.0
 31
0.0
  0
LINE
  5
247
330
1E
100
AcDbEntity
  8
0
100
AcDbLine
 10
58.2143
 20
84.0
 30
0.0
 11
58.2143
 21
86.0
 31
0.0
  0
LINE
  5
248
330
1E
100
AcDbEntity
  8
0
100
AcDbLine
 10
58.2143
 20
86.0
 30
0.0
 11
58.82139999999999
 21
86.0
 31
0.0
  0
LINE
  5
249
330
1E
100
AcDbEntity
  8
0
100
AcDbLine
 10
58.2143
 20
86.0
 30
0.0
 11
60.64289999999999
 21
88.0
 31
0.0
  0
LINE
  5
24A
330
1E
100
AcDbEntity
  8
0
100
AcDbLine
 10
58.2143
 20
86.0
 30
0.0
 11
58.2143
 21
84.0
 31
0.0
  0
LINE
  5
24B
330
1E
100
AcDbEntity
  8
0
100
AcDbLine
 10
58.2143
 20
81.0
 30
0.0
 11
58.2143
 21
78.0
 31
0.0
  0
LINE
  5
24C
330
1E
100
AcDbEntity
  8
0
100
AcDbLine
 10
58.2143
 20
81.0
 30
0.0
 11
58.2143
 21
84.0
 31
0.0
  0
LINE
  5
24D
330
1E
100
AcDbEntity
  8
0
100
AcDbLine
 10
58.2143
 20
78.0
 30
0.0
 11
58.2143
 21
81.0
 31
0.0
  0
LINE
  5
24E
330
1E
100
AcDbEntity
  8
0
100
AcDbLine
 10
58.2143
 20
78.0
 30
0.0
 11
58.2143
 21
76.0
 31
0.0
  0
LINE
  5
24F
330
1E
100
AcDbEntity
  8
0
100
AcDbLine
 10
61.8571
 20
74.0
 30
0.0
 11
62.2857
 21
74.0
 31
0.0
  0
LINE
  5
250
330
1E
100
AcDbEntity
  8
0
100
AcDbLine
 10
61.8571
 20
74.0
 30
0.0
 11
61.8571
 21
70.0
 31
0.0
  0
LINE
  5
251
330
1E
100
AcDbEntity
  8
0
100
AcDbLine
 10
62.2857
 20
74.0
 30
0.0
 11
63.5
 21
74.0
 31
0.0
  0
LINE
  5
252
330
1E
100
AcDbEntity
  8
0
100
AcDbLine
 10
63.5
 20
74.0
 30
0.0
 11
65.42860000000001
 21
74.0
 31
0.0
  0
LINE
  5
253
330
1E
100
AcDbEntity
  8
0
100
AcDbLine
 10
65.42860000000001
 20
74.0
 30
0.0
 11
67.96429999999999
 21
74.0
 31
0.0
  0
LINE
  5
254
330
1E
100
AcDbEntity
  8
0
100
AcDbLine
 10
85.71429999999999
 20
74.0
 30
0.0
 11
86.1429
 21
74.0
 31
0.0
  0
LINE
  5
255
330
1E
100
AcDbEntity
  8
0
100
AcDbLine
 10
84.50000000000001
 20
74.0
 30
0.0
 11
85.71429999999999
 21
74.0
 31
0.0
  0
LINE
  5
256
330
1E
100
AcDbEntity
  8
0
100
AcDbLine
 10
82.57139999999999
 20
74.0
 30
0.0
 11
84.50000000000001
 21
74.0
 31
0.0
  0
LINE
  5
257
330
1E
100
AcDbEntity
  8
0
100
AcDbLine
 10
80.03570000000001
 20
74.0
 30
0.0
 11
82.57139999999999
 21
74.0
 31
0.0
  0
LINE
  5
258
330
1E
100
AcDbEntity
  8
0
100
AcDbLine
 10
77.14279999999999
 20
74.0
 30
0.0
 11
80.03570000000001
 21
74.0
 31
0.0
  0
LINE
  5
259
330
1E
100
AcDbEntity
  8
0
100
AcDbLine
 10
74.0
 20
74.0
 30
0.0
 11
77.14279999999999
 21
74.0
 31
0.0
  0
LINE
  5
25A
330
1E
100
AcDbEntity
  8
0
100
AcDbLine
 10
86.1429
 20
74.0
 30
0.0
 11
89.78570000000001
 21
76.0
 31
0.0
  0
LINE
  5
25B
330
1E
100
AcDbEntity
  8
0
100
AcDbLine
 10
86.1429
 20
74.0
 30
0.0
 11
86.1429
 21
70.0
 31
0.0
  0
LINE
  5
25C
330
1E
100
AcDbEntity
  8
0
100
AcDbLine
 10
67.96429999999999
 20
74.0
 30
0.0
 11
70.85720000000001
 21
74.0
 31
0.0
  0
LINE
  5
25D
330
1E
100
AcDbEntity
  8
0
100
AcDbLine
 10
60.64289999999999
 20
88.0
 30
0.0
 11
61.1286
 21
88.0
 31
0.0
  0
LINE
  5
25E
330
1E
100
AcDbEntity
  8
0
100
AcDbLine
 10
61.1286
 20
88.0
 30
0.0
 11
62.4643
 21
88.0
 31
0.0
  0
LINE
  5
25F
330
1E
100
AcDbEntity
  8
0
100
AcDbLine
 10
62.4643
 20
88.0
 30
0.0
 11
64.5286
 21
88.0
 31
0.0
  0
LINE
  5
260
330
1E
100
AcDbEntity
  8
0
100
AcDbLine
 10
64.5286
 20
88.0
 30
0.0
 11
67.3214
 21
88.0
 31
0.0
  0
LINE
  5
266
330
1E
100
AcDbEntity
  8
0
100
AcDbLine
 10
86.87139999999999
 20
88.0
 30
0.0
 11
87.3571
 21
88.0
 31
0.0
  0
LINE
  5
267
330
1E
100
AcDbEntity
  8
0
100
AcDbLine
 10
85.5357
 20
88.0
 30
0.0
 11
86.87139999999999
 21
88.0
 31
0.0
  0
LINE
  5
268
330
1E
100
AcDbEntity
  8
0
100
AcDbLine
 10
83.47140000000001
 20
88.0
 30
0.0
 11
85.5357
 21
88.0
 31
0.0
  0
LINE
  5
269
330
1E
100
AcDbEntity
  8
0
100
AcDbLine
 10
80.67860000000001
 20
88.0
 30
0.0
 11
83.47140000000001
 21
88.0
 31
0.0
  0
LINE
  5
26A
330
1E
100
AcDbEntity
  8
0
100
AcDbLine
 10
77.40000000000001
 20
88.0
 30
0.0
 11
80.67860000000001
 21
88.0
 31
0.0
  0
LINE
  5
26C
330
1E
100
AcDbEntity
  8
0
100
AcDbLine
 10
74.0
 20
88.0
 30
0.0
 11
77.40000000000001
 21
88.0
 31
0.0
  0
LINE
  5
26E
330
1E
100
AcDbEntity
  8
0
100
AcDbLine
 10
67.3214
 20
88.0
 30
0.0
 11
70.59999999999999
 21
88.0
 31
0.0
  0
LINE
  5
26F
330
1E
100
AcDbEntity
  8
0
100
AcDbLine
 10
70.59999999999999
 20
88.0
 30
0.0
 11
74.0
 21
88.0
 31
0.0
  0
LINE
  5
271
330
1E
100
AcDbEntity
  8
0
100
AcDbLine
 10
70.85720000000001
 20
74.0
 30
0.0
 11
74.0
 21
74.0
 31
0.0
  0
LINE
  5
272
330
1E
100
AcDbEntity
  8
0
100
AcDbLine
 10
58.2143
 20
76.0
 30
0.0
 11
61.8571
 21
74.0
 31
0.0
  0
LINE
  5
273
330
1E
100
AcDbEntity
  8
0
100
AcDbLine
 10
58.2143
 20
76.0
 30
0.0
 11
58.2143
 21
78.0
 31
0.0
  0
LINE
  5
274
330
1E
100
AcDbEntity
  8
0
100
AcDbLine
 10
58.2143
 20
76.0
 30
0.0
 11
58.82139999999999
 21
76.0
 31
0.0
  0
LINE
  5
275
330
1E
100
AcDbEntity
  8
0
100
AcDbLine
 10
57.0
 20
70.0
 30
0.0
 11
57.6
 21
70.0
 31
0.0
  0
LINE
  5
276
330
1E
100
AcDbEntity
  8
0
100
AcDbLine
 10
57.0
 20
70.0
 30
0.0
 11
57.0
 21
55.5
 31
0.0
  0
LINE
  5
277
330
1E
100
AcDbEntity
  8
0
100
AcDbLine
 10
91.0
 20
70.0
 30
0.0
 11
91.0
 21
57.0
 31
0.0
  0
LINE
  5
278
330
1E
100
AcDbEntity
  8
0
100
AcDbLine
 10
88.7
 20
70.0
 30
0.0
 11
90.4
 21
70.0
 31
0.0
  0
LINE
  5
279
330
1E
100
AcDbEntity
  8
0
100
AcDbLine
 10
89.78570000000001
 20
76.0
 30
0.0
 11
89.78570000000001
 21
86.0
 31
0.0
  0
LINE
  5
27C
330
1E
100
AcDbEntity
  8
0
100
AcDbLine
 10
58.82139999999999
 20
86.0
 30
0.0
 11
89.78570000000001
 21
86.0
 31
0.0
  0
LINE
  5
27D
330
1E
100
AcDbEntity
  8
0
100
AcDbLine
 10
58.82139999999999
 20
76.0
 30
0.0
 11
89.78570000000001
 21
76.0
 31
0.0
  0
LINE
  5
27E
330
1E
100
AcDbEntity
  8
0
100
AcDbLine
 10
89.78570000000001
 20
86.0
 30
0.0
 11
89.78570000000001
 21
76.0
 31
0.0
  0
LINE
  5
27F
330
1E
100
AcDbEntity
  8
0
100
AcDbLine
 10
90.4
 20
70.0
 30
0.0
 11
91.0
 21
70.0
 31
0.0
  0
LINE
  5
280
330
1E
100
AcDbEntity
  8
0
100
AcDbLine
 10
87.3571
 20
88.0
 30
0.0
 11
89.9
 21
88.0
 31
0.0
  0
LINE
  5
281
330
1E
100
AcDbEntity
  8
0
100
AcDbLine
 10
87.3571
 20
88.0
 30
0.0
 11
89.78570000000001
 21
86.0
 31
0.0
  0
LINE
  5
282
330
1E
100
AcDbEntity
  8
0
100
AcDbLine
 10
89.9
 20
88.0
 30
0.0
 11
96.6
 21
88.0
 31
0.0
  0
LINE
  5
283
330
1E
100
AcDbEntity
  8
0
100
AcDbLine
 10
96.6
 20
88.0
 30
0.0
 11
101.7
 21
88.0
 31
0.0
  0
LINE
  5
284
330
1E
100
AcDbEntity
  8
0
100
AcDbLine
 10
101.7
 20
88.0
 30
0.0
 11
104.8
 21
88.0
 31
0.0
  0
LINE
  5
285
330
1E
100
AcDbEntity
  8
0
100
AcDbLine
 10
207.6
 20
70.0
 30
0.0
 11
209.2999999999999
 21
70.0
 31
0.0
  0
LINE
  5
286
330
1E
100
AcDbEntity
  8
0
100
AcDbLine
 10
207.0
 20
70.0
 30
0.0
 11
207.6
 21
70.0
 31
0.0
  0
LINE
  5
287
330
1E
100
AcDbEntity
  8
0
100
AcDbLine
 10
207.0
 20
70.0
 30
0.0
 11
207.0
 21
57.0
 31
0.0
  0
LINE
  5
288
330
1E
100
AcDbEntity
  8
0
100
AcDbLine
 10
211.857
 20
70.0
 30
0.0
 11
211.857
 21
74.0
 31
0.0
  0
LINE
  5
289
330
1E
100
AcDbEntity
  8
0
100
AcDbLine
 10
219.6
 20
70.0
 30
0.0
 11
224.0
 21
70.0
 31
0.0
  0
LINE
  5
28A
330
1E
100
AcDbEntity
  8
0
100
AcDbLine
 10
215.5499999999999
 20
70.0
 30
0.0
 11
219.6
 21
70.0
 31
0.0
  0
LINE
  5
28B
330
1E
100
AcDbEntity
  8
0
100
AcDbLine
 10
212.0
 20
70.0
 30
0.0
 11
215.5499999999999
 21
70.0
 31
0.0
  0
LINE
  5
28C
330
1E
100
AcDbEntity
  8
0
100
AcDbLine
 10
209.2999999999999
 20
70.0
 30
0.0
 11
212.0
 21
70.0
 31
0.0
  0
LINE
  5
28D
330
1E
100
AcDbEntity
  8
0
100
AcDbLine
 10
224.0
 20
70.0
 30
0.0
 11
228.4
 21
70.0
 31
0.0
  0
LINE
  5
28E
330
1E
100
AcDbEntity
  8
0
100
AcDbLine
 10
228.4
 20
70.0
 30
0.0
 11
232.45
 21
70.0
 31
0.0
  0
LINE
  5
28F
330
1E
100
AcDbEntity
  8
0
100
AcDbLine
 10
232.45
 20
70.0
 30
0.0
 11
236.0
 21
70.0
 31
0.0
  0
LINE
  5
290
330
1E
100
AcDbEntity
  8
0
100
AcDbLine
 10
236.1429999999999
 20
70.0
 30
0.0
 11
236.1429999999999
 21
74.0
 31
0.0
  0
LINE
  5
291
330
1E
100
AcDbEntity
  8
0
100
AcDbLine
 10
236.0
 20
70.0
 30
0.0
 11
238.7
 21
70.0
 31
0.0
  0
LINE
  5
292
330
1E
100
AcDbEntity
  8
0
100
AcDbLine
 10
211.857
 20
74.0
 30
0.0
 11
212.2859999999999
 21
74.0
 31
0.0
  0
LINE
  5
293
330
1E
100
AcDbEntity
  8
0
100
AcDbLine
 10
211.857
 20
74.0
 30
0.0
 11
211.857
 21
70.0
 31
0.0
  0
LINE
  5
294
330
1E
100
AcDbEntity
  8
0
100
AcDbLine
 10
212.2859999999999
 20
74.0
 30
0.0
 11
213.5
 21
74.0
 31
0.0
  0
LINE
  5
295
330
1E
100
AcDbEntity
  8
0
100
AcDbLine
 10
213.5
 20
74.0
 30
0.0
 11
215.429
 21
74.0
 31
0.0
  0
LINE
  5
296
330
1E
100
AcDbEntity
  8
0
100
AcDbLine
 10
215.429
 20
74.0
 30
0.0
 11
217.964
 21
74.0
 31
0.0
  0
LINE
  5
297
330
1E
100
AcDbEntity
  8
0
100
AcDbLine
 10
217.964
 20
74.0
 30
0.0
 11
220.8569999999999
 21
74.0
 31
0.0
  0
LINE
  5
298
330
1E
100
AcDbEntity
  8
0
100
AcDbLine
 10
220.8569999999999
 20
74.0
 30
0.0
 11
224.0
 21
74.0
 31
0.0
  0
LINE
  5
299
330
1E
100
AcDbEntity
  8
0
100
AcDbLine
 10
235.714
 20
74.0
 30
0.0
 11
236.1429999999999
 21
74.0
 31
0.0
  0
LINE
  5
29A
330
1E
100
AcDbEntity
  8
0
100
AcDbLine
 10
234.5
 20
74.0
 30
0.0
 11
235.714
 21
74.0
 31
0.0
  0
LINE
  5
29B
330
1E
100
AcDbEntity
  8
0
100
AcDbLine
 10
232.5709999999999
 20
74.0
 30
0.0
 11
234.5
 21
74.0
 31
0.0
  0
LINE
  5
29C
330
1E
100
AcDbEntity
  8
0
100
AcDbLine
 10
230.0359999999999
 20
74.0
 30
0.0
 11
232.5709999999999
 21
74.0
 31
0.0
  0
LINE
  5
29D
330
1E
100
AcDbEntity
  8
0
100
AcDbLine
 10
227.143
 20
74.0
 30
0.0
 11
230.0359999999999
 21
74.0
 31
0.0
  0
LINE
  5
29E
330
1E
100
AcDbEntity
  8
0
100
AcDbLine
 10
208.214
 20
84.0
 30
0.0
 11
208.214
 21
86.0
 31
0.0
  0
LINE
  5
29F
330
1E
100
AcDbEntity
  8
0
100
AcDbLine
 10
208.214
 20
84.0
 30
0.0
 11
208.214
 21
81.0
 31
0.0
  0
LINE
  5
2A0
330
1E
100
AcDbEntity
  8
0
100
AcDbLine
 10
208.214
 20
86.0
 30
0.0
 11
210.643
 21
88.0
 31
0.0
  0
LINE
  5
2A1
330
1E
100
AcDbEntity
  8
0
100
AcDbLine
 10
208.214
 20
86.0
 30
0.0
 11
208.214
 21
84.0
 31
0.0
  0
LINE
  5
2A2
330
1E
100
AcDbEntity
  8
0
100
AcDbLine
 10
208.214
 20
86.0
 30
0.0
 11
208.821
 21
86.0
 31
0.0
  0
LINE
  5
2A3
330
1E
100
AcDbEntity
  8
0
100
AcDbLine
 10
208.214
 20
81.0
 30
0.0
 11
208.214
 21
78.0
 31
0.0
  0
LINE
  5
2A4
330
1E
100
AcDbEntity
  8
0
100
AcDbLine
 10
208.214
 20
81.0
 30
0.0
 11
208.214
 21
84.0
 31
0.0
  0
LINE
  5
2A5
330
1E
100
AcDbEntity
  8
0
100
AcDbLine
 10
208.214
 20
78.0
 30
0.0
 11
208.214
 21
76.0
 31
0.0
  0
LINE
  5
2A6
330
1E
100
AcDbEntity
  8
0
100
AcDbLine
 10
208.214
 20
78.0
 30
0.0
 11
208.214
 21
81.0
 31
0.0
  0
LINE
  5
2A9
330
1E
100
AcDbEntity
  8
0
100
AcDbLine
 10
210.643
 20
88.0
 30
0.0
 11
211.129
 21
88.0
 31
0.0
  0
LINE
  5
2AA
330
1E
100
AcDbEntity
  8
0
100
AcDbLine
 10
211.129
 20
88.0
 30
0.0
 11
212.464
 21
88.0
 31
0.0
  0
LINE
  5
2AB
330
1E
100
AcDbEntity
  8
0
100
AcDbLine
 10
212.464
 20
88.0
 30
0.0
 11
214.529
 21
88.0
 31
0.0
  0
LINE
  5
2AC
330
1E
100
AcDbEntity
  8
0
100
AcDbLine
 10
214.529
 20
88.0
 30
0.0
 11
217.321
 21
88.0
 31
0.0
  0
LINE
  5
2AD
330
1E
100
AcDbEntity
  8
0
100
AcDbLine
 10
217.321
 20
88.0
 30
0.0
 11
220.5999999999999
 21
88.0
 31
0.0
  0
LINE
  5
2AF
330
1E
100
AcDbEntity
  8
0
100
AcDbLine
 10
220.5999999999999
 20
88.0
 30
0.0
 11
224.0
 21
88.0
 31
0.0
  0
LINE
  5
2B1
330
1E
100
AcDbEntity
  8
0
100
AcDbLine
 10
208.214
 20
76.0
 30
0.0
 11
211.857
 21
74.0
 31
0.0
  0
LINE
  5
2B2
330
1E
100
AcDbEntity
  8
0
100
AcDbLine
 10
208.214
 20
76.0
 30
0.0
 11
208.821
 21
76.0
 31
0.0
  0
LINE
  5
2B3
330
1E
100
AcDbEntity
  8
0
100
AcDbLine
 10
208.214
 20
76.0
 30
0.0
 11
208.214
 21
78.0
 31
0.0
  0
LINE
  5
2B4
330
1E
100
AcDbEntity
  8
0
100
AcDbLine
 10
227.4
 20
88.0
 30
0.0
 11
230.6789999999999
 21
88.0
 31
0.0
  0
LINE
  5
2B6
330
1E
100
AcDbEntity
  8
0
100
AcDbLine
 10
224.0
 20
88.0
 30
0.0
 11
227.4
 21
88.0
 31
0.0
  0
LINE
  5
2B7
330
1E
100
AcDbEntity
  8
0
100
AcDbLine
 10
230.6789999999999
 20
88.0
 30
0.0
 11
233.4709999999999
 21
88.0
 31
0.0
  0
LINE
  5
2B8
330
1E
100
AcDbEntity
  8
0
100
AcDbLine
 10
235.5359999999999
 20
88.0
 30
0.0
 11
236.8709999999999
 21
88.0
 31
0.0
  0
LINE
  5
2B9
330
1E
100
AcDbEntity
  8
0
100
AcDbLine
 10
233.4709999999999
 20
88.0
 30
0.0
 11
235.5359999999999
 21
88.0
 31
0.0
  0
LINE
  5
2BD
330
1E
100
AcDbEntity
  8
0
100
AcDbLine
 10
224.0
 20
74.0
 30
0.0
 11
227.143
 21
74.0
 31
0.0
  0
LINE
  5
2BE
330
1E
100
AcDbEntity
  8
0
100
AcDbLine
 10
236.8709999999999
 20
88.0
 30
0.0
 11
237.3569999999999
 21
88.0
 31
0.0
  0
LINE
  5
2BF
330
1E
100
AcDbEntity
  8
0
100
AcDbLine
 10
239.7859999999999
 20
76.0
 30
0.0
 11
239.7859999999999
 21
86.0
 31
0.0
  0
LINE
  5
2C0
330
1E
100
AcDbEntity
  8
0
100
AcDbLine
 10
239.7859999999999
 20
86.0
 30
0.0
 11
239.7859999999999
 21
76.0
 31
0.0
  0
LINE
  5
2C1
330
1E
100
AcDbEntity
  8
0
100
AcDbLine
 10
208.821
 20
86.0
 30
0.0
 11
239.7859999999999
 21
86.0
 31
0.0
  0
LINE
  5
2C4
330
1E
100
AcDbEntity
  8
0
100
AcDbLine
 10
208.821
 20
76.0
 30
0.0
 11
239.7859999999999
 21
76.0
 31
0.0
  0
LINE
  5
2C5
330
1E
100
AcDbEntity
  8
0
100
AcDbLine
 10
236.1429999999999
 20
74.0
 30
0.0
 11
239.7859999999999
 21
76.0
 31
0.0
  0
LINE
  5
2C6
330
1E
100
AcDbEntity
  8
0
100
AcDbLine
 10
236.1429999999999
 20
74.0
 30
0.0
 11
236.1429999999999
 21
70.0
 31
0.0
  0
LINE
  5
2C7
330
1E
100
AcDbEntity
  8
0
100
AcDbLine
 10
238.7
 20
70.0
 30
0.0
 11
240.3999999999999
 21
70.0
 31
0.0
  0
LINE
  5
2C8
330
1E
100
AcDbEntity
  8
0
100
AcDbLine
 10
208.0999999999999
 20
88.0
 30
0.0
 11
210.643
 21
88.0
 31
0.0
  0
LINE
  5
2C9
330
1E
100
AcDbEntity
  8
0
100
AcDbLine
 10
201.4
 20
88.0
 30
0.0
 11
208.0999999999999
 21
88.0
 31
0.0
  0
LINE
  5
2CA
330
1E
100
AcDbEntity
  8
0
100
AcDbLine
 10
196.3
 20
88.0
 30
0.0
 11
201.4
 21
88.0
 31
0.0
  0
LINE
  5
2CB
330
1E
100
AcDbEntity
  8
0
100
AcDbLine
 10
196.3
 20
88.0
 30
0.0
 11
201.4
 21
88.0
 31
0.0
  0
LINE
  5
2CC
330
1E
100
AcDbEntity
  8
0
100
AcDbLine
 10
193.2
 20
88.0
 30
0.0
 11
196.3
 21
88.0
 31
0.0
  0
LINE
  5
2CD
330
1E
100
AcDbEntity
  8
0
100
AcDbLine
 10
192.0
 20
88.0
 30
0.0
 11
193.2
 21
88.0
 31
0.0
  0
LINE
  5
2CE
330
1E
100
AcDbEntity
  8
0
100
AcDbLine
 10
237.3569999999999
 20
88.0
 30
0.0
 11
239.9
 21
88.0
 31
0.0
  0
LINE
  5
2CF
330
1E
100
AcDbEntity
  8
0
100
AcDbLine
 10
237.3569999999999
 20
88.0
 30
0.0
 11
239.7859999999999
 21
86.0
 31
0.0
  0
LINE
  5
2D0
330
1E
100
AcDbEntity
  8
0
100
AcDbLine
 10
241.0
 20
70.0
 30
0.0
 11
241.0
 21
57.0
 31
0.0
  0
LINE
  5
2D1
330
1E
100
AcDbEntity
  8
0
100
AcDbLine
 10
240.3999999999999
 20
70.0
 30
0.0
 11
241.0
 21
70.0
 31
0.0
  0
LINE
  5
2D2
330
1E
100
AcDbEntity
  8
0
100
AcDbLine
 10
239.9
 20
88.0
 30
0.0
 11
246.6
 21
88.0
 31
0.0
  0
LINE
  5
2D3
330
1E
100
AcDbEntity
  8
0
100
AcDbLine
 10
106.0
 20
88.0
 30
0.0
 11
108.0
 21
90.0
 31
0.0
  0
LINE
  5
2D4
330
1E
100
AcDbEntity
  8
0
100
AcDbLine
 10
104.8
 20
88.0
 30
0.0
 11
106.0
 21
88.0
 31
0.0
  0
LINE
  5
2D5
330
1E
100
AcDbEntity
  8
0
100
AcDbLine
 10
58.1
 20
88.0
 30
0.0
 11
60.64289999999999
 21
88.0
 31
0.0
  0
LINE
  5
2D6
330
1E
100
AcDbEntity
  8
0
100
AcDbLine
 10
51.4
 20
88.0
 30
0.0
 11
58.1
 21
88.0
 31
0.0
  0
LINE
  5
2D7
330
1E
100
AcDbEntity
  8
0
100
AcDbLine
 10
46.29999999999999
 20
88.0
 30
0.0
 11
51.4
 21
88.0
 31
0.0
  0
LINE
  5
2D8
330
1E
100
AcDbEntity
  8
0
100
AcDbLine
 10
46.29999999999999
 20
88.0
 30
0.0
 11
51.4
 21
88.0
 31
0.0
  0
LINE
  5
2D9
330
1E
100
AcDbEntity
  8
0
100
AcDbLine
 10
43.2
 20
88.0
 30
0.0
 11
46.29999999999999
 21
88.0
 31
0.0
  0
LINE
  5
2DA
330
1E
100
AcDbEntity
  8
0
100
AcDbLine
 10
41.2
 20
114.0
 30
0.0
 11
44.59999999999999
 21
114.0
 31
0.0
  0
LINE
  5
2DB
330
1E
100
AcDbEntity
  8
0
100
AcDbLine
 10
58.1
 20
88.0
 30
0.0
 11
65.7
 21
88.0
 31
0.0
  0
LINE
  5
2DC
330
1E
100
AcDbEntity
  8
0
100
AcDbLine
 10
51.4
 20
88.0
 30
0.0
 11
58.1
 21
88.0
 31
0.0
  0
LINE
  5
2DD
330
1E
100
AcDbEntity
  8
0
100
AcDbLine
 10
74.0
 20
88.0
 30
0.0
 11
82.3
 21
88.0
 31
0.0
  0
LINE
  5
2DE
330
1E
100
AcDbEntity
  8
0
100
AcDbLine
 10
82.3
 20
88.0
 30
0.0
 11
89.9
 21
88.0
 31
0.0
  0
LINE
  5
2DF
330
1E
100
AcDbEntity
  8
0
100
AcDbLine
 10
89.9
 20
88.0
 30
0.0
 11
96.6
 21
88.0
 31
0.0
  0
LINE
  5
2E0
330
1E
100
AcDbEntity
  8
0
100
AcDbLine
 10
215.7
 20
88.0
 30
0.0
 11
224.0
 21
88.0
 31
0.0
  0
LINE
  5
2E1
330
1E
100
AcDbEntity
  8
0
100
AcDbLine
 10
208.0999999999999
 20
88.0
 30
0.0
 11
215.7
 21
88.0
 31
0.0
  0
LINE
  5
2E2
330
1E
100
AcDbEntity
  8
0
100
AcDbLine
 10
201.4
 20
88.0
 30
0.0
 11
208.0999999999999
 21
88.0
 31
0.0
  0
LINE
  5
2E3
330
1E
100
AcDbEntity
  8
0
100
AcDbLine
 10
224.0
 20
88.0
 30
0.0
 11
232.2999999999999
 21
88.0
 31
0.0
  0
LINE
  5
2E4
330
1E
100
AcDbEntity
  8
0
100
AcDbLine
 10
232.2999999999999
 20
88.0
 30
0.0
 11
239.9
 21
88.0
 31
0.0
  0
LINE
  5
2E5
330
1E
100
AcDbEntity
  8
0
100
AcDbLine
 10
239.9
 20
88.0
 30
0.0
 11
246.6
 21
88.0
 31
0.0
  0
LINE
  5
2E6
330
1E
100
AcDbEntity
  8
0
100
AcDbLine
 10
96.6
 20
88.0
 30
0.0
 11
101.7
 21
88.0
 31
0.0
  0
LINE
  5
2E7
330
1E
100
AcDbEntity
  8
0
100
AcDbLine
 10
74.0
 20
90.0
 30
0.0
 11
82.79999999999999
 21
90.0
 31
0.0
  0
LINE
  5
2E8
330
1E
100
AcDbEntity
  8
0
100
AcDbLine
 10
82.79999999999999
 20
90.0
 30
0.0
 11
90.90000000000001
 21
90.0
 31
0.0
  0
LINE
  5
2E9
330
1E
100
AcDbEntity
  8
0
100
AcDbLine
 10
90.90000000000001
 20
90.0
 30
0.0
 11
98.0
 21
90.0
 31
0.0
  0
LINE
  5
2EA
330
1E
100
AcDbEntity
  8
0
100
AcDbLine
 10
98.0
 20
90.0
 30
0.0
 11
103.4
 21
90.0
 31
0.0
  0
LINE
  5
2EB
330
1E
100
AcDbEntity
  8
0
100
AcDbLine
 10
103.4
 20
90.0
 30
0.0
 11
106.8
 21
90.0
 31
0.0
  0
LINE
  5
2EC
330
1E
100
AcDbEntity
  8
0
100
AcDbLine
 10
106.8
 20
90.0
 30
0.0
 11
108.0
 21
90.0
 31
0.0
  0
LINE
  5
2ED
330
1E
100
AcDbEntity
  8
0
100
AcDbLine
 10
215.2
 20
90.0
 30
0.0
 11
224.0
 21
90.0
 31
0.0
  0
LINE
  5
2EE
330
1E
100
AcDbEntity
  8
0
100
AcDbLine
 10
207.1
 20
90.0
 30
0.0
 11
215.2
 21
90.0
 31
0.0
  0
LINE
  5
2EF
330
1E
100
AcDbEntity
  8
0
100
AcDbLine
 10
200.0
 20
90.0
 30
0.0
 11
207.1
 21
90.0
 31
0.0
  0
LINE
  5
2F0
330
1E
100
AcDbEntity
  8
0
100
AcDbLine
 10
194.5999999999999
 20
90.0
 30
0.0
 11
200.0
 21
90.0
 31
0.0
  0
LINE
  5
2F1
330
1E
100
AcDbEntity
  8
0
100
AcDbLine
 10
191.1999999999999
 20
90.0
 30
0.0
 11
194.5999999999999
 21
90.0
 31
0.0
  0
LINE
  5
2F2
330
1E
100
AcDbEntity
  8
0
100
AcDbLine
 10
190.0
 20
90.0
 30
0.0
 11
192.0
 21
88.0
 31
0.0
  0
LINE
  5
2F3
330
1E
100
AcDbEntity
  8
0
100
AcDbLine
 10
190.0
 20
90.0
 30
0.0
 11
190.0
 21
114.0
 31
0.0
  0
LINE
  5
2F4
330
1E
100
AcDbEntity
  8
0
100
AcDbLine
 10
190.0
 20
90.0
 30
0.0
 11
191.1999999999999
 21
90.0
 31
0.0
  0
LINE
  5
2F5
330
1E
100
AcDbEntity
  8
0
100
AcDbLine
 10
224.0
 20
90.0
 30
0.0
 11
232.8
 21
90.0
 31
0.0
  0
LINE
  5
2F6
330
1E
100
AcDbEntity
  8
0
100
AcDbLine
 10
232.8
 20
90.0
 30
0.0
 11
240.9
 21
90.0
 31
0.0
  0
LINE
  5
2F7
330
1E
100
AcDbEntity
  8
0
100
AcDbLine
 10
240.9
 20
90.0
 30
0.0
 11
248.0
 21
90.0
 31
0.0
  0
LINE
  5
2F8
330
1E
100
AcDbEntity
  8
0
100
AcDbLine
 10
108.0
 20
90.0
 30
0.0
 11
108.0
 21
114.0
 31
0.0
  0
LINE
  5
2F9
330
1E
100
AcDbEntity
  8
0
100
AcDbLine
 10
65.7
 20
88.0
 30
0.0
 11
74.0
 21
88.0
 31
0.0
  0
LINE
  5
2FA
330
1E
100
AcDbEntity
  8
0
100
AcDbLine
 10
65.2
 20
90.0
 30
0.0
 11
74.0
 21
90.0
 31
0.0
  0
LINE
  5
2FB
330
1E
100
AcDbEntity
  8
0
100
AcDbLine
 10
57.1
 20
90.0
 30
0.0
 11
65.2
 21
90.0
 31
0.0
  0
LINE
  5
2FC
330
1E
100
AcDbEntity
  8
0
100
AcDbLine
 10
50.0
 20
90.0
 30
0.0
 11
57.1
 21
90.0
 31
0.0
  0
LINE
  5
2FD
330
1E
100
AcDbEntity
  8
0
100
AcDbLine
 10
74.0
 20
114.0
 30
0.0
 11
82.79999999999999
 21
114.0
 31
0.0
  0
LINE
  5
2FE
330
1E
100
AcDbEntity
  8
0
100
AcDbLine
 10
82.79999999999999
 20
114.0
 30
0.0
 11
90.90000000000001
 21
114.0
 31
0.0
  0
LINE
  5
2FF
330
1E
100
AcDbEntity
  8
0
100
AcDbLine
 10
90.90000000000001
 20
114.0
 30
0.0
 11
98.0
 21
114.0
 31
0.0
  0
LINE
  5
300
330
1E
100
AcDbEntity
  8
0
100
AcDbLine
 10
98.0
 20
114.0
 30
0.0
 11
103.4
 21
114.0
 31
0.0
  0
LINE
  5
301
330
1E
100
AcDbEntity
  8
0
100
AcDbLine
 10
103.4
 20
114.0
 30
0.0
 11
106.8
 21
114.0
 31
0.0
  0
LINE
  5
302
330
1E
100
AcDbEntity
  8
0
100
AcDbLine
 10
106.8
 20
114.0
 30
0.0
 11
108.0
 21
114.0
 31
0.0
  0
LINE
  5
303
330
1E
100
AcDbEntity
  8
0
100
AcDbLine
 10
215.2
 20
114.0
 30
0.0
 11
224.0
 21
114.0
 31
0.0
  0
LINE
  5
304
330
1E
100
AcDbEntity
  8
0
100
AcDbLine
 10
207.1
 20
114.0
 30
0.0
 11
215.2
 21
114.0
 31
0.0
  0
LINE
  5
305
330
1E
100
AcDbEntity
  8
0
100
AcDbLine
 10
200.0
 20
114.0
 30
0.0
 11
207.1
 21
114.0
 31
0.0
  0
LINE
  5
306
330
1E
100
AcDbEntity
  8
0
100
AcDbLine
 10
194.5999999999999
 20
114.0
 30
0.0
 11
200.0
 21
114.0
 31
0.0
  0
LINE
  5
307
330
1E
100
AcDbEntity
  8
0
100
AcDbLine
 10
191.1999999999999
 20
114.0
 30
0.0
 11
194.5999999999999
 21
114.0
 31
0.0
  0
LINE
  5
308
330
1E
100
AcDbEntity
  8
0
100
AcDbLine
 10
190.0
 20
114.0
 30
0.0
 11
190.0
 21
90.0
 31
0.0
  0
LINE
  5
309
330
1E
100
AcDbEntity
  8
0
100
AcDbLine
 10
190.0
 20
114.0
 30
0.0
 11
191.1999999999999
 21
114.0
 31
0.0
  0
LINE
  5
30A
330
1E
100
AcDbEntity
  8
0
100
AcDbLine
 10
224.0
 20
114.0
 30
0.0
 11
232.8
 21
114.0
 31
0.0
  0
LINE
  5
30B
330
1E
100
AcDbEntity
  8
0
100
AcDbLine
 10
232.8
 20
114.0
 30
0.0
 11
240.9
 21
114.0
 31
0.0
  0
LINE
  5
30C
330
1E
100
AcDbEntity
  8
0
100
AcDbLine
 10
240.9
 20
114.0
 30
0.0
 11
248.0
 21
114.0
 31
0.0
  0
LINE
  5
30D
330
1E
100
AcDbEntity
  8
0
100
AcDbLine
 10
108.0
 20
114.0
 30
0.0
 11
108.0
 21
90.0
 31
0.0
  0
LINE
  5
30E
330
1E
100
AcDbEntity
  8
0
100
AcDbLine
 10
65.2
 20
114.0
 30
0.0
 11
74.0
 21
114.0
 31
0.0
  0
LINE
  5
30F
330
1E
100
AcDbEntity
  8
0
100
AcDbLine
 10
57.1
 20
114.0
 30
0.0
 11
65.2
 21
114.0
 31
0.0
  0
LINE
  5
310
330
1E
100
AcDbEntity
  8
0
100
AcDbLine
 10
50.0
 20
114.0
 30
0.0
 11
57.1
 21
114.0
 31
0.0
  0
LINE
  5
311
330
1E
100
AcDbEntity
  8
0
100
AcDbLine
 10
44.59999999999999
 20
114.0
 30
0.0
 11
50.0
 21
114.0
 31
0.0
  0
LINE
  5
312
330
1E
100
AcDbEntity
  8
0
100
AcDbLine
 10
44.59999999999999
 20
90.0
 30
0.0
 11
50.0
 21
90.0
 31
0.0
  0
LINE
  5
313
330
1E
100
AcDbEntity
  8
0
100
AcDbLine
 10
41.2
 20
90.0
 30
0.0
 11
44.59999999999999
 21
90.0
 31
0.0
  0
LINE
  5
314
330
1E
100
AcDbEntity
  8
0
100
AcDbLine
 10
42.0
 20
88.0
 30
0.0
 11
43.2
 21
88.0
 31
0.0
  0
LINE
  5
315
330
1E
100
AcDbEntity
  8
0
100
AcDbLine
 10
40.0
 20
90.0
 30
0.0
 11
40.0
 21
114.0
 31
0.0
  0
LINE
  5
316
330
1E
100
AcDbEntity
  8
0
100
AcDbLine
 10
40.0
 20
90.0
 30
0.0
 11
42.0
 21
88.0
 31
0.0
  0
LINE
  5
317
330
1E
100
AcDbEntity
  8
0
100
AcDbLine
 10
40.0
 20
90.0
 30
0.0
 11
41.2
 21
90.0
 31
0.0
  0
LINE
  5
318
330
1E
100
AcDbEntity
  8
0
100
AcDbLine
 10
243.0
 20
57.0
 30
0.0
 11
284.3329999999999
 21
57.0
 31
0.0
  0
LINE
  5
319
330
1E
100
AcDbEntity
  8
0
100
AcDbLine
 10
243.0
 20
57.0
 30
0.0
 11
243.0
 21
56.244
 31
0.0
  0
LINE
  5
31A
330
1E
100
AcDbEntity
  8
0
100
AcDbLine
 10
284.3329999999999
 20
15.0
 30
0.0
 11
284.3329999999999
 21
15.75599999999999
 31
0.0
  0
LINE
  5
31B
330
1E
100
AcDbEntity
  8
0
100
AcDbLine
 10
284.3329999999999
 20
15.0
 30
0.0
 11
285.0
 21
15.504
 31
0.0
  0
LINE
  5
31C
330
1E
100
AcDbEntity
  8
0
100
AcDbLine
 10
284.3329999999999
 20
15.75599999999999
 30
0.0
 11
284.3329999999999
 21
17.772
 31
0.0
  0
LINE
  5
31D
330
1E
100
AcDbEntity
  8
0
100
AcDbLine
 10
284.3329999999999
 20
15.75599999999999
 30
0.0
 11
284.3329999999999
 21
15.0
 31
0.0
  0
LINE
  5
31E
330
1E
100
AcDbEntity
  8
0
100
AcDbLine
 10
284.3329999999999
 20
17.772
 30
0.0
 11
284.3329999999999
 21
21.13199999999999
 31
0.0
  0
LINE
  5
31F
330
1E
100
AcDbEntity
  8
0
100
AcDbLine
 10
284.3329999999999
 20
17.772
 30
0.0
 11
284.3329999999999
 21
15.75599999999999
 31
0.0
  0
LINE
  5
320
330
1E
100
AcDbEntity
  8
0
100
AcDbLine
 10
284.3329999999999
 20
21.13199999999999
 30
0.0
 11
284.3329999999999
 21
25.584
 31
0.0
  0
LINE
  5
321
330
1E
100
AcDbEntity
  8
0
100
AcDbLine
 10
284.3329999999999
 20
21.13199999999999
 30
0.0
 11
284.3329999999999
 21
17.772
 31
0.0
  0
LINE
  5
322
330
1E
100
AcDbEntity
  8
0
100
AcDbLine
 10
268.798
 20
32.096
 30
0.0
 11
269.8059999999999
 21
32.24
 31
0.0
  0
LINE
  5
323
330
1E
100
AcDbEntity
  8
0
100
AcDbLine
 10
269.8059999999999
 20
32.24
 30
0.0
 11
270.734
 21
32.624
 31
0.0
  0
LINE
  5
324
330
1E
100
AcDbEntity
  8
0
100
AcDbLine
 10
269.822
 20
32.14399999999999
 30
0.0
 11
270.7819999999999
 21
32.528
 31
0.0
  0
LINE
  5
325
330
1E
100
AcDbEntity
  8
0
100
AcDbLine
 10
270.7819999999999
 20
32.528
 30
0.0
 11
271.6299999999999
 21
33.168
 31
0.0
  0
LINE
  5
326
330
1E
100
AcDbEntity
  8
0
100
AcDbLine
 10
267.79
 20
32.24
 30
0.0
 11
268.798
 21
32.096
 31
0.0
  0
LINE
  5
327
330
1E
100
AcDbEntity
  8
0
100
AcDbLine
 10
268.798
 20
32.0
 30
0.0
 11
269.822
 21
32.14399999999999
 31
0.0
  0
LINE
  5
328
330
1E
100
AcDbEntity
  8
0
100
AcDbLine
 10
267.774
 20
32.14399999999999
 30
0.0
 11
268.798
 21
32.0
 31
0.0
  0
LINE
  5
329
330
1E
100
AcDbEntity
  8
0
100
AcDbLine
 10
270.734
 20
32.624
 30
0.0
 11
271.55
 21
33.248
 31
0.0
  0
LINE
  5
32A
330
1E
100
AcDbEntity
  8
0
100
AcDbLine
 10
271.55
 20
33.248
 30
0.0
 11
272.174
 21
34.064
 31
0.0
  0
LINE
  5
32B
330
1E
100
AcDbEntity
  8
0
100
AcDbLine
 10
271.6299999999999
 20
33.168
 30
0.0
 11
272.2699999999999
 21
34.016
 31
0.0
  0
LINE
  5
32C
330
1E
100
AcDbEntity
  8
0
100
AcDbLine
 10
272.2699999999999
 20
34.016
 30
0.0
 11
272.6539999999999
 21
34.976
 31
0.0
  0
LINE
  5
32D
330
1E
100
AcDbEntity
  8
0
100
AcDbLine
 10
266.862
 20
32.624
 30
0.0
 11
267.79
 21
32.24
 31
0.0
  0
LINE
  5
32E
330
1E
100
AcDbEntity
  8
0
100
AcDbLine
 10
266.046
 20
33.248
 30
0.0
 11
266.862
 21
32.624
 31
0.0
  0
LINE
  5
32F
330
1E
100
AcDbEntity
  8
0
100
AcDbLine
 10
266.814
 20
32.528
 30
0.0
 11
267.774
 21
32.14399999999999
 31
0.0
  0
LINE
  5
330
330
1E
100
AcDbEntity
  8
0
100
AcDbLine
 10
265.966
 20
33.168
 30
0.0
 11
266.814
 21
32.528
 31
0.0
  0
LINE
  5
331
330
1E
100
AcDbEntity
  8
0
100
AcDbLine
 10
272.174
 20
34.064
 30
0.0
 11
272.5579999999999
 21
34.992
 31
0.0
  0
LINE
  5
332
330
1E
100
AcDbEntity
  8
0
100
AcDbLine
 10
272.5579999999999
 20
34.992
 30
0.0
 11
272.7019999999999
 21
36.0
 31
0.0
  0
LINE
  5
333
330
1E
100
AcDbEntity
  8
0
100
AcDbLine
 10
265.422
 20
34.064
 30
0.0
 11
266.046
 21
33.248
 31
0.0
  0
LINE
  5
334
330
1E
100
AcDbEntity
  8
0
100
AcDbLine
 10
265.038
 20
34.992
 30
0.0
 11
265.422
 21
34.064
 31
0.0
  0
LINE
  5
335
330
1E
100
AcDbEntity
  8
0
100
AcDbLine
 10
265.3259999999999
 20
34.016
 30
0.0
 11
265.966
 21
33.168
 31
0.0
  0
LINE
  5
336
330
1E
100
AcDbEntity
  8
0
100
AcDbLine
 10
264.942
 20
34.976
 30
0.0
 11
265.3259999999999
 21
34.016
 31
0.0
  0
LINE
  5
337
330
1E
100
AcDbEntity
  8
0
100
AcDbLine
 10
265.038
 20
37.008
 30
0.0
 11
265.422
 21
37.936
 31
0.0
  0
LINE
  5
338
330
1E
100
AcDbEntity
  8
0
100
AcDbLine
 10
264.894
 20
36.0
 30
0.0
 11
265.038
 21
37.008
 31
0.0
  0
LINE
  5
339
330
1E
100
AcDbEntity
  8
0
100
AcDbLine
 10
264.894
 20
36.0
 30
0.0
 11
265.038
 21
34.992
 31
0.0
  0
LINE
  5
33A
330
1E
100
AcDbEntity
  8
0
100
AcDbLine
 10
265.422
 20
37.936
 30
0.0
 11
266.046
 21
38.75199999999999
 31
0.0
  0
LINE
  5
33B
330
1E
100
AcDbEntity
  8
0
100
AcDbLine
 10
264.942
 20
37.024
 30
0.0
 11
265.3259999999999
 21
37.984
 31
0.0
  0
LINE
  5
33C
330
1E
100
AcDbEntity
  8
0
100
AcDbLine
 10
264.798
 20
36.0
 30
0.0
 11
264.942
 21
37.024
 31
0.0
  0
LINE
  5
33D
330
1E
100
AcDbEntity
  8
0
100
AcDbLine
 10
264.798
 20
36.0
 30
0.0
 11
264.942
 21
34.976
 31
0.0
  0
LINE
  5
33E
330
1E
100
AcDbEntity
  8
0
100
AcDbLine
 10
265.3259999999999
 20
37.984
 30
0.0
 11
265.966
 21
38.832
 31
0.0
  0
LINE
  5
33F
330
1E
100
AcDbEntity
  8
0
100
AcDbLine
 10
272.174
 20
37.936
 30
0.0
 11
272.5579999999999
 21
37.008
 31
0.0
  0
LINE
  5
340
330
1E
100
AcDbEntity
  8
0
100
AcDbLine
 10
272.6539999999999
 20
34.976
 30
0.0
 11
272.798
 21
36.0
 31
0.0
  0
LINE
  5
341
330
1E
100
AcDbEntity
  8
0
100
AcDbLine
 10
272.5579999999999
 20
37.008
 30
0.0
 11
272.7019999999999
 21
36.0
 31
0.0
  0
LINE
  5
342
330
1E
100
AcDbEntity
  8
0
100
AcDbLine
 10
266.862
 20
39.37599999999999
 30
0.0
 11
267.79
 21
39.75999999999999
 31
0.0
  0
LINE
  5
343
330
1E
100
AcDbEntity
  8
0
100
AcDbLine
 10
266.046
 20
38.75199999999999
 30
0.0
 11
266.862
 21
39.37599999999999
 31
0.0
  0
LINE
  5
344
330
1E
100
AcDbEntity
  8
0
100
AcDbLine
 10
265.966
 20
38.832
 30
0.0
 11
266.814
 21
39.472
 31
0.0
  0
LINE
  5
345
330
1E
100
AcDbEntity
  8
0
100
AcDbLine
 10
266.814
 20
39.472
 30
0.0
 11
267.774
 21
39.856
 31
0.0
  0
LINE
  5
346
330
1E
100
AcDbEntity
  8
0
100
AcDbLine
 10
270.734
 20
39.37599999999999
 30
0.0
 11
271.55
 21
38.75199999999999
 31
0.0
  0
LINE
  5
347
330
1E
100
AcDbEntity
  8
0
100
AcDbLine
 10
271.55
 20
38.75199999999999
 30
0.0
 11
272.174
 21
37.936
 31
0.0
  0
LINE
  5
348
330
1E
100
AcDbEntity
  8
0
100
AcDbLine
 10
267.79
 20
39.75999999999999
 30
0.0
 11
268.798
 21
39.904
 31
0.0
  0
LINE
  5
349
330
1E
100
AcDbEntity
  8
0
100
AcDbLine
 10
267.774
 20
39.856
 30
0.0
 11
268.798
 21
40.0
 31
0.0
  0
LINE
  5
34A
330
1E
100
AcDbEntity
  8
0
100
AcDbLine
 10
268.798
 20
39.904
 30
0.0
 11
269.8059999999999
 21
39.75999999999999
 31
0.0
  0
LINE
  5
34B
330
1E
100
AcDbEntity
  8
0
100
AcDbLine
 10
269.8059999999999
 20
39.75999999999999
 30
0.0
 11
270.734
 21
39.37599999999999
 31
0.0
  0
LINE
  5
34C
330
1E
100
AcDbEntity
  8
0
100
AcDbLine
 10
268.798
 20
40.0
 30
0.0
 11
269.822
 21
39.856
 31
0.0
  0
LINE
  5
34D
330
1E
100
AcDbEntity
  8
0
100
AcDbLine
 10
269.822
 20
39.856
 30
0.0
 11
270.7819999999999
 21
39.472
 31
0.0
  0
LINE
  5
34E
330
1E
100
AcDbEntity
  8
0
100
AcDbLine
 10
270.7819999999999
 20
39.472
 30
0.0
 11
271.6299999999999
 21
38.832
 31
0.0
  0
LINE
  5
34F
330
1E
100
AcDbEntity
  8
0
100
AcDbLine
 10
271.6299999999999
 20
38.832
 30
0.0
 11
272.2699999999999
 21
37.984
 31
0.0
  0
LINE
  5
350
330
1E
100
AcDbEntity
  8
0
100
AcDbLine
 10
272.2699999999999
 20
37.984
 30
0.0
 11
272.6539999999999
 21
37.024
 31
0.0
  0
LINE
  5
351
330
1E
100
AcDbEntity
  8
0
100
AcDbLine
 10
272.6539999999999
 20
37.024
 30
0.0
 11
272.798
 21
36.0
 31
0.0
  0
LINE
  5
352
330
1E
100
AcDbEntity
  8
0
100
AcDbLine
 10
284.3329999999999
 20
25.584
 30
0.0
 11
284.3329999999999
 21
30.624
 31
0.0
  0
LINE
  5
353
330
1E
100
AcDbEntity
  8
0
100
AcDbLine
 10
284.3329999999999
 20
25.584
 30
0.0
 11
284.3329999999999
 21
21.13199999999999
 31
0.0
  0
LINE
  5
354
330
1E
100
AcDbEntity
  8
0
100
AcDbLine
 10
284.3329999999999
 20
30.624
 30
0.0
 11
284.3329999999999
 21
36.0
 31
0.0
  0
LINE
  5
355
330
1E
100
AcDbEntity
  8
0
100
AcDbLine
 10
284.3329999999999
 20
30.624
 30
0.0
 11
284.3329999999999
 21
25.584
 31
0.0
  0
LINE
  5
356
330
1E
100
AcDbEntity
  8
0
100
AcDbLine
 10
284.3329999999999
 20
56.244
 30
0.0
 11
284.3329999999999
 21
57.0
 31
0.0
  0
LINE
  5
357
330
1E
100
AcDbEntity
  8
0
100
AcDbLine
 10
284.3329999999999
 20
56.244
 30
0.0
 11
284.3329999999999
 21
54.228
 31
0.0
  0
LINE
  5
358
330
1E
100
AcDbEntity
  8
0
100
AcDbLine
 10
284.3329999999999
 20
54.228
 30
0.0
 11
284.3329999999999
 21
56.244
 31
0.0
  0
LINE
  5
359
330
1E
100
AcDbEntity
  8
0
100
AcDbLine
 10
284.3329999999999
 20
54.228
 30
0.0
 11
284.3329999999999
 21
50.868
 31
0.0
  0
LINE
  5
35A
330
1E
100
AcDbEntity
  8
0
100
AcDbLine
 10
284.3329999999999
 20
50.868
 30
0.0
 11
284.3329999999999
 21
54.228
 31
0.0
  0
LINE
  5
35B
330
1E
100
AcDbEntity
  8
0
100
AcDbLine
 10
284.3329999999999
 20
50.868
 30
0.0
 11
284.3329999999999
 21
46.416
 31
0.0
  0
LINE
  5
35C
330
1E
100
AcDbEntity
  8
0
100
AcDbLine
 10
284.3329999999999
 20
46.416
 30
0.0
 11
284.3329999999999
 21
50.868
 31
0.0
  0
LINE
  5
35D
330
1E
100
AcDbEntity
  8
0
100
AcDbLine
 10
284.3329999999999
 20
46.416
 30
0.0
 11
284.3329999999999
 21
41.376
 31
0.0
  0
LINE
  5
35E
330
1E
100
AcDbEntity
  8
0
100
AcDbLine
 10
284.3329999999999
 20
41.376
 30
0.0
 11
284.3329999999999
 21
46.416
 31
0.0
  0
LINE
  5
35F
330
1E
100
AcDbEntity
  8
0
100
AcDbLine
 10
284.3329999999999
 20
41.376
 30
0.0
 11
284.3329999999999
 21
36.0
 31
0.0
  0
LINE
  5
360
330
1E
100
AcDbEntity
  8
0
100
AcDbLine
 10
285.0
 20
15.504
 30
0.0
 11
285.0
 21
16.26
 31
0.0
  0
LINE
  5
361
330
1E
100
AcDbEntity
  8
0
100
AcDbLine
 10
285.0
 20
16.26
 30
0.0
 11
285.0
 21
18.276
 31
0.0
  0
LINE
  5
362
330
1E
100
AcDbEntity
  8
0
100
AcDbLine
 10
285.0
 20
16.26
 30
0.0
 11
285.0
 21
15.504
 31
0.0
  0
LINE
  5
363
330
1E
100
AcDbEntity
  8
0
100
AcDbLine
 10
285.0
 20
18.276
 30
0.0
 11
285.0
 21
21.552
 31
0.0
  0
LINE
  5
364
330
1E
100
AcDbEntity
  8
0
100
AcDbLine
 10
285.0
 20
18.276
 30
0.0
 11
285.0
 21
16.26
 31
0.0
  0
LINE
  5
365
330
1E
100
AcDbEntity
  8
0
100
AcDbLine
 10
285.0
 20
21.552
 30
0.0
 11
285.0
 21
25.836
 31
0.0
  0
LINE
  5
366
330
1E
100
AcDbEntity
  8
0
100
AcDbLine
 10
285.0
 20
21.552
 30
0.0
 11
285.0
 21
18.276
 31
0.0
  0
LINE
  5
367
330
1E
100
AcDbEntity
  8
0
100
AcDbLine
 10
285.0
 20
25.836
 30
0.0
 11
285.0
 21
30.708
 31
0.0
  0
LINE
  5
368
330
1E
100
AcDbEntity
  8
0
100
AcDbLine
 10
285.0
 20
25.836
 30
0.0
 11
285.0
 21
21.552
 31
0.0
  0
LINE
  5
369
330
1E
100
AcDbEntity
  8
0
100
AcDbLine
 10
285.0
 20
30.708
 30
0.0
 11
285.0
 21
36.0
 31
0.0
  0
LINE
  5
36A
330
1E
100
AcDbEntity
  8
0
100
AcDbLine
 10
285.0
 20
30.708
 30
0.0
 11
285.0
 21
25.836
 31
0.0
  0
LINE
  5
36B
330
1E
100
AcDbEntity
  8
0
100
AcDbLine
 10
285.0
 20
56.496
 30
0.0
 11
285.0
 21
55.74
 31
0.0
  0
LINE
  5
36C
330
1E
100
AcDbEntity
  8
0
100
AcDbLine
 10
285.0
 20
55.74
 30
0.0
 11
285.0
 21
56.496
 31
0.0
  0
LINE
  5
36D
330
1E
100
AcDbEntity
  8
0
100
AcDbLine
 10
285.0
 20
55.74
 30
0.0
 11
285.0
 21
53.72399999999999
 31
0.0
  0
LINE
  5
36E
330
1E
100
AcDbEntity
  8
0
100
AcDbLine
 10
285.0
 20
53.72399999999999
 30
0.0
 11
285.0
 21
55.74
 31
0.0
  0
LINE
  5
36F
330
1E
100
AcDbEntity
  8
0
100
AcDbLine
 10
285.0
 20
53.72399999999999
 30
0.0
 11
285.0
 21
50.448
 31
0.0
  0
LINE
  5
370
330
1E
100
AcDbEntity
  8
0
100
AcDbLine
 10
285.0
 20
50.448
 30
0.0
 11
285.0
 21
53.72399999999999
 31
0.0
  0
LINE
  5
371
330
1E
100
AcDbEntity
  8
0
100
AcDbLine
 10
285.0
 20
50.448
 30
0.0
 11
285.0
 21
46.16399999999999
 31
0.0
  0
LINE
  5
372
330
1E
100
AcDbEntity
  8
0
100
AcDbLine
 10
285.0
 20
46.16399999999999
 30
0.0
 11
285.0
 21
50.448
 31
0.0
  0
LINE
  5
373
330
1E
100
AcDbEntity
  8
0
100
AcDbLine
 10
285.0
 20
46.16399999999999
 30
0.0
 11
285.0
 21
41.29199999999999
 31
0.0
  0
LINE
  5
374
330
1E
100
AcDbEntity
  8
0
100
AcDbLine
 10
285.0
 20
41.29199999999999
 30
0.0
 11
285.0
 21
46.16399999999999
 31
0.0
  0
LINE
  5
375
330
1E
100
AcDbEntity
  8
0
100
AcDbLine
 10
285.0
 20
41.29199999999999
 30
0.0
 11
285.0
 21
36.0
 31
0.0
  0
LINE
  5
376
330
1E
100
AcDbEntity
  8
0
100
AcDbLine
 10
285.0
 20
36.0
 30
0.0
 11
285.0
 21
41.29199999999999
 31
0.0
  0
LINE
  5
377
330
1E
100
AcDbEntity
  8
0
100
AcDbLine
 10
285.0
 20
36.0
 30
0.0
 11
285.0
 21
30.708
 31
0.0
  0
LINE
  5
378
330
1E
100
AcDbEntity
  8
0
100
AcDbLine
 10
284.3329999999999
 20
36.0
 30
0.0
 11
284.3329999999999
 21
41.376
 31
0.0
  0
LINE
  5
379
330
1E
100
AcDbEntity
  8
0
100
AcDbLine
 10
284.3329999999999
 20
36.0
 30
0.0
 11
284.3329999999999
 21
30.624
 31
0.0
  0
LINE
  5
37A
330
1E
100
AcDbEntity
  8
0
100
AcDbLine
 10
246.6
 20
88.0
 30
0.0
 11
251.6999999999999
 21
88.0
 31
0.0
  0
LINE
  5
37B
330
1E
100
AcDbEntity
  8
0
100
AcDbLine
 10
251.6999999999999
 20
88.0
 30
0.0
 11
254.8
 21
88.0
 31
0.0
  0
LINE
  5
37C
330
1E
100
AcDbEntity
  8
0
100
AcDbLine
 10
254.8
 20
88.0
 30
0.0
 11
256.0
 21
88.0
 31
0.0
  0
LINE
  5
37D
330
1E
100
AcDbEntity
  8
0
100
AcDbLine
 10
246.6
 20
88.0
 30
0.0
 11
251.6999999999999
 21
88.0
 31
0.0
  0
LINE
  5
37E
330
1E
100
AcDbEntity
  8
0
100
AcDbLine
 10
248.0
 20
114.0
 30
0.0
 11
253.4
 21
114.0
 31
0.0
  0
LINE
  5
37F
330
1E
100
AcDbEntity
  8
0
100
AcDbLine
 10
248.0
 20
90.0
 30
0.0
 11
253.4
 21
90.0
 31
0.0
  0
LINE
  5
380
330
1E
100
AcDbEntity
  8
0
100
AcDbLine
 10
253.4
 20
114.0
 30
0.0
 11
256.8
 21
114.0
 31
0.0
  0
LINE
  5
381
330
1E
100
AcDbEntity
  8
0
100
AcDbLine
 10
253.4
 20
90.0
 30
0.0
 11
256.8
 21
90.0
 31
0.0
  0
LINE
  5
382
330
1E
100
AcDbEntity
  8
0
100
AcDbLine
 10
256.8
 20
114.0
 30
0.0
 11
258.0
 21
114.0
 31
0.0
  0
LINE
  5
383
330
1E
100
AcDbEntity
  8
0
100
AcDbLine
 10
258.0
 20
114.0
 30
0.0
 11
258.0
 21
90.0
 31
0.0
  0
LINE
  5
384
330
1E
100
AcDbEntity
  8
0
100
AcDbLine
 10
256.8
 20
90.0
 30
0.0
 11
258.0
 21
90.0
 31
0.0
  0
LINE
  5
385
330
1E
100
AcDbEntity
  8
0
100
AcDbLine
 10
256.0
 20
88.0
 30
0.0
 11
258.0
 21
90.0
 31
0.0
  0
LINE
  5
386
330
1E
100
AcDbEntity
  8
0
100
AcDbLine
 10
258.0
 20
90.0
 30
0.0
 11
258.0
 21
114.0
 31
0.0
  0
LINE
  5
387
330
1E
100
AcDbEntity
  8
0
100
AcDbLine
 10
284.3329999999999
 20
57.0
 30
0.0
 11
285.0
 21
56.496
 31
0.0
  0
LINE
  5
388
330
1E
100
AcDbEntity
  8
0
100
AcDbLine
 10
284.3329999999999
 20
57.0
 30
0.0
 11
284.3329999999999
 21
56.244
 31
0.0
  0
LINE
  5
389
330
1E
100
AcDbEntity
  8
0
100
AcDbLine
 10
243.0
 20
55.5
 30
0.0
 11
243.0
 21
56.244
 31
0.0
  0
ENDSEC
  0
SECTION
  2
OBJECTS
  0
DICTIONARY
  5
C
330
0
100
AcDbDictionary
281
     1
  3
ACAD_GROUP
350
D
  3
ACAD_LAYOUT
350
19
  3
ACAD_MLINESTYLE
350
16
  3
ACAD_PLOTSETTINGS
350
18
  3
ACAD_PLOTSTYLENAME
350
E
  3
AcDbVariableDictionary
350
38E
  0
DICTIONARY
  5
D
102
{ACAD_REACTORS
330
C
102
}
330
C
100
AcDbDictionary
281
     1
  0
DICTIONARY
  5
19
102
{ACAD_REACTORS
330
C
102
}
330
C
100
AcDbDictionary
281
     1
  3
Layout1
350
1D
  3
Model
350
21
  0
DICTIONARY
  5
16
102
{ACAD_REACTORS
330
C
102
}
330
C
100
AcDbDictionary
281
     1
  3
Standard
350
17
  0
DICTIONARY
  5
18
102
{ACAD_REACTORS
330
C
102
}
330
C
100
AcDbDictionary
281
     1
  0
ACDBDICTIONARYWDFLT
  5
E
102
{ACAD_REACTORS
330
C
102
}
330
C
100
AcDbDictionary
281
     1
  3
Normal
350
F
100
AcDbDictionaryWithDefault
340
F
  0
DICTIONARY
  5
38E
102
{ACAD_REACTORS
330
C
102
}
330
C
100
AcDbDictionary
281
     1
  3
DIMASSOC
350
38F
  0
LAYOUT
  5
1D
102
{ACAD_REACTORS
330
19
102
}
330
19
100
AcDbPlotSettings
  1

  2
hp deskjet 980c series
  4

  6

 40
0.0
 41
0.0
 42
0.0
 43
0.0
 44
0.0
 45
0.0
 46
0.0
 47
0.0
 48
0.0
 49
0.0
140
0.0
141
0.0
142
1.0
143
1.0
 70
   688
 72
     0
 73
     0
 74
     5
  7

 75
    16
147
1.0
148
0.0
149
0.0
100
AcDbLayout
  1
Layout1
 70
     1
 71
     1
 10
0.0
 20
0.0
 11
12.0
 21
9.0
 12
0.0
 22
0.0
 32
0.0
 14
1.000000000000000E+20
 24
1.000000000000000E+20
 34
1.000000000000000E+20
 15
-1.000000000000000E+20
 25
-1.000000000000000E+20
 35
-1.000000000000000E+20
146
0.0
 13
0.0
 23
0.0
 33
0.0
 16
1.0
 26
0.0
 36
0.0
 17
0.0
 27
1.0
 37
0.0
 76
     0
330
1A
  0
LAYOUT
  5
21
102
{ACAD_REACTORS
330
19
102
}
330
19
100
AcDbPlotSettings
  1

  2
hp deskjet 980c series
  4

  6

 40
0.0
 41
0.0
 42
0.0
 43
0.0
 44
0.0
 45
0.0
 46
0.0
 47
0.0
 48
0.0
 49
0.0
140
0.0
141
0.0
142
1.0
143
1.0
 70
  1712
 72
     0
 73
     0
 74
     0
  7

 75
     0
147
1.0
148
0.0
149
0.0
100
AcDbLayout
  1
Model
 70
     1
 71
     0
 10
0.0
 20
0.0
 11
12.0
 21
9.0
 12
0.0
 22
0.0
 32
0.0
 14
0.0
 24
0.0
 34
0.0
 15
0.0
 25
0.0
 35
0.0
146
0.0
 13
0.0
 23
0.0
 33
0.0
 16
1.0
 26
0.0
 36
0.0
 17
0.0
 27
1.0
 37
0.0
 76
     0
330
1E
  0
MLINESTYLE
  5
17
102
{ACAD_REACTORS
330
16
102
}
330
16
100
AcDbMlineStyle
  2
STANDARD
 70
     0
  3

 62
   256
 51
90.0
 52
90.0
 71
     2
 49
0.5
 62
   256
  6
BYLAYER
 49
-0.5
 62
   256
  6
BYLAYER
  0
ACDBPLACEHOLDER
  5
F
102
{ACAD_REACTORS
330
E
102
}
330
E
  0
DICTIONARYVAR
  5
38F
102
{ACAD_REACTORS
330
38E
102
}
330
38E
100
DictionaryVariables
280
     0
  1
1
  0
ENDSEC
  0
EOF
