  0
SECTION
  2
HEADER
  9
$ACADVER
  1
AC1015
  9
$ACADMAINTVER
 70
    13
  9
$DWGCODEPAGE
  3
ANSI_1252
  9
$INSBASE
 10
0.0
 20
0.0
 30
0.0
  9
$EXTMIN
 10
0.0000000000000052
 20
0.172100000000009
 30
0.0
  9
$EXTMAX
 10
114.0
 20
144.8279
 30
0.0
  9
$LIMMIN
 10
0.0
 20
0.0
  9
$LIMMAX
 10
12.0
 20
9.0
  9
$ORTHOMODE
 70
     0
  9
$REGENMODE
 70
     1
  9
$FILLMODE
 70
     1
  9
$QTEXTMODE
 70
     0
  9
$MIRRTEXT
 70
     1
  9
$LTSCALE
 40
1.0
  9
$ATTMODE
 70
     1
  9
$TEXTSIZE
 40
0.2
  9
$TRACEWID
 40
0.05
  9
$TEXTSTYLE
  7
Standard
  9
$CLAYER
  8
0
  9
$CELTYPE
  6
Continuous
  9
$CECOLOR
 62
   256
  9
$CELTSCALE
 40
1.0
  9
$DISPSILH
 70
     0
  9
$DIMSCALE
 40
1.0
  9
$DIMASZ
 40
0.18
  9
$DIMEXO
 40
0.0625
  9
$DIMDLI
 40
0.38
  9
$DIMRND
 40
0.0
  9
$DIMDLE
 40
0.0
  9
$DIMEXE
 40
0.18
  9
$DIMTP
 40
0.0
  9
$DIMTM
 40
0.0
  9
$DIMTXT
 40
0.18
  9
$DIMCEN
 40
0.09
  9
$DIMTSZ
 40
0.0
  9
$DIMTOL
 70
     0
  9
$DIMLIM
 70
     0
  9
$DIMTIH
 70
     1
  9
$DIMTOH
 70
     1
  9
$DIMSE1
 70
     0
  9
$DIMSE2
 70
     0
  9
$DIMTAD
 70
     0
  9
$DIMZIN
 70
     0
  9
$DIMBLK
  1

  9
$DIMASO
 70
     1
  9
$DIMSHO
 70
     1
  9
$DIMPOST
  1

  9
$DIMAPOST
  1

  9
$DIMALT
 70
     0
  9
$DIMALTD
 70
     2
  9
$DIMALTF
 40
25.4
  9
$DIMLFAC
 40
1.0
  9
$DIMTOFL
 70
     0
  9
$DIMTVP
 40
0.0
  9
$DIMTIX
 70
     0
  9
$DIMSOXD
 70
     0
  9
$DIMSAH
 70
     0
  9
$DIMBLK1
  1

  9
$DIMBLK2
  1

  9
$DIMSTYLE
  2
Standard
  9
$DIMCLRD
 70
     0
  9
$DIMCLRE
 70
     0
  9
$DIMCLRT
 70
     0
  9
$DIMTFAC
 40
1.0
  9
$DIMGAP
 40
0.09
  9
$DIMJUST
 70
     0
  9
$DIMSD1
 70
     0
  9
$DIMSD2
 70
     0
  9
$DIMTOLJ
 70
     1
  9
$DIMTZIN
 70
     0
  9
$DIMALTZ
 70
     0
  9
$DIMALTTZ
 70
     0
  9
$DIMUPT
 70
     0
  9
$DIMDEC
 70
     4
  9
$DIMTDEC
 70
     4
  9
$DIMALTU
 70
     2
  9
$DIMALTTD
 70
     2
  9
$DIMTXSTY
  7
Standard
  9
$DIMAUNIT
 70
     0
  9
$DIMADEC
 70
     0
  9
$DIMALTRND
 40
0.0
  9
$DIMAZIN
 70
     0
  9
$DIMDSEP
 70
    46
  9
$DIMATFIT
 70
     3
  9
$DIMFRAC
 70
     0
  9
$DIMLDRBLK
  1

  9
$DIMLUNIT
 70
     2
  9
$DIMLWD
 70
    -2
  9
$DIMLWE
 70
    -2
  9
$DIMTMOVE
 70
     0
  9
$LUNITS
 70
     2
  9
$LUPREC
 70
     4
  9
$SKETCHINC
 40
0.1
  9
$FILLETRAD
 40
0.0
  9
$AUNITS
 70
     0
  9
$AUPREC
 70
     0
  9
$MENU
  1
.
  9
$ELEVATION
 40
0.0
  9
$PELEVATION
 40
0.0
  9
$THICKNESS
 40
0.0
  9
$LIMCHECK
 70
     0
  9
$CHAMFERA
 40
0.0
  9
$CHAMFERB
 40
0.0
  9
$CHAMFERC
 40
0.0
  9
$CHAMFERD
 40
0.0
  9
$SKPOLY
 70
     0
  9
$TDCREATE
 40
2454753.363192268
  9
$TDUCREATE
 40
2454753.279858935
  9
$TDUPDATE
 40
2454753.363928669
  9
$TDUUPDATE
 40
2454753.280595336
  9
$TDINDWG
 40
0.0007364005
  9
$TDUSRTIMER
 40
0.0007364005
  9
$USRTIMER
 70
     1
  9
$ANGBASE
 50
0.0
  9
$ANGDIR
 70
     0
  9
$PDMODE
 70
     0
  9
$PDSIZE
 40
0.0
  9
$PLINEWID
 40
0.0
  9
$SPLFRAME
 70
     0
  9
$SPLINETYPE
 70
     6
  9
$SPLINESEGS
 70
     8
  9
$HANDSEED
  5
19F
  9
$SURFTAB1
 70
     6
  9
$SURFTAB2
 70
     6
  9
$SURFTYPE
 70
     6
  9
$SURFU
 70
     6
  9
$SURFV
 70
     6
  9
$UCSBASE
  2

  9
$UCSNAME
  2

  9
$UCSORG
 10
0.0
 20
0.0
 30
0.0
  9
$UCSXDIR
 10
1.0
 20
0.0
 30
0.0
  9
$UCSYDIR
 10
0.0
 20
1.0
 30
0.0
  9
$UCSORTHOREF
  2

  9
$UCSORTHOVIEW
 70
     1
  9
$UCSORGTOP
 10
0.0
 20
0.0
 30
0.0
  9
$UCSORGBOTTOM
 10
0.0
 20
0.0
 30
0.0
  9
$UCSORGLEFT
 10
0.0
 20
0.0
 30
0.0
  9
$UCSORGRIGHT
 10
0.0
 20
0.0
 30
0.0
  9
$UCSORGFRONT
 10
0.0
 20
0.0
 30
0.0
  9
$UCSORGBACK
 10
0.0
 20
0.0
 30
0.0
  9
$PUCSBASE
  2

  9
$PUCSNAME
  2

  9
$PUCSORG
 10
0.0
 20
0.0
 30
0.0
  9
$PUCSXDIR
 10
1.0
 20
0.0
 30
0.0
  9
$PUCSYDIR
 10
0.0
 20
1.0
 30
0.0
  9
$PUCSORTHOREF
  2

  9
$PUCSORTHOVIEW
 70
     0
  9
$PUCSORGTOP
 10
0.0
 20
0.0
 30
0.0
  9
$PUCSORGBOTTOM
 10
0.0
 20
0.0
 30
0.0
  9
$PUCSORGLEFT
 10
0.0
 20
0.0
 30
0.0
  9
$PUCSORGRIGHT
 10
0.0
 20
0.0
 30
0.0
  9
$PUCSORGFRONT
 10
0.0
 20
0.0
 30
0.0
  9
$PUCSORGBACK
 10
0.0
 20
0.0
 30
0.0
  9
$USERI1
 70
     0
  9
$USERI2
 70
     0
  9
$USERI3
 70
     0
  9
$USERI4
 70
     0
  9
$USERI5
 70
     0
  9
$USERR1
 40
0.0
  9
$USERR2
 40
0.0
  9
$USERR3
 40
0.0
  9
$USERR4
 40
0.0
  9
$USERR5
 40
0.0
  9
$WORLDVIEW
 70
     1
  9
$SHADEDGE
 70
     3
  9
$SHADEDIF
 70
    70
  9
$TILEMODE
 70
     1
  9
$MAXACTVP
 70
    64
  9
$PINSBASE
 10
0.0
 20
0.0
 30
0.0
  9
$PLIMCHECK
 70
     0
  9
$PEXTMIN
 10
1.000000000000000E+20
 20
1.000000000000000E+20
 30
1.000000000000000E+20
  9
$PEXTMAX
 10
-1.000000000000000E+20
 20
-1.000000000000000E+20
 30
-1.000000000000000E+20
  9
$PLIMMIN
 10
0.0
 20
0.0
  9
$PLIMMAX
 10
12.0
 20
9.0
  9
$UNITMODE
 70
     0
  9
$VISRETAIN
 70
     1
  9
$PLINEGEN
 70
     0
  9
$PSLTSCALE
 70
     1
  9
$TREEDEPTH
 70
  3020
  9
$CMLSTYLE
  2
Standard
  9
$CMLJUST
 70
     0
  9
$CMLSCALE
 40
1.0
  9
$PROXYGRAPHICS
 70
     1
  9
$MEASUREMENT
 70
     0
  9
$CELWEIGHT
370
    -1
  9
$ENDCAPS
280
     0
  9
$JOINSTYLE
280
     0
  9
$LWDISPLAY
290
     0
  9
$INSUNITS
 70
     0
  9
$HYPERLINKBASE
  1

  9
$STYLESHEET
  1

  9
$XEDIT
290
     1
  9
$CEPSNTYPE
380
     0
  9
$PSTYLEMODE
290
     1
  9
$FINGERPRINTGUID
  2
{2D3453AC-C13A-4B7D-BCD9-B0D906C64B02}
  9
$VERSIONGUID
  2
{D61684C3-174F-46FB-80A0-252C544A6C36}
  9
$EXTNAMES
290
     1
  9
$PSVPSCALE
 40
0.0
  9
$OLESTARTUP
290
     0
  0
ENDSEC
  0
SECTION
  2
CLASSES
  0
CLASS
  1
ACDBDICTIONARYWDFLT
  2
AcDbDictionaryWithDefault
  3
AutoCAD 2000
 90
        0
280
     0
281
     0
  0
CLASS
  1
ACDBPLACEHOLDER
  2
AcDbPlaceHolder
  3
AutoCAD 2000
 90
        0
280
     0
281
     0
  0
CLASS
  1
LAYOUT
  2
AcDbLayout
  3
AutoCAD 2000
 90
        0
280
     0
281
     0
  0
CLASS
  1
DICTIONARYVAR
  2
AcDbDictionaryVar
  3
AutoCAD 2000
 90
        0
280
     0
281
     0
  0
ENDSEC
  0
SECTION
  2
TABLES
  0
TABLE
  2
VPORT
  5
8
330
0
100
AcDbSymbolTable
 70
     2
  0
VPORT
  5
19E
330
8
100
AcDbSymbolTableRecord
100
AcDbViewportTableRecord
  2
*Active
 70
     0
 10
0.0
 20
0.0
 11
1.0
 21
1.0
 12
57.00000000000001
 22
72.50000000000001
 13
0.0
 23
0.0
 14
1.0
 24
1.0
 15
0.0
 25
0.0
 16
0.0
 26
0.0
 36
1.0
 17
0.0
 27
0.0
 37
0.0
 40
145.7656910485933
 41
2.078104993597951
 42
50.0
 43
0.0
 44
0.0
 50
0.0
 51
0.0
 71
     0
 72
   100
 73
     1
 74
     3
 75
     0
 76
     0
 77
     0
 78
     0
281
     0
 65
     1
110
0.0
120
0.0
130
0.0
111
1.0
121
0.0
131
0.0
112
0.0
122
1.0
132
0.0
 79
     1
146
0.0
  0
ENDTAB
  0
TABLE
  2
LTYPE
  5
5
330
0
100
AcDbSymbolTable
 70
     1
  0
LTYPE
  5
13
330
5
100
AcDbSymbolTableRecord
100
AcDbLinetypeTableRecord
  2
ByBlock
 70
     0
  3

 72
    65
 73
     0
 40
0.0
  0
LTYPE
  5
14
330
5
100
AcDbSymbolTableRecord
100
AcDbLinetypeTableRecord
  2
ByLayer
 70
     0
  3

 72
    65
 73
     0
 40
0.0
  0
LTYPE
  5
15
330
5
100
AcDbSymbolTableRecord
100
AcDbLinetypeTableRecord
  2
Continuous
 70
     0
  3
Solid line
 72
    65
 73
     0
 40
0.0
  0
ENDTAB
  0
TABLE
  2
LAYER
  5
2
330
0
100
AcDbSymbolTable
 70
     1
  0
LAYER
  5
10
330
2
100
AcDbSymbolTableRecord
100
AcDbLayerTableRecord
  2
0
 70
     0
 62
     7
  6
Continuous
370
    -3
390
F
  0
ENDTAB
  0
TABLE
  2
STYLE
  5
3
330
0
100
AcDbSymbolTable
 70
     1
  0
STYLE
  5
11
330
3
100
AcDbSymbolTableRecord
100
AcDbTextStyleTableRecord
  2
Standard
 70
     0
 40
0.0
 41
1.0
 50
0.0
 71
     0
 42
0.2
  3
txt
  4

  0
ENDTAB
  0
TABLE
  2
VIEW
  5
6
330
0
100
AcDbSymbolTable
 70
     0
  0
ENDTAB
  0
TABLE
  2
UCS
  5
7
330
0
100
AcDbSymbolTable
 70
     0
  0
ENDTAB
  0
TABLE
  2
APPID
  5
9
330
0
100
AcDbSymbolTable
 70
     1
  0
APPID
  5
12
330
9
100
AcDbSymbolTableRecord
100
AcDbRegAppTableRecord
  2
ACAD
 70
     0
  0
ENDTAB
  0
TABLE
  2
DIMSTYLE
  5
A
330
0
100
AcDbSymbolTable
 70
     1
100
AcDbDimStyleTable
 71
     0
  0
DIMSTYLE
105
198
330
A
100
AcDbSymbolTableRecord
100
AcDbDimStyleTableRecord
  2
Standard
 70
     0
340
11
  0
ENDTAB
  0
TABLE
  2
BLOCK_RECORD
  5
1
330
0
100
AcDbSymbolTable
 70
     0
  0
BLOCK_RECORD
  5
1E
330
1
100
AcDbSymbolTableRecord
100
AcDbBlockTableRecord
  2
*Model_Space
340
21
  0
BLOCK_RECORD
  5
1A
330
1
100
AcDbSymbolTableRecord
100
AcDbBlockTableRecord
  2
*Paper_Space
340
1D
  0
ENDTAB
  0
ENDSEC
  0
SECTION
  2
BLOCKS
  0
BLOCK
  5
1F
330
1E
100
AcDbEntity
  8
0
100
AcDbBlockBegin
  2
*Model_Space
 70
     0
 10
0.0
 20
0.0
 30
0.0
  3
*Model_Space
  1

  0
ENDBLK
  5
20
330
1E
100
AcDbEntity
  8
0
100
AcDbBlockEnd
  0
BLOCK
  5
1B
330
1A
100
AcDbEntity
 67
     1
  8
0
100
AcDbBlockBegin
  2
*Paper_Space
 70
     0
 10
0.0
 20
0.0
 30
0.0
  3
*Paper_Space
  1

  0
ENDBLK
  5
1C
330
1A
100
AcDbEntity
 67
     1
  8
0
100
AcDbBlockEnd
  0
ENDSEC
  0
SECTION
  2
ENTITIES
  0
LINE
  5
22
330
1E
100
AcDbEntity
  8
0
100
AcDbLine
 10
25.8163
 20
60.1721
 30
0.0
 11
26.2163
 21
60.1721
 31
0.0
  0
LINE
  5
23
330
1E
100
AcDbEntity
  8
0
100
AcDbLine
 10
26.2163
 20
60.1721
 30
0.0
 11
27.2163
 21
60.1721
 31
0.0
  0
LINE
  5
24
330
1E
100
AcDbEntity
  8
0
100
AcDbLine
 10
28.81629999999999
 20
4.43379999999998
 30
0.0
 11
28.81629999999999
 21
60.1721
 31
0.0
  0
LINE
  5
25
330
1E
100
AcDbEntity
  8
0
100
AcDbLine
 10
28.9163
 20
60.1721
 30
0.0
 11
31.11629999999999
 21
60.1721
 31
0.0
  0
LINE
  5
26
330
1E
100
AcDbEntity
  8
0
100
AcDbLine
 10
28.81629999999999
 20
60.1721
 30
0.0
 11
29.1163
 21
60.1721
 31
0.0
  0
LINE
  5
27
330
1E
100
AcDbEntity
  8
0
100
AcDbLine
 10
29.1163
 20
60.1721
 30
0.0
 11
29.8163
 21
60.1721
 31
0.0
  0
LINE
  5
28
330
1E
100
AcDbEntity
  8
0
100
AcDbLine
 10
29.1163
 20
5.78319999999999
 30
0.0
 11
29.8163
 21
6.982599999999999
 31
0.0
  0
LINE
  5
29
330
1E
100
AcDbEntity
  8
0
100
AcDbLine
 10
29.8163
 20
6.982599999999999
 30
0.0
 11
31.0163
 21
8.1821
 31
0.0
  0
LINE
  5
2A
330
1E
100
AcDbEntity
  8
0
100
AcDbLine
 10
29.8163
 20
60.1721
 30
0.0
 11
31.0163
 21
60.1721
 31
0.0
  0
LINE
  5
2B
330
1E
100
AcDbEntity
  8
0
100
AcDbLine
 10
28.81629999999999
 20
4.43379999999998
 30
0.0
 11
29.1163
 21
2.44729999999999
 31
0.0
  0
LINE
  5
2C
330
1E
100
AcDbEntity
  8
0
100
AcDbLine
 10
28.81629999999999
 20
4.43379999999998
 30
0.0
 11
28.81629999999999
 21
60.1721
 31
0.0
  0
LINE
  5
2D
330
1E
100
AcDbEntity
  8
0
100
AcDbLine
 10
28.81629999999999
 20
4.43379999999998
 30
0.0
 11
29.1163
 21
5.78319999999999
 31
0.0
  0
LINE
  5
2E
330
1E
100
AcDbEntity
  8
0
100
AcDbLine
 10
29.1163
 20
2.44729999999999
 30
0.0
 11
29.8163
 21
1.322799999999999
 31
0.0
  0
LINE
  5
2F
330
1E
100
AcDbEntity
  8
0
100
AcDbLine
 10
31.11629999999999
 20
60.1721
 30
0.0
 11
33.6163
 21
60.1721
 31
0.0
  0
LINE
  5
30
330
1E
100
AcDbEntity
  8
0
100
AcDbLine
 10
31.0163
 20
60.1721
 30
0.0
 11
32.6163
 21
60.1721
 31
0.0
  0
LINE
  5
31
330
1E
100
AcDbEntity
  8
0
100
AcDbLine
 10
31.0163
 20
8.1821
 30
0.0
 11
32.6163
 21
9.231599999999989
 31
0.0
  0
LINE
  5
32
330
1E
100
AcDbEntity
  8
0
100
AcDbLine
 10
32.6163
 20
9.231599999999989
 30
0.0
 11
34.41629999999999
 21
9.94379999999999
 31
0.0
  0
LINE
  5
33
330
1E
100
AcDbEntity
  8
0
100
AcDbLine
 10
32.6163
 20
60.1721
 30
0.0
 11
34.41629999999999
 21
60.1721
 31
0.0
  0
LINE
  5
34
330
1E
100
AcDbEntity
  8
0
100
AcDbLine
 10
29.8163
 20
1.322799999999999
 30
0.0
 11
31.0163
 21
0.6481000000000079
 31
0.0
  0
LINE
  5
35
330
1E
100
AcDbEntity
  8
0
100
AcDbLine
 10
31.0163
 20
0.6481000000000079
 30
0.0
 11
32.6163
 21
0.2732999999999861
 31
0.0
  0
LINE
  5
36
330
1E
100
AcDbEntity
  8
0
100
AcDbLine
 10
33.6163
 20
60.1721
 30
0.0
 11
36.31629999999999
 21
60.1721
 31
0.0
  0
LINE
  5
37
330
1E
100
AcDbEntity
  8
0
100
AcDbLine
 10
34.41629999999999
 20
60.1721
 30
0.0
 11
36.31629999999999
 21
60.1721
 31
0.0
  0
LINE
  5
38
330
1E
100
AcDbEntity
  8
0
100
AcDbLine
 10
34.41629999999999
 20
9.94379999999999
 30
0.0
 11
36.31629999999999
 21
10.1721
 31
0.0
  0
LINE
  5
39
330
1E
100
AcDbEntity
  8
0
100
AcDbLine
 10
32.6163
 20
0.2732999999999861
 30
0.0
 11
34.41629999999999
 21
0.198299999999997
 31
0.0
  0
LINE
  5
3A
330
1E
100
AcDbEntity
  8
0
100
AcDbLine
 10
34.41629999999999
 20
0.198299999999997
 30
0.0
 11
36.31629999999999
 21
0.172100000000009
 31
0.0
  0
LINE
  5
3B
330
1E
100
AcDbEntity
  8
0
100
AcDbLine
 10
27.2163
 20
60.1721
 30
0.0
 11
28.81629999999999
 21
60.1721
 31
0.0
  0
LINE
  5
3C
330
1E
100
AcDbEntity
  8
0
100
AcDbLine
 10
27.2163
 20
60.1721
 30
0.0
 11
28.9163
 21
60.1721
 31
0.0
  0
LINE
  5
3D
330
1E
100
AcDbEntity
  8
0
100
AcDbLine
 10
14.0
 20
101.6278999999999
 30
0.0
 11
15.3243727598566
 21
101.8044830346479
 31
0.0
  0
LINE
  5
3E
330
1E
100
AcDbEntity
  8
0
100
AcDbLine
 10
10.0
 20
101.3279
 30
0.0
 11
14.0
 21
101.6278999999999
 31
0.0
  0
LINE
  5
3F
330
1E
100
AcDbEntity
  8
0
100
AcDbLine
 10
6.5
 20
101.8278999999999
 30
0.0
 11
10.0
 21
101.3279
 31
0.0
  0
LINE
  5
40
330
1E
100
AcDbEntity
  8
0
100
AcDbLine
 10
14.8
 20
103.1279
 30
0.0
 11
16.89999999999999
 21
97.8279
 31
0.0
  0
LINE
  5
41
330
1E
100
AcDbEntity
  8
0
100
AcDbLine
 10
4.0
 20
102.8278999999999
 30
0.0
 11
6.5
 21
101.8278999999999
 31
0.0
  0
LINE
  5
42
330
1E
100
AcDbEntity
  8
0
100
AcDbLine
 10
2.0
 20
104.3279
 30
0.0
 11
4.0
 21
102.8278999999999
 31
0.0
  0
LINE
  5
43
330
1E
100
AcDbEntity
  8
0
100
AcDbLine
 10
14.0
 20
108.8278999999999
 30
0.0
 11
14.8
 21
103.1279
 31
0.0
  0
LINE
  5
44
330
1E
100
AcDbEntity
  8
0
100
AcDbLine
 10
14.0
 20
108.8278999999999
 30
0.0
 11
14.8
 21
114.5279
 31
0.0
  0
LINE
  5
45
330
1E
100
AcDbEntity
  8
0
100
AcDbLine
 10
0.500000000000005
 20
106.3279
 30
0.0
 11
2.0
 21
104.3279
 31
0.0
  0
LINE
  5
46
330
1E
100
AcDbEntity
  8
0
100
AcDbLine
 10
0.0000000000000052
 20
108.8278999999999
 30
0.0
 11
0.500000000000005
 21
111.3279
 31
0.0
  0
LINE
  5
47
330
1E
100
AcDbEntity
  8
0
100
AcDbLine
 10
0.0000000000000052
 20
108.8278999999999
 30
0.0
 11
0.500000000000005
 21
106.3279
 31
0.0
  0
LINE
  5
48
330
1E
100
AcDbEntity
  8
0
100
AcDbLine
 10
0.0000000000000052
 20
108.8278999999999
 30
0.0
 11
0.500000000000005
 21
111.3279
 31
0.0
  0
LINE
  5
49
330
1E
100
AcDbEntity
  8
0
100
AcDbLine
 10
0.0000000000000052
 20
108.8278999999999
 30
0.0
 11
0.500000000000005
 21
106.3279
 31
0.0
  0
LINE
  5
4A
330
1E
100
AcDbEntity
  8
0
100
AcDbLine
 10
15.75599999999999
 20
103.4518999999999
 30
0.0
 11
17.772
 21
98.4119
 31
0.0
  0
LINE
  5
4B
330
1E
100
AcDbEntity
  8
0
100
AcDbLine
 10
15.504
 20
108.8278999999999
 30
0.0
 11
16.26
 21
114.1199
 31
0.0
  0
LINE
  5
4C
330
1E
100
AcDbEntity
  8
0
100
AcDbLine
 10
15.504
 20
108.8278999999999
 30
0.0
 11
16.26
 21
103.5358999999999
 31
0.0
  0
LINE
  5
4D
330
1E
100
AcDbEntity
  8
0
100
AcDbLine
 10
0.500000000000005
 20
111.3279
 30
0.0
 11
2.00000000000001
 21
113.3278999999999
 31
0.0
  0
LINE
  5
4E
330
1E
100
AcDbEntity
  8
0
100
AcDbLine
 10
14.8
 20
114.5279
 30
0.0
 11
16.89999999999999
 21
119.8279
 31
0.0
  0
LINE
  5
4F
330
1E
100
AcDbEntity
  8
0
100
AcDbLine
 10
14.0
 20
116.0279
 30
0.0
 11
15.3243727598566
 21
115.851316965352
 31
0.0
  0
LINE
  5
50
330
1E
100
AcDbEntity
  8
0
100
AcDbLine
 10
10.0
 20
116.3278999999999
 30
0.0
 11
14.0
 21
116.0279
 31
0.0
  0
LINE
  5
51
330
1E
100
AcDbEntity
  8
0
100
AcDbLine
 10
6.500000000000009
 20
115.8279
 30
0.0
 11
10.0
 21
116.3278999999999
 31
0.0
  0
LINE
  5
52
330
1E
100
AcDbEntity
  8
0
100
AcDbLine
 10
4.000000000000009
 20
114.8279
 30
0.0
 11
6.500000000000009
 21
115.8279
 31
0.0
  0
LINE
  5
53
330
1E
100
AcDbEntity
  8
0
100
AcDbLine
 10
2.00000000000001
 20
113.3278999999999
 30
0.0
 11
4.000000000000009
 21
114.8279
 31
0.0
  0
LINE
  5
54
330
1E
100
AcDbEntity
  8
0
100
AcDbLine
 10
0.5000000000000061
 20
111.3279
 30
0.0
 11
2.00000000000001
 21
113.3278999999999
 31
0.0
  0
LINE
  5
55
330
1E
100
AcDbEntity
  8
0
100
AcDbLine
 10
15.0
 20
108.8278999999999
 30
0.0
 11
15.75599999999999
 21
114.2039
 31
0.0
  0
LINE
  5
56
330
1E
100
AcDbEntity
  8
0
100
AcDbLine
 10
15.0
 20
108.8278999999999
 30
0.0
 11
15.75599999999999
 21
103.4518999999999
 31
0.0
  0
LINE
  5
57
330
1E
100
AcDbEntity
  8
0
100
AcDbLine
 10
16.26
 20
103.5358999999999
 30
0.0
 11
18.276
 21
98.6639
 31
0.0
  0
LINE
  5
58
330
1E
100
AcDbEntity
  8
0
100
AcDbLine
 10
20.5
 20
93.32790000000001
 30
0.0
 11
24.826520129567
 21
89.8666838963464
 31
0.0
  0
LINE
  5
59
330
1E
100
AcDbEntity
  8
0
100
AcDbLine
 10
16.89999999999999
 20
97.8279
 30
0.0
 11
20.5
 21
93.32790000000001
 31
0.0
  0
LINE
  5
5D
330
1E
100
AcDbEntity
  8
0
100
AcDbLine
 10
18.276
 20
98.6639
 30
0.0
 11
21.552
 21
94.3799
 31
0.0
  0
LINE
  5
5E
330
1E
100
AcDbEntity
  8
0
100
AcDbLine
 10
17.772
 20
98.4119
 30
0.0
 11
21.13199999999999
 21
93.95990000000001
 31
0.0
  0
LINE
  5
5F
330
1E
100
AcDbEntity
  8
0
100
AcDbLine
 10
21.13199999999999
 20
93.95990000000001
 30
0.0
 11
25.584
 21
90.5999
 31
0.0
  0
LINE
  5
60
330
1E
100
AcDbEntity
  8
0
100
AcDbLine
 10
16.26
 20
114.1199
 30
0.0
 11
18.276
 21
118.9918999999999
 31
0.0
  0
LINE
  5
61
330
1E
100
AcDbEntity
  8
0
100
AcDbLine
 10
18.276
 20
118.9918999999999
 30
0.0
 11
21.552
 21
123.2758999999999
 31
0.0
  0
LINE
  5
62
330
1E
100
AcDbEntity
  8
0
100
AcDbLine
 10
15.75599999999999
 20
114.2039
 30
0.0
 11
17.772
 21
119.2439
 31
0.0
  0
LINE
  5
63
330
1E
100
AcDbEntity
  8
0
100
AcDbLine
 10
16.89999999999999
 20
119.8279
 30
0.0
 11
20.5
 21
124.3279
 31
0.0
  0
LINE
  5
64
330
1E
100
AcDbEntity
  8
0
100
AcDbLine
 10
20.5
 20
124.3279
 30
0.0
 11
25.0
 21
127.9279
 31
0.0
  0
LINE
  5
66
330
1E
100
AcDbEntity
  8
0
100
AcDbLine
 10
17.772
 20
119.2439
 30
0.0
 11
21.13199999999999
 21
123.6958999999999
 31
0.0
  0
LINE
  5
67
330
1E
100
AcDbEntity
  8
0
100
AcDbLine
 10
21.552
 20
94.3799
 30
0.0
 11
25.836
 21
91.1039
 31
0.0
  0
LINE
  5
68
330
1E
100
AcDbEntity
  8
0
100
AcDbLine
 10
25.2163
 20
90.1721
 30
0.0
 11
26.31629999999999
 21
90.1721
 31
0.0
  0
LINE
  5
69
330
1E
100
AcDbEntity
  8
0
100
AcDbLine
 10
24.81634
 20
90.1721
 30
0.0
 11
25.8163
 21
60.1721
 31
0.0
  0
LINE
  5
6A
330
1E
100
AcDbEntity
  8
0
100
AcDbLine
 10
24.81634
 20
90.1721
 30
0.0
 11
25.2163
 21
90.1721
 31
0.0
  0
LINE
  5
6F
330
1E
100
AcDbEntity
  8
0
100
AcDbLine
 10
26.0
 20
90.43182156862741
 30
0.0
 11
26.0
 21
90.1721
 31
0.0
  0
LINE
  5
70
330
1E
100
AcDbEntity
  8
0
100
AcDbLine
 10
26.31629999999999
 20
90.1721
 30
0.0
 11
26.6535
 21
90.1721
 31
0.0
  0
LINE
  5
71
330
1E
100
AcDbEntity
  8
0
100
AcDbLine
 10
26.0
 20
90.1721
 30
0.0
 11
26.0
 21
90.43182156862741
 31
0.0
  0
LINE
  5
72
330
1E
100
AcDbEntity
  8
0
100
AcDbLine
 10
25.836
 20
91.1039
 30
0.0
 11
30.708
 21
89.08790000000001
 31
0.0
  0
LINE
  5
73
330
1E
100
AcDbEntity
  8
0
100
AcDbLine
 10
25.584
 20
90.5999
 30
0.0
 11
30.624
 21
88.58389999999999
 31
0.0
  0
LINE
  5
74
330
1E
100
AcDbEntity
  8
0
100
AcDbLine
 10
30.624
 20
88.58389999999999
 30
0.0
 11
36.0
 21
87.8279
 31
0.0
  0
LINE
  5
75
330
1E
100
AcDbEntity
  8
0
100
AcDbLine
 10
21.552
 20
123.2758999999999
 30
0.0
 11
25.836
 21
126.5519
 31
0.0
  0
LINE
  5
77
330
1E
100
AcDbEntity
  8
0
100
AcDbLine
 10
25.836
 20
126.5519
 30
0.0
 11
30.708
 21
128.5679
 31
0.0
  0
LINE
  5
78
330
1E
100
AcDbEntity
  8
0
100
AcDbLine
 10
21.13199999999999
 20
123.6958999999999
 30
0.0
 11
25.584
 21
127.0558999999999
 31
0.0
  0
LINE
  5
79
330
1E
100
AcDbEntity
  8
0
100
AcDbLine
 10
25.0
 20
127.9279
 30
0.0
 11
30.3
 21
130.0278999999999
 31
0.0
  0
LINE
  5
7A
330
1E
100
AcDbEntity
  8
0
100
AcDbLine
 10
25.584
 20
127.0558999999999
 30
0.0
 11
30.624
 21
129.0718999999999
 31
0.0
  0
LINE
  5
7B
330
1E
100
AcDbEntity
  8
0
100
AcDbLine
 10
30.708
 20
89.08790000000001
 30
0.0
 11
36.0
 21
88.3319
 31
0.0
  0
LINE
  5
7C
330
1E
100
AcDbEntity
  8
0
100
AcDbLine
 10
32.0
 20
129.2653999999999
 30
0.0
 11
32.0
 21
133.4519
 31
0.0
  0
LINE
  5
7D
330
1E
100
AcDbEntity
  8
0
100
AcDbLine
 10
30.708
 20
128.5679
 30
0.0
 11
36.0
 21
129.3239
 31
0.0
  0
LINE
  5
7E
330
1E
100
AcDbEntity
  8
0
100
AcDbLine
 10
30.624
 20
129.0718999999999
 30
0.0
 11
36.0
 21
129.8278999999999
 31
0.0
  0
LINE
  5
7F
330
1E
100
AcDbEntity
  8
0
100
AcDbLine
 10
28.8
 20
130.8278999999999
 30
0.0
 11
28.9765830346476
 21
129.503527240143
 31
0.0
  0
LINE
  5
80
330
1E
100
AcDbEntity
  8
0
100
AcDbLine
 10
28.5
 20
134.8279
 30
0.0
 11
29.0
 21
138.3278999999999
 31
0.0
  0
LINE
  5
81
330
1E
100
AcDbEntity
  8
0
100
AcDbLine
 10
28.5
 20
134.8279
 30
0.0
 11
28.8
 21
130.8278999999999
 31
0.0
  0
LINE
  5
82
330
1E
100
AcDbEntity
  8
0
100
AcDbLine
 10
29.0
 20
138.3278999999999
 30
0.0
 11
30.0
 21
140.8279
 31
0.0
  0
LINE
  5
83
330
1E
100
AcDbEntity
  8
0
100
AcDbLine
 10
32.14399999999999
 20
133.4519
 30
0.0
 11
32.528
 21
133.4519
 31
0.0
  0
LINE
  5
84
330
1E
100
AcDbEntity
  8
0
100
AcDbLine
 10
32.528
 20
133.4519
 30
0.0
 11
33.168
 21
133.4519
 31
0.0
  0
LINE
  5
85
330
1E
100
AcDbEntity
  8
0
100
AcDbLine
 10
32.096
 20
133.5471
 30
0.0
 11
32.24
 21
133.5471
 31
0.0
  0
LINE
  5
86
330
1E
100
AcDbEntity
  8
0
100
AcDbLine
 10
32.24
 20
133.5471
 30
0.0
 11
32.624
 21
133.5471
 31
0.0
  0
LINE
  5
87
330
1E
100
AcDbEntity
  8
0
100
AcDbLine
 10
32.624
 20
133.5471
 30
0.0
 11
33.248
 21
133.5471
 31
0.0
  0
LINE
  5
88
330
1E
100
AcDbEntity
  8
0
100
AcDbLine
 10
33.248
 20
133.5471
 30
0.0
 11
34.064
 21
133.5471
 31
0.0
  0
LINE
  5
89
330
1E
100
AcDbEntity
  8
0
100
AcDbLine
 10
33.168
 20
133.4519
 30
0.0
 11
34.016
 21
133.4519
 31
0.0
  0
LINE
  5
8A
330
1E
100
AcDbEntity
  8
0
100
AcDbLine
 10
32.0
 20
133.4519
 30
0.0
 11
32.096
 21
133.5471
 31
0.0
  0
LINE
  5
8B
330
1E
100
AcDbEntity
  8
0
100
AcDbLine
 10
32.0
 20
133.4519
 30
0.0
 11
32.0
 21
129.2653999999999
 31
0.0
  0
LINE
  5
8C
330
1E
100
AcDbEntity
  8
0
100
AcDbLine
 10
32.0
 20
133.4519
 30
0.0
 11
32.14399999999999
 21
133.4519
 31
0.0
  0
LINE
  5
8D
330
1E
100
AcDbEntity
  8
0
100
AcDbLine
 10
30.3
 20
130.0278999999999
 30
0.0
 11
32.0
 21
130.2664964912279
 31
0.0
  0
LINE
  5
8E
330
1E
100
AcDbEntity
  8
0
100
AcDbLine
 10
30.0
 20
140.8279
 30
0.0
 11
31.5
 21
142.8279
 31
0.0
  0
LINE
  5
8F
330
1E
100
AcDbEntity
  8
0
100
AcDbLine
 10
31.5
 20
142.8279
 30
0.0
 11
33.5
 21
144.3278999999999
 31
0.0
  0
LINE
  5
90
330
1E
100
AcDbEntity
  8
0
100
AcDbLine
 10
34.064
 20
133.5471
 30
0.0
 11
34.992
 21
133.5471
 31
0.0
  0
LINE
  5
91
330
1E
100
AcDbEntity
  8
0
100
AcDbLine
 10
34.016
 20
133.4519
 30
0.0
 11
34.976
 21
133.4519
 31
0.0
  0
LINE
  5
92
330
1E
100
AcDbEntity
  8
0
100
AcDbLine
 10
34.992
 20
133.5471
 30
0.0
 11
36.0
 21
133.5471
 31
0.0
  0
LINE
  5
93
330
1E
100
AcDbEntity
  8
0
100
AcDbLine
 10
34.976
 20
133.4519
 30
0.0
 11
36.0
 21
133.4519
 31
0.0
  0
LINE
  5
94
330
1E
100
AcDbEntity
  8
0
100
AcDbLine
 10
36.0
 20
133.5471
 30
0.0
 11
37.008
 21
133.5471
 31
0.0
  0
LINE
  5
95
330
1E
100
AcDbEntity
  8
0
100
AcDbLine
 10
36.0
 20
133.4519
 30
0.0
 11
37.024
 21
133.4519
 31
0.0
  0
LINE
  5
96
330
1E
100
AcDbEntity
  8
0
100
AcDbLine
 10
36.0
 20
144.8279
 30
0.0
 11
38.5
 21
144.3278999999999
 31
0.0
  0
LINE
  5
97
330
1E
100
AcDbEntity
  8
0
100
AcDbLine
 10
33.5
 20
144.3278999999999
 30
0.0
 11
36.0
 21
144.8279
 31
0.0
  0
LINE
  5
98
330
1E
100
AcDbEntity
  8
0
100
AcDbLine
 10
36.0
 20
129.3239
 30
0.0
 11
41.29199999999999
 21
128.5679
 31
0.0
  0
LINE
  5
99
330
1E
100
AcDbEntity
  8
0
100
AcDbLine
 10
36.0
 20
129.8278999999999
 30
0.0
 11
41.376
 21
129.0718999999999
 31
0.0
  0
LINE
  5
9A
330
1E
100
AcDbEntity
  8
0
100
AcDbLine
 10
36.0
 20
88.3319
 30
0.0
 11
41.29199999999999
 21
89.08790000000001
 31
0.0
  0
LINE
  5
9B
330
1E
100
AcDbEntity
  8
0
100
AcDbLine
 10
38.21629999999999
 20
0.198299999999997
 30
0.0
 11
40.0163
 21
0.2732999999999861
 31
0.0
  0
LINE
  5
9C
330
1E
100
AcDbEntity
  8
0
100
AcDbLine
 10
36.31629999999999
 20
0.172100000000009
 30
0.0
 11
38.21629999999999
 21
0.198299999999997
 31
0.0
  0
LINE
  5
9D
330
1E
100
AcDbEntity
  8
0
100
AcDbLine
 10
38.21629999999999
 20
9.94379999999999
 30
0.0
 11
40.0163
 21
9.231599999999989
 31
0.0
  0
LINE
  5
9E
330
1E
100
AcDbEntity
  8
0
100
AcDbLine
 10
38.21629999999999
 20
60.1721
 30
0.0
 11
40.0163
 21
60.1721
 31
0.0
  0
LINE
  5
9F
330
1E
100
AcDbEntity
  8
0
100
AcDbLine
 10
36.31629999999999
 20
10.1721
 30
0.0
 11
38.21629999999999
 21
9.94379999999999
 31
0.0
  0
LINE
  5
A0
330
1E
100
AcDbEntity
  8
0
100
AcDbLine
 10
40.0163
 20
0.2732999999999861
 30
0.0
 11
41.6163
 21
0.6481000000000071
 31
0.0
  0
LINE
  5
A1
330
1E
100
AcDbEntity
  8
0
100
AcDbLine
 10
42.81629999999999
 20
1.322799999999989
 30
0.0
 11
43.5163
 21
2.44729999999999
 31
0.0
  0
LINE
  5
A2
330
1E
100
AcDbEntity
  8
0
100
AcDbLine
 10
41.6163
 20
0.6481000000000071
 30
0.0
 11
42.81629999999999
 21
1.322799999999989
 31
0.0
  0
LINE
  5
A3
330
1E
100
AcDbEntity
  8
0
100
AcDbLine
 10
43.5163
 20
2.44729999999999
 30
0.0
 11
43.8163
 21
4.43379999999998
 31
0.0
  0
LINE
  5
A4
330
1E
100
AcDbEntity
  8
0
100
AcDbLine
 10
43.5163
 20
5.78319999999999
 30
0.0
 11
43.8163
 21
4.43379999999998
 31
0.0
  0
LINE
  5
A5
330
1E
100
AcDbEntity
  8
0
100
AcDbLine
 10
42.81629999999999
 20
6.982599999999999
 30
0.0
 11
43.5163
 21
5.78319999999999
 31
0.0
  0
LINE
  5
A6
330
1E
100
AcDbEntity
  8
0
100
AcDbLine
 10
43.5163
 20
60.1721
 30
0.0
 11
43.8163
 21
60.1721
 31
0.0
  0
LINE
  5
A7
330
1E
100
AcDbEntity
  8
0
100
AcDbLine
 10
42.81629999999999
 20
60.1721
 30
0.0
 11
43.5163
 21
60.1721
 31
0.0
  0
LINE
  5
A8
330
1E
100
AcDbEntity
  8
0
100
AcDbLine
 10
41.6163
 20
60.1721
 30
0.0
 11
42.81629999999999
 21
60.1721
 31
0.0
  0
LINE
  5
A9
330
1E
100
AcDbEntity
  8
0
100
AcDbLine
 10
41.6163
 20
8.1821
 30
0.0
 11
42.81629999999999
 21
6.982599999999999
 31
0.0
  0
LINE
  5
AA
330
1E
100
AcDbEntity
  8
0
100
AcDbLine
 10
40.0163
 20
9.231599999999989
 30
0.0
 11
41.6163
 21
8.1821
 31
0.0
  0
LINE
  5
AB
330
1E
100
AcDbEntity
  8
0
100
AcDbLine
 10
40.0163
 20
60.1721
 30
0.0
 11
41.6163
 21
60.1721
 31
0.0
  0
LINE
  5
AC
330
1E
100
AcDbEntity
  8
0
100
AcDbLine
 10
43.8163
 20
4.43379999999998
 30
0.0
 11
43.8163
 21
60.1721
 31
0.0
  0
LINE
  5
AD
330
1E
100
AcDbEntity
  8
0
100
AcDbLine
 10
43.8163
 20
4.43379999999998
 30
0.0
 11
43.8163
 21
60.1721
 31
0.0
  0
LINE
  5
AE
330
1E
100
AcDbEntity
  8
0
100
AcDbLine
 10
43.71629999999999
 20
60.1721
 30
0.0
 11
45.4163
 21
60.1721
 31
0.0
  0
LINE
  5
AF
330
1E
100
AcDbEntity
  8
0
100
AcDbLine
 10
41.51629999999999
 20
60.1721
 30
0.0
 11
43.71629999999999
 21
60.1721
 31
0.0
  0
LINE
  5
B0
330
1E
100
AcDbEntity
  8
0
100
AcDbLine
 10
39.0163
 20
60.1721
 30
0.0
 11
41.51629999999999
 21
60.1721
 31
0.0
  0
LINE
  5
B1
330
1E
100
AcDbEntity
  8
0
100
AcDbLine
 10
36.31629999999999
 20
60.1721
 30
0.0
 11
39.0163
 21
60.1721
 31
0.0
  0
LINE
  5
B2
330
1E
100
AcDbEntity
  8
0
100
AcDbLine
 10
36.31629999999999
 20
60.1721
 30
0.0
 11
38.21629999999999
 21
60.1721
 31
0.0
  0
LINE
  5
B3
330
1E
100
AcDbEntity
  8
0
100
AcDbLine
 10
46.8163
 20
60.1721
 30
0.0
 11
47.81629999999999
 21
90.1721
 31
0.0
  0
LINE
  5
B4
330
1E
100
AcDbEntity
  8
0
100
AcDbLine
 10
46.4163
 20
60.1721
 30
0.0
 11
46.8163
 21
60.1721
 31
0.0
  0
LINE
  5
B5
330
1E
100
AcDbEntity
  8
0
100
AcDbLine
 10
88.0
 20
76.8279
 30
0.0
 11
88.0
 21
78.0279
 31
0.0
  0
LINE
  5
B6
330
1E
100
AcDbEntity
  8
0
100
AcDbLine
 10
88.0
 20
76.8279
 30
0.0
 11
90.0
 21
74.8279
 31
0.0
  0
LINE
  5
B7
330
1E
100
AcDbEntity
  8
0
100
AcDbLine
 10
88.0
 20
78.0279
 30
0.0
 11
88.0
 21
81.1279
 31
0.0
  0
LINE
  5
B8
330
1E
100
AcDbEntity
  8
0
100
AcDbLine
 10
88.0
 20
78.0279
 30
0.0
 11
88.0
 21
76.8279
 31
0.0
  0
LINE
  5
B9
330
1E
100
AcDbEntity
  8
0
100
AcDbLine
 10
90.0
 20
76.0279
 30
0.0
 11
90.0
 21
79.42789999999999
 31
0.0
  0
LINE
  5
BA
330
1E
100
AcDbEntity
  8
0
100
AcDbLine
 10
90.0
 20
76.0279
 30
0.0
 11
90.0
 21
74.8279
 31
0.0
  0
LINE
  5
BB
330
1E
100
AcDbEntity
  8
0
100
AcDbLine
 10
90.0
 20
79.42789999999999
 30
0.0
 11
90.0
 21
84.82789999999999
 31
0.0
  0
LINE
  5
BC
330
1E
100
AcDbEntity
  8
0
100
AcDbLine
 10
90.0
 20
79.42789999999999
 30
0.0
 11
90.0
 21
76.0279
 31
0.0
  0
LINE
  5
BD
330
1E
100
AcDbEntity
  8
0
100
AcDbLine
 10
90.0
 20
84.82789999999999
 30
0.0
 11
90.0
 21
91.9279
 31
0.0
  0
LINE
  5
BE
330
1E
100
AcDbEntity
  8
0
100
AcDbLine
 10
90.0
 20
84.82789999999999
 30
0.0
 11
90.0
 21
79.42789999999999
 31
0.0
  0
LINE
  5
BF
330
1E
100
AcDbEntity
  8
0
100
AcDbLine
 10
88.0
 20
81.1279
 30
0.0
 11
88.0
 21
86.2279
 31
0.0
  0
LINE
  5
C0
330
1E
100
AcDbEntity
  8
0
100
AcDbLine
 10
88.0
 20
81.1279
 30
0.0
 11
88.0
 21
78.0279
 31
0.0
  0
LINE
  5
C1
330
1E
100
AcDbEntity
  8
0
100
AcDbLine
 10
88.0
 20
86.2279
 30
0.0
 11
88.0
 21
92.9279
 31
0.0
  0
LINE
  5
C2
330
1E
100
AcDbEntity
  8
0
100
AcDbLine
 10
88.0
 20
86.2279
 30
0.0
 11
88.0
 21
81.1279
 31
0.0
  0
LINE
  5
C3
330
1E
100
AcDbEntity
  8
0
100
AcDbLine
 10
114.0
 20
76.0279
 30
0.0
 11
114.0
 21
74.8279
 31
0.0
  0
LINE
  5
C4
330
1E
100
AcDbEntity
  8
0
100
AcDbLine
 10
114.0
 20
79.42789999999999
 30
0.0
 11
114.0
 21
76.0279
 31
0.0
  0
LINE
  5
C5
330
1E
100
AcDbEntity
  8
0
100
AcDbLine
 10
114.0
 20
84.82789999999999
 30
0.0
 11
114.0
 21
79.42789999999999
 31
0.0
  0
LINE
  5
C6
330
1E
100
AcDbEntity
  8
0
100
AcDbLine
 10
90.0
 20
74.8279
 30
0.0
 11
114.0
 21
74.8279
 31
0.0
  0
LINE
  5
C7
330
1E
100
AcDbEntity
  8
0
100
AcDbLine
 10
90.0
 20
74.8279
 30
0.0
 11
90.0
 21
76.0279
 31
0.0
  0
LINE
  5
C8
330
1E
100
AcDbEntity
  8
0
100
AcDbLine
 10
45.4163
 20
60.1721
 30
0.0
 11
46.4163
 21
60.1721
 31
0.0
  0
LINE
  5
C9
330
1E
100
AcDbEntity
  8
0
100
AcDbLine
 10
43.8163
 20
60.1721
 30
0.0
 11
45.4163
 21
60.1721
 31
0.0
  0
LINE
  5
CA
330
1E
100
AcDbEntity
  8
0
100
AcDbLine
 10
45.3465
 20
90.1721
 30
0.0
 11
46.3163
 21
90.1721
 31
0.0
  0
LINE
  5
CB
330
1E
100
AcDbEntity
  8
0
100
AcDbLine
 10
46.0
 20
90.1721
 30
0.0
 11
46.0
 21
90.43182156862741
 31
0.0
  0
LINE
  5
CE
330
1E
100
AcDbEntity
  8
0
100
AcDbLine
 10
46.0
 20
90.43182156862741
 30
0.0
 11
46.0
 21
90.1721
 31
0.0
  0
LINE
  5
D0
330
1E
100
AcDbEntity
  8
0
100
AcDbLine
 10
46.16399999999999
 20
126.5519
 30
0.0
 11
50.448
 21
123.2758999999999
 31
0.0
  0
LINE
  5
D1
330
1E
100
AcDbEntity
  8
0
100
AcDbLine
 10
41.29199999999999
 20
128.5679
 30
0.0
 11
46.16399999999999
 21
126.5519
 31
0.0
  0
LINE
  5
D2
330
1E
100
AcDbEntity
  8
0
100
AcDbLine
 10
37.984
 20
133.4519
 30
0.0
 11
38.832
 21
133.4519
 31
0.0
  0
LINE
  5
D3
330
1E
100
AcDbEntity
  8
0
100
AcDbLine
 10
37.936
 20
133.5471
 30
0.0
 11
38.75199999999999
 21
133.5471
 31
0.0
  0
LINE
  5
D4
330
1E
100
AcDbEntity
  8
0
100
AcDbLine
 10
37.008
 20
133.5471
 30
0.0
 11
37.936
 21
133.5471
 31
0.0
  0
LINE
  5
D5
330
1E
100
AcDbEntity
  8
0
100
AcDbLine
 10
37.024
 20
133.4519
 30
0.0
 11
37.984
 21
133.4519
 31
0.0
  0
LINE
  5
D6
330
1E
100
AcDbEntity
  8
0
100
AcDbLine
 10
40.0
 20
129.2653999999999
 30
0.0
 11
40.0
 21
133.4519
 31
0.0
  0
LINE
  5
D7
330
1E
100
AcDbEntity
  8
0
100
AcDbLine
 10
41.7
 20
130.0278999999999
 30
0.0
 11
47.0
 21
127.9279
 31
0.0
  0
LINE
  5
D8
330
1E
100
AcDbEntity
  8
0
100
AcDbLine
 10
38.75199999999999
 20
133.5471
 30
0.0
 11
39.37599999999999
 21
133.5471
 31
0.0
  0
LINE
  5
D9
330
1E
100
AcDbEntity
  8
0
100
AcDbLine
 10
40.0
 20
133.4519
 30
0.0
 11
40.0
 21
129.2653999999999
 31
0.0
  0
LINE
  5
DA
330
1E
100
AcDbEntity
  8
0
100
AcDbLine
 10
39.856
 20
133.4519
 30
0.0
 11
40.0
 21
133.4519
 31
0.0
  0
LINE
  5
DB
330
1E
100
AcDbEntity
  8
0
100
AcDbLine
 10
39.904
 20
133.5471
 30
0.0
 11
40.0
 21
133.4519
 31
0.0
  0
LINE
  5
DC
330
1E
100
AcDbEntity
  8
0
100
AcDbLine
 10
39.75999999999999
 20
133.5471
 30
0.0
 11
39.904
 21
133.5471
 31
0.0
  0
LINE
  5
DD
330
1E
100
AcDbEntity
  8
0
100
AcDbLine
 10
39.37599999999999
 20
133.5471
 30
0.0
 11
39.75999999999999
 21
133.5471
 31
0.0
  0
LINE
  5
DE
330
1E
100
AcDbEntity
  8
0
100
AcDbLine
 10
39.472
 20
133.4519
 30
0.0
 11
39.856
 21
133.4519
 31
0.0
  0
LINE
  5
DF
330
1E
100
AcDbEntity
  8
0
100
AcDbLine
 10
38.832
 20
133.4519
 30
0.0
 11
39.472
 21
133.4519
 31
0.0
  0
LINE
  5
E0
330
1E
100
AcDbEntity
  8
0
100
AcDbLine
 10
40.0
 20
130.2664964912279
 30
0.0
 11
41.7
 21
130.0278999999999
 31
0.0
  0
LINE
  5
E1
330
1E
100
AcDbEntity
  8
0
100
AcDbLine
 10
43.0234169653525
 20
129.503527240143
 30
0.0
 11
43.2
 21
130.8278999999999
 31
0.0
  0
LINE
  5
E2
330
1E
100
AcDbEntity
  8
0
100
AcDbLine
 10
43.2
 20
130.8278999999999
 30
0.0
 11
43.5
 21
134.8279
 31
0.0
  0
LINE
  5
E3
330
1E
100
AcDbEntity
  8
0
100
AcDbLine
 10
43.0
 20
138.3278999999999
 30
0.0
 11
43.5
 21
134.8279
 31
0.0
  0
LINE
  5
E4
330
1E
100
AcDbEntity
  8
0
100
AcDbLine
 10
42.0
 20
140.8279
 30
0.0
 11
43.0
 21
138.3278999999999
 31
0.0
  0
LINE
  5
E5
330
1E
100
AcDbEntity
  8
0
100
AcDbLine
 10
40.49999999999999
 20
142.8279
 30
0.0
 11
42.0
 21
140.8279
 31
0.0
  0
LINE
  5
E6
330
1E
100
AcDbEntity
  8
0
100
AcDbLine
 10
38.5
 20
144.3278999999999
 30
0.0
 11
40.49999999999999
 21
142.8279
 31
0.0
  0
LINE
  5
E7
330
1E
100
AcDbEntity
  8
0
100
AcDbLine
 10
41.376
 20
129.0718999999999
 30
0.0
 11
46.416
 21
127.0558999999999
 31
0.0
  0
LINE
  5
E8
330
1E
100
AcDbEntity
  8
0
100
AcDbLine
 10
46.3163
 20
90.1721
 30
0.0
 11
47.41629999999999
 21
90.1721
 31
0.0
  0
LINE
  5
E9
330
1E
100
AcDbEntity
  8
0
100
AcDbLine
 10
46.16399999999999
 20
91.1039
 30
0.0
 11
50.448
 21
94.3799
 31
0.0
  0
LINE
  5
EA
330
1E
100
AcDbEntity
  8
0
100
AcDbLine
 10
41.29199999999999
 20
89.08790000000001
 30
0.0
 11
46.16399999999999
 21
91.1039
 31
0.0
  0
LINE
  5
EB
330
1E
100
AcDbEntity
  8
0
100
AcDbLine
 10
47.55525
 20
90.1721
 30
0.0
 11
49.625
 21
91.8279
 31
0.0
  0
LINE
  5
EC
330
1E
100
AcDbEntity
  8
0
100
AcDbLine
 10
70.0
 20
91.8279
 30
0.0
 11
70.0
 21
92.42789999999999
 31
0.0
  0
LINE
  5
ED
330
1E
100
AcDbEntity
  8
0
100
AcDbLine
 10
70.0
 20
92.42789999999999
 30
0.0
 11
70.0
 21
94.12789999999999
 31
0.0
  0
LINE
  5
EE
330
1E
100
AcDbEntity
  8
0
100
AcDbLine
 10
70.0
 20
92.42789999999999
 30
0.0
 11
70.0
 21
91.8279
 31
0.0
  0
LINE
  5
EF
330
1E
100
AcDbEntity
  8
0
100
AcDbLine
 10
48.0431
 20
91.8279
 30
0.0
 11
70.0
 21
91.8279
 31
0.0
  0
LINE
  5
F0
330
1E
100
AcDbEntity
  8
0
100
AcDbLine
 10
81.0
 20
91.8279
 30
0.0
 11
84.0
 21
91.8279
 31
0.0
  0
LINE
  5
F1
330
1E
100
AcDbEntity
  8
0
100
AcDbLine
 10
84.0
 20
91.8279
 30
0.0
 11
86.0
 21
93.04219999999999
 31
0.0
  0
LINE
  5
F2
330
1E
100
AcDbEntity
  8
0
100
AcDbLine
 10
86.0
 20
93.04219999999999
 30
0.0
 11
88.0
 21
95.47079999999999
 31
0.0
  0
LINE
  5
F3
330
1E
100
AcDbEntity
  8
0
100
AcDbLine
 10
78.0
 20
91.8279
 30
0.0
 11
81.0
 21
91.8279
 31
0.0
  0
LINE
  5
F6
330
1E
100
AcDbEntity
  8
0
100
AcDbLine
 10
76.0
 20
93.04219999999999
 30
0.0
 11
78.0
 21
91.8279
 31
0.0
  0
LINE
  5
F7
330
1E
100
AcDbEntity
  8
0
100
AcDbLine
 10
114.0
 20
91.9279
 30
0.0
 11
114.0
 21
84.82789999999999
 31
0.0
  0
LINE
  5
F8
330
1E
100
AcDbEntity
  8
0
100
AcDbLine
 10
90.0
 20
91.9279
 30
0.0
 11
90.0
 21
100.0279
 31
0.0
  0
LINE
  5
F9
330
1E
100
AcDbEntity
  8
0
100
AcDbLine
 10
90.0
 20
91.9279
 30
0.0
 11
90.0
 21
84.82789999999999
 31
0.0
  0
LINE
  5
FA
330
1E
100
AcDbEntity
  8
0
100
AcDbLine
 10
88.0
 20
92.9279
 30
0.0
 11
88.0
 21
95.47079999999999
 31
0.0
  0
LINE
  5
FB
330
1E
100
AcDbEntity
  8
0
100
AcDbLine
 10
88.0
 20
92.9279
 30
0.0
 11
88.0
 21
86.2279
 31
0.0
  0
LINE
  5
FC
330
1E
100
AcDbEntity
  8
0
100
AcDbLine
 10
88.0
 20
92.9279
 30
0.0
 11
88.0
 21
100.5279
 31
0.0
  0
LINE
  5
FD
330
1E
100
AcDbEntity
  8
0
100
AcDbLine
 10
47.41629999999999
 20
90.1721
 30
0.0
 11
47.81629999999999
 21
90.1721
 31
0.0
  0
LINE
  5
FF
330
1E
100
AcDbEntity
  8
0
100
AcDbLine
 10
48.0431
 20
125.8278999999999
 30
0.0
 11
70.0
 21
125.8278999999999
 31
0.0
  0
LINE
  5
101
330
1E
100
AcDbEntity
  8
0
100
AcDbLine
 10
50.448
 20
123.2758999999999
 30
0.0
 11
53.72399999999999
 21
118.9918999999999
 31
0.0
  0
LINE
  5
104
330
1E
100
AcDbEntity
  8
0
100
AcDbLine
 10
53.72399999999999
 20
118.9918999999999
 30
0.0
 11
55.74
 21
114.1199
 31
0.0
  0
LINE
  5
105
330
1E
100
AcDbEntity
  8
0
100
AcDbLine
 10
50.868
 20
123.6958999999999
 30
0.0
 11
54.228
 21
119.2439
 31
0.0
  0
LINE
  5
106
330
1E
100
AcDbEntity
  8
0
100
AcDbLine
 10
47.0
 20
127.9279
 30
0.0
 11
49.625
 21
125.8278999999999
 31
0.0
  0
LINE
  5
107
330
1E
100
AcDbEntity
  8
0
100
AcDbLine
 10
46.416
 20
127.0558999999999
 30
0.0
 11
50.868
 21
123.6958999999999
 31
0.0
  0
LINE
  5
10A
330
1E
100
AcDbEntity
  8
0
100
AcDbLine
 10
54.228
 20
119.2439
 30
0.0
 11
56.244
 21
114.2039
 31
0.0
  0
LINE
  5
10B
330
1E
100
AcDbEntity
  8
0
100
AcDbLine
 10
53.72399999999999
 20
98.6639
 30
0.0
 11
55.74
 21
103.5358999999999
 31
0.0
  0
LINE
  5
10C
330
1E
100
AcDbEntity
  8
0
100
AcDbLine
 10
50.448
 20
94.3799
 30
0.0
 11
53.72399999999999
 21
98.6639
 31
0.0
  0
LINE
  5
10D
330
1E
100
AcDbEntity
  8
0
100
AcDbLine
 10
70.0
 20
94.12789999999999
 30
0.0
 11
70.0
 21
96.82780000000001
 31
0.0
  0
LINE
  5
10E
330
1E
100
AcDbEntity
  8
0
100
AcDbLine
 10
70.0
 20
94.12789999999999
 30
0.0
 11
70.0
 21
92.42789999999999
 31
0.0
  0
LINE
  5
10F
330
1E
100
AcDbEntity
  8
0
100
AcDbLine
 10
70.0
 20
96.82780000000001
 30
0.0
 11
70.0
 21
100.3778999999999
 31
0.0
  0
LINE
  5
110
330
1E
100
AcDbEntity
  8
0
100
AcDbLine
 10
70.0
 20
96.82780000000001
 30
0.0
 11
70.0
 21
94.12789999999999
 31
0.0
  0
LINE
  5
111
330
1E
100
AcDbEntity
  8
0
100
AcDbLine
 10
70.0
 20
100.3778999999999
 30
0.0
 11
70.0
 21
104.4278999999999
 31
0.0
  0
LINE
  5
112
330
1E
100
AcDbEntity
  8
0
100
AcDbLine
 10
70.0
 20
100.3778999999999
 30
0.0
 11
70.0
 21
96.82780000000001
 31
0.0
  0
LINE
  5
115
330
1E
100
AcDbEntity
  8
0
100
AcDbLine
 10
88.0
 20
95.9565
 30
0.0
 11
88.0
 21
95.47079999999999
 31
0.0
  0
LINE
  5
118
330
1E
100
AcDbEntity
  8
0
100
AcDbLine
 10
74.0
 20
100.2565
 30
0.0
 11
74.0
 21
102.7922
 31
0.0
  0
LINE
  5
119
330
1E
100
AcDbEntity
  8
0
100
AcDbLine
 10
74.0
 20
100.2565
 30
0.0
 11
74.0
 21
98.32790000000001
 31
0.0
  0
LINE
  5
11A
330
1E
100
AcDbEntity
  8
0
100
AcDbLine
 10
74.0
 20
98.32790000000001
 30
0.0
 11
74.0
 21
100.2565
 31
0.0
  0
LINE
  5
11B
330
1E
100
AcDbEntity
  8
0
100
AcDbLine
 10
74.0
 20
98.32790000000001
 30
0.0
 11
74.0
 21
97.1136
 31
0.0
  0
LINE
  5
11D
330
1E
100
AcDbEntity
  8
0
100
AcDbLine
 10
88.0
 20
97.29219999999999
 30
0.0
 11
88.0
 21
95.9565
 31
0.0
  0
LINE
  5
11E
330
1E
100
AcDbEntity
  8
0
100
AcDbLine
 10
88.0
 20
99.3565
 30
0.0
 11
88.0
 21
97.29219999999999
 31
0.0
  0
LINE
  5
120
330
1E
100
AcDbEntity
  8
0
100
AcDbLine
 10
74.0
 20
97.1136
 30
0.0
 11
74.0
 21
98.32790000000001
 31
0.0
  0
LINE
  5
121
330
1E
100
AcDbEntity
  8
0
100
AcDbLine
 10
74.0
 20
97.1136
 30
0.0
 11
74.0
 21
96.68500000000001
 31
0.0
  0
LINE
  5
122
330
1E
100
AcDbEntity
  8
0
100
AcDbLine
 10
74.0
 20
96.68500000000001
 30
0.0
 11
76.0
 21
93.04219999999999
 31
0.0
  0
LINE
  5
123
330
1E
100
AcDbEntity
  8
0
100
AcDbLine
 10
74.0
 20
96.68500000000001
 30
0.0
 11
74.0
 21
97.1136
 31
0.0
  0
LINE
  5
124
330
1E
100
AcDbEntity
  8
0
100
AcDbLine
 10
70.0
 20
96.68500000000001
 30
0.0
 11
74.0
 21
96.68500000000001
 31
0.0
  0
LINE
  5
125
330
1E
100
AcDbEntity
  8
0
100
AcDbLine
 10
88.0
 20
102.1492999999999
 30
0.0
 11
88.0
 21
99.3565
 31
0.0
  0
LINE
  5
126
330
1E
100
AcDbEntity
  8
0
100
AcDbLine
 10
74.0
 20
102.7922
 30
0.0
 11
74.0
 21
105.6850999999999
 31
0.0
  0
LINE
  5
127
330
1E
100
AcDbEntity
  8
0
100
AcDbLine
 10
74.0
 20
102.7922
 30
0.0
 11
74.0
 21
100.2565
 31
0.0
  0
LINE
  5
128
330
1E
100
AcDbEntity
  8
0
100
AcDbLine
 10
88.0
 20
100.5279
 30
0.0
 11
88.0
 21
108.8278999999999
 31
0.0
  0
LINE
  5
129
330
1E
100
AcDbEntity
  8
0
100
AcDbLine
 10
88.0
 20
100.5279
 30
0.0
 11
88.0
 21
92.9279
 31
0.0
  0
LINE
  5
12A
330
1E
100
AcDbEntity
  8
0
100
AcDbLine
 10
114.0
 20
100.0279
 30
0.0
 11
114.0
 21
91.9279
 31
0.0
  0
LINE
  5
12B
330
1E
100
AcDbEntity
  8
0
100
AcDbLine
 10
90.0
 20
100.0279
 30
0.0
 11
90.0
 21
108.8278999999999
 31
0.0
  0
LINE
  5
12C
330
1E
100
AcDbEntity
  8
0
100
AcDbLine
 10
90.0
 20
100.0279
 30
0.0
 11
90.0
 21
91.9279
 31
0.0
  0
LINE
  5
12D
330
1E
100
AcDbEntity
  8
0
100
AcDbLine
 10
88.0
 20
95.47079999999999
 30
0.0
 11
88.0
 21
92.9279
 31
0.0
  0
LINE
  5
12E
330
1E
100
AcDbEntity
  8
0
100
AcDbLine
 10
55.74
 20
114.1199
 30
0.0
 11
56.496
 21
108.8278999999999
 31
0.0
  0
LINE
  5
130
330
1E
100
AcDbEntity
  8
0
100
AcDbLine
 10
88.0
 20
105.4278999999999
 30
0.0
 11
88.0
 21
102.1492999999999
 31
0.0
  0
LINE
  5
134
330
1E
100
AcDbEntity
  8
0
100
AcDbLine
 10
74.0
 20
105.6850999999999
 30
0.0
 11
74.0
 21
108.8278999999999
 31
0.0
  0
LINE
  5
135
330
1E
100
AcDbEntity
  8
0
100
AcDbLine
 10
74.0
 20
105.6850999999999
 30
0.0
 11
74.0
 21
102.7922
 31
0.0
  0
LINE
  5
136
330
1E
100
AcDbEntity
  8
0
100
AcDbLine
 10
70.0
 20
104.4278999999999
 30
0.0
 11
70.0
 21
108.8278999999999
 31
0.0
  0
LINE
  5
137
330
1E
100
AcDbEntity
  8
0
100
AcDbLine
 10
70.0
 20
104.4278999999999
 30
0.0
 11
70.0
 21
100.3778999999999
 31
0.0
  0
LINE
  5
138
330
1E
100
AcDbEntity
  8
0
100
AcDbLine
 10
88.0
 20
108.8278999999999
 30
0.0
 11
88.0
 21
117.1278999999999
 31
0.0
  0
LINE
  5
139
330
1E
100
AcDbEntity
  8
0
100
AcDbLine
 10
88.0
 20
108.8278999999999
 30
0.0
 11
88.0
 21
100.5279
 31
0.0
  0
LINE
  5
13A
330
1E
100
AcDbEntity
  8
0
100
AcDbLine
 10
88.0
 20
108.8278999999999
 30
0.0
 11
88.0
 21
105.4278999999999
 31
0.0
  0
LINE
  5
13B
330
1E
100
AcDbEntity
  8
0
100
AcDbLine
 10
70.0
 20
113.2279
 30
0.0
 11
70.0
 21
117.2779
 31
0.0
  0
LINE
  5
13C
330
1E
100
AcDbEntity
  8
0
100
AcDbLine
 10
70.0
 20
113.2279
 30
0.0
 11
70.0
 21
108.8278999999999
 31
0.0
  0
LINE
  5
13D
330
1E
100
AcDbEntity
  8
0
100
AcDbLine
 10
74.0
 20
108.8278999999999
 30
0.0
 11
74.0
 21
111.9707
 31
0.0
  0
LINE
  5
13E
330
1E
100
AcDbEntity
  8
0
100
AcDbLine
 10
74.0
 20
108.8278999999999
 30
0.0
 11
74.0
 21
105.6850999999999
 31
0.0
  0
LINE
  5
140
330
1E
100
AcDbEntity
  8
0
100
AcDbLine
 10
88.0
 20
112.2279
 30
0.0
 11
88.0
 21
108.8278999999999
 31
0.0
  0
LINE
  5
142
330
1E
100
AcDbEntity
  8
0
100
AcDbLine
 10
74.0
 20
111.9707
 30
0.0
 11
74.0
 21
114.8635999999999
 31
0.0
  0
LINE
  5
143
330
1E
100
AcDbEntity
  8
0
100
AcDbLine
 10
74.0
 20
111.9707
 30
0.0
 11
74.0
 21
108.8278999999999
 31
0.0
  0
LINE
  5
146
330
1E
100
AcDbEntity
  8
0
100
AcDbLine
 10
70.0
 20
108.8278999999999
 30
0.0
 11
70.0
 21
113.2279
 31
0.0
  0
LINE
  5
147
330
1E
100
AcDbEntity
  8
0
100
AcDbLine
 10
70.0
 20
108.8278999999999
 30
0.0
 11
70.0
 21
104.4278999999999
 31
0.0
  0
LINE
  5
148
330
1E
100
AcDbEntity
  8
0
100
AcDbLine
 10
90.0
 20
108.8278999999999
 30
0.0
 11
90.0
 21
100.0279
 31
0.0
  0
LINE
  5
149
330
1E
100
AcDbEntity
  8
0
100
AcDbLine
 10
90.0
 20
108.8278999999999
 30
0.0
 11
90.0
 21
117.6279
 31
0.0
  0
LINE
  5
14A
330
1E
100
AcDbEntity
  8
0
100
AcDbLine
 10
114.0
 20
108.8278999999999
 30
0.0
 11
114.0
 21
100.0279
 31
0.0
  0
LINE
  5
14B
330
1E
100
AcDbEntity
  8
0
100
AcDbLine
 10
88.0
 20
115.5065
 30
0.0
 11
88.0
 21
112.2279
 31
0.0
  0
LINE
  5
14C
330
1E
100
AcDbEntity
  8
0
100
AcDbLine
 10
74.0
 20
114.8635999999999
 30
0.0
 11
74.0
 21
117.3993
 31
0.0
  0
LINE
  5
14D
330
1E
100
AcDbEntity
  8
0
100
AcDbLine
 10
74.0
 20
114.8635999999999
 30
0.0
 11
74.0
 21
111.9707
 31
0.0
  0
LINE
  5
14E
330
1E
100
AcDbEntity
  8
0
100
AcDbLine
 10
70.0
 20
120.9708
 30
0.0
 11
74.0
 21
120.9708
 31
0.0
  0
LINE
  5
14F
330
1E
100
AcDbEntity
  8
0
100
AcDbLine
 10
70.0
 20
123.5279
 30
0.0
 11
70.0
 21
125.2279
 31
0.0
  0
LINE
  5
150
330
1E
100
AcDbEntity
  8
0
100
AcDbLine
 10
70.0
 20
123.5279
 30
0.0
 11
70.0
 21
120.828
 31
0.0
  0
LINE
  5
151
330
1E
100
AcDbEntity
  8
0
100
AcDbLine
 10
74.0
 20
117.3993
 30
0.0
 11
74.0
 21
119.3278999999999
 31
0.0
  0
LINE
  5
152
330
1E
100
AcDbEntity
  8
0
100
AcDbLine
 10
74.0
 20
117.3993
 30
0.0
 11
74.0
 21
114.8635999999999
 31
0.0
  0
LINE
  5
153
330
1E
100
AcDbEntity
  8
0
100
AcDbLine
 10
88.0
 20
118.2992999999999
 30
0.0
 11
88.0
 21
115.5065
 31
0.0
  0
LINE
  5
155
330
1E
100
AcDbEntity
  8
0
100
AcDbLine
 10
88.0
 20
120.3636
 30
0.0
 11
88.0
 21
118.2992999999999
 31
0.0
  0
LINE
  5
157
330
1E
100
AcDbEntity
  8
0
100
AcDbLine
 10
74.0
 20
119.3278999999999
 30
0.0
 11
74.0
 21
120.5421999999999
 31
0.0
  0
LINE
  5
158
330
1E
100
AcDbEntity
  8
0
100
AcDbLine
 10
74.0
 20
119.3278999999999
 30
0.0
 11
74.0
 21
117.3993
 31
0.0
  0
LINE
  5
15C
330
1E
100
AcDbEntity
  8
0
100
AcDbLine
 10
88.0
 20
121.6992999999999
 30
0.0
 11
88.0
 21
120.3636
 31
0.0
  0
LINE
  5
15F
330
1E
100
AcDbEntity
  8
0
100
AcDbLine
 10
86.0
 20
124.6136
 30
0.0
 11
88.0
 21
122.185
 31
0.0
  0
LINE
  5
160
330
1E
100
AcDbEntity
  8
0
100
AcDbLine
 10
76.0
 20
124.6136
 30
0.0
 11
78.0
 21
125.8278999999999
 31
0.0
  0
LINE
  5
162
330
1E
100
AcDbEntity
  8
0
100
AcDbLine
 10
74.0
 20
120.9708
 30
0.0
 11
76.0
 21
124.6136
 31
0.0
  0
LINE
  5
163
330
1E
100
AcDbEntity
  8
0
100
AcDbLine
 10
74.0
 20
120.9708
 30
0.0
 11
74.0
 21
120.5421999999999
 31
0.0
  0
LINE
  5
164
330
1E
100
AcDbEntity
  8
0
100
AcDbLine
 10
74.0
 20
120.5421999999999
 30
0.0
 11
74.0
 21
120.9708
 31
0.0
  0
LINE
  5
165
330
1E
100
AcDbEntity
  8
0
100
AcDbLine
 10
74.0
 20
120.5421999999999
 30
0.0
 11
74.0
 21
119.3278999999999
 31
0.0
  0
LINE
  5
166
330
1E
100
AcDbEntity
  8
0
100
AcDbLine
 10
70.0
 20
120.828
 30
0.0
 11
70.0
 21
123.5279
 31
0.0
  0
LINE
  5
167
330
1E
100
AcDbEntity
  8
0
100
AcDbLine
 10
70.0
 20
120.828
 30
0.0
 11
70.0
 21
117.2779
 31
0.0
  0
LINE
  5
168
330
1E
100
AcDbEntity
  8
0
100
AcDbLine
 10
70.0
 20
117.2779
 30
0.0
 11
70.0
 21
120.828
 31
0.0
  0
LINE
  5
169
330
1E
100
AcDbEntity
  8
0
100
AcDbLine
 10
70.0
 20
117.2779
 30
0.0
 11
70.0
 21
113.2279
 31
0.0
  0
LINE
  5
16A
330
1E
100
AcDbEntity
  8
0
100
AcDbLine
 10
88.0
 20
117.1278999999999
 30
0.0
 11
88.0
 21
124.7279
 31
0.0
  0
LINE
  5
16B
330
1E
100
AcDbEntity
  8
0
100
AcDbLine
 10
88.0
 20
117.1278999999999
 30
0.0
 11
88.0
 21
108.8278999999999
 31
0.0
  0
LINE
  5
16C
330
1E
100
AcDbEntity
  8
0
100
AcDbLine
 10
70.0
 20
125.8278999999999
 30
0.0
 11
70.0
 21
125.2279
 31
0.0
  0
LINE
  5
16D
330
1E
100
AcDbEntity
  8
0
100
AcDbLine
 10
81.0
 20
125.8278999999999
 30
0.0
 11
84.0
 21
125.8278999999999
 31
0.0
  0
LINE
  5
16E
330
1E
100
AcDbEntity
  8
0
100
AcDbLine
 10
84.0
 20
125.8278999999999
 30
0.0
 11
86.0
 21
124.6136
 31
0.0
  0
LINE
  5
16F
330
1E
100
AcDbEntity
  8
0
100
AcDbLine
 10
78.0
 20
125.8278999999999
 30
0.0
 11
81.0
 21
125.8278999999999
 31
0.0
  0
LINE
  5
170
330
1E
100
AcDbEntity
  8
0
100
AcDbLine
 10
70.0
 20
125.2279
 30
0.0
 11
70.0
 21
125.8278999999999
 31
0.0
  0
LINE
  5
171
330
1E
100
AcDbEntity
  8
0
100
AcDbLine
 10
70.0
 20
125.2279
 30
0.0
 11
70.0
 21
123.5279
 31
0.0
  0
LINE
  5
172
330
1E
100
AcDbEntity
  8
0
100
AcDbLine
 10
88.0
 20
124.7279
 30
0.0
 11
88.0
 21
131.4278999999999
 31
0.0
  0
LINE
  5
173
330
1E
100
AcDbEntity
  8
0
100
AcDbLine
 10
88.0
 20
124.7279
 30
0.0
 11
88.0
 21
122.185
 31
0.0
  0
LINE
  5
174
330
1E
100
AcDbEntity
  8
0
100
AcDbLine
 10
88.0
 20
124.7279
 30
0.0
 11
88.0
 21
117.1278999999999
 31
0.0
  0
LINE
  5
175
330
1E
100
AcDbEntity
  8
0
100
AcDbLine
 10
90.0
 20
125.7279
 30
0.0
 11
90.0
 21
132.8278999999999
 31
0.0
  0
LINE
  5
176
330
1E
100
AcDbEntity
  8
0
100
AcDbLine
 10
90.0
 20
125.7279
 30
0.0
 11
90.0
 21
117.6279
 31
0.0
  0
LINE
  5
177
330
1E
100
AcDbEntity
  8
0
100
AcDbLine
 10
114.0
 20
125.7279
 30
0.0
 11
114.0
 21
117.6279
 31
0.0
  0
LINE
  5
178
330
1E
100
AcDbEntity
  8
0
100
AcDbLine
 10
90.0
 20
117.6279
 30
0.0
 11
90.0
 21
125.7279
 31
0.0
  0
LINE
  5
179
330
1E
100
AcDbEntity
  8
0
100
AcDbLine
 10
90.0
 20
117.6279
 30
0.0
 11
90.0
 21
108.8278999999999
 31
0.0
  0
LINE
  5
17A
330
1E
100
AcDbEntity
  8
0
100
AcDbLine
 10
114.0
 20
117.6279
 30
0.0
 11
114.0
 21
108.8278999999999
 31
0.0
  0
LINE
  5
17B
330
1E
100
AcDbEntity
  8
0
100
AcDbLine
 10
88.0
 20
139.6279
 30
0.0
 11
88.0
 21
140.8279
 31
0.0
  0
LINE
  5
17C
330
1E
100
AcDbEntity
  8
0
100
AcDbLine
 10
88.0
 20
139.6279
 30
0.0
 11
88.0
 21
136.5278999999999
 31
0.0
  0
LINE
  5
17D
330
1E
100
AcDbEntity
  8
0
100
AcDbLine
 10
88.0
 20
140.8279
 30
0.0
 11
90.0
 21
142.8279
 31
0.0
  0
LINE
  5
17E
330
1E
100
AcDbEntity
  8
0
100
AcDbLine
 10
88.0
 20
140.8279
 30
0.0
 11
88.0
 21
139.6279
 31
0.0
  0
LINE
  5
17F
330
1E
100
AcDbEntity
  8
0
100
AcDbLine
 10
90.0
 20
132.8278999999999
 30
0.0
 11
90.0
 21
138.2279
 31
0.0
  0
LINE
  5
180
330
1E
100
AcDbEntity
  8
0
100
AcDbLine
 10
90.0
 20
132.8278999999999
 30
0.0
 11
90.0
 21
125.7279
 31
0.0
  0
LINE
  5
181
330
1E
100
AcDbEntity
  8
0
100
AcDbLine
 10
90.0
 20
142.8279
 30
0.0
 11
114.0
 21
142.8279
 31
0.0
  0
LINE
  5
182
330
1E
100
AcDbEntity
  8
0
100
AcDbLine
 10
90.0
 20
142.8279
 30
0.0
 11
90.0
 21
141.6279
 31
0.0
  0
LINE
  5
183
330
1E
100
AcDbEntity
  8
0
100
AcDbLine
 10
114.0
 20
142.8279
 30
0.0
 11
114.0
 21
141.6279
 31
0.0
  0
LINE
  5
184
330
1E
100
AcDbEntity
  8
0
100
AcDbLine
 10
90.0
 20
141.6279
 30
0.0
 11
90.0
 21
142.8279
 31
0.0
  0
LINE
  5
185
330
1E
100
AcDbEntity
  8
0
100
AcDbLine
 10
90.0
 20
141.6279
 30
0.0
 11
90.0
 21
138.2279
 31
0.0
  0
LINE
  5
186
330
1E
100
AcDbEntity
  8
0
100
AcDbLine
 10
114.0
 20
141.6279
 30
0.0
 11
114.0
 21
138.2279
 31
0.0
  0
LINE
  5
187
330
1E
100
AcDbEntity
  8
0
100
AcDbLine
 10
90.0
 20
138.2279
 30
0.0
 11
90.0
 21
141.6279
 31
0.0
  0
LINE
  5
188
330
1E
100
AcDbEntity
  8
0
100
AcDbLine
 10
90.0
 20
138.2279
 30
0.0
 11
90.0
 21
132.8278999999999
 31
0.0
  0
LINE
  5
189
330
1E
100
AcDbEntity
  8
0
100
AcDbLine
 10
114.0
 20
138.2279
 30
0.0
 11
114.0
 21
132.8278999999999
 31
0.0
  0
LINE
  5
18A
330
1E
100
AcDbEntity
  8
0
100
AcDbLine
 10
114.0
 20
132.8278999999999
 30
0.0
 11
114.0
 21
125.7279
 31
0.0
  0
LINE
  5
18B
330
1E
100
AcDbEntity
  8
0
100
AcDbLine
 10
88.0
 20
136.5278999999999
 30
0.0
 11
88.0
 21
139.6279
 31
0.0
  0
LINE
  5
18C
330
1E
100
AcDbEntity
  8
0
100
AcDbLine
 10
88.0
 20
136.5278999999999
 30
0.0
 11
88.0
 21
131.4278999999999
 31
0.0
  0
LINE
  5
18D
330
1E
100
AcDbEntity
  8
0
100
AcDbLine
 10
88.0
 20
131.4278999999999
 30
0.0
 11
88.0
 21
136.5278999999999
 31
0.0
  0
LINE
  5
18E
330
1E
100
AcDbEntity
  8
0
100
AcDbLine
 10
88.0
 20
122.185
 30
0.0
 11
88.0
 21
124.7279
 31
0.0
  0
LINE
  5
18F
330
1E
100
AcDbEntity
  8
0
100
AcDbLine
 10
88.0
 20
122.185
 30
0.0
 11
88.0
 21
121.6992999999999
 31
0.0
  0
LINE
  5
190
330
1E
100
AcDbEntity
  8
0
100
AcDbLine
 10
56.244
 20
114.2039
 30
0.0
 11
57.0
 21
108.8278999999999
 31
0.0
  0
LINE
  5
191
330
1E
100
AcDbEntity
  8
0
100
AcDbLine
 10
55.74
 20
103.5358999999999
 30
0.0
 11
56.496
 21
108.8278999999999
 31
0.0
  0
LINE
  5
192
330
1E
100
AcDbEntity
  8
0
100
AcDbLine
 10
56.244
 20
103.4518999999999
 30
0.0
 11
57.0
 21
108.8278999999999
 31
0.0
  0
LINE
  5
193
330
1E
100
AcDbEntity
  8
0
100
AcDbLine
 10
54.228
 20
98.4119
 30
0.0
 11
56.244
 21
103.4518999999999
 31
0.0
  0
LINE
  5
194
330
1E
100
AcDbEntity
  8
0
100
AcDbLine
 10
50.868
 20
93.95990000000001
 30
0.0
 11
54.228
 21
98.4119
 31
0.0
  0
LINE
  5
195
330
1E
100
AcDbEntity
  8
0
100
AcDbLine
 10
46.416
 20
90.5999
 30
0.0
 11
50.868
 21
93.95990000000001
 31
0.0
  0
LINE
  5
196
330
1E
100
AcDbEntity
  8
0
100
AcDbLine
 10
41.376
 20
88.58389999999999
 30
0.0
 11
46.416
 21
90.5999
 31
0.0
  0
LINE
  5
197
330
1E
100
AcDbEntity
  8
0
100
AcDbLine
 10
36.0
 20
87.8279
 30
0.0
 11
41.376
 21
88.58389999999999
 31
0.0
  0
ENDSEC
  0
SECTION
  2
OBJECTS
  0
DICTIONARY
  5
C
330
0
100
AcDbDictionary
281
     1
  3
ACAD_GROUP
350
D
  3
ACAD_LAYOUT
350
19
  3
ACAD_MLINESTYLE
350
16
  3
ACAD_PLOTSETTINGS
350
18
  3
ACAD_PLOTSTYLENAME
350
E
  3
AcDbVariableDictionary
350
19C
  0
DICTIONARY
  5
D
102
{ACAD_REACTORS
330
C
102
}
330
C
100
AcDbDictionary
281
     1
  0
DICTIONARY
  5
19
102
{ACAD_REACTORS
330
C
102
}
330
C
100
AcDbDictionary
281
     1
  3
Layout1
350
1D
  3
Model
350
21
  0
DICTIONARY
  5
16
102
{ACAD_REACTORS
330
C
102
}
330
C
100
AcDbDictionary
281
     1
  3
Standard
350
17
  0
DICTIONARY
  5
18
102
{ACAD_REACTORS
330
C
102
}
330
C
100
AcDbDictionary
281
     1
  0
ACDBDICTIONARYWDFLT
  5
E
102
{ACAD_REACTORS
330
C
102
}
330
C
100
AcDbDictionary
281
     1
  3
Normal
350
F
100
AcDbDictionaryWithDefault
340
F
  0
DICTIONARY
  5
19C
102
{ACAD_REACTORS
330
C
102
}
330
C
100
AcDbDictionary
281
     1
  3
DIMASSOC
350
19D
  0
LAYOUT
  5
1D
102
{ACAD_REACTORS
330
19
102
}
330
19
100
AcDbPlotSettings
  1

  2
hp deskjet 980c series
  4

  6

 40
0.0
 41
0.0
 42
0.0
 43
0.0
 44
0.0
 45
0.0
 46
0.0
 47
0.0
 48
0.0
 49
0.0
140
0.0
141
0.0
142
1.0
143
1.0
 70
   688
 72
     0
 73
     0
 74
     5
  7

 75
    16
147
1.0
148
0.0
149
0.0
100
AcDbLayout
  1
Layout1
 70
     1
 71
     1
 10
0.0
 20
0.0
 11
12.0
 21
9.0
 12
0.0
 22
0.0
 32
0.0
 14
1.000000000000000E+20
 24
1.000000000000000E+20
 34
1.000000000000000E+20
 15
-1.000000000000000E+20
 25
-1.000000000000000E+20
 35
-1.000000000000000E+20
146
0.0
 13
0.0
 23
0.0
 33
0.0
 16
1.0
 26
0.0
 36
0.0
 17
0.0
 27
1.0
 37
0.0
 76
     0
330
1A
  0
LAYOUT
  5
21
102
{ACAD_REACTORS
330
19
102
}
330
19
100
AcDbPlotSettings
  1

  2
hp deskjet 980c series
  4

  6

 40
0.0
 41
0.0
 42
0.0
 43
0.0
 44
0.0
 45
0.0
 46
0.0
 47
0.0
 48
0.0
 49
0.0
140
0.0
141
0.0
142
1.0
143
1.0
 70
  1712
 72
     0
 73
     0
 74
     0
  7

 75
     0
147
1.0
148
0.0
149
0.0
100
AcDbLayout
  1
Model
 70
     1
 71
     0
 10
0.0
 20
0.0
 11
12.0
 21
9.0
 12
0.0
 22
0.0
 32
0.0
 14
0.0
 24
0.0
 34
0.0
 15
0.0
 25
0.0
 35
0.0
146
0.0
 13
0.0
 23
0.0
 33
0.0
 16
1.0
 26
0.0
 36
0.0
 17
0.0
 27
1.0
 37
0.0
 76
     0
330
1E
  0
MLINESTYLE
  5
17
102
{ACAD_REACTORS
330
16
102
}
330
16
100
AcDbMlineStyle
  2
STANDARD
 70
     0
  3

 62
   256
 51
90.0
 52
90.0
 71
     2
 49
0.5
 62
   256
  6
BYLAYER
 49
-0.5
 62
   256
  6
BYLAYER
  0
ACDBPLACEHOLDER
  5
F
102
{ACAD_REACTORS
330
E
102
}
330
E
  0
DICTIONARYVAR
  5
19D
102
{ACAD_REACTORS
330
19C
102
}
330
19C
100
DictionaryVariables
280
     0
  1
1
  0
ENDSEC
  0
EOF
