  0
SECTION
  2
HEADER
  9
$ACADVER
  1
AC1015
  9
$ACADMAINTVER
 70
    13
  9
$DWGCODEPAGE
  3
ANSI_1252
  9
$INSBASE
 10
0.0
 20
0.0
 30
0.0
  9
$EXTMIN
 10
-0.0000000000000018
 20
-0.146509999999985
 30
0.0
  9
$EXTMAX
 10
65.0
 20
159.14651
 30
0.0
  9
$LIMMIN
 10
0.0
 20
0.0
  9
$LIMMAX
 10
12.0
 20
9.0
  9
$ORTHOMODE
 70
     0
  9
$REGENMODE
 70
     1
  9
$FILLMODE
 70
     1
  9
$QTEXTMODE
 70
     0
  9
$MIRRTEXT
 70
     1
  9
$LTSCALE
 40
1.0
  9
$ATTMODE
 70
     1
  9
$TEXTSIZE
 40
0.2
  9
$TRACEWID
 40
0.05
  9
$TEXTSTYLE
  7
Standard
  9
$CLAYER
  8
0
  9
$CELTYPE
  6
Continuous
  9
$CECOLOR
 62
   256
  9
$CELTSCALE
 40
1.0
  9
$DISPSILH
 70
     0
  9
$DIMSCALE
 40
1.0
  9
$DIMASZ
 40
0.18
  9
$DIMEXO
 40
0.0625
  9
$DIMDLI
 40
0.38
  9
$DIMRND
 40
0.0
  9
$DIMDLE
 40
0.0
  9
$DIMEXE
 40
0.18
  9
$DIMTP
 40
0.0
  9
$DIMTM
 40
0.0
  9
$DIMTXT
 40
0.18
  9
$DIMCEN
 40
0.09
  9
$DIMTSZ
 40
0.0
  9
$DIMTOL
 70
     0
  9
$DIMLIM
 70
     0
  9
$DIMTIH
 70
     1
  9
$DIMTOH
 70
     1
  9
$DIMSE1
 70
     0
  9
$DIMSE2
 70
     0
  9
$DIMTAD
 70
     0
  9
$DIMZIN
 70
     0
  9
$DIMBLK
  1

  9
$DIMASO
 70
     1
  9
$DIMSHO
 70
     1
  9
$DIMPOST
  1

  9
$DIMAPOST
  1

  9
$DIMALT
 70
     0
  9
$DIMALTD
 70
     2
  9
$DIMALTF
 40
25.4
  9
$DIMLFAC
 40
1.0
  9
$DIMTOFL
 70
     0
  9
$DIMTVP
 40
0.0
  9
$DIMTIX
 70
     0
  9
$DIMSOXD
 70
     0
  9
$DIMSAH
 70
     0
  9
$DIMBLK1
  1

  9
$DIMBLK2
  1

  9
$DIMSTYLE
  2
Standard
  9
$DIMCLRD
 70
     0
  9
$DIMCLRE
 70
     0
  9
$DIMCLRT
 70
     0
  9
$DIMTFAC
 40
1.0
  9
$DIMGAP
 40
0.09
  9
$DIMJUST
 70
     0
  9
$DIMSD1
 70
     0
  9
$DIMSD2
 70
     0
  9
$DIMTOLJ
 70
     1
  9
$DIMTZIN
 70
     0
  9
$DIMALTZ
 70
     0
  9
$DIMALTTZ
 70
     0
  9
$DIMUPT
 70
     0
  9
$DIMDEC
 70
     4
  9
$DIMTDEC
 70
     4
  9
$DIMALTU
 70
     2
  9
$DIMALTTD
 70
     2
  9
$DIMTXSTY
  7
Standard
  9
$DIMAUNIT
 70
     0
  9
$DIMADEC
 70
     0
  9
$DIMALTRND
 40
0.0
  9
$DIMAZIN
 70
     0
  9
$DIMDSEP
 70
    46
  9
$DIMATFIT
 70
     3
  9
$DIMFRAC
 70
     0
  9
$DIMLDRBLK
  1

  9
$DIMLUNIT
 70
     2
  9
$DIMLWD
 70
    -2
  9
$DIMLWE
 70
    -2
  9
$DIMTMOVE
 70
     0
  9
$LUNITS
 70
     2
  9
$LUPREC
 70
     4
  9
$SKETCHINC
 40
0.1
  9
$FILLETRAD
 40
0.0
  9
$AUNITS
 70
     0
  9
$AUPREC
 70
     0
  9
$MENU
  1
.
  9
$ELEVATION
 40
0.0
  9
$PELEVATION
 40
0.0
  9
$THICKNESS
 40
0.0
  9
$LIMCHECK
 70
     0
  9
$CHAMFERA
 40
0.0
  9
$CHAMFERB
 40
0.0
  9
$CHAMFERC
 40
0.0
  9
$CHAMFERD
 40
0.0
  9
$SKPOLY
 70
     0
  9
$TDCREATE
 40
2454753.363140185
  9
$TDUCREATE
 40
2454753.279806852
  9
$TDUPDATE
 40
2454753.384162685
  9
$TDUUPDATE
 40
2454753.300829351
  9
$TDINDWG
 40
0.0210226736
  9
$TDUSRTIMER
 40
0.0210226736
  9
$USRTIMER
 70
     1
  9
$ANGBASE
 50
0.0
  9
$ANGDIR
 70
     0
  9
$PDMODE
 70
     0
  9
$PDSIZE
 40
0.0
  9
$PLINEWID
 40
0.0
  9
$SPLFRAME
 70
     0
  9
$SPLINETYPE
 70
     6
  9
$SPLINESEGS
 70
     8
  9
$HANDSEED
  5
1AD
  9
$SURFTAB1
 70
     6
  9
$SURFTAB2
 70
     6
  9
$SURFTYPE
 70
     6
  9
$SURFU
 70
     6
  9
$SURFV
 70
     6
  9
$UCSBASE
  2

  9
$UCSNAME
  2

  9
$UCSORG
 10
0.0
 20
0.0
 30
0.0
  9
$UCSXDIR
 10
1.0
 20
0.0
 30
0.0
  9
$UCSYDIR
 10
0.0
 20
1.0
 30
0.0
  9
$UCSORTHOREF
  2

  9
$UCSORTHOVIEW
 70
     1
  9
$UCSORGTOP
 10
0.0
 20
0.0
 30
0.0
  9
$UCSORGBOTTOM
 10
0.0
 20
0.0
 30
0.0
  9
$UCSORGLEFT
 10
0.0
 20
0.0
 30
0.0
  9
$UCSORGRIGHT
 10
0.0
 20
0.0
 30
0.0
  9
$UCSORGFRONT
 10
0.0
 20
0.0
 30
0.0
  9
$UCSORGBACK
 10
0.0
 20
0.0
 30
0.0
  9
$PUCSBASE
  2

  9
$PUCSNAME
  2

  9
$PUCSORG
 10
0.0
 20
0.0
 30
0.0
  9
$PUCSXDIR
 10
1.0
 20
0.0
 30
0.0
  9
$PUCSYDIR
 10
0.0
 20
1.0
 30
0.0
  9
$PUCSORTHOREF
  2

  9
$PUCSORTHOVIEW
 70
     0
  9
$PUCSORGTOP
 10
0.0
 20
0.0
 30
0.0
  9
$PUCSORGBOTTOM
 10
0.0
 20
0.0
 30
0.0
  9
$PUCSORGLEFT
 10
0.0
 20
0.0
 30
0.0
  9
$PUCSORGRIGHT
 10
0.0
 20
0.0
 30
0.0
  9
$PUCSORGFRONT
 10
0.0
 20
0.0
 30
0.0
  9
$PUCSORGBACK
 10
0.0
 20
0.0
 30
0.0
  9
$USERI1
 70
     0
  9
$USERI2
 70
     0
  9
$USERI3
 70
     0
  9
$USERI4
 70
     0
  9
$USERI5
 70
     0
  9
$USERR1
 40
0.0
  9
$USERR2
 40
0.0
  9
$USERR3
 40
0.0
  9
$USERR4
 40
0.0
  9
$USERR5
 40
0.0
  9
$WORLDVIEW
 70
     1
  9
$SHADEDGE
 70
     3
  9
$SHADEDIF
 70
    70
  9
$TILEMODE
 70
     1
  9
$MAXACTVP
 70
    64
  9
$PINSBASE
 10
0.0
 20
0.0
 30
0.0
  9
$PLIMCHECK
 70
     0
  9
$PEXTMIN
 10
1.000000000000000E+20
 20
1.000000000000000E+20
 30
1.000000000000000E+20
  9
$PEXTMAX
 10
-1.000000000000000E+20
 20
-1.000000000000000E+20
 30
-1.000000000000000E+20
  9
$PLIMMIN
 10
0.0
 20
0.0
  9
$PLIMMAX
 10
12.0
 20
9.0
  9
$UNITMODE
 70
     0
  9
$VISRETAIN
 70
     1
  9
$PLINEGEN
 70
     0
  9
$PSLTSCALE
 70
     1
  9
$TREEDEPTH
 70
  3020
  9
$CMLSTYLE
  2
Standard
  9
$CMLJUST
 70
     0
  9
$CMLSCALE
 40
1.0
  9
$PROXYGRAPHICS
 70
     1
  9
$MEASUREMENT
 70
     0
  9
$CELWEIGHT
370
    -1
  9
$ENDCAPS
280
     0
  9
$JOINSTYLE
280
     0
  9
$LWDISPLAY
290
     0
  9
$INSUNITS
 70
     0
  9
$HYPERLINKBASE
  1

  9
$STYLESHEET
  1

  9
$XEDIT
290
     1
  9
$CEPSNTYPE
380
     0
  9
$PSTYLEMODE
290
     1
  9
$FINGERPRINTGUID
  2
{A8D5A008-7552-4582-A290-114F49B1A5A2}
  9
$VERSIONGUID
  2
{2623492E-6666-4744-954F-BD22C132EAC9}
  9
$EXTNAMES
290
     1
  9
$PSVPSCALE
 40
0.0
  9
$OLESTARTUP
290
     0
  0
ENDSEC
  0
SECTION
  2
CLASSES
  0
CLASS
  1
ACDBDICTIONARYWDFLT
  2
AcDbDictionaryWithDefault
  3
AutoCAD 2000
 90
        0
280
     0
281
     0
  0
CLASS
  1
ACDBPLACEHOLDER
  2
AcDbPlaceHolder
  3
AutoCAD 2000
 90
        0
280
     0
281
     0
  0
CLASS
  1
LAYOUT
  2
AcDbLayout
  3
AutoCAD 2000
 90
        0
280
     0
281
     0
  0
CLASS
  1
DICTIONARYVAR
  2
AcDbDictionaryVar
  3
AutoCAD 2000
 90
        0
280
     0
281
     0
  0
ENDSEC
  0
SECTION
  2
TABLES
  0
TABLE
  2
VPORT
  5
8
330
0
100
AcDbSymbolTable
 70
     2
  0
VPORT
  5
1AC
330
8
100
AcDbSymbolTableRecord
100
AcDbViewportTableRecord
  2
*Active
 70
     0
 10
0.0
 20
0.0
 11
1.0
 21
1.0
 12
32.5
 22
79.50000000000001
 13
0.0
 23
0.0
 14
1.0
 24
1.0
 15
0.0
 25
0.0
 16
0.0
 26
0.0
 36
1.0
 17
0.0
 27
0.0
 37
0.0
 40
160.5152170843989
 41
2.078104993597951
 42
50.0
 43
0.0
 44
0.0
 50
0.0
 51
0.0
 71
     0
 72
   100
 73
     1
 74
     3
 75
     0
 76
     0
 77
     0
 78
     0
281
     0
 65
     1
110
0.0
120
0.0
130
0.0
111
1.0
121
0.0
131
0.0
112
0.0
122
1.0
132
0.0
 79
     1
146
0.0
  0
ENDTAB
  0
TABLE
  2
LTYPE
  5
5
330
0
100
AcDbSymbolTable
 70
     1
  0
LTYPE
  5
13
330
5
100
AcDbSymbolTableRecord
100
AcDbLinetypeTableRecord
  2
ByBlock
 70
     0
  3

 72
    65
 73
     0
 40
0.0
  0
LTYPE
  5
14
330
5
100
AcDbSymbolTableRecord
100
AcDbLinetypeTableRecord
  2
ByLayer
 70
     0
  3

 72
    65
 73
     0
 40
0.0
  0
LTYPE
  5
15
330
5
100
AcDbSymbolTableRecord
100
AcDbLinetypeTableRecord
  2
Continuous
 70
     0
  3
Solid line
 72
    65
 73
     0
 40
0.0
  0
ENDTAB
  0
TABLE
  2
LAYER
  5
2
330
0
100
AcDbSymbolTable
 70
     1
  0
LAYER
  5
10
330
2
100
AcDbSymbolTableRecord
100
AcDbLayerTableRecord
  2
0
 70
     0
 62
     7
  6
Continuous
370
    -3
390
F
  0
ENDTAB
  0
TABLE
  2
STYLE
  5
3
330
0
100
AcDbSymbolTable
 70
     1
  0
STYLE
  5
11
330
3
100
AcDbSymbolTableRecord
100
AcDbTextStyleTableRecord
  2
Standard
 70
     0
 40
0.0
 41
1.0
 50
0.0
 71
     0
 42
0.2
  3
txt
  4

  0
ENDTAB
  0
TABLE
  2
VIEW
  5
6
330
0
100
AcDbSymbolTable
 70
     0
  0
ENDTAB
  0
TABLE
  2
UCS
  5
7
330
0
100
AcDbSymbolTable
 70
     0
  0
ENDTAB
  0
TABLE
  2
APPID
  5
9
330
0
100
AcDbSymbolTable
 70
     1
  0
APPID
  5
12
330
9
100
AcDbSymbolTableRecord
100
AcDbRegAppTableRecord
  2
ACAD
 70
     0
  0
ENDTAB
  0
TABLE
  2
DIMSTYLE
  5
A
330
0
100
AcDbSymbolTable
 70
     1
100
AcDbDimStyleTable
 71
     0
  0
DIMSTYLE
105
1A2
330
A
100
AcDbSymbolTableRecord
100
AcDbDimStyleTableRecord
  2
Standard
 70
     0
340
11
  0
ENDTAB
  0
TABLE
  2
BLOCK_RECORD
  5
1
330
0
100
AcDbSymbolTable
 70
     0
  0
BLOCK_RECORD
  5
1E
330
1
100
AcDbSymbolTableRecord
100
AcDbBlockTableRecord
  2
*Model_Space
340
21
  0
BLOCK_RECORD
  5
1A
330
1
100
AcDbSymbolTableRecord
100
AcDbBlockTableRecord
  2
*Paper_Space
340
1D
  0
ENDTAB
  0
ENDSEC
  0
SECTION
  2
BLOCKS
  0
BLOCK
  5
1F
330
1E
100
AcDbEntity
  8
0
100
AcDbBlockBegin
  2
*Model_Space
 70
     0
 10
0.0
 20
0.0
 30
0.0
  3
*Model_Space
  1

  0
ENDBLK
  5
20
330
1E
100
AcDbEntity
  8
0
100
AcDbBlockEnd
  0
BLOCK
  5
1B
330
1A
100
AcDbEntity
 67
     1
  8
0
100
AcDbBlockBegin
  2
*Paper_Space
 70
     0
 10
0.0
 20
0.0
 30
0.0
  3
*Paper_Space
  1

  0
ENDBLK
  5
1C
330
1A
100
AcDbEntity
 67
     1
  8
0
100
AcDbBlockEnd
  0
ENDSEC
  0
SECTION
  2
ENTITIES
  0
LINE
  5
23
330
1E
100
AcDbEntity
  8
0
100
AcDbLine
 10
20.5
 20
3.00653000000002
 30
0.0
 11
20.5
 21
10.00651
 31
0.0
  0
LINE
  5
24
330
1E
100
AcDbEntity
  8
0
100
AcDbLine
 10
20.5
 20
3.00653000000002
 30
0.0
 11
20.89999999999999
 21
3.00653000000002
 31
0.0
  0
LINE
  5
25
330
1E
100
AcDbEntity
  8
0
100
AcDbLine
 10
20.5
 20
3.00653000000002
 30
0.0
 11
22.5
 21
1.006530000000009
 31
0.0
  0
LINE
  5
26
330
1E
100
AcDbEntity
  8
0
100
AcDbLine
 10
20.5
 20
3.00653000000002
 30
0.0
 11
22.5
 21
1.006530000000009
 31
0.0
  0
LINE
  5
27
330
1E
100
AcDbEntity
  8
0
100
AcDbLine
 10
20.5
 20
10.00651
 30
0.0
 11
20.89999999999999
 21
10.00651
 31
0.0
  0
LINE
  5
28
330
1E
100
AcDbEntity
  8
0
100
AcDbLine
 10
20.5
 20
10.00651
 30
0.0
 11
22.5
 21
11.00651
 31
0.0
  0
LINE
  5
29
330
1E
100
AcDbEntity
  8
0
100
AcDbLine
 10
20.5
 20
10.00651
 30
0.0
 11
20.5
 21
3.00653000000002
 31
0.0
  0
LINE
  5
2A
330
1E
100
AcDbEntity
  8
0
100
AcDbLine
 10
20.5
 20
13.00651
 30
0.0
 11
20.89999999999999
 21
13.00651
 31
0.0
  0
LINE
  5
2B
330
1E
100
AcDbEntity
  8
0
100
AcDbLine
 10
20.5
 20
13.00651
 30
0.0
 11
22.5
 21
11.00651
 31
0.0
  0
LINE
  5
2C
330
1E
100
AcDbEntity
  8
0
100
AcDbLine
 10
20.5
 20
13.00651
 30
0.0
 11
20.5
 21
21.00651
 31
0.0
  0
LINE
  5
2D
330
1E
100
AcDbEntity
  8
0
100
AcDbLine
 10
20.89999999999999
 20
3.00653000000002
 30
0.0
 11
22.1
 21
3.00653000000002
 31
0.0
  0
LINE
  5
2E
330
1E
100
AcDbEntity
  8
0
100
AcDbLine
 10
22.1
 20
3.00653000000002
 30
0.0
 11
24.0
 21
3.00653000000002
 31
0.0
  0
LINE
  5
2F
330
1E
100
AcDbEntity
  8
0
100
AcDbLine
 10
22.1
 20
10.00651
 30
0.0
 11
24.0
 21
10.00651
 31
0.0
  0
LINE
  5
30
330
1E
100
AcDbEntity
  8
0
100
AcDbLine
 10
20.89999999999999
 20
10.00651
 30
0.0
 11
22.1
 21
10.00651
 31
0.0
  0
LINE
  5
31
330
1E
100
AcDbEntity
  8
0
100
AcDbLine
 10
20.89999999999999
 20
13.00651
 30
0.0
 11
22.1
 21
13.00651
 31
0.0
  0
LINE
  5
32
330
1E
100
AcDbEntity
  8
0
100
AcDbLine
 10
22.5
 20
1.006530000000009
 30
0.0
 11
22.9
 21
1.006530000000019
 31
0.0
  0
LINE
  5
33
330
1E
100
AcDbEntity
  8
0
100
AcDbLine
 10
22.5
 20
1.006530000000009
 30
0.0
 11
22.9
 21
1.006530000000009
 31
0.0
  0
LINE
  5
34
330
1E
100
AcDbEntity
  8
0
100
AcDbLine
 10
22.9
 20
1.006530000000009
 30
0.0
 11
23.8
 21
1.006530000000009
 31
0.0
  0
LINE
  5
35
330
1E
100
AcDbEntity
  8
0
100
AcDbLine
 10
23.8
 20
1.006530000000009
 30
0.0
 11
25.4
 21
1.006530000000009
 31
0.0
  0
LINE
  5
36
330
1E
100
AcDbEntity
  8
0
100
AcDbLine
 10
23.8
 20
1.006530000000019
 30
0.0
 11
25.4
 21
1.006530000000019
 31
0.0
  0
LINE
  5
37
330
1E
100
AcDbEntity
  8
0
100
AcDbLine
 10
22.9
 20
1.006530000000019
 30
0.0
 11
23.8
 21
1.006530000000019
 31
0.0
  0
LINE
  5
38
330
1E
100
AcDbEntity
  8
0
100
AcDbLine
 10
22.5
 20
11.00651
 30
0.0
 11
22.9
 21
11.00651
 31
0.0
  0
LINE
  5
39
330
1E
100
AcDbEntity
  8
0
100
AcDbLine
 10
22.9
 20
11.00651
 30
0.0
 11
23.8
 21
11.00651
 31
0.0
  0
LINE
  5
3A
330
1E
100
AcDbEntity
  8
0
100
AcDbLine
 10
25.6
 20
-0.146509999999985
 30
0.0
 11
26.89999999999999
 21
-0.146508999999985
 31
0.0
  0
LINE
  5
3B
330
1E
100
AcDbEntity
  8
0
100
AcDbLine
 10
24.8
 20
-0.146508999999985
 30
0.0
 11
25.6
 21
-0.146508999999985
 31
0.0
  0
LINE
  5
3C
330
1E
100
AcDbEntity
  8
0
100
AcDbLine
 10
24.0
 20
3.00653000000002
 30
0.0
 11
26.6
 21
3.00653000000002
 31
0.0
  0
LINE
  5
3D
330
1E
100
AcDbEntity
  8
0
100
AcDbLine
 10
24.0
 20
10.00651
 30
0.0
 11
26.6
 21
10.00651
 31
0.0
  0
LINE
  5
3E
330
1E
100
AcDbEntity
  8
0
100
AcDbLine
 10
24.8
 20
0.853492000000015
 30
0.0
 11
25.6
 21
0.853492000000015
 31
0.0
  0
LINE
  5
3F
330
1E
100
AcDbEntity
  8
0
100
AcDbLine
 10
24.5
 20
0.853492000000015
 30
0.0
 11
24.5
 21
-0.146509999999985
 31
0.0
  0
LINE
  5
40
330
1E
100
AcDbEntity
  8
0
100
AcDbLine
 10
24.5
 20
0.853492000000015
 30
0.0
 11
24.8
 21
0.853492000000015
 31
0.0
  0
LINE
  5
41
330
1E
100
AcDbEntity
  8
0
100
AcDbLine
 10
25.6
 20
-0.146508999999985
 30
0.0
 11
26.89999999999999
 21
-0.146508999999985
 31
0.0
  0
LINE
  5
42
330
1E
100
AcDbEntity
  8
0
100
AcDbLine
 10
25.4
 20
1.006530000000009
 30
0.0
 11
27.5
 21
1.006530000000009
 31
0.0
  0
LINE
  5
43
330
1E
100
AcDbEntity
  8
0
100
AcDbLine
 10
25.4
 20
1.006530000000019
 30
0.0
 11
27.5
 21
1.006530000000019
 31
0.0
  0
LINE
  5
44
330
1E
100
AcDbEntity
  8
0
100
AcDbLine
 10
26.6
 20
3.00653000000002
 30
0.0
 11
29.39999999999999
 21
3.00653000000002
 31
0.0
  0
LINE
  5
45
330
1E
100
AcDbEntity
  8
0
100
AcDbLine
 10
26.6
 20
10.00651
 30
0.0
 11
29.39999999999999
 21
10.00651
 31
0.0
  0
LINE
  5
46
330
1E
100
AcDbEntity
  8
0
100
AcDbLine
 10
25.6
 20
0.853492000000015
 30
0.0
 11
26.89999999999999
 21
0.853491000000015
 31
0.0
  0
LINE
  5
47
330
1E
100
AcDbEntity
  8
0
100
AcDbLine
 10
24.8
 20
-0.146508999999985
 30
0.0
 11
25.6
 21
-0.146509999999985
 31
0.0
  0
LINE
  5
48
330
1E
100
AcDbEntity
  8
0
100
AcDbLine
 10
24.5
 20
-0.146509999999985
 30
0.0
 11
24.5
 21
0.853492000000015
 31
0.0
  0
LINE
  5
49
330
1E
100
AcDbEntity
  8
0
100
AcDbLine
 10
24.5
 20
-0.146509999999985
 30
0.0
 11
24.8
 21
-0.146508999999985
 31
0.0
  0
LINE
  5
4A
330
1E
100
AcDbEntity
  8
0
100
AcDbLine
 10
24.5
 20
-0.146509999999985
 30
0.0
 11
24.8
 21
-0.146508999999985
 31
0.0
  0
LINE
  5
4B
330
1E
100
AcDbEntity
  8
0
100
AcDbLine
 10
23.8
 20
11.00651
 30
0.0
 11
25.4
 21
11.00651
 31
0.0
  0
LINE
  5
4C
330
1E
100
AcDbEntity
  8
0
100
AcDbLine
 10
25.4
 20
11.00651
 30
0.0
 11
27.5
 21
11.00651
 31
0.0
  0
LINE
  5
4D
330
1E
100
AcDbEntity
  8
0
100
AcDbLine
 10
22.1
 20
13.00651
 30
0.0
 11
24.0
 21
13.00651
 31
0.0
  0
LINE
  5
4E
330
1E
100
AcDbEntity
  8
0
100
AcDbLine
 10
24.0
 20
13.00651
 30
0.0
 11
26.6
 21
13.00651
 31
0.0
  0
LINE
  5
4F
330
1E
100
AcDbEntity
  8
0
100
AcDbLine
 10
26.89999999999999
 20
-0.146508999999985
 30
0.0
 11
28.5
 21
-0.146508999999985
 31
0.0
  0
LINE
  5
50
330
1E
100
AcDbEntity
  8
0
100
AcDbLine
 10
27.5
 20
1.006530000000009
 30
0.0
 11
29.9
 21
1.006530000000009
 31
0.0
  0
LINE
  5
51
330
1E
100
AcDbEntity
  8
0
100
AcDbLine
 10
27.5
 20
1.006530000000019
 30
0.0
 11
29.9
 21
1.006530000000019
 31
0.0
  0
LINE
  5
52
330
1E
100
AcDbEntity
  8
0
100
AcDbLine
 10
26.89999999999999
 20
0.853491000000015
 30
0.0
 11
28.5
 21
0.853492000000015
 31
0.0
  0
LINE
  5
53
330
1E
100
AcDbEntity
  8
0
100
AcDbLine
 10
28.5
 20
0.853492000000015
 30
0.0
 11
30.5
 21
0.853491000000015
 31
0.0
  0
LINE
  5
54
330
1E
100
AcDbEntity
  8
0
100
AcDbLine
 10
28.5
 20
-0.146508999999985
 30
0.0
 11
30.5
 21
-0.146508999999985
 31
0.0
  0
LINE
  5
55
330
1E
100
AcDbEntity
  8
0
100
AcDbLine
 10
30.5
 20
-0.146508999999985
 30
0.0
 11
32.5
 21
-0.146507999999985
 31
0.0
  0
LINE
  5
56
330
1E
100
AcDbEntity
  8
0
100
AcDbLine
 10
32.5
 20
-0.146508999999986
 30
0.0
 11
34.5
 21
-0.146508999999986
 31
0.0
  0
LINE
  5
57
330
1E
100
AcDbEntity
  8
0
100
AcDbLine
 10
30.5
 20
-0.146508999999986
 30
0.0
 11
32.5
 21
-0.146508999999986
 31
0.0
  0
LINE
  5
58
330
1E
100
AcDbEntity
  8
0
100
AcDbLine
 10
29.39999999999999
 20
3.00653000000002
 30
0.0
 11
32.5
 21
3.00653000000002
 31
0.0
  0
LINE
  5
59
330
1E
100
AcDbEntity
  8
0
100
AcDbLine
 10
29.9
 20
1.006530000000009
 30
0.0
 11
32.5
 21
1.006530000000009
 31
0.0
  0
LINE
  5
5A
330
1E
100
AcDbEntity
  8
0
100
AcDbLine
 10
29.9
 20
1.006530000000019
 30
0.0
 11
32.5
 21
1.006530000000019
 31
0.0
  0
LINE
  5
5B
330
1E
100
AcDbEntity
  8
0
100
AcDbLine
 10
29.39999999999999
 20
10.00651
 30
0.0
 11
32.5
 21
10.00651
 31
0.0
  0
LINE
  5
5C
330
1E
100
AcDbEntity
  8
0
100
AcDbLine
 10
30.5
 20
0.853491000000015
 30
0.0
 11
32.5
 21
0.853492000000015
 31
0.0
  0
LINE
  5
5D
330
1E
100
AcDbEntity
  8
0
100
AcDbLine
 10
32.5
 20
0.853492000000015
 30
0.0
 11
34.5
 21
0.853491000000015
 31
0.0
  0
LINE
  5
5E
330
1E
100
AcDbEntity
  8
0
100
AcDbLine
 10
32.5
 20
-0.146507999999985
 30
0.0
 11
34.5
 21
-0.146508999999985
 31
0.0
  0
LINE
  5
5F
330
1E
100
AcDbEntity
  8
0
100
AcDbLine
 10
32.5
 20
1.006530000000019
 30
0.0
 11
35.1
 21
1.006530000000019
 31
0.0
  0
LINE
  5
60
330
1E
100
AcDbEntity
  8
0
100
AcDbLine
 10
32.5
 20
3.00653000000002
 30
0.0
 11
35.6
 21
3.00653000000002
 31
0.0
  0
LINE
  5
61
330
1E
100
AcDbEntity
  8
0
100
AcDbLine
 10
32.5
 20
10.00651
 30
0.0
 11
35.6
 21
10.00651
 31
0.0
  0
LINE
  5
62
330
1E
100
AcDbEntity
  8
0
100
AcDbLine
 10
32.5
 20
1.006530000000009
 30
0.0
 11
35.1
 21
1.006530000000009
 31
0.0
  0
LINE
  5
63
330
1E
100
AcDbEntity
  8
0
100
AcDbLine
 10
32.5
 20
11.00651
 30
0.0
 11
35.1
 21
11.00651
 31
0.0
  0
LINE
  5
64
330
1E
100
AcDbEntity
  8
0
100
AcDbLine
 10
27.5
 20
11.00651
 30
0.0
 11
29.9
 21
11.00651
 31
0.0
  0
LINE
  5
65
330
1E
100
AcDbEntity
  8
0
100
AcDbLine
 10
32.5
 20
13.00651
 30
0.0
 11
35.6
 21
13.00651
 31
0.0
  0
LINE
  5
66
330
1E
100
AcDbEntity
  8
0
100
AcDbLine
 10
29.9
 20
11.00651
 30
0.0
 11
32.5
 21
11.00651
 31
0.0
  0
LINE
  5
67
330
1E
100
AcDbEntity
  8
0
100
AcDbLine
 10
26.6
 20
13.00651
 30
0.0
 11
29.39999999999999
 21
13.00651
 31
0.0
  0
LINE
  5
69
330
1E
100
AcDbEntity
  8
0
100
AcDbLine
 10
29.39999999999999
 20
13.00651
 30
0.0
 11
32.5
 21
13.00651
 31
0.0
  0
LINE
  5
6A
330
1E
100
AcDbEntity
  8
0
100
AcDbLine
 10
20.5
 20
21.00651
 30
0.0
 11
21.388176721879
 21
25.0033052484556
 31
0.0
  0
LINE
  5
6B
330
1E
100
AcDbEntity
  8
0
100
AcDbLine
 10
20.5
 20
21.00651
 30
0.0
 11
20.5
 21
13.00651
 31
0.0
  0
LINE
  5
71
330
1E
100
AcDbEntity
  8
0
100
AcDbLine
 10
32.5
 20
27.37000999999999
 30
0.0
 11
37.6
 21
27.37000999999999
 31
0.0
  0
LINE
  5
73
330
1E
100
AcDbEntity
  8
0
100
AcDbLine
 10
27.4
 20
27.37000999999999
 30
0.0
 11
32.5
 21
27.37000999999999
 31
0.0
  0
LINE
  5
74
330
1E
100
AcDbEntity
  8
0
100
AcDbLine
 10
22.7
 20
27.37000999999999
 30
0.0
 11
27.4
 21
27.37000999999999
 31
0.0
  0
LINE
  5
75
330
1E
100
AcDbEntity
  8
0
100
AcDbLine
 10
18.6
 20
27.37000999999999
 30
0.0
 11
22.7
 21
27.37000999999999
 31
0.0
  0
LINE
  5
76
330
1E
100
AcDbEntity
  8
0
100
AcDbLine
 10
15.4
 20
27.37000999999999
 30
0.0
 11
18.6
 21
27.37000999999999
 31
0.0
  0
LINE
  5
77
330
1E
100
AcDbEntity
  8
0
100
AcDbLine
 10
13.5
 20
27.37000999999999
 30
0.0
 11
15.4
 21
27.37000999999999
 31
0.0
  0
LINE
  5
7A
330
1E
100
AcDbEntity
  8
0
100
AcDbLine
 10
12.8
 20
27.37000999999999
 30
0.0
 11
16.6
 21
25.02791
 31
0.0
  0
LINE
  5
7B
330
1E
100
AcDbEntity
  8
0
100
AcDbLine
 10
12.8
 20
27.37000999999999
 30
0.0
 11
13.5
 21
27.37000999999999
 31
0.0
  0
LINE
  5
7C
330
1E
100
AcDbEntity
  8
0
100
AcDbLine
 10
31.8
 20
27.89581
 30
0.0
 11
32.5
 21
27.85350999999999
 31
0.0
  0
LINE
  5
7D
330
1E
100
AcDbEntity
  8
0
100
AcDbLine
 10
31.2
 20
27.98030999999999
 30
0.0
 11
31.8
 21
27.89581
 31
0.0
  0
LINE
  5
7E
330
1E
100
AcDbEntity
  8
0
100
AcDbLine
 10
32.5
 20
27.85350999999999
 30
0.0
 11
33.2
 21
27.89581
 31
0.0
  0
LINE
  5
7F
330
1E
100
AcDbEntity
  8
0
100
AcDbLine
 10
33.2
 20
27.89581
 30
0.0
 11
33.79999999999999
 21
27.98030999999999
 31
0.0
  0
LINE
  5
80
330
1E
100
AcDbEntity
  8
0
100
AcDbLine
 10
4.5
 20
110.37051
 30
0.0
 11
5.46599749195199
 21
107.9900161805469
 31
0.0
  0
LINE
  5
81
330
1E
100
AcDbEntity
  8
0
100
AcDbLine
 10
4.506538461538459
 20
117.806433076923
 30
0.0
 11
5.0
 21
112.97051
 31
0.0
  0
LINE
  5
82
330
1E
100
AcDbEntity
  8
0
100
AcDbLine
 10
5.0
 20
112.97051
 30
0.0
 11
6.599999999999999
 21
95.87000999999998
 31
0.0
  0
LINE
  5
83
330
1E
100
AcDbEntity
  8
0
100
AcDbLine
 10
1.1
 20
109.47051
 30
0.0
 11
4.299999999999999
 21
101.6695099999999
 31
0.0
  0
LINE
  5
84
330
1E
100
AcDbEntity
  8
0
100
AcDbLine
 10
4.299999999999999
 20
101.6695099999999
 30
0.0
 11
6.302349205698369
 21
99.05124587997191
 31
0.0
  0
LINE
  5
85
330
1E
100
AcDbEntity
  8
0
100
AcDbLine
 10
5.5
 20
110.65351
 30
0.0
 11
8.199999999999999
 21
103.9535099999999
 31
0.0
  0
LINE
  5
86
330
1E
100
AcDbEntity
  8
0
100
AcDbLine
 10
-0.0000000000000018
 20
117.87051
 30
0.0
 11
1.1
 21
126.26951
 31
0.0
  0
LINE
  5
87
330
1E
100
AcDbEntity
  8
0
100
AcDbLine
 10
-0.0000000000000018
 20
117.87051
 30
0.0
 11
1.1
 21
109.47051
 31
0.0
  0
LINE
  5
88
330
1E
100
AcDbEntity
  8
0
100
AcDbLine
 10
3.5
 20
117.87051
 30
0.0
 11
4.5
 21
125.37051
 31
0.0
  0
LINE
  5
89
330
1E
100
AcDbEntity
  8
0
100
AcDbLine
 10
3.5
 20
117.87051
 30
0.0
 11
4.5
 21
110.37051
 31
0.0
  0
LINE
  5
8A
330
1E
100
AcDbEntity
  8
0
100
AcDbLine
 10
4.5
 20
117.87051
 30
0.0
 11
5.5
 21
125.06951
 31
0.0
  0
LINE
  5
8B
330
1E
100
AcDbEntity
  8
0
100
AcDbLine
 10
4.5
 20
125.37051
 30
0.0
 11
7.299999999999999
 21
132.27051
 31
0.0
  0
LINE
  5
8D
330
1E
100
AcDbEntity
  8
0
100
AcDbLine
 10
1.1
 20
126.26951
 30
0.0
 11
4.299999999999999
 21
134.07051
 31
0.0
  0
LINE
  5
8E
330
1E
100
AcDbEntity
  8
0
100
AcDbLine
 10
4.5
 20
117.85351
 30
0.0
 11
5.5
 21
125.05351
 31
0.0
  0
LINE
  5
8F
330
1E
100
AcDbEntity
  8
0
100
AcDbLine
 10
4.5
 20
117.85351
 30
0.0
 11
5.5
 21
110.65351
 31
0.0
  0
LINE
  5
90
330
1E
100
AcDbEntity
  8
0
100
AcDbLine
 10
11.3
 20
43.57000999999999
 30
0.0
 11
12.8
 21
27.37000999999999
 31
0.0
  0
LINE
  5
91
330
1E
100
AcDbEntity
  8
0
100
AcDbLine
 10
9.9
 20
60.47000999999999
 30
0.0
 11
11.3
 21
43.57000999999999
 31
0.0
  0
LINE
  5
92
330
1E
100
AcDbEntity
  8
0
100
AcDbLine
 10
8.3
 20
76.77001
 30
0.0
 11
9.9
 21
60.47000999999999
 31
0.0
  0
LINE
  5
93
330
1E
100
AcDbEntity
  8
0
100
AcDbLine
 10
6.599999999999999
 20
95.87000999999998
 30
0.0
 11
8.3
 21
76.77001
 31
0.0
  0
LINE
  5
94
330
1E
100
AcDbEntity
  8
0
100
AcDbLine
 10
8.199999999999999
 20
103.9535099999999
 30
0.0
 11
12.7
 21
98.05351000000001
 31
0.0
  0
LINE
  5
95
330
1E
100
AcDbEntity
  8
0
100
AcDbLine
 10
5.5
 20
125.05351
 30
0.0
 11
8.199999999999999
 21
131.75351
 31
0.0
  0
LINE
  5
96
330
1E
100
AcDbEntity
  8
0
100
AcDbLine
 10
7.299999999999999
 20
132.27051
 30
0.0
 11
12.0
 21
138.36951
 31
0.0
  0
LINE
  5
98
330
1E
100
AcDbEntity
  8
0
100
AcDbLine
 10
4.299999999999999
 20
134.07051
 30
0.0
 11
9.5
 21
140.86951
 31
0.0
  0
LINE
  5
99
330
1E
100
AcDbEntity
  8
0
100
AcDbLine
 10
12.0
 20
138.36951
 30
0.0
 11
18.1
 21
143.07051
 31
0.0
  0
LINE
  5
9A
330
1E
100
AcDbEntity
  8
0
100
AcDbLine
 10
12.7
 20
137.66951
 30
0.0
 11
18.6
 21
142.1695099999999
 31
0.0
  0
LINE
  5
9B
330
1E
100
AcDbEntity
  8
0
100
AcDbLine
 10
9.5
 20
140.86951
 30
0.0
 11
16.3
 21
146.07051
 31
0.0
  0
LINE
  5
9C
330
1E
100
AcDbEntity
  8
0
100
AcDbLine
 10
8.199999999999999
 20
131.75351
 30
0.0
 11
12.7
 21
137.65351
 31
0.0
  0
LINE
  5
9E
330
1E
100
AcDbEntity
  8
0
100
AcDbLine
 10
17.5
 20
113.85351
 30
0.0
 11
19.0
 21
110.15351
 31
0.0
  0
LINE
  5
9F
330
1E
100
AcDbEntity
  8
0
100
AcDbLine
 10
18.0
 20
113.95351
 30
0.0
 11
19.5
 21
110.35351
 31
0.0
  0
LINE
  5
A0
330
1E
100
AcDbEntity
  8
0
100
AcDbLine
 10
17.5
 20
117.85351
 30
0.0
 11
18.0
 21
121.75351
 31
0.0
  0
LINE
  5
A1
330
1E
100
AcDbEntity
  8
0
100
AcDbLine
 10
17.5
 20
117.85351
 30
0.0
 11
18.0
 21
113.95351
 31
0.0
  0
LINE
  5
A2
330
1E
100
AcDbEntity
  8
0
100
AcDbLine
 10
18.0
 20
121.75351
 30
0.0
 11
19.5
 21
125.35351
 31
0.0
  0
LINE
  5
A3
330
1E
100
AcDbEntity
  8
0
100
AcDbLine
 10
17.0
 20
117.85351
 30
0.0
 11
17.5
 21
121.85351
 31
0.0
  0
LINE
  5
A4
330
1E
100
AcDbEntity
  8
0
100
AcDbLine
 10
17.0
 20
117.85351
 30
0.0
 11
17.5
 21
113.85351
 31
0.0
  0
LINE
  5
A5
330
1E
100
AcDbEntity
  8
0
100
AcDbLine
 10
17.5
 20
121.85351
 30
0.0
 11
19.0
 21
125.55351
 31
0.0
  0
LINE
  5
A6
330
1E
100
AcDbEntity
  8
0
100
AcDbLine
 10
19.5
 20
110.35351
 30
0.0
 11
21.89999999999999
 21
107.25351
 31
0.0
  0
LINE
  5
A7
330
1E
100
AcDbEntity
  8
0
100
AcDbLine
 10
19.0
 20
110.15351
 30
0.0
 11
21.49999999999999
 21
106.85351
 31
0.0
  0
LINE
  5
A8
330
1E
100
AcDbEntity
  8
0
100
AcDbLine
 10
21.49999999999999
 20
106.85351
 30
0.0
 11
24.8
 21
104.3535099999999
 31
0.0
  0
LINE
  5
A9
330
1E
100
AcDbEntity
  8
0
100
AcDbLine
 10
19.5
 20
125.35351
 30
0.0
 11
21.89999999999999
 21
128.45351
 31
0.0
  0
LINE
  5
AA
330
1E
100
AcDbEntity
  8
0
100
AcDbLine
 10
19.0
 20
125.55351
 30
0.0
 11
21.49999999999999
 21
128.85351
 31
0.0
  0
LINE
  5
AB
330
1E
100
AcDbEntity
  8
0
100
AcDbLine
 10
21.89999999999999
 20
107.25351
 30
0.0
 11
25.0
 21
104.85351
 31
0.0
  0
LINE
  5
AC
330
1E
100
AcDbEntity
  8
0
100
AcDbLine
 10
25.0
 20
104.85351
 30
0.0
 11
28.6
 21
103.3535099999999
 31
0.0
  0
LINE
  5
AD
330
1E
100
AcDbEntity
  8
0
100
AcDbLine
 10
24.8
 20
104.3535099999999
 30
0.0
 11
28.5
 21
102.85351
 31
0.0
  0
LINE
  5
AE
330
1E
100
AcDbEntity
  8
0
100
AcDbLine
 10
21.89999999999999
 20
128.45351
 30
0.0
 11
25.0
 21
130.85351
 31
0.0
  0
LINE
  5
AF
330
1E
100
AcDbEntity
  8
0
100
AcDbLine
 10
25.0
 20
130.85351
 30
0.0
 11
28.6
 21
132.3535099999999
 31
0.0
  0
LINE
  5
B0
330
1E
100
AcDbEntity
  8
0
100
AcDbLine
 10
21.49999999999999
 20
128.85351
 30
0.0
 11
24.8
 21
131.3535099999999
 31
0.0
  0
LINE
  5
B1
330
1E
100
AcDbEntity
  8
0
100
AcDbLine
 10
24.8
 20
131.3535099999999
 30
0.0
 11
28.5
 21
132.85351
 31
0.0
  0
LINE
  5
B2
330
1E
100
AcDbEntity
  8
0
100
AcDbLine
 10
18.8
 20
92.87001
 30
0.0
 11
25.4
 21
90.67000999999999
 31
0.0
  0
LINE
  5
B4
330
1E
100
AcDbEntity
  8
0
100
AcDbLine
 10
18.1
 20
143.07051
 30
0.0
 11
25.0
 21
145.86951
 31
0.0
  0
LINE
  5
B6
330
1E
100
AcDbEntity
  8
0
100
AcDbLine
 10
16.3
 20
146.07051
 30
0.0
 11
24.1
 21
149.27051
 31
0.0
  0
LINE
  5
B7
330
1E
100
AcDbEntity
  8
0
100
AcDbLine
 10
25.0
 20
145.86951
 30
0.0
 11
32.5
 21
146.86951
 31
0.0
  0
LINE
  5
B8
330
1E
100
AcDbEntity
  8
0
100
AcDbLine
 10
24.1
 20
149.27051
 30
0.0
 11
32.5
 21
150.36951
 31
0.0
  0
LINE
  5
B9
330
1E
100
AcDbEntity
  8
0
100
AcDbLine
 10
18.6
 20
142.15351
 30
0.0
 11
25.3
 21
144.8535099999999
 31
0.0
  0
LINE
  5
BA
330
1E
100
AcDbEntity
  8
0
100
AcDbLine
 10
25.4
 20
90.67000999999999
 30
0.0
 11
27.80095140713319
 21
90.399480263985
 31
0.0
  0
LINE
  5
BB
330
1E
100
AcDbEntity
  8
0
100
AcDbLine
 10
25.4
 20
90.67000999999999
 30
0.0
 11
27.80095140713319
 21
90.399480263985
 31
0.0
  0
LINE
  5
BD
330
1E
100
AcDbEntity
  8
0
100
AcDbLine
 10
25.3
 20
144.8535099999999
 30
0.0
 11
32.5
 21
145.8535099999999
 31
0.0
  0
LINE
  5
BF
330
1E
100
AcDbEntity
  8
0
100
AcDbLine
 10
25.7
 20
57.45881
 30
0.0
 11
26.5
 21
74.67860999999999
 31
0.0
  0
LINE
  5
C0
330
1E
100
AcDbEntity
  8
0
100
AcDbLine
 10
25.3
 20
45.67680999999999
 30
0.0
 11
25.7
 21
57.45881
 31
0.0
  0
LINE
  5
C1
330
1E
100
AcDbEntity
  8
0
100
AcDbLine
 10
25.0
 20
37.52000999999999
 30
0.0
 11
25.5
 21
34.34791
 31
0.0
  0
LINE
  5
C2
330
1E
100
AcDbEntity
  8
0
100
AcDbLine
 10
25.0
 20
37.52000999999999
 30
0.0
 11
25.3
 21
45.67680999999999
 31
0.0
  0
LINE
  5
C3
330
1E
100
AcDbEntity
  8
0
100
AcDbLine
 10
25.5
 20
34.34791
 30
0.0
 11
25.8
 21
33.58721
 31
0.0
  0
LINE
  5
C4
330
1E
100
AcDbEntity
  8
0
100
AcDbLine
 10
26.6935
 20
84.14320999999999
 30
0.0
 11
26.8871
 21
83.71021
 31
0.0
  0
LINE
  5
C5
330
1E
100
AcDbEntity
  8
0
100
AcDbLine
 10
26.8871
 20
83.71021
 30
0.0
 11
27.21865203153789
 21
83.3628969693742
 31
0.0
  0
LINE
  5
C6
330
1E
100
AcDbEntity
  8
0
100
AcDbLine
 10
26.6935
 20
84.36911
 30
0.0
 11
26.8871
 21
83.71021
 31
0.0
  0
LINE
  5
C7
330
1E
100
AcDbEntity
  8
0
100
AcDbLine
 10
26.6935
 20
84.36911
 30
0.0
 11
26.8871
 21
85.02800999999999
 31
0.0
  0
LINE
  5
C8
330
1E
100
AcDbEntity
  8
0
100
AcDbLine
 10
26.6935
 20
86.39450999999999
 30
0.0
 11
26.8871
 21
86.82751000000001
 31
0.0
  0
LINE
  5
C9
330
1E
100
AcDbEntity
  8
0
100
AcDbLine
 10
26.5
 20
85.71870999999999
 30
0.0
 11
26.5
 21
84.81900999999998
 31
0.0
  0
LINE
  5
CA
330
1E
100
AcDbEntity
  8
0
100
AcDbLine
 10
26.5
 20
85.71870999999999
 30
0.0
 11
26.6935
 21
86.39450999999999
 31
0.0
  0
LINE
  5
CB
330
1E
100
AcDbEntity
  8
0
100
AcDbLine
 10
26.8871
 20
85.02800999999999
 30
0.0
 11
27.4677
 21
85.63630999999999
 31
0.0
  0
LINE
  5
CC
330
1E
100
AcDbEntity
  8
0
100
AcDbLine
 10
27.4677
 20
85.63630999999999
 30
0.0
 11
28.39679999999999
 21
86.16001
 31
0.0
  0
LINE
  5
CD
330
1E
100
AcDbEntity
  8
0
100
AcDbLine
 10
26.8871
 20
86.82751000000001
 30
0.0
 11
27.4677
 21
87.43571000000001
 31
0.0
  0
LINE
  5
CE
330
1E
100
AcDbEntity
  8
0
100
AcDbLine
 10
27.4677
 20
87.43571000000001
 30
0.0
 11
28.39679999999999
 21
87.95951
 31
0.0
  0
LINE
  5
CF
330
1E
100
AcDbEntity
  8
0
100
AcDbLine
 10
26.5
 20
84.81900999999998
 30
0.0
 11
26.6935
 21
84.14320999999999
 31
0.0
  0
LINE
  5
D0
330
1E
100
AcDbEntity
  8
0
100
AcDbLine
 10
26.5
 20
84.81900999999998
 30
0.0
 11
26.5
 21
85.71870999999999
 31
0.0
  0
LINE
  5
D1
330
1E
100
AcDbEntity
  8
0
100
AcDbLine
 10
27.5599960735711
 20
87.4877438858428
 30
0.0
 11
27.80095140713319
 21
90.399480263985
 31
0.0
  0
LINE
  5
D2
330
1E
100
AcDbEntity
  8
0
100
AcDbLine
 10
26.5
 20
74.67860999999999
 30
0.0
 11
27.3019193212036
 21
84.36911
 31
0.0
  0
LINE
  5
D3
330
1E
100
AcDbEntity
  8
0
100
AcDbLine
 10
25.8
 20
33.58721
 30
0.0
 11
26.69999999999999
 21
31.40601
 31
0.0
  0
LINE
  5
D4
330
1E
100
AcDbEntity
  8
0
100
AcDbLine
 10
26.69999999999999
 20
31.40601
 30
0.0
 11
28.2
 21
29.76240999999999
 31
0.0
  0
LINE
  5
D5
330
1E
100
AcDbEntity
  8
0
100
AcDbLine
 10
28.39679999999999
 20
86.16001
 30
0.0
 11
29.5968
 21
86.56551
 31
0.0
  0
LINE
  5
D6
330
1E
100
AcDbEntity
  8
0
100
AcDbLine
 10
28.39679999999999
 20
87.95951
 30
0.0
 11
29.5968
 21
88.36501
 31
0.0
  0
LINE
  5
D7
330
1E
100
AcDbEntity
  8
0
100
AcDbLine
 10
28.6
 20
103.3535099999999
 30
0.0
 11
32.5
 21
102.85351
 31
0.0
  0
LINE
  5
D8
330
1E
100
AcDbEntity
  8
0
100
AcDbLine
 10
28.5
 20
102.85351
 30
0.0
 11
32.5
 21
102.3535099999999
 31
0.0
  0
LINE
  5
D9
330
1E
100
AcDbEntity
  8
0
100
AcDbLine
 10
29.5968
 20
86.56551
 30
0.0
 11
30.9903
 21
86.81891
 31
0.0
  0
LINE
  5
DA
330
1E
100
AcDbEntity
  8
0
100
AcDbLine
 10
29.5968
 20
88.36501
 30
0.0
 11
30.9903
 21
88.61841
 31
0.0
  0
LINE
  5
DB
330
1E
100
AcDbEntity
  8
0
100
AcDbLine
 10
28.6
 20
132.3535099999999
 30
0.0
 11
32.5
 21
132.85351
 31
0.0
  0
LINE
  5
DC
330
1E
100
AcDbEntity
  8
0
100
AcDbLine
 10
28.5
 20
132.85351
 30
0.0
 11
32.5
 21
133.3535099999999
 31
0.0
  0
LINE
  5
DD
330
1E
100
AcDbEntity
  8
0
100
AcDbLine
 10
28.2
 20
29.76240999999999
 30
0.0
 11
28.6
 21
29.29750999999999
 31
0.0
  0
LINE
  5
DE
330
1E
100
AcDbEntity
  8
0
100
AcDbLine
 10
28.6
 20
29.29750999999999
 30
0.0
 11
30.3
 21
28.36071
 31
0.0
  0
LINE
  5
DF
330
1E
100
AcDbEntity
  8
0
100
AcDbLine
 10
30.9903
 20
86.81891
 30
0.0
 11
32.5
 21
86.90341
 31
0.0
  0
LINE
  5
E0
330
1E
100
AcDbEntity
  8
0
100
AcDbLine
 10
32.5
 20
86.90341
 30
0.0
 11
34.0097
 21
86.81891
 31
0.0
  0
LINE
  5
E1
330
1E
100
AcDbEntity
  8
0
100
AcDbLine
 10
32.5
 20
88.70290999999999
 30
0.0
 11
34.0097
 21
88.61841
 31
0.0
  0
LINE
  5
E2
330
1E
100
AcDbEntity
  8
0
100
AcDbLine
 10
30.9903
 20
88.61841
 30
0.0
 11
32.5
 21
88.70290999999999
 31
0.0
  0
LINE
  5
E3
330
1E
100
AcDbEntity
  8
0
100
AcDbLine
 10
32.5
 20
102.85351
 30
0.0
 11
36.4
 21
103.3535099999999
 31
0.0
  0
LINE
  5
E4
330
1E
100
AcDbEntity
  8
0
100
AcDbLine
 10
32.5
 20
102.3535099999999
 30
0.0
 11
36.5
 21
102.85351
 31
0.0
  0
LINE
  5
E5
330
1E
100
AcDbEntity
  8
0
100
AcDbLine
 10
32.5
 20
132.85351
 30
0.0
 11
36.4
 21
132.3535099999999
 31
0.0
  0
LINE
  5
E6
330
1E
100
AcDbEntity
  8
0
100
AcDbLine
 10
32.5
 20
133.3535099999999
 30
0.0
 11
36.5
 21
132.85351
 31
0.0
  0
LINE
  5
E7
330
1E
100
AcDbEntity
  8
0
100
AcDbLine
 10
32.5
 20
146.86951
 30
0.0
 11
39.24890191681539
 21
145.9696564110909
 31
0.0
  0
LINE
  5
E8
330
1E
100
AcDbEntity
  8
0
100
AcDbLine
 10
32.5
 20
150.36951
 30
0.0
 11
40.89999999999999
 21
149.27051
 31
0.0
  0
LINE
  5
EA
330
1E
100
AcDbEntity
  8
0
100
AcDbLine
 10
34.0097
 20
88.61841
 30
0.0
 11
35.40319999999999
 21
88.36501
 31
0.0
  0
LINE
  5
EB
330
1E
100
AcDbEntity
  8
0
100
AcDbLine
 10
34.0097
 20
86.81891
 30
0.0
 11
35.40319999999999
 21
86.56551
 31
0.0
  0
LINE
  5
EC
330
1E
100
AcDbEntity
  8
0
100
AcDbLine
 10
32.5
 20
145.8535099999999
 30
0.0
 11
39.7
 21
144.8535099999999
 31
0.0
  0
LINE
  5
ED
330
1E
100
AcDbEntity
  8
0
100
AcDbLine
 10
30.7
 20
28.14940999999999
 30
0.0
 11
31.2
 21
27.98030999999999
 31
0.0
  0
LINE
  5
EE
330
1E
100
AcDbEntity
  8
0
100
AcDbLine
 10
30.3
 20
28.36071
 30
0.0
 11
30.7
 21
28.14940999999999
 31
0.0
  0
LINE
  5
EF
330
1E
100
AcDbEntity
  8
0
100
AcDbLine
 10
33.79999999999999
 20
27.98030999999999
 30
0.0
 11
34.29999999999999
 21
28.14940999999999
 31
0.0
  0
LINE
  5
F0
330
1E
100
AcDbEntity
  8
0
100
AcDbLine
 10
34.5
 20
-0.146508999999985
 30
0.0
 11
36.5
 21
-0.146508999999985
 31
0.0
  0
LINE
  5
F1
330
1E
100
AcDbEntity
  8
0
100
AcDbLine
 10
34.5
 20
0.853491000000015
 30
0.0
 11
36.5
 21
0.853492000000015
 31
0.0
  0
LINE
  5
F2
330
1E
100
AcDbEntity
  8
0
100
AcDbLine
 10
35.1
 20
1.006530000000019
 30
0.0
 11
37.5
 21
1.006530000000019
 31
0.0
  0
LINE
  5
F3
330
1E
100
AcDbEntity
  8
0
100
AcDbLine
 10
35.1
 20
1.006530000000009
 30
0.0
 11
37.5
 21
1.006530000000009
 31
0.0
  0
LINE
  5
F4
330
1E
100
AcDbEntity
  8
0
100
AcDbLine
 10
35.6
 20
3.00653000000002
 30
0.0
 11
38.39999999999999
 21
3.00653000000002
 31
0.0
  0
LINE
  5
F5
330
1E
100
AcDbEntity
  8
0
100
AcDbLine
 10
35.6
 20
10.00651
 30
0.0
 11
38.39999999999999
 21
10.00651
 31
0.0
  0
LINE
  5
F6
330
1E
100
AcDbEntity
  8
0
100
AcDbLine
 10
36.5
 20
0.853492000000015
 30
0.0
 11
38.1
 21
0.853491000000015
 31
0.0
  0
LINE
  5
F7
330
1E
100
AcDbEntity
  8
0
100
AcDbLine
 10
36.5
 20
-0.146508999999985
 30
0.0
 11
38.1
 21
-0.146508999999985
 31
0.0
  0
LINE
  5
F8
330
1E
100
AcDbEntity
  8
0
100
AcDbLine
 10
37.5
 20
1.006530000000019
 30
0.0
 11
39.6
 21
1.006530000000019
 31
0.0
  0
LINE
  5
F9
330
1E
100
AcDbEntity
  8
0
100
AcDbLine
 10
37.5
 20
1.006530000000009
 30
0.0
 11
39.6
 21
1.006530000000009
 31
0.0
  0
LINE
  5
FA
330
1E
100
AcDbEntity
  8
0
100
AcDbLine
 10
37.5
 20
11.00651
 30
0.0
 11
39.6
 21
11.00651
 31
0.0
  0
LINE
  5
FB
330
1E
100
AcDbEntity
  8
0
100
AcDbLine
 10
35.1
 20
11.00651
 30
0.0
 11
37.5
 21
11.00651
 31
0.0
  0
LINE
  5
FD
330
1E
100
AcDbEntity
  8
0
100
AcDbLine
 10
35.6
 20
13.00651
 30
0.0
 11
38.39999999999999
 21
13.00651
 31
0.0
  0
LINE
  5
FE
330
1E
100
AcDbEntity
  8
0
100
AcDbLine
 10
38.1
 20
-0.146508999999985
 30
0.0
 11
39.39999999999999
 21
-0.146508999999985
 31
0.0
  0
LINE
  5
FF
330
1E
100
AcDbEntity
  8
0
100
AcDbLine
 10
38.1
 20
-0.146508999999985
 30
0.0
 11
39.39999999999999
 21
-0.146509999999985
 31
0.0
  0
LINE
  5
100
330
1E
100
AcDbEntity
  8
0
100
AcDbLine
 10
38.1
 20
0.853491000000015
 30
0.0
 11
39.39999999999999
 21
0.853492000000015
 31
0.0
  0
LINE
  5
101
330
1E
100
AcDbEntity
  8
0
100
AcDbLine
 10
39.39999999999999
 20
0.853492000000015
 30
0.0
 11
40.2
 21
0.853492000000015
 31
0.0
  0
LINE
  5
102
330
1E
100
AcDbEntity
  8
0
100
AcDbLine
 10
39.39999999999999
 20
-0.146508999999985
 30
0.0
 11
40.2
 21
-0.146508999999985
 31
0.0
  0
LINE
  5
103
330
1E
100
AcDbEntity
  8
0
100
AcDbLine
 10
39.39999999999999
 20
-0.146509999999985
 30
0.0
 11
40.2
 21
-0.146508999999985
 31
0.0
  0
LINE
  5
104
330
1E
100
AcDbEntity
  8
0
100
AcDbLine
 10
40.49999999999999
 20
-0.146509999999985
 30
0.0
 11
40.49999999999999
 21
0.853492000000015
 31
0.0
  0
LINE
  5
105
330
1E
100
AcDbEntity
  8
0
100
AcDbLine
 10
40.2
 20
0.853492000000015
 30
0.0
 11
40.49999999999999
 21
0.853492000000015
 31
0.0
  0
LINE
  5
106
330
1E
100
AcDbEntity
  8
0
100
AcDbLine
 10
40.2
 20
-0.146508999999985
 30
0.0
 11
40.49999999999999
 21
-0.146509999999985
 31
0.0
  0
LINE
  5
107
330
1E
100
AcDbEntity
  8
0
100
AcDbLine
 10
40.49999999999999
 20
0.853492000000015
 30
0.0
 11
40.49999999999999
 21
-0.146509999999985
 31
0.0
  0
LINE
  5
108
330
1E
100
AcDbEntity
  8
0
100
AcDbLine
 10
40.2
 20
-0.146508999999985
 30
0.0
 11
40.49999999999999
 21
-0.146509999999985
 31
0.0
  0
LINE
  5
109
330
1E
100
AcDbEntity
  8
0
100
AcDbLine
 10
39.6
 20
1.006530000000009
 30
0.0
 11
41.2
 21
1.006530000000009
 31
0.0
  0
LINE
  5
10A
330
1E
100
AcDbEntity
  8
0
100
AcDbLine
 10
39.6
 20
1.006530000000019
 30
0.0
 11
41.2
 21
1.006530000000019
 31
0.0
  0
LINE
  5
10B
330
1E
100
AcDbEntity
  8
0
100
AcDbLine
 10
41.2
 20
1.006530000000019
 30
0.0
 11
42.09999999999999
 21
1.006530000000019
 31
0.0
  0
LINE
  5
10C
330
1E
100
AcDbEntity
  8
0
100
AcDbLine
 10
41.2
 20
1.006530000000009
 30
0.0
 11
42.09999999999999
 21
1.006530000000009
 31
0.0
  0
LINE
  5
10D
330
1E
100
AcDbEntity
  8
0
100
AcDbLine
 10
38.39999999999999
 20
3.00653000000002
 30
0.0
 11
41.0
 21
3.00653000000002
 31
0.0
  0
LINE
  5
10E
330
1E
100
AcDbEntity
  8
0
100
AcDbLine
 10
41.0
 20
3.00653000000002
 30
0.0
 11
42.9
 21
3.00653000000002
 31
0.0
  0
LINE
  5
10F
330
1E
100
AcDbEntity
  8
0
100
AcDbLine
 10
38.39999999999999
 20
10.00651
 30
0.0
 11
41.0
 21
10.00651
 31
0.0
  0
LINE
  5
110
330
1E
100
AcDbEntity
  8
0
100
AcDbLine
 10
41.0
 20
10.00651
 30
0.0
 11
42.9
 21
10.00651
 31
0.0
  0
LINE
  5
111
330
1E
100
AcDbEntity
  8
0
100
AcDbLine
 10
41.2
 20
11.00651
 30
0.0
 11
42.09999999999999
 21
11.00651
 31
0.0
  0
LINE
  5
112
330
1E
100
AcDbEntity
  8
0
100
AcDbLine
 10
39.6
 20
11.00651
 30
0.0
 11
41.2
 21
11.00651
 31
0.0
  0
LINE
  5
113
330
1E
100
AcDbEntity
  8
0
100
AcDbLine
 10
42.09999999999999
 20
1.006530000000019
 30
0.0
 11
42.5
 21
1.006530000000009
 31
0.0
  0
LINE
  5
114
330
1E
100
AcDbEntity
  8
0
100
AcDbLine
 10
42.09999999999999
 20
1.006530000000009
 30
0.0
 11
42.5
 21
1.006530000000009
 31
0.0
  0
LINE
  5
115
330
1E
100
AcDbEntity
  8
0
100
AcDbLine
 10
42.5
 20
1.006530000000009
 30
0.0
 11
44.5
 21
3.00653000000002
 31
0.0
  0
LINE
  5
116
330
1E
100
AcDbEntity
  8
0
100
AcDbLine
 10
42.9
 20
3.00653000000002
 30
0.0
 11
44.1
 21
3.00653000000002
 31
0.0
  0
LINE
  5
117
330
1E
100
AcDbEntity
  8
0
100
AcDbLine
 10
44.1
 20
3.00653000000002
 30
0.0
 11
44.5
 21
3.00653000000002
 31
0.0
  0
LINE
  5
118
330
1E
100
AcDbEntity
  8
0
100
AcDbLine
 10
42.5
 20
1.006530000000009
 30
0.0
 11
44.5
 21
3.00653000000002
 31
0.0
  0
LINE
  5
119
330
1E
100
AcDbEntity
  8
0
100
AcDbLine
 10
42.9
 20
10.00651
 30
0.0
 11
44.1
 21
10.00651
 31
0.0
  0
LINE
  5
11A
330
1E
100
AcDbEntity
  8
0
100
AcDbLine
 10
44.5
 20
10.00651
 30
0.0
 11
44.5
 21
3.00653000000002
 31
0.0
  0
LINE
  5
11B
330
1E
100
AcDbEntity
  8
0
100
AcDbLine
 10
44.1
 20
10.00651
 30
0.0
 11
44.5
 21
10.00651
 31
0.0
  0
LINE
  5
11C
330
1E
100
AcDbEntity
  8
0
100
AcDbLine
 10
44.5
 20
3.00653000000002
 30
0.0
 11
44.5
 21
10.00651
 31
0.0
  0
LINE
  5
11D
330
1E
100
AcDbEntity
  8
0
100
AcDbLine
 10
42.09999999999999
 20
11.00651
 30
0.0
 11
42.5
 21
11.00651
 31
0.0
  0
LINE
  5
11E
330
1E
100
AcDbEntity
  8
0
100
AcDbLine
 10
42.5
 20
11.00651
 30
0.0
 11
44.5
 21
13.00651
 31
0.0
  0
LINE
  5
11F
330
1E
100
AcDbEntity
  8
0
100
AcDbLine
 10
42.5
 20
11.00651
 30
0.0
 11
44.5
 21
10.00651
 31
0.0
  0
LINE
  5
120
330
1E
100
AcDbEntity
  8
0
100
AcDbLine
 10
44.1
 20
13.00651
 30
0.0
 11
44.5
 21
13.00651
 31
0.0
  0
LINE
  5
121
330
1E
100
AcDbEntity
  8
0
100
AcDbLine
 10
44.5
 20
13.00651
 30
0.0
 11
44.5
 21
21.00651
 31
0.0
  0
LINE
  5
122
330
1E
100
AcDbEntity
  8
0
100
AcDbLine
 10
42.9
 20
13.00651
 30
0.0
 11
44.1
 21
13.00651
 31
0.0
  0
LINE
  5
123
330
1E
100
AcDbEntity
  8
0
100
AcDbLine
 10
41.0
 20
13.00651
 30
0.0
 11
42.9
 21
13.00651
 31
0.0
  0
LINE
  5
124
330
1E
100
AcDbEntity
  8
0
100
AcDbLine
 10
38.39999999999999
 20
13.00651
 30
0.0
 11
41.0
 21
13.00651
 31
0.0
  0
LINE
  5
128
330
1E
100
AcDbEntity
  8
0
100
AcDbLine
 10
44.5
 20
21.00651
 30
0.0
 11
44.5
 21
13.00651
 31
0.0
  0
LINE
  5
12C
330
1E
100
AcDbEntity
  8
0
100
AcDbLine
 10
43.611823278121
 20
25.0033052484556
 30
0.0
 11
44.5
 21
21.00651
 31
0.0
  0
LINE
  5
12D
330
1E
100
AcDbEntity
  8
0
100
AcDbLine
 10
37.6
 20
27.37000999999999
 30
0.0
 11
42.29999999999999
 21
27.37000999999999
 31
0.0
  0
LINE
  5
12E
330
1E
100
AcDbEntity
  8
0
100
AcDbLine
 10
42.29999999999999
 20
27.37000999999999
 30
0.0
 11
46.39999999999999
 21
27.37000999999999
 31
0.0
  0
LINE
  5
130
330
1E
100
AcDbEntity
  8
0
100
AcDbLine
 10
48.39999999999999
 20
25.02791
 30
0.0
 11
52.2
 21
27.37000999999999
 31
0.0
  0
LINE
  5
132
330
1E
100
AcDbEntity
  8
0
100
AcDbLine
 10
46.39999999999999
 20
27.37000999999999
 30
0.0
 11
49.6
 21
27.37000999999999
 31
0.0
  0
LINE
  5
133
330
1E
100
AcDbEntity
  8
0
100
AcDbLine
 10
49.6
 20
27.37000999999999
 30
0.0
 11
51.5
 21
27.37000999999999
 31
0.0
  0
LINE
  5
134
330
1E
100
AcDbEntity
  8
0
100
AcDbLine
 10
51.5
 20
27.37000999999999
 30
0.0
 11
52.2
 21
27.37000999999999
 31
0.0
  0
LINE
  5
135
330
1E
100
AcDbEntity
  8
0
100
AcDbLine
 10
52.2
 20
27.37000999999999
 30
0.0
 11
53.7
 21
43.57000999999999
 31
0.0
  0
LINE
  5
136
330
1E
100
AcDbEntity
  8
0
100
AcDbLine
 10
34.7
 20
28.36071
 30
0.0
 11
36.4
 21
29.29750999999999
 31
0.0
  0
LINE
  5
137
330
1E
100
AcDbEntity
  8
0
100
AcDbLine
 10
35.40319999999999
 20
88.36501
 30
0.0
 11
36.6032
 21
87.95951
 31
0.0
  0
LINE
  5
138
330
1E
100
AcDbEntity
  8
0
100
AcDbLine
 10
35.40319999999999
 20
86.56551
 30
0.0
 11
36.6032
 21
86.16001
 31
0.0
  0
LINE
  5
139
330
1E
100
AcDbEntity
  8
0
100
AcDbLine
 10
36.4
 20
103.3535099999999
 30
0.0
 11
40.0
 21
104.85351
 31
0.0
  0
LINE
  5
13A
330
1E
100
AcDbEntity
  8
0
100
AcDbLine
 10
36.6032
 20
87.95951
 30
0.0
 11
37.5323
 21
87.43571000000001
 31
0.0
  0
LINE
  5
13B
330
1E
100
AcDbEntity
  8
0
100
AcDbLine
 10
36.6032
 20
86.16001
 30
0.0
 11
37.5323
 21
85.63630999999999
 31
0.0
  0
LINE
  5
13C
330
1E
100
AcDbEntity
  8
0
100
AcDbLine
 10
36.5
 20
102.85351
 30
0.0
 11
40.2
 21
104.3535099999999
 31
0.0
  0
LINE
  5
13D
330
1E
100
AcDbEntity
  8
0
100
AcDbLine
 10
36.4
 20
132.3535099999999
 30
0.0
 11
40.0
 21
130.85351
 31
0.0
  0
LINE
  5
13E
330
1E
100
AcDbEntity
  8
0
100
AcDbLine
 10
36.5
 20
132.85351
 30
0.0
 11
40.2
 21
131.3535099999999
 31
0.0
  0
LINE
  5
13F
330
1E
100
AcDbEntity
  8
0
100
AcDbLine
 10
38.30639999999999
 20
84.14320999999999
 30
0.0
 11
38.5
 21
84.81900999999998
 31
0.0
  0
LINE
  5
140
330
1E
100
AcDbEntity
  8
0
100
AcDbLine
 10
38.1129
 20
83.71021
 30
0.0
 11
38.30639999999999
 21
84.36911
 31
0.0
  0
LINE
  5
141
330
1E
100
AcDbEntity
  8
0
100
AcDbLine
 10
38.1129
 20
83.71021
 30
0.0
 11
38.30639999999999
 21
84.14320999999999
 31
0.0
  0
LINE
  5
142
330
1E
100
AcDbEntity
  8
0
100
AcDbLine
 10
37.7813479684622
 20
83.3628969693742
 30
0.0
 11
38.1129
 21
83.71021
 31
0.0
  0
LINE
  5
143
330
1E
100
AcDbEntity
  8
0
100
AcDbLine
 10
37.5323
 20
87.43571000000001
 30
0.0
 11
38.1129
 21
86.82751000000001
 31
0.0
  0
LINE
  5
144
330
1E
100
AcDbEntity
  8
0
100
AcDbLine
 10
38.5
 20
84.81900999999998
 30
0.0
 11
38.5
 21
85.71870999999999
 31
0.0
  0
LINE
  5
145
330
1E
100
AcDbEntity
  8
0
100
AcDbLine
 10
38.1129
 20
86.82751000000001
 30
0.0
 11
38.30639999999999
 21
86.39450999999999
 31
0.0
  0
LINE
  5
146
330
1E
100
AcDbEntity
  8
0
100
AcDbLine
 10
38.30639999999999
 20
86.39450999999999
 30
0.0
 11
38.5
 21
85.71870999999999
 31
0.0
  0
LINE
  5
147
330
1E
100
AcDbEntity
  8
0
100
AcDbLine
 10
38.5
 20
85.71870999999999
 30
0.0
 11
38.5
 21
84.81900999999998
 31
0.0
  0
LINE
  5
148
330
1E
100
AcDbEntity
  8
0
100
AcDbLine
 10
38.1129
 20
85.02800999999999
 30
0.0
 11
38.30639999999999
 21
84.36911
 31
0.0
  0
LINE
  5
149
330
1E
100
AcDbEntity
  8
0
100
AcDbLine
 10
37.5323
 20
85.63630999999999
 30
0.0
 11
38.1129
 21
85.02800999999999
 31
0.0
  0
LINE
  5
14A
330
1E
100
AcDbEntity
  8
0
100
AcDbLine
 10
38.6943744544527
 20
145.009180214659
 30
0.0
 11
41.3055607337123
 21
149.531917925417
 31
0.0
  0
LINE
  5
14B
330
1E
100
AcDbEntity
  8
0
100
AcDbLine
 10
37.19904859286679
 20
90.399480263985
 30
0.0
 11
39.6
 21
90.67000999999999
 31
0.0
  0
LINE
  5
14E
330
1E
100
AcDbEntity
  8
0
100
AcDbLine
 10
37.69808067879639
 20
84.36911
 30
0.0
 11
38.5
 21
74.67860999999999
 31
0.0
  0
LINE
  5
14F
330
1E
100
AcDbEntity
  8
0
100
AcDbLine
 10
37.19904859286679
 20
90.399480263985
 30
0.0
 11
37.4400039264289
 21
87.4877438858428
 31
0.0
  0
LINE
  5
150
330
1E
100
AcDbEntity
  8
0
100
AcDbLine
 10
38.5
 20
74.67860999999999
 30
0.0
 11
39.29999999999999
 21
57.45881
 31
0.0
  0
LINE
  5
151
330
1E
100
AcDbEntity
  8
0
100
AcDbLine
 10
39.6
 20
90.67000999999999
 30
0.0
 11
46.39999999999999
 21
93.55351
 31
0.0
  0
LINE
  5
152
330
1E
100
AcDbEntity
  8
0
100
AcDbLine
 10
39.7
 20
144.86951
 30
0.0
 11
46.39999999999999
 21
142.15351
 31
0.0
  0
LINE
  5
153
330
1E
100
AcDbEntity
  8
0
100
AcDbLine
 10
39.29999999999999
 20
57.45881
 30
0.0
 11
39.7
 21
45.67680999999999
 31
0.0
  0
LINE
  5
154
330
1E
100
AcDbEntity
  8
0
100
AcDbLine
 10
43.1
 20
107.25351
 30
0.0
 11
45.49999999999999
 21
110.35351
 31
0.0
  0
LINE
  5
155
330
1E
100
AcDbEntity
  8
0
100
AcDbLine
 10
40.0
 20
104.85351
 30
0.0
 11
43.1
 21
107.25351
 31
0.0
  0
LINE
  5
156
330
1E
100
AcDbEntity
  8
0
100
AcDbLine
 10
40.2
 20
104.3535099999999
 30
0.0
 11
43.5
 21
106.85351
 31
0.0
  0
LINE
  5
157
330
1E
100
AcDbEntity
  8
0
100
AcDbLine
 10
45.49999999999999
 20
110.35351
 30
0.0
 11
47.0
 21
113.95351
 31
0.0
  0
LINE
  5
158
330
1E
100
AcDbEntity
  8
0
100
AcDbLine
 10
46.0
 20
110.15351
 30
0.0
 11
47.5
 21
113.85351
 31
0.0
  0
LINE
  5
159
330
1E
100
AcDbEntity
  8
0
100
AcDbLine
 10
43.5
 20
106.85351
 30
0.0
 11
46.0
 21
110.15351
 31
0.0
  0
LINE
  5
15B
330
1E
100
AcDbEntity
  8
0
100
AcDbLine
 10
53.7
 20
43.57000999999999
 30
0.0
 11
55.1
 21
60.47000999999999
 31
0.0
  0
LINE
  5
15C
330
1E
100
AcDbEntity
  8
0
100
AcDbLine
 10
58.39999999999999
 20
95.87000999999998
 30
0.0
 11
60.0
 21
112.97051
 31
0.0
  0
LINE
  5
15D
330
1E
100
AcDbEntity
  8
0
100
AcDbLine
 10
56.7
 20
76.77001
 30
0.0
 11
58.39999999999999
 21
95.87000999999998
 31
0.0
  0
LINE
  5
15E
330
1E
100
AcDbEntity
  8
0
100
AcDbLine
 10
55.1
 20
60.47000999999999
 30
0.0
 11
56.7
 21
76.77001
 31
0.0
  0
LINE
  5
15F
330
1E
100
AcDbEntity
  8
0
100
AcDbLine
 10
60.5
 20
110.37051
 30
0.0
 11
61.5
 21
117.87051
 31
0.0
  0
LINE
  5
160
330
1E
100
AcDbEntity
  8
0
100
AcDbLine
 10
59.534002508048
 20
107.9900161805469
 30
0.0
 11
60.5
 21
110.37051
 31
0.0
  0
LINE
  5
161
330
1E
100
AcDbEntity
  8
0
100
AcDbLine
 10
63.9
 20
109.47051
 30
0.0
 11
65.0
 21
117.87051
 31
0.0
  0
LINE
  5
162
330
1E
100
AcDbEntity
  8
0
100
AcDbLine
 10
60.7
 20
101.6695099999999
 30
0.0
 11
63.9
 21
109.47051
 31
0.0
  0
LINE
  5
163
330
1E
100
AcDbEntity
  8
0
100
AcDbLine
 10
58.6976507943016
 20
99.05124587997191
 30
0.0
 11
60.7
 21
101.6695099999999
 31
0.0
  0
LINE
  5
164
330
1E
100
AcDbEntity
  8
0
100
AcDbLine
 10
56.79999999999999
 20
103.9535099999999
 30
0.0
 11
59.5
 21
110.65351
 31
0.0
  0
LINE
  5
165
330
1E
100
AcDbEntity
  8
0
100
AcDbLine
 10
52.3
 20
98.05351000000001
 30
0.0
 11
56.79999999999999
 21
103.9535099999999
 31
0.0
  0
LINE
  5
166
330
1E
100
AcDbEntity
  8
0
100
AcDbLine
 10
46.39999999999999
 20
93.55351
 30
0.0
 11
52.3
 21
98.05351000000001
 31
0.0
  0
LINE
  5
167
330
1E
100
AcDbEntity
  8
0
100
AcDbLine
 10
40.0
 20
130.85351
 30
0.0
 11
43.1
 21
128.45351
 31
0.0
  0
LINE
  5
168
330
1E
100
AcDbEntity
  8
0
100
AcDbLine
 10
45.49999999999999
 20
125.35351
 30
0.0
 11
47.0
 21
121.75351
 31
0.0
  0
LINE
  5
169
330
1E
100
AcDbEntity
  8
0
100
AcDbLine
 10
43.1
 20
128.45351
 30
0.0
 11
45.49999999999999
 21
125.35351
 31
0.0
  0
LINE
  5
16A
330
1E
100
AcDbEntity
  8
0
100
AcDbLine
 10
43.5
 20
128.85351
 30
0.0
 11
46.0
 21
125.55351
 31
0.0
  0
LINE
  5
16B
330
1E
100
AcDbEntity
  8
0
100
AcDbLine
 10
46.0
 20
125.55351
 30
0.0
 11
47.5
 21
121.85351
 31
0.0
  0
LINE
  5
16C
330
1E
100
AcDbEntity
  8
0
100
AcDbLine
 10
40.2
 20
131.3535099999999
 30
0.0
 11
43.5
 21
128.85351
 31
0.0
  0
LINE
  5
16D
330
1E
100
AcDbEntity
  8
0
100
AcDbLine
 10
43.0763
 20
147.99851
 30
0.0
 11
45.1695
 21
147.22451
 31
0.0
  0
LINE
  5
16E
330
1E
100
AcDbEntity
  8
0
100
AcDbLine
 10
43.1278927480116
 20
143.48812038513
 30
0.0
 11
45.28936659062179
 21
147.23192806995
 31
0.0
  0
LINE
  5
16F
330
1E
100
AcDbEntity
  8
0
100
AcDbLine
 10
45.1695
 20
147.22451
 30
0.0
 11
47.2055
 21
147.35051
 31
0.0
  0
LINE
  5
170
330
1E
100
AcDbEntity
  8
0
100
AcDbLine
 10
43.6483331791769
 20
144.3895557147079
 30
0.0
 11
46.9
 21
143.07051
 31
0.0
  0
LINE
  5
171
330
1E
100
AcDbEntity
  8
0
100
AcDbLine
 10
41.35899999999999
 20
149.42451
 30
0.0
 11
43.0763
 21
147.99851
 31
0.0
  0
LINE
  5
172
330
1E
100
AcDbEntity
  8
0
100
AcDbLine
 10
44.93619999999999
 20
159.02051
 30
0.0
 11
46.9722
 21
159.14651
 31
0.0
  0
LINE
  5
173
330
1E
100
AcDbEntity
  8
0
100
AcDbLine
 10
43.0982
 20
158.23651
 30
0.0
 11
44.93619999999999
 21
159.02051
 31
0.0
  0
LINE
  5
174
330
1E
100
AcDbEntity
  8
0
100
AcDbLine
 10
42.38839999999999
 20
157.80751
 30
0.0
 11
43.0982
 21
158.23651
 31
0.0
  0
LINE
  5
175
330
1E
100
AcDbEntity
  8
0
100
AcDbLine
 10
40.87469999999999
 20
156.18551
 30
0.0
 11
42.38839999999999
 21
157.80751
 31
0.0
  0
LINE
  5
176
330
1E
100
AcDbEntity
  8
0
100
AcDbLine
 10
40.2271
 20
154.06351
 30
0.0
 11
40.87469999999999
 21
156.18551
 31
0.0
  0
LINE
  5
177
330
1E
100
AcDbEntity
  8
0
100
AcDbLine
 10
40.45049999999999
 20
151.25051
 30
0.0
 11
41.35899999999999
 21
149.42451
 31
0.0
  0
LINE
  5
178
330
1E
100
AcDbEntity
  8
0
100
AcDbLine
 10
40.20999999999999
 20
153.23451
 30
0.0
 11
40.45049999999999
 21
151.25051
 31
0.0
  0
LINE
  5
179
330
1E
100
AcDbEntity
  8
0
100
AcDbLine
 10
40.20999999999999
 20
153.23451
 30
0.0
 11
40.2271
 21
154.06351
 31
0.0
  0
LINE
  5
17A
330
1E
100
AcDbEntity
  8
0
100
AcDbLine
 10
40.89999999999999
 20
149.27051
 30
0.0
 11
41.1058743921456
 21
149.186048710915
 31
0.0
  0
LINE
  5
17B
330
1E
100
AcDbEntity
  8
0
100
AcDbLine
 10
45.793062336623
 20
147.2630998106159
 30
0.0
 11
48.7
 21
146.07051
 31
0.0
  0
LINE
  5
17D
330
1E
100
AcDbEntity
  8
0
100
AcDbLine
 10
47.0
 20
113.95351
 30
0.0
 11
47.5
 21
117.85351
 31
0.0
  0
LINE
  5
17E
330
1E
100
AcDbEntity
  8
0
100
AcDbLine
 10
47.5
 20
113.85351
 30
0.0
 11
48.0
 21
117.85351
 31
0.0
  0
LINE
  5
17F
330
1E
100
AcDbEntity
  8
0
100
AcDbLine
 10
47.0
 20
121.75351
 30
0.0
 11
47.5
 21
117.85351
 31
0.0
  0
LINE
  5
180
330
1E
100
AcDbEntity
  8
0
100
AcDbLine
 10
47.5
 20
121.85351
 30
0.0
 11
48.0
 21
117.85351
 31
0.0
  0
LINE
  5
182
330
1E
100
AcDbEntity
  8
0
100
AcDbLine
 10
60.0
 20
112.97051
 30
0.0
 11
60.4934615384615
 21
117.806433076923
 31
0.0
  0
LINE
  5
183
330
1E
100
AcDbEntity
  8
0
100
AcDbLine
 10
60.5
 20
125.37051
 30
0.0
 11
61.5
 21
117.87051
 31
0.0
  0
LINE
  5
184
330
1E
100
AcDbEntity
  8
0
100
AcDbLine
 10
63.9
 20
126.26951
 30
0.0
 11
65.0
 21
117.87051
 31
0.0
  0
LINE
  5
185
330
1E
100
AcDbEntity
  8
0
100
AcDbLine
 10
59.5
 20
125.05351
 30
0.0
 11
60.5
 21
117.85351
 31
0.0
  0
LINE
  5
186
330
1E
100
AcDbEntity
  8
0
100
AcDbLine
 10
46.9
 20
143.07051
 30
0.0
 11
53.0
 21
138.36951
 31
0.0
  0
LINE
  5
187
330
1E
100
AcDbEntity
  8
0
100
AcDbLine
 10
49.7533
 20
148.56351
 30
0.0
 11
51.26699999999999
 21
150.18551
 31
0.0
  0
LINE
  5
188
330
1E
100
AcDbEntity
  8
0
100
AcDbLine
 10
49.0435
 20
148.13451
 30
0.0
 11
49.7533
 21
148.56351
 31
0.0
  0
LINE
  5
189
330
1E
100
AcDbEntity
  8
0
100
AcDbLine
 10
47.2055
 20
147.35051
 30
0.0
 11
49.0435
 21
148.13451
 31
0.0
  0
LINE
  5
18A
330
1E
100
AcDbEntity
  8
0
100
AcDbLine
 10
49.06539999999999
 20
158.37251
 30
0.0
 11
50.7828
 21
156.94651
 31
0.0
  0
LINE
  5
18B
330
1E
100
AcDbEntity
  8
0
100
AcDbLine
 10
50.7828
 20
156.94651
 30
0.0
 11
51.6912
 21
155.1205099999999
 31
0.0
  0
LINE
  5
18C
330
1E
100
AcDbEntity
  8
0
100
AcDbLine
 10
51.6912
 20
155.1205099999999
 30
0.0
 11
51.9317
 21
153.13651
 31
0.0
  0
LINE
  5
18D
330
1E
100
AcDbEntity
  8
0
100
AcDbLine
 10
51.9146
 20
152.3075099999999
 30
0.0
 11
51.9317
 21
153.13651
 31
0.0
  0
LINE
  5
18E
330
1E
100
AcDbEntity
  8
0
100
AcDbLine
 10
51.26699999999999
 20
150.18551
 30
0.0
 11
51.9146
 21
152.3075099999999
 31
0.0
  0
LINE
  5
18F
330
1E
100
AcDbEntity
  8
0
100
AcDbLine
 10
46.9722
 20
159.14651
 30
0.0
 11
49.06539999999999
 21
158.37251
 31
0.0
  0
LINE
  5
190
330
1E
100
AcDbEntity
  8
0
100
AcDbLine
 10
48.7
 20
146.07051
 30
0.0
 11
55.5
 21
140.86951
 31
0.0
  0
LINE
  5
191
330
1E
100
AcDbEntity
  8
0
100
AcDbLine
 10
57.7
 20
132.27051
 30
0.0
 11
60.5
 21
125.37051
 31
0.0
  0
LINE
  5
192
330
1E
100
AcDbEntity
  8
0
100
AcDbLine
 10
60.7
 20
134.07051
 30
0.0
 11
63.9
 21
126.26951
 31
0.0
  0
LINE
  5
193
330
1E
100
AcDbEntity
  8
0
100
AcDbLine
 10
56.79999999999999
 20
131.7705099999999
 30
0.0
 11
59.5
 21
125.06951
 31
0.0
  0
LINE
  5
194
330
1E
100
AcDbEntity
  8
0
100
AcDbLine
 10
53.0
 20
138.36951
 30
0.0
 11
57.7
 21
132.27051
 31
0.0
  0
LINE
  5
195
330
1E
100
AcDbEntity
  8
0
100
AcDbLine
 10
55.5
 20
140.86951
 30
0.0
 11
60.7
 21
134.07051
 31
0.0
  0
LINE
  5
196
330
1E
100
AcDbEntity
  8
0
100
AcDbLine
 10
52.3
 20
137.66951
 30
0.0
 11
56.79999999999999
 21
131.7705099999999
 31
0.0
  0
LINE
  5
197
330
1E
100
AcDbEntity
  8
0
100
AcDbLine
 10
52.3
 20
137.66951
 30
0.0
 11
56.79999999999999
 21
131.7705099999999
 31
0.0
  0
LINE
  5
199
330
1E
100
AcDbEntity
  8
0
100
AcDbLine
 10
46.39999999999999
 20
142.15351
 30
0.0
 11
52.3
 21
137.65351
 31
0.0
  0
LINE
  5
19A
330
1E
100
AcDbEntity
  8
0
100
AcDbLine
 10
59.5
 20
110.65351
 30
0.0
 11
60.5
 21
117.85351
 31
0.0
  0
LINE
  5
19B
330
1E
100
AcDbEntity
  8
0
100
AcDbLine
 10
39.7
 20
45.67680999999999
 30
0.0
 11
40.0
 21
37.52000999999999
 31
0.0
  0
LINE
  5
19C
330
1E
100
AcDbEntity
  8
0
100
AcDbLine
 10
39.5
 20
34.34791
 30
0.0
 11
40.0
 21
37.52000999999999
 31
0.0
  0
LINE
  5
19D
330
1E
100
AcDbEntity
  8
0
100
AcDbLine
 10
39.2
 20
33.58721
 30
0.0
 11
39.5
 21
34.34791
 31
0.0
  0
LINE
  5
19E
330
1E
100
AcDbEntity
  8
0
100
AcDbLine
 10
38.3
 20
31.40601
 30
0.0
 11
39.2
 21
33.58721
 31
0.0
  0
LINE
  5
19F
330
1E
100
AcDbEntity
  8
0
100
AcDbLine
 10
36.79999999999999
 20
29.76240999999999
 30
0.0
 11
38.3
 21
31.40601
 31
0.0
  0
LINE
  5
1A0
330
1E
100
AcDbEntity
  8
0
100
AcDbLine
 10
36.4
 20
29.29750999999999
 30
0.0
 11
36.79999999999999
 21
29.76240999999999
 31
0.0
  0
LINE
  5
1A1
330
1E
100
AcDbEntity
  8
0
100
AcDbLine
 10
34.29999999999999
 20
28.14940999999999
 30
0.0
 11
34.7
 21
28.36071
 31
0.0
  0
LINE
  5
1A6
330
1E
100
AcDbEntity
  8
0
100
AcDbLine
 10
18.8
 20
92.87001
 30
0.0
 11
12.7
 21
98.05351000000001
 31
0.0
  0
LINE
  5
1A7
330
1E
100
AcDbEntity
  8
0
100
AcDbLine
 10
16.6
 20
25.02791
 30
0.0
 11
21.388176721879
 21
25.0033052484556
 31
0.0
  0
LINE
  5
1A8
330
1E
100
AcDbEntity
  8
0
100
AcDbLine
 10
21.388176721879
 20
25.0033052484556
 30
0.0
 11
43.611823278121
 21
25.0033052484556
 31
0.0
  0
LINE
  5
1A9
330
1E
100
AcDbEntity
  8
0
100
AcDbLine
 10
43.611823278121
 20
25.0033052484556
 30
0.0
 11
48.39999999999999
 21
25.02791
 31
0.0
  0
ENDSEC
  0
SECTION
  2
OBJECTS
  0
DICTIONARY
  5
C
330
0
100
AcDbDictionary
281
     1
  3
ACAD_GROUP
350
D
  3
ACAD_LAYOUT
350
19
  3
ACAD_MLINESTYLE
350
16
  3
ACAD_PLOTSETTINGS
350
18
  3
ACAD_PLOTSTYLENAME
350
E
  3
AcDbVariableDictionary
350
1AA
  0
DICTIONARY
  5
D
102
{ACAD_REACTORS
330
C
102
}
330
C
100
AcDbDictionary
281
     1
  0
DICTIONARY
  5
19
102
{ACAD_REACTORS
330
C
102
}
330
C
100
AcDbDictionary
281
     1
  3
Layout1
350
1D
  3
Model
350
21
  0
DICTIONARY
  5
16
102
{ACAD_REACTORS
330
C
102
}
330
C
100
AcDbDictionary
281
     1
  3
Standard
350
17
  0
DICTIONARY
  5
18
102
{ACAD_REACTORS
330
C
102
}
330
C
100
AcDbDictionary
281
     1
  0
ACDBDICTIONARYWDFLT
  5
E
102
{ACAD_REACTORS
330
C
102
}
330
C
100
AcDbDictionary
281
     1
  3
Normal
350
F
100
AcDbDictionaryWithDefault
340
F
  0
DICTIONARY
  5
1AA
102
{ACAD_REACTORS
330
C
102
}
330
C
100
AcDbDictionary
281
     1
  3
DIMASSOC
350
1AB
  0
LAYOUT
  5
1D
102
{ACAD_REACTORS
330
19
102
}
330
19
100
AcDbPlotSettings
  1

  2
hp deskjet 980c series
  4

  6

 40
0.0
 41
0.0
 42
0.0
 43
0.0
 44
0.0
 45
0.0
 46
0.0
 47
0.0
 48
0.0
 49
0.0
140
0.0
141
0.0
142
1.0
143
1.0
 70
   688
 72
     0
 73
     0
 74
     5
  7

 75
    16
147
1.0
148
0.0
149
0.0
100
AcDbLayout
  1
Layout1
 70
     1
 71
     1
 10
0.0
 20
0.0
 11
12.0
 21
9.0
 12
0.0
 22
0.0
 32
0.0
 14
1.000000000000000E+20
 24
1.000000000000000E+20
 34
1.000000000000000E+20
 15
-1.000000000000000E+20
 25
-1.000000000000000E+20
 35
-1.000000000000000E+20
146
0.0
 13
0.0
 23
0.0
 33
0.0
 16
1.0
 26
0.0
 36
0.0
 17
0.0
 27
1.0
 37
0.0
 76
     0
330
1A
  0
LAYOUT
  5
21
102
{ACAD_REACTORS
330
19
102
}
330
19
100
AcDbPlotSettings
  1

  2
hp deskjet 980c series
  4

  6

 40
0.0
 41
0.0
 42
0.0
 43
0.0
 44
0.0
 45
0.0
 46
0.0
 47
0.0
 48
0.0
 49
0.0
140
0.0
141
0.0
142
1.0
143
1.0
 70
  1712
 72
     0
 73
     0
 74
     0
  7

 75
     0
147
1.0
148
0.0
149
0.0
100
AcDbLayout
  1
Model
 70
     1
 71
     0
 10
0.0
 20
0.0
 11
12.0
 21
9.0
 12
0.0
 22
0.0
 32
0.0
 14
0.0
 24
0.0
 34
0.0
 15
0.0
 25
0.0
 35
0.0
146
0.0
 13
0.0
 23
0.0
 33
0.0
 16
1.0
 26
0.0
 36
0.0
 17
0.0
 27
1.0
 37
0.0
 76
     0
330
1E
  0
MLINESTYLE
  5
17
102
{ACAD_REACTORS
330
16
102
}
330
16
100
AcDbMlineStyle
  2
STANDARD
 70
     0
  3

 62
   256
 51
90.0
 52
90.0
 71
     2
 49
0.5
 62
   256
  6
BYLAYER
 49
-0.5
 62
   256
  6
BYLAYER
  0
ACDBPLACEHOLDER
  5
F
102
{ACAD_REACTORS
330
E
102
}
330
E
  0
DICTIONARYVAR
  5
1AB
102
{ACAD_REACTORS
330
1AA
102
}
330
1AA
100
DictionaryVariables
280
     0
  1
1
  0
ENDSEC
  0
EOF
