  0
SECTION
  2
HEADER
  9
$ACADVER
  1
AC1015
  9
$ACADMAINTVER
 70
    13
  9
$DWGCODEPAGE
  3
ANSI_1252
  9
$INSBASE
 10
0.0
 20
0.0
 30
0.0
  9
$EXTMIN
 10
-0.146509999999985
 20
-0.0000000000000083
 30
0.0
  9
$EXTMAX
 10
158.9045581645339
 20
145.0
 30
0.0
  9
$LIMMIN
 10
0.0
 20
0.0
  9
$LIMMAX
 10
12.0
 20
9.0
  9
$ORTHOMODE
 70
     0
  9
$REGENMODE
 70
     1
  9
$FILLMODE
 70
     1
  9
$QTEXTMODE
 70
     0
  9
$MIRRTEXT
 70
     1
  9
$LTSCALE
 40
1.0
  9
$ATTMODE
 70
     1
  9
$TEXTSIZE
 40
0.2
  9
$TRACEWID
 40
0.05
  9
$TEXTSTYLE
  7
Standard
  9
$CLAYER
  8
0
  9
$CELTYPE
  6
Continuous
  9
$CECOLOR
 62
   256
  9
$CELTSCALE
 40
1.0
  9
$DISPSILH
 70
     0
  9
$DIMSCALE
 40
1.0
  9
$DIMASZ
 40
0.18
  9
$DIMEXO
 40
0.0625
  9
$DIMDLI
 40
0.38
  9
$DIMRND
 40
0.0
  9
$DIMDLE
 40
0.0
  9
$DIMEXE
 40
0.18
  9
$DIMTP
 40
0.0
  9
$DIMTM
 40
0.0
  9
$DIMTXT
 40
0.18
  9
$DIMCEN
 40
0.09
  9
$DIMTSZ
 40
0.0
  9
$DIMTOL
 70
     0
  9
$DIMLIM
 70
     0
  9
$DIMTIH
 70
     1
  9
$DIMTOH
 70
     1
  9
$DIMSE1
 70
     0
  9
$DIMSE2
 70
     0
  9
$DIMTAD
 70
     0
  9
$DIMZIN
 70
     0
  9
$DIMBLK
  1

  9
$DIMASO
 70
     1
  9
$DIMSHO
 70
     1
  9
$DIMPOST
  1

  9
$DIMAPOST
  1

  9
$DIMALT
 70
     0
  9
$DIMALTD
 70
     2
  9
$DIMALTF
 40
25.4
  9
$DIMLFAC
 40
1.0
  9
$DIMTOFL
 70
     0
  9
$DIMTVP
 40
0.0
  9
$DIMTIX
 70
     0
  9
$DIMSOXD
 70
     0
  9
$DIMSAH
 70
     0
  9
$DIMBLK1
  1

  9
$DIMBLK2
  1

  9
$DIMSTYLE
  2
Standard
  9
$DIMCLRD
 70
     0
  9
$DIMCLRE
 70
     0
  9
$DIMCLRT
 70
     0
  9
$DIMTFAC
 40
1.0
  9
$DIMGAP
 40
0.09
  9
$DIMJUST
 70
     0
  9
$DIMSD1
 70
     0
  9
$DIMSD2
 70
     0
  9
$DIMTOLJ
 70
     1
  9
$DIMTZIN
 70
     0
  9
$DIMALTZ
 70
     0
  9
$DIMALTTZ
 70
     0
  9
$DIMUPT
 70
     0
  9
$DIMDEC
 70
     4
  9
$DIMTDEC
 70
     4
  9
$DIMALTU
 70
     2
  9
$DIMALTTD
 70
     2
  9
$DIMTXSTY
  7
Standard
  9
$DIMAUNIT
 70
     0
  9
$DIMADEC
 70
     0
  9
$DIMALTRND
 40
0.0
  9
$DIMAZIN
 70
     0
  9
$DIMDSEP
 70
    46
  9
$DIMATFIT
 70
     3
  9
$DIMFRAC
 70
     0
  9
$DIMLDRBLK
  1

  9
$DIMLUNIT
 70
     2
  9
$DIMLWD
 70
    -2
  9
$DIMLWE
 70
    -2
  9
$DIMTMOVE
 70
     0
  9
$LUNITS
 70
     2
  9
$LUPREC
 70
     4
  9
$SKETCHINC
 40
0.1
  9
$FILLETRAD
 40
0.0
  9
$AUNITS
 70
     0
  9
$AUPREC
 70
     0
  9
$MENU
  1
.
  9
$ELEVATION
 40
0.0
  9
$PELEVATION
 40
0.0
  9
$THICKNESS
 40
0.0
  9
$LIMCHECK
 70
     0
  9
$CHAMFERA
 40
0.0
  9
$CHAMFERB
 40
0.0
  9
$CHAMFERC
 40
0.0
  9
$CHAMFERD
 40
0.0
  9
$SKPOLY
 70
     0
  9
$TDCREATE
 40
2454753.363137835
  9
$TDUCREATE
 40
2454753.279804502
  9
$TDUPDATE
 40
2454753.384912650
  9
$TDUUPDATE
 40
2454753.301579317
  9
$TDINDWG
 40
0.0217748148
  9
$TDUSRTIMER
 40
0.0217748148
  9
$USRTIMER
 70
     1
  9
$ANGBASE
 50
0.0
  9
$ANGDIR
 70
     0
  9
$PDMODE
 70
     0
  9
$PDSIZE
 40
0.0
  9
$PLINEWID
 40
0.0
  9
$SPLFRAME
 70
     0
  9
$SPLINETYPE
 70
     6
  9
$SPLINESEGS
 70
     8
  9
$HANDSEED
  5
208
  9
$SURFTAB1
 70
     6
  9
$SURFTAB2
 70
     6
  9
$SURFTYPE
 70
     6
  9
$SURFU
 70
     6
  9
$SURFV
 70
     6
  9
$UCSBASE
  2

  9
$UCSNAME
  2

  9
$UCSORG
 10
0.0
 20
0.0
 30
0.0
  9
$UCSXDIR
 10
1.0
 20
0.0
 30
0.0
  9
$UCSYDIR
 10
0.0
 20
1.0
 30
0.0
  9
$UCSORTHOREF
  2

  9
$UCSORTHOVIEW
 70
     1
  9
$UCSORGTOP
 10
0.0
 20
0.0
 30
0.0
  9
$UCSORGBOTTOM
 10
0.0
 20
0.0
 30
0.0
  9
$UCSORGLEFT
 10
0.0
 20
0.0
 30
0.0
  9
$UCSORGRIGHT
 10
0.0
 20
0.0
 30
0.0
  9
$UCSORGFRONT
 10
0.0
 20
0.0
 30
0.0
  9
$UCSORGBACK
 10
0.0
 20
0.0
 30
0.0
  9
$PUCSBASE
  2

  9
$PUCSNAME
  2

  9
$PUCSORG
 10
0.0
 20
0.0
 30
0.0
  9
$PUCSXDIR
 10
1.0
 20
0.0
 30
0.0
  9
$PUCSYDIR
 10
0.0
 20
1.0
 30
0.0
  9
$PUCSORTHOREF
  2

  9
$PUCSORTHOVIEW
 70
     0
  9
$PUCSORGTOP
 10
0.0
 20
0.0
 30
0.0
  9
$PUCSORGBOTTOM
 10
0.0
 20
0.0
 30
0.0
  9
$PUCSORGLEFT
 10
0.0
 20
0.0
 30
0.0
  9
$PUCSORGRIGHT
 10
0.0
 20
0.0
 30
0.0
  9
$PUCSORGFRONT
 10
0.0
 20
0.0
 30
0.0
  9
$PUCSORGBACK
 10
0.0
 20
0.0
 30
0.0
  9
$USERI1
 70
     0
  9
$USERI2
 70
     0
  9
$USERI3
 70
     0
  9
$USERI4
 70
     0
  9
$USERI5
 70
     0
  9
$USERR1
 40
0.0
  9
$USERR2
 40
0.0
  9
$USERR3
 40
0.0
  9
$USERR4
 40
0.0
  9
$USERR5
 40
0.0
  9
$WORLDVIEW
 70
     1
  9
$SHADEDGE
 70
     3
  9
$SHADEDIF
 70
    70
  9
$TILEMODE
 70
     1
  9
$MAXACTVP
 70
    64
  9
$PINSBASE
 10
0.0
 20
0.0
 30
0.0
  9
$PLIMCHECK
 70
     0
  9
$PEXTMIN
 10
1.000000000000000E+20
 20
1.000000000000000E+20
 30
1.000000000000000E+20
  9
$PEXTMAX
 10
-1.000000000000000E+20
 20
-1.000000000000000E+20
 30
-1.000000000000000E+20
  9
$PLIMMIN
 10
0.0
 20
0.0
  9
$PLIMMAX
 10
12.0
 20
9.0
  9
$UNITMODE
 70
     0
  9
$VISRETAIN
 70
     1
  9
$PLINEGEN
 70
     0
  9
$PSLTSCALE
 70
     1
  9
$TREEDEPTH
 70
  3020
  9
$CMLSTYLE
  2
Standard
  9
$CMLJUST
 70
     0
  9
$CMLSCALE
 40
1.0
  9
$PROXYGRAPHICS
 70
     1
  9
$MEASUREMENT
 70
     0
  9
$CELWEIGHT
370
    -1
  9
$ENDCAPS
280
     0
  9
$JOINSTYLE
280
     0
  9
$LWDISPLAY
290
     0
  9
$INSUNITS
 70
     0
  9
$HYPERLINKBASE
  1

  9
$STYLESHEET
  1

  9
$XEDIT
290
     1
  9
$CEPSNTYPE
380
     0
  9
$PSTYLEMODE
290
     1
  9
$FINGERPRINTGUID
  2
{1DB726D7-F67D-45B7-866F-7717B663841E}
  9
$VERSIONGUID
  2
{8840C2C5-1770-4E32-828A-D2A43C1CF9E3}
  9
$EXTNAMES
290
     1
  9
$PSVPSCALE
 40
0.0
  9
$OLESTARTUP
290
     0
  0
ENDSEC
  0
SECTION
  2
CLASSES
  0
CLASS
  1
ACDBDICTIONARYWDFLT
  2
AcDbDictionaryWithDefault
  3
AutoCAD 2000
 90
        0
280
     0
281
     0
  0
CLASS
  1
ACDBPLACEHOLDER
  2
AcDbPlaceHolder
  3
AutoCAD 2000
 90
        0
280
     0
281
     0
  0
CLASS
  1
LAYOUT
  2
AcDbLayout
  3
AutoCAD 2000
 90
        0
280
     0
281
     0
  0
CLASS
  1
DICTIONARYVAR
  2
AcDbDictionaryVar
  3
AutoCAD 2000
 90
        0
280
     0
281
     0
  0
ENDSEC
  0
SECTION
  2
TABLES
  0
TABLE
  2
VPORT
  5
8
330
0
100
AcDbSymbolTable
 70
     2
  0
VPORT
  5
207
330
8
100
AcDbSymbolTableRecord
100
AcDbViewportTableRecord
  2
*Active
 70
     0
 10
0.0
 20
0.0
 11
1.0
 21
1.0
 12
79.37902408226701
 22
72.49999999999999
 13
0.0
 23
0.0
 14
1.0
 24
1.0
 15
0.0
 25
0.0
 16
0.0
 26
0.0
 36
1.0
 17
0.0
 27
0.0
 37
0.0
 40
146.1125319693094
 41
2.078104993597951
 42
50.0
 43
0.0
 44
0.0
 50
0.0
 51
0.0
 71
     0
 72
   100
 73
     1
 74
     3
 75
     0
 76
     0
 77
     0
 78
     0
281
     0
 65
     1
110
0.0
120
0.0
130
0.0
111
1.0
121
0.0
131
0.0
112
0.0
122
1.0
132
0.0
 79
     1
146
0.0
  0
ENDTAB
  0
TABLE
  2
LTYPE
  5
5
330
0
100
AcDbSymbolTable
 70
     1
  0
LTYPE
  5
13
330
5
100
AcDbSymbolTableRecord
100
AcDbLinetypeTableRecord
  2
ByBlock
 70
     0
  3

 72
    65
 73
     0
 40
0.0
  0
LTYPE
  5
14
330
5
100
AcDbSymbolTableRecord
100
AcDbLinetypeTableRecord
  2
ByLayer
 70
     0
  3

 72
    65
 73
     0
 40
0.0
  0
LTYPE
  5
15
330
5
100
AcDbSymbolTableRecord
100
AcDbLinetypeTableRecord
  2
Continuous
 70
     0
  3
Solid line
 72
    65
 73
     0
 40
0.0
  0
ENDTAB
  0
TABLE
  2
LAYER
  5
2
330
0
100
AcDbSymbolTable
 70
     1
  0
LAYER
  5
10
330
2
100
AcDbSymbolTableRecord
100
AcDbLayerTableRecord
  2
0
 70
     0
 62
     7
  6
Continuous
370
    -3
390
F
  0
ENDTAB
  0
TABLE
  2
STYLE
  5
3
330
0
100
AcDbSymbolTable
 70
     1
  0
STYLE
  5
11
330
3
100
AcDbSymbolTableRecord
100
AcDbTextStyleTableRecord
  2
Standard
 70
     0
 40
0.0
 41
1.0
 50
0.0
 71
     0
 42
0.2
  3
txt
  4

  0
ENDTAB
  0
TABLE
  2
VIEW
  5
6
330
0
100
AcDbSymbolTable
 70
     0
  0
ENDTAB
  0
TABLE
  2
UCS
  5
7
330
0
100
AcDbSymbolTable
 70
     0
  0
ENDTAB
  0
TABLE
  2
APPID
  5
9
330
0
100
AcDbSymbolTable
 70
     1
  0
APPID
  5
12
330
9
100
AcDbSymbolTableRecord
100
AcDbRegAppTableRecord
  2
ACAD
 70
     0
  0
ENDTAB
  0
TABLE
  2
DIMSTYLE
  5
A
330
0
100
AcDbSymbolTable
 70
     1
100
AcDbDimStyleTable
 71
     0
  0
DIMSTYLE
105
1FE
330
A
100
AcDbSymbolTableRecord
100
AcDbDimStyleTableRecord
  2
Standard
 70
     0
340
11
  0
ENDTAB
  0
TABLE
  2
BLOCK_RECORD
  5
1
330
0
100
AcDbSymbolTable
 70
     0
  0
BLOCK_RECORD
  5
1E
330
1
100
AcDbSymbolTableRecord
100
AcDbBlockTableRecord
  2
*Model_Space
340
21
  0
BLOCK_RECORD
  5
1A
330
1
100
AcDbSymbolTableRecord
100
AcDbBlockTableRecord
  2
*Paper_Space
340
1D
  0
ENDTAB
  0
ENDSEC
  0
SECTION
  2
BLOCKS
  0
BLOCK
  5
1F
330
1E
100
AcDbEntity
  8
0
100
AcDbBlockBegin
  2
*Model_Space
 70
     0
 10
0.0
 20
0.0
 30
0.0
  3
*Model_Space
  1

  0
ENDBLK
  5
20
330
1E
100
AcDbEntity
  8
0
100
AcDbBlockEnd
  0
BLOCK
  5
1B
330
1A
100
AcDbEntity
 67
     1
  8
0
100
AcDbBlockBegin
  2
*Paper_Space
 70
     0
 10
0.0
 20
0.0
 30
0.0
  3
*Paper_Space
  1

  0
ENDBLK
  5
1C
330
1A
100
AcDbEntity
 67
     1
  8
0
100
AcDbBlockEnd
  0
ENDSEC
  0
SECTION
  2
ENTITIES
  0
LINE
  5
22
330
1E
100
AcDbEntity
  8
0
100
AcDbLine
 10
1.006530000000009
 20
72.3773
 30
0.0
 11
3.006530000000009
 21
70.3773
 31
0.0
  0
LINE
  5
23
330
1E
100
AcDbEntity
  8
0
100
AcDbLine
 10
3.006530000000009
 20
70.77729999999999
 30
0.0
 11
3.006530000000009
 21
71.97729999999999
 31
0.0
  0
LINE
  5
24
330
1E
100
AcDbEntity
  8
0
100
AcDbLine
 10
3.006530000000009
 20
70.77729999999999
 30
0.0
 11
3.006530000000009
 21
70.3773
 31
0.0
  0
LINE
  5
25
330
1E
100
AcDbEntity
  8
0
100
AcDbLine
 10
3.006530000000009
 20
71.97729999999999
 30
0.0
 11
3.006530000000009
 21
73.87730000000001
 31
0.0
  0
LINE
  5
26
330
1E
100
AcDbEntity
  8
0
100
AcDbLine
 10
10.00651
 20
70.77729999999999
 30
0.0
 11
10.00651
 21
71.97729999999999
 31
0.0
  0
LINE
  5
27
330
1E
100
AcDbEntity
  8
0
100
AcDbLine
 10
10.00651
 20
70.77729999999999
 30
0.0
 11
10.00651
 21
70.3773
 31
0.0
  0
LINE
  5
28
330
1E
100
AcDbEntity
  8
0
100
AcDbLine
 10
10.00651
 20
71.97729999999999
 30
0.0
 11
10.00651
 21
73.87730000000001
 31
0.0
  0
LINE
  5
29
330
1E
100
AcDbEntity
  8
0
100
AcDbLine
 10
10.00651
 20
71.97729999999999
 30
0.0
 11
10.00651
 21
70.77729999999999
 31
0.0
  0
LINE
  5
2A
330
1E
100
AcDbEntity
  8
0
100
AcDbLine
 10
1.006530000000009
 20
72.3773
 30
0.0
 11
3.006530000000009
 21
70.3773
 31
0.0
  0
LINE
  5
2B
330
1E
100
AcDbEntity
  8
0
100
AcDbLine
 10
1.006530000000009
 20
72.3773
 30
0.0
 11
1.006530000000009
 21
72.7773
 31
0.0
  0
LINE
  5
2C
330
1E
100
AcDbEntity
  8
0
100
AcDbLine
 10
3.006530000000009
 20
70.3773
 30
0.0
 11
10.00651
 21
70.3773
 31
0.0
  0
LINE
  5
2D
330
1E
100
AcDbEntity
  8
0
100
AcDbLine
 10
3.006530000000009
 20
70.3773
 30
0.0
 11
3.006530000000009
 21
70.77729999999999
 31
0.0
  0
LINE
  5
2E
330
1E
100
AcDbEntity
  8
0
100
AcDbLine
 10
10.00651
 20
70.3773
 30
0.0
 11
11.00651
 21
72.3773
 31
0.0
  0
LINE
  5
2F
330
1E
100
AcDbEntity
  8
0
100
AcDbLine
 10
10.00651
 20
70.3773
 30
0.0
 11
10.00651
 21
70.77729999999999
 31
0.0
  0
LINE
  5
30
330
1E
100
AcDbEntity
  8
0
100
AcDbLine
 10
1.006530000000009
 20
73.6773
 30
0.0
 11
1.006530000000009
 21
75.2773
 31
0.0
  0
LINE
  5
31
330
1E
100
AcDbEntity
  8
0
100
AcDbLine
 10
1.006530000000009
 20
72.7773
 30
0.0
 11
1.006530000000009
 21
72.3773
 31
0.0
  0
LINE
  5
32
330
1E
100
AcDbEntity
  8
0
100
AcDbLine
 10
1.006530000000009
 20
72.7773
 30
0.0
 11
1.006530000000009
 21
73.6773
 31
0.0
  0
LINE
  5
33
330
1E
100
AcDbEntity
  8
0
100
AcDbLine
 10
-0.146508999999986
 20
74.4043
 30
0.0
 11
-0.146508999999986
 21
74.7043
 31
0.0
  0
LINE
  5
34
330
1E
100
AcDbEntity
  8
0
100
AcDbLine
 10
-0.146508999999986
 20
74.4043
 30
0.0
 11
0.8534920000000139
 21
74.4043
 31
0.0
  0
LINE
  5
35
330
1E
100
AcDbEntity
  8
0
100
AcDbLine
 10
-0.146508999999986
 20
74.4043
 30
0.0
 11
0.8534920000000139
 21
74.4043
 31
0.0
  0
LINE
  5
36
330
1E
100
AcDbEntity
  8
0
100
AcDbLine
 10
0.853491000000015
 20
74.7043
 30
0.0
 11
0.8534920000000139
 21
75.5043
 31
0.0
  0
LINE
  5
37
330
1E
100
AcDbEntity
  8
0
100
AcDbLine
 10
0.853491000000015
 20
74.7043
 30
0.0
 11
0.8534920000000139
 21
74.4043
 31
0.0
  0
LINE
  5
38
330
1E
100
AcDbEntity
  8
0
100
AcDbLine
 10
3.006530000000009
 20
73.87730000000001
 30
0.0
 11
3.006530000000009
 21
76.4773
 31
0.0
  0
LINE
  5
39
330
1E
100
AcDbEntity
  8
0
100
AcDbLine
 10
3.006530000000009
 20
73.87730000000001
 30
0.0
 11
3.006530000000009
 21
71.97729999999999
 31
0.0
  0
LINE
  5
3A
330
1E
100
AcDbEntity
  8
0
100
AcDbLine
 10
10.00651
 20
73.87730000000001
 30
0.0
 11
10.00651
 21
76.4773
 31
0.0
  0
LINE
  5
3B
330
1E
100
AcDbEntity
  8
0
100
AcDbLine
 10
10.00651
 20
73.87730000000001
 30
0.0
 11
10.00651
 21
71.97729999999999
 31
0.0
  0
LINE
  5
3C
330
1E
100
AcDbEntity
  8
0
100
AcDbLine
 10
-0.146508999999985
 20
76.8043
 30
0.0
 11
-0.146507999999985
 21
75.5043
 31
0.0
  0
LINE
  5
3D
330
1E
100
AcDbEntity
  8
0
100
AcDbLine
 10
0.853491000000015
 20
76.8043
 30
0.0
 11
0.853492000000015
 21
78.40430000000001
 31
0.0
  0
LINE
  5
3E
330
1E
100
AcDbEntity
  8
0
100
AcDbLine
 10
0.853491000000015
 20
76.8043
 30
0.0
 11
0.8534920000000139
 21
75.5043
 31
0.0
  0
LINE
  5
3F
330
1E
100
AcDbEntity
  8
0
100
AcDbLine
 10
1.006530000000009
 20
77.3773
 30
0.0
 11
1.006530000000009
 21
79.7773
 31
0.0
  0
LINE
  5
40
330
1E
100
AcDbEntity
  8
0
100
AcDbLine
 10
3.006530000000009
 20
76.4773
 30
0.0
 11
3.006530000000009
 21
79.2773
 31
0.0
  0
LINE
  5
41
330
1E
100
AcDbEntity
  8
0
100
AcDbLine
 10
3.006530000000009
 20
76.4773
 30
0.0
 11
3.006530000000009
 21
73.87730000000001
 31
0.0
  0
LINE
  5
42
330
1E
100
AcDbEntity
  8
0
100
AcDbLine
 10
10.00651
 20
76.4773
 30
0.0
 11
10.00651
 21
79.2773
 31
0.0
  0
LINE
  5
43
330
1E
100
AcDbEntity
  8
0
100
AcDbLine
 10
10.00651
 20
76.4773
 30
0.0
 11
10.00651
 21
73.87730000000001
 31
0.0
  0
LINE
  5
44
330
1E
100
AcDbEntity
  8
0
100
AcDbLine
 10
1.006530000000009
 20
75.2773
 30
0.0
 11
1.006530000000009
 21
77.3773
 31
0.0
  0
LINE
  5
45
330
1E
100
AcDbEntity
  8
0
100
AcDbLine
 10
1.006530000000009
 20
75.2773
 30
0.0
 11
1.006530000000009
 21
73.6773
 31
0.0
  0
LINE
  5
46
330
1E
100
AcDbEntity
  8
0
100
AcDbLine
 10
-0.146508999999986
 20
74.7043
 30
0.0
 11
-0.146507999999985
 21
75.5043
 31
0.0
  0
LINE
  5
47
330
1E
100
AcDbEntity
  8
0
100
AcDbLine
 10
-0.146509999999985
 20
78.40430000000001
 30
0.0
 11
-0.146508999999985
 21
80.4043
 31
0.0
  0
LINE
  5
48
330
1E
100
AcDbEntity
  8
0
100
AcDbLine
 10
-0.146509999999985
 20
78.40430000000001
 30
0.0
 11
-0.146508999999985
 21
76.8043
 31
0.0
  0
LINE
  5
49
330
1E
100
AcDbEntity
  8
0
100
AcDbLine
 10
3.006530000000009
 20
79.2773
 30
0.0
 11
3.00653000000002
 21
82.3773
 31
0.0
  0
LINE
  5
4A
330
1E
100
AcDbEntity
  8
0
100
AcDbLine
 10
3.006530000000009
 20
79.2773
 30
0.0
 11
3.006530000000009
 21
76.4773
 31
0.0
  0
LINE
  5
4B
330
1E
100
AcDbEntity
  8
0
100
AcDbLine
 10
3.00653000000002
 20
82.3773
 30
0.0
 11
3.00653000000002
 21
85.47729999999999
 31
0.0
  0
LINE
  5
4C
330
1E
100
AcDbEntity
  8
0
100
AcDbLine
 10
10.00651
 20
82.3773
 30
0.0
 11
10.00651
 21
79.2773
 31
0.0
  0
LINE
  5
4D
330
1E
100
AcDbEntity
  8
0
100
AcDbLine
 10
10.00651
 20
82.3773
 30
0.0
 11
10.00651
 21
85.47729999999999
 31
0.0
  0
LINE
  5
4E
330
1E
100
AcDbEntity
  8
0
100
AcDbLine
 10
10.00651
 20
79.2773
 30
0.0
 11
10.00651
 21
82.3773
 31
0.0
  0
LINE
  5
4F
330
1E
100
AcDbEntity
  8
0
100
AcDbLine
 10
10.00651
 20
79.2773
 30
0.0
 11
10.00651
 21
76.4773
 31
0.0
  0
LINE
  5
50
330
1E
100
AcDbEntity
  8
0
100
AcDbLine
 10
1.006530000000009
 20
79.7773
 30
0.0
 11
1.006530000000009
 21
82.3773
 31
0.0
  0
LINE
  5
51
330
1E
100
AcDbEntity
  8
0
100
AcDbLine
 10
1.006530000000009
 20
82.3773
 30
0.0
 11
1.006530000000019
 21
84.9773
 31
0.0
  0
LINE
  5
52
330
1E
100
AcDbEntity
  8
0
100
AcDbLine
 10
0.853491000000015
 20
80.4043
 30
0.0
 11
0.853492000000015
 21
82.40430000000001
 31
0.0
  0
LINE
  5
53
330
1E
100
AcDbEntity
  8
0
100
AcDbLine
 10
0.853491000000015
 20
80.4043
 30
0.0
 11
0.853492000000015
 21
78.40430000000001
 31
0.0
  0
LINE
  5
54
330
1E
100
AcDbEntity
  8
0
100
AcDbLine
 10
0.853492000000015
 20
82.40430000000001
 30
0.0
 11
0.853492000000015
 21
84.4043
 31
0.0
  0
LINE
  5
55
330
1E
100
AcDbEntity
  8
0
100
AcDbLine
 10
-0.146508999999985
 20
84.4043
 30
0.0
 11
-0.146508999999985
 21
86.4043
 31
0.0
  0
LINE
  5
56
330
1E
100
AcDbEntity
  8
0
100
AcDbLine
 10
-0.146508999999985
 20
88.0043
 30
0.0
 11
-0.146508999999985
 21
89.30429999999999
 31
0.0
  0
LINE
  5
57
330
1E
100
AcDbEntity
  8
0
100
AcDbLine
 10
0.853491000000015
 20
88.0043
 30
0.0
 11
0.853492000000015
 21
86.4043
 31
0.0
  0
LINE
  5
58
330
1E
100
AcDbEntity
  8
0
100
AcDbLine
 10
0.853491000000015
 20
88.0043
 30
0.0
 11
0.853492000000015
 21
89.30429999999999
 31
0.0
  0
LINE
  5
59
330
1E
100
AcDbEntity
  8
0
100
AcDbLine
 10
-0.146508999999985
 20
90.10429999999999
 30
0.0
 11
-0.146507999999985
 21
90.4043
 31
0.0
  0
LINE
  5
5A
330
1E
100
AcDbEntity
  8
0
100
AcDbLine
 10
-0.146507999999985
 20
90.4043
 30
0.0
 11
0.853492000000015
 21
90.4043
 31
0.0
  0
LINE
  5
5B
330
1E
100
AcDbEntity
  8
0
100
AcDbLine
 10
-0.146507999999985
 20
90.4043
 30
0.0
 11
0.853492000000015
 21
90.4043
 31
0.0
  0
LINE
  5
5C
330
1E
100
AcDbEntity
  8
0
100
AcDbLine
 10
0.853491000000015
 20
90.10429999999999
 30
0.0
 11
0.853492000000015
 21
90.4043
 31
0.0
  0
LINE
  5
5D
330
1E
100
AcDbEntity
  8
0
100
AcDbLine
 10
0.853491000000015
 20
90.10429999999999
 30
0.0
 11
0.853492000000015
 21
89.30429999999999
 31
0.0
  0
LINE
  5
5E
330
1E
100
AcDbEntity
  8
0
100
AcDbLine
 10
-0.146508999999985
 20
89.30429999999999
 30
0.0
 11
-0.146508999999985
 21
90.10429999999999
 31
0.0
  0
LINE
  5
5F
330
1E
100
AcDbEntity
  8
0
100
AcDbLine
 10
-0.146508999999985
 20
86.4043
 30
0.0
 11
-0.146508999999985
 21
88.0043
 31
0.0
  0
LINE
  5
60
330
1E
100
AcDbEntity
  8
0
100
AcDbLine
 10
1.006530000000019
 20
84.9773
 30
0.0
 11
1.006530000000019
 21
87.3773
 31
0.0
  0
LINE
  5
61
330
1E
100
AcDbEntity
  8
0
100
AcDbLine
 10
3.00653000000002
 20
85.47729999999999
 30
0.0
 11
3.00653000000002
 21
88.2773
 31
0.0
  0
LINE
  5
62
330
1E
100
AcDbEntity
  8
0
100
AcDbLine
 10
3.00653000000002
 20
85.47729999999999
 30
0.0
 11
3.00653000000002
 21
82.3773
 31
0.0
  0
LINE
  5
63
330
1E
100
AcDbEntity
  8
0
100
AcDbLine
 10
1.006530000000019
 20
89.47729999999999
 30
0.0
 11
1.006530000000019
 21
91.0773
 31
0.0
  0
LINE
  5
64
330
1E
100
AcDbEntity
  8
0
100
AcDbLine
 10
3.00653000000002
 20
88.2773
 30
0.0
 11
3.00653000000002
 21
90.8773
 31
0.0
  0
LINE
  5
65
330
1E
100
AcDbEntity
  8
0
100
AcDbLine
 10
3.00653000000002
 20
88.2773
 30
0.0
 11
3.00653000000002
 21
85.47729999999999
 31
0.0
  0
LINE
  5
66
330
1E
100
AcDbEntity
  8
0
100
AcDbLine
 10
1.006530000000019
 20
91.97729999999999
 30
0.0
 11
1.006530000000019
 21
92.3773
 31
0.0
  0
LINE
  5
67
330
1E
100
AcDbEntity
  8
0
100
AcDbLine
 10
1.006530000000019
 20
92.3773
 30
0.0
 11
1.006530000000019
 21
91.97729999999999
 31
0.0
  0
LINE
  5
68
330
1E
100
AcDbEntity
  8
0
100
AcDbLine
 10
1.006530000000019
 20
92.3773
 30
0.0
 11
3.00653000000002
 21
94.3773
 31
0.0
  0
LINE
  5
69
330
1E
100
AcDbEntity
  8
0
100
AcDbLine
 10
1.006530000000019
 20
91.0773
 30
0.0
 11
1.006530000000019
 21
89.47729999999999
 31
0.0
  0
LINE
  5
6A
330
1E
100
AcDbEntity
  8
0
100
AcDbLine
 10
1.006530000000019
 20
91.0773
 30
0.0
 11
1.006530000000019
 21
91.97729999999999
 31
0.0
  0
LINE
  5
6B
330
1E
100
AcDbEntity
  8
0
100
AcDbLine
 10
1.006530000000019
 20
87.3773
 30
0.0
 11
1.006530000000019
 21
89.47729999999999
 31
0.0
  0
LINE
  5
6C
330
1E
100
AcDbEntity
  8
0
100
AcDbLine
 10
3.00653000000002
 20
94.3773
 30
0.0
 11
10.00651
 21
94.3773
 31
0.0
  0
LINE
  5
6D
330
1E
100
AcDbEntity
  8
0
100
AcDbLine
 10
3.00653000000002
 20
94.3773
 30
0.0
 11
3.00653000000002
 21
93.97730000000001
 31
0.0
  0
LINE
  5
6E
330
1E
100
AcDbEntity
  8
0
100
AcDbLine
 10
3.00653000000002
 20
93.97730000000001
 30
0.0
 11
3.00653000000002
 21
94.3773
 31
0.0
  0
LINE
  5
6F
330
1E
100
AcDbEntity
  8
0
100
AcDbLine
 10
3.00653000000002
 20
93.97730000000001
 30
0.0
 11
3.00653000000002
 21
92.7773
 31
0.0
  0
LINE
  5
70
330
1E
100
AcDbEntity
  8
0
100
AcDbLine
 10
3.00653000000002
 20
92.7773
 30
0.0
 11
3.00653000000002
 21
93.97730000000001
 31
0.0
  0
LINE
  5
71
330
1E
100
AcDbEntity
  8
0
100
AcDbLine
 10
3.00653000000002
 20
92.7773
 30
0.0
 11
3.00653000000002
 21
90.8773
 31
0.0
  0
LINE
  5
72
330
1E
100
AcDbEntity
  8
0
100
AcDbLine
 10
3.00653000000002
 20
90.8773
 30
0.0
 11
3.00653000000002
 21
92.7773
 31
0.0
  0
LINE
  5
73
330
1E
100
AcDbEntity
  8
0
100
AcDbLine
 10
10.00651
 20
93.97730000000001
 30
0.0
 11
10.00651
 21
94.3773
 31
0.0
  0
LINE
  5
74
330
1E
100
AcDbEntity
  8
0
100
AcDbLine
 10
10.00651
 20
93.97730000000001
 30
0.0
 11
10.00651
 21
92.7773
 31
0.0
  0
LINE
  5
75
330
1E
100
AcDbEntity
  8
0
100
AcDbLine
 10
10.00651
 20
92.7773
 30
0.0
 11
10.00651
 21
93.97730000000001
 31
0.0
  0
LINE
  5
76
330
1E
100
AcDbEntity
  8
0
100
AcDbLine
 10
10.00651
 20
92.7773
 30
0.0
 11
10.00651
 21
90.8773
 31
0.0
  0
LINE
  5
77
330
1E
100
AcDbEntity
  8
0
100
AcDbLine
 10
10.00651
 20
90.8773
 30
0.0
 11
10.00651
 21
92.7773
 31
0.0
  0
LINE
  5
78
330
1E
100
AcDbEntity
  8
0
100
AcDbLine
 10
10.00651
 20
88.2773
 30
0.0
 11
10.00651
 21
90.8773
 31
0.0
  0
LINE
  5
79
330
1E
100
AcDbEntity
  8
0
100
AcDbLine
 10
10.00651
 20
88.2773
 30
0.0
 11
10.00651
 21
85.47729999999999
 31
0.0
  0
LINE
  5
7A
330
1E
100
AcDbEntity
  8
0
100
AcDbLine
 10
10.00651
 20
85.47729999999999
 30
0.0
 11
10.00651
 21
88.2773
 31
0.0
  0
LINE
  5
7B
330
1E
100
AcDbEntity
  8
0
100
AcDbLine
 10
10.00651
 20
85.47729999999999
 30
0.0
 11
10.00651
 21
82.3773
 31
0.0
  0
LINE
  5
7C
330
1E
100
AcDbEntity
  8
0
100
AcDbLine
 10
3.00653000000002
 20
94.3773
 30
0.0
 11
10.00651
 21
94.3773
 31
0.0
  0
LINE
  5
7D
330
1E
100
AcDbEntity
  8
0
100
AcDbLine
 10
10.00651
 20
94.3773
 30
0.0
 11
11.00651
 21
92.3773
 31
0.0
  0
LINE
  5
7E
330
1E
100
AcDbEntity
  8
0
100
AcDbLine
 10
10.00651
 20
94.3773
 30
0.0
 11
10.00651
 21
93.97730000000001
 31
0.0
  0
LINE
  5
7F
330
1E
100
AcDbEntity
  8
0
100
AcDbLine
 10
0.853492000000015
 20
84.4043
 30
0.0
 11
0.853492000000015
 21
86.4043
 31
0.0
  0
LINE
  5
80
330
1E
100
AcDbEntity
  8
0
100
AcDbLine
 10
-0.146509999999985
 20
82.40430000000001
 30
0.0
 11
-0.146508999999985
 21
80.4043
 31
0.0
  0
LINE
  5
81
330
1E
100
AcDbEntity
  8
0
100
AcDbLine
 10
-0.146509999999985
 20
82.40430000000001
 30
0.0
 11
-0.146508999999985
 21
84.4043
 31
0.0
  0
LINE
  5
82
330
1E
100
AcDbEntity
  8
0
100
AcDbLine
 10
11.00651
 20
84.9773
 30
0.0
 11
11.00651
 21
87.3773
 31
0.0
  0
LINE
  5
83
330
1E
100
AcDbEntity
  8
0
100
AcDbLine
 10
11.00651
 20
84.9773
 30
0.0
 11
11.00651
 21
82.3773
 31
0.0
  0
LINE
  5
84
330
1E
100
AcDbEntity
  8
0
100
AcDbLine
 10
11.00651
 20
82.3773
 30
0.0
 11
11.00651
 21
79.7773
 31
0.0
  0
LINE
  5
85
330
1E
100
AcDbEntity
  8
0
100
AcDbLine
 10
11.00651
 20
79.7773
 30
0.0
 11
11.00651
 21
77.3773
 31
0.0
  0
LINE
  5
86
330
1E
100
AcDbEntity
  8
0
100
AcDbLine
 10
11.00651
 20
77.3773
 30
0.0
 11
11.00651
 21
75.2773
 31
0.0
  0
LINE
  5
87
330
1E
100
AcDbEntity
  8
0
100
AcDbLine
 10
11.00651
 20
75.2773
 30
0.0
 11
11.00651
 21
73.6773
 31
0.0
  0
LINE
  5
88
330
1E
100
AcDbEntity
  8
0
100
AcDbLine
 10
11.00651
 20
73.6773
 30
0.0
 11
11.00651
 21
72.7773
 31
0.0
  0
LINE
  5
89
330
1E
100
AcDbEntity
  8
0
100
AcDbLine
 10
11.00651
 20
89.47729999999999
 30
0.0
 11
11.00651
 21
87.3773
 31
0.0
  0
LINE
  5
8A
330
1E
100
AcDbEntity
  8
0
100
AcDbLine
 10
11.00651
 20
91.0773
 30
0.0
 11
11.00651
 21
89.47729999999999
 31
0.0
  0
LINE
  5
8B
330
1E
100
AcDbEntity
  8
0
100
AcDbLine
 10
11.00651
 20
91.97729999999999
 30
0.0
 11
11.00651
 21
91.0773
 31
0.0
  0
LINE
  5
8C
330
1E
100
AcDbEntity
  8
0
100
AcDbLine
 10
11.00651
 20
72.7773
 30
0.0
 11
11.00651
 21
72.3773
 31
0.0
  0
LINE
  5
8D
330
1E
100
AcDbEntity
  8
0
100
AcDbLine
 10
11.00651
 20
72.3773
 30
0.0
 11
13.00651
 21
70.3773
 31
0.0
  0
LINE
  5
8E
330
1E
100
AcDbEntity
  8
0
100
AcDbLine
 10
13.00651
 20
73.87730000000001
 30
0.0
 11
13.00651
 21
71.97729999999999
 31
0.0
  0
LINE
  5
8F
330
1E
100
AcDbEntity
  8
0
100
AcDbLine
 10
13.00651
 20
73.87730000000001
 30
0.0
 11
13.00651
 21
76.4773
 31
0.0
  0
LINE
  5
90
330
1E
100
AcDbEntity
  8
0
100
AcDbLine
 10
13.00651
 20
71.97729999999999
 30
0.0
 11
13.00651
 21
70.77729999999999
 31
0.0
  0
LINE
  5
91
330
1E
100
AcDbEntity
  8
0
100
AcDbLine
 10
13.00651
 20
71.97729999999999
 30
0.0
 11
13.00651
 21
73.87730000000001
 31
0.0
  0
LINE
  5
92
330
1E
100
AcDbEntity
  8
0
100
AcDbLine
 10
13.00651
 20
70.77729999999999
 30
0.0
 11
13.00651
 21
70.3773
 31
0.0
  0
LINE
  5
93
330
1E
100
AcDbEntity
  8
0
100
AcDbLine
 10
13.00651
 20
70.77729999999999
 30
0.0
 11
13.00651
 21
71.97729999999999
 31
0.0
  0
LINE
  5
94
330
1E
100
AcDbEntity
  8
0
100
AcDbLine
 10
13.00651
 20
76.4773
 30
0.0
 11
13.00651
 21
79.2773
 31
0.0
  0
LINE
  5
95
330
1E
100
AcDbEntity
  8
0
100
AcDbLine
 10
13.00651
 20
85.47729999999999
 30
0.0
 11
13.00651
 21
82.3773
 31
0.0
  0
LINE
  5
96
330
1E
100
AcDbEntity
  8
0
100
AcDbLine
 10
13.00651
 20
85.47729999999999
 30
0.0
 11
13.00651
 21
88.2773
 31
0.0
  0
LINE
  5
97
330
1E
100
AcDbEntity
  8
0
100
AcDbLine
 10
13.00651
 20
88.2773
 30
0.0
 11
13.00651
 21
85.47729999999999
 31
0.0
  0
LINE
  5
98
330
1E
100
AcDbEntity
  8
0
100
AcDbLine
 10
13.00651
 20
88.2773
 30
0.0
 11
13.00651
 21
90.8773
 31
0.0
  0
LINE
  5
99
330
1E
100
AcDbEntity
  8
0
100
AcDbLine
 10
13.00651
 20
90.8773
 30
0.0
 11
13.00651
 21
88.2773
 31
0.0
  0
LINE
  5
9A
330
1E
100
AcDbEntity
  8
0
100
AcDbLine
 10
13.00651
 20
90.8773
 30
0.0
 11
13.00651
 21
92.7773
 31
0.0
  0
LINE
  5
9B
330
1E
100
AcDbEntity
  8
0
100
AcDbLine
 10
13.00651
 20
92.7773
 30
0.0
 11
13.00651
 21
90.8773
 31
0.0
  0
LINE
  5
9C
330
1E
100
AcDbEntity
  8
0
100
AcDbLine
 10
13.00651
 20
92.7773
 30
0.0
 11
13.00651
 21
93.97730000000001
 31
0.0
  0
LINE
  5
9D
330
1E
100
AcDbEntity
  8
0
100
AcDbLine
 10
13.00651
 20
93.97730000000001
 30
0.0
 11
13.00651
 21
92.7773
 31
0.0
  0
LINE
  5
9E
330
1E
100
AcDbEntity
  8
0
100
AcDbLine
 10
13.00651
 20
93.97730000000001
 30
0.0
 11
13.00651
 21
94.3773
 31
0.0
  0
LINE
  5
9F
330
1E
100
AcDbEntity
  8
0
100
AcDbLine
 10
13.00651
 20
82.3773
 30
0.0
 11
13.00651
 21
79.2773
 31
0.0
  0
LINE
  5
A0
330
1E
100
AcDbEntity
  8
0
100
AcDbLine
 10
13.00651
 20
82.3773
 30
0.0
 11
13.00651
 21
85.47729999999999
 31
0.0
  0
LINE
  5
A1
330
1E
100
AcDbEntity
  8
0
100
AcDbLine
 10
13.00651
 20
79.2773
 30
0.0
 11
13.00651
 21
76.4773
 31
0.0
  0
LINE
  5
A2
330
1E
100
AcDbEntity
  8
0
100
AcDbLine
 10
13.00651
 20
79.2773
 30
0.0
 11
13.00651
 21
82.3773
 31
0.0
  0
LINE
  5
A3
330
1E
100
AcDbEntity
  8
0
100
AcDbLine
 10
13.00651
 20
70.3773
 30
0.0
 11
21.00651
 21
70.3773
 31
0.0
  0
LINE
  5
A4
330
1E
100
AcDbEntity
  8
0
100
AcDbLine
 10
13.00651
 20
70.3773
 30
0.0
 11
13.00651
 21
70.77729999999999
 31
0.0
  0
LINE
  5
A5
330
1E
100
AcDbEntity
  8
0
100
AcDbLine
 10
21.00651
 20
70.3773
 30
0.0
 11
25.0404371496401
 21
71.2737282554756
 31
0.0
  0
LINE
  5
A6
330
1E
100
AcDbEntity
  8
0
100
AcDbLine
 10
11.00651
 20
92.3773
 30
0.0
 11
13.00651
 21
94.3773
 31
0.0
  0
LINE
  5
A7
330
1E
100
AcDbEntity
  8
0
100
AcDbLine
 10
11.00651
 20
92.3773
 30
0.0
 11
11.00651
 21
91.97729999999999
 31
0.0
  0
LINE
  5
A8
330
1E
100
AcDbEntity
  8
0
100
AcDbLine
 10
13.00651
 20
94.3773
 30
0.0
 11
21.00651
 21
94.3773
 31
0.0
  0
LINE
  5
A9
330
1E
100
AcDbEntity
  8
0
100
AcDbLine
 10
13.00651
 20
94.3773
 30
0.0
 11
13.00651
 21
93.97730000000001
 31
0.0
  0
LINE
  5
B4
330
1E
100
AcDbEntity
  8
0
100
AcDbLine
 10
21.00651
 20
94.3773
 30
0.0
 11
24.9989084764087
 21
93.49010033857579
 31
0.0
  0
LINE
  5
B5
330
1E
100
AcDbEntity
  8
0
100
AcDbLine
 10
24.98721
 20
98.02039999999999
 30
0.0
 11
27.37000999999999
 21
100.0
 31
0.0
  0
LINE
  5
BD
330
1E
100
AcDbEntity
  8
0
100
AcDbLine
 10
27.37000999999999
 20
66.4
 30
0.0
 11
27.37000999999999
 21
64.7
 31
0.0
  0
LINE
  5
BE
330
1E
100
AcDbEntity
  8
0
100
AcDbLine
 10
27.37000999999999
 20
66.4
 30
0.0
 11
27.37000999999999
 21
69.29999999999999
 31
0.0
  0
LINE
  5
BF
330
1E
100
AcDbEntity
  8
0
100
AcDbLine
 10
27.37000999999999
 20
69.29999999999999
 30
0.0
 11
27.37000999999999
 21
73.09999999999999
 31
0.0
  0
LINE
  5
C0
330
1E
100
AcDbEntity
  8
0
100
AcDbLine
 10
27.37000999999999
 20
82.0
 30
0.0
 11
27.37000999999999
 21
77.40000000000001
 31
0.0
  0
LINE
  5
C1
330
1E
100
AcDbEntity
  8
0
100
AcDbLine
 10
27.37000999999999
 20
82.0
 30
0.0
 11
27.37000999999999
 21
86.6
 31
0.0
  0
LINE
  5
C2
330
1E
100
AcDbEntity
  8
0
100
AcDbLine
 10
27.37000999999999
 20
77.40000000000001
 30
0.0
 11
27.37000999999999
 21
73.09999999999999
 31
0.0
  0
LINE
  5
C3
330
1E
100
AcDbEntity
  8
0
100
AcDbLine
 10
27.37000999999999
 20
77.40000000000001
 30
0.0
 11
27.37000999999999
 21
82.0
 31
0.0
  0
LINE
  5
C4
330
1E
100
AcDbEntity
  8
0
100
AcDbLine
 10
27.37000999999999
 20
73.09999999999999
 30
0.0
 11
27.37000999999999
 21
69.29999999999999
 31
0.0
  0
LINE
  5
C5
330
1E
100
AcDbEntity
  8
0
100
AcDbLine
 10
27.37000999999999
 20
73.09999999999999
 30
0.0
 11
27.37000999999999
 21
77.40000000000001
 31
0.0
  0
LINE
  5
C6
330
1E
100
AcDbEntity
  8
0
100
AcDbLine
 10
27.37000999999999
 20
64.7
 30
0.0
 11
27.37000999999999
 21
64.0
 31
0.0
  0
LINE
  5
C7
330
1E
100
AcDbEntity
  8
0
100
AcDbLine
 10
27.37000999999999
 20
64.7
 30
0.0
 11
27.37000999999999
 21
66.4
 31
0.0
  0
LINE
  5
C8
330
1E
100
AcDbEntity
  8
0
100
AcDbLine
 10
27.37000999999999
 20
99.29999999999999
 30
0.0
 11
27.37000999999999
 21
97.59999999999999
 31
0.0
  0
LINE
  5
C9
330
1E
100
AcDbEntity
  8
0
100
AcDbLine
 10
27.37000999999999
 20
99.29999999999999
 30
0.0
 11
27.37000999999999
 21
100.0
 31
0.0
  0
LINE
  5
CA
330
1E
100
AcDbEntity
  8
0
100
AcDbLine
 10
27.37000999999999
 20
97.59999999999999
 30
0.0
 11
27.37000999999999
 21
94.7
 31
0.0
  0
LINE
  5
CB
330
1E
100
AcDbEntity
  8
0
100
AcDbLine
 10
27.37000999999999
 20
97.59999999999999
 30
0.0
 11
27.37000999999999
 21
99.29999999999999
 31
0.0
  0
LINE
  5
CC
330
1E
100
AcDbEntity
  8
0
100
AcDbLine
 10
27.37000999999999
 20
94.7
 30
0.0
 11
27.37000999999999
 21
90.90000000000001
 31
0.0
  0
LINE
  5
CD
330
1E
100
AcDbEntity
  8
0
100
AcDbLine
 10
27.37000999999999
 20
94.7
 30
0.0
 11
27.37000999999999
 21
97.59999999999999
 31
0.0
  0
LINE
  5
CE
330
1E
100
AcDbEntity
  8
0
100
AcDbLine
 10
27.37000999999999
 20
90.90000000000001
 30
0.0
 11
27.37000999999999
 21
86.6
 31
0.0
  0
LINE
  5
CF
330
1E
100
AcDbEntity
  8
0
100
AcDbLine
 10
27.37000999999999
 20
90.90000000000001
 30
0.0
 11
27.37000999999999
 21
94.7
 31
0.0
  0
LINE
  5
D0
330
1E
100
AcDbEntity
  8
0
100
AcDbLine
 10
27.37000999999999
 20
86.6
 30
0.0
 11
27.37000999999999
 21
82.0
 31
0.0
  0
LINE
  5
D1
330
1E
100
AcDbEntity
  8
0
100
AcDbLine
 10
27.37000999999999
 20
86.6
 30
0.0
 11
27.37000999999999
 21
90.90000000000001
 31
0.0
  0
LINE
  5
D2
330
1E
100
AcDbEntity
  8
0
100
AcDbLine
 10
27.37000999999999
 20
100.0
 30
0.0
 11
46.67000999999999
 21
98.1
 31
0.0
  0
LINE
  5
D3
330
1E
100
AcDbEntity
  8
0
100
AcDbLine
 10
27.37000999999999
 20
100.0
 30
0.0
 11
27.37000999999999
 21
99.29999999999999
 31
0.0
  0
LINE
  5
D4
330
1E
100
AcDbEntity
  8
0
100
AcDbLine
 10
25.05621
 20
66.3569
 30
0.0
 11
27.37000999999999
 21
64.0
 31
0.0
  0
LINE
  5
D5
330
1E
100
AcDbEntity
  8
0
100
AcDbLine
 10
27.37000999999999
 20
64.0
 30
0.0
 11
40.47000999999999
 21
62.7
 31
0.0
  0
LINE
  5
D6
330
1E
100
AcDbEntity
  8
0
100
AcDbLine
 10
27.37000999999999
 20
64.0
 30
0.0
 11
27.37000999999999
 21
64.7
 31
0.0
  0
LINE
  5
D7
330
1E
100
AcDbEntity
  8
0
100
AcDbLine
 10
46.67000999999999
 20
98.1
 30
0.0
 11
66.87000999999999
 21
93.49999999999999
 31
0.0
  0
LINE
  5
D8
330
1E
100
AcDbEntity
  8
0
100
AcDbLine
 10
40.47000999999999
 20
62.7
 30
0.0
 11
54.07001
 21
58.5
 31
0.0
  0
LINE
  5
D9
330
1E
100
AcDbEntity
  8
0
100
AcDbLine
 10
54.07001
 20
58.5
 30
0.0
 11
67.17000999999999
 21
51.7
 31
0.0
  0
LINE
  5
DA
330
1E
100
AcDbEntity
  8
0
100
AcDbLine
 10
66.87000999999999
 20
93.49999999999999
 30
0.0
 11
86.37000999999999
 21
85.09999999999999
 31
0.0
  0
LINE
  5
DB
330
1E
100
AcDbEntity
  8
0
100
AcDbLine
 10
67.17000999999999
 20
51.7
 30
0.0
 11
76.37000999999999
 21
43.2
 31
0.0
  0
LINE
  5
DC
330
1E
100
AcDbEntity
  8
0
100
AcDbLine
 10
83.63431
 20
109.0459999999999
 30
0.0
 11
83.71881
 21
109.22
 31
0.0
  0
LINE
  5
DD
330
1E
100
AcDbEntity
  8
0
100
AcDbLine
 10
82.17271
 20
110.6149999999999
 30
0.0
 11
82.57820999999999
 21
111.451
 31
0.0
  0
LINE
  5
DE
330
1E
100
AcDbEntity
  8
0
100
AcDbLine
 10
81.91931
 20
110.0929999999999
 30
0.0
 11
82.17271
 21
110.6149999999999
 31
0.0
  0
LINE
  5
DF
330
1E
100
AcDbEntity
  8
0
100
AcDbLine
 10
81.83481
 20
109.9189999999999
 30
0.0
 11
82.20021
 21
109.526
 31
0.0
  0
LINE
  5
E0
330
1E
100
AcDbEntity
  8
0
100
AcDbLine
 10
81.83481
 20
109.9189999999999
 30
0.0
 11
81.91931
 21
110.0929999999999
 31
0.0
  0
LINE
  5
E1
330
1E
100
AcDbEntity
  8
0
100
AcDbLine
 10
83.71021
 20
113.785
 30
0.0
 11
84.36911
 21
115.1429999999999
 31
0.0
  0
LINE
  5
E2
330
1E
100
AcDbEntity
  8
0
100
AcDbLine
 10
83.10200999999999
 20
112.531
 30
0.0
 11
83.71021
 21
113.785
 31
0.0
  0
LINE
  5
E3
330
1E
100
AcDbEntity
  8
0
100
AcDbLine
 10
82.57820999999999
 20
111.451
 30
0.0
 11
83.10200999999999
 21
112.531
 31
0.0
  0
LINE
  5
E4
330
1E
100
AcDbEntity
  8
0
100
AcDbLine
 10
83.97221
 20
109.742
 30
0.0
 11
84.37770999999999
 21
110.5779999999999
 31
0.0
  0
LINE
  5
E5
330
1E
100
AcDbEntity
  8
0
100
AcDbLine
 10
83.71881
 20
109.22
 30
0.0
 11
83.97221
 21
109.742
 31
0.0
  0
LINE
  5
E6
330
1E
100
AcDbEntity
  8
0
100
AcDbLine
 10
82.20021
 20
109.526
 30
0.0
 11
83.09991
 21
109.0899999999999
 31
0.0
  0
LINE
  5
E7
330
1E
100
AcDbEntity
  8
0
100
AcDbLine
 10
83.09991
 20
109.0899999999999
 30
0.0
 11
83.63431
 21
109.0459999999999
 31
0.0
  0
LINE
  5
E8
330
1E
100
AcDbEntity
  8
0
100
AcDbLine
 10
76.37000999999999
 20
43.2
 30
0.0
 11
83.97001000000001
 21
32.29999999999999
 31
0.0
  0
LINE
  5
E9
330
1E
100
AcDbEntity
  8
0
100
AcDbLine
 10
83.97001000000001
 20
32.29999999999999
 30
0.0
 11
88.77000999999999
 21
20.69999999999999
 31
0.0
  0
LINE
  5
EA
330
1E
100
AcDbEntity
  8
0
100
AcDbLine
 10
85.37001
 20
-0.0000000000000043
 30
0.0
 11
86.37000999999999
 21
2.0
 31
0.0
  0
LINE
  5
EB
330
1E
100
AcDbEntity
  8
0
100
AcDbLine
 10
89.67000999999999
 20
-0.0000000000000045
 30
0.0
 11
94.87000999999999
 21
-0.0000000000000048
 31
0.0
  0
LINE
  5
EC
330
1E
100
AcDbEntity
  8
0
100
AcDbLine
 10
86.47001000000001
 20
-0.0000000000000043
 30
0.0
 11
89.67000999999999
 21
-0.0000000000000045
 31
0.0
  0
LINE
  5
ED
330
1E
100
AcDbEntity
  8
0
100
AcDbLine
 10
86.37000999999999
 20
2.0
 30
0.0
 11
87.87001
 21
5.0
 31
0.0
  0
LINE
  5
EE
330
1E
100
AcDbEntity
  8
0
100
AcDbLine
 10
86.37000999999999
 20
85.09999999999999
 30
0.0
 11
89.87000999999999
 21
84.0
 31
0.0
  0
LINE
  5
EF
330
1E
100
AcDbEntity
  8
0
100
AcDbLine
 10
88.87000999999999
 20
9.499999999999991
 30
0.0
 11
89.87000999999999
 21
10.5
 31
0.0
  0
LINE
  5
F0
330
1E
100
AcDbEntity
  8
0
100
AcDbLine
 10
88.87000999999999
 20
9.499999999999991
 30
0.0
 11
88.87000999999999
 21
8.0
 31
0.0
  0
LINE
  5
F4
330
1E
100
AcDbEntity
  8
0
100
AcDbLine
 10
88.87000999999999
 20
8.0
 30
0.0
 11
89.87000999999999
 21
7.0
 31
0.0
  0
LINE
  5
F5
330
1E
100
AcDbEntity
  8
0
100
AcDbLine
 10
88.87000999999999
 20
8.0
 30
0.0
 11
88.87000999999999
 21
9.499999999999991
 31
0.0
  0
LINE
  5
F7
330
1E
100
AcDbEntity
  8
0
100
AcDbLine
 10
89.87000999999999
 20
7.0
 30
0.0
 11
90.87000999999998
 21
6.99999999999999
 31
0.0
  0
LINE
  5
F8
330
1E
100
AcDbEntity
  8
0
100
AcDbLine
 10
90.87000999999998
 20
6.99999999999999
 30
0.0
 11
93.57001
 21
6.99999999999999
 31
0.0
  0
LINE
  5
FC
330
1E
100
AcDbEntity
  8
0
100
AcDbLine
 10
90.87000999999998
 20
10.5
 30
0.0
 11
93.57001
 21
10.5
 31
0.0
  0
LINE
  5
FD
330
1E
100
AcDbEntity
  8
0
100
AcDbLine
 10
89.87000999999999
 20
10.5
 30
0.0
 11
90.87000999999998
 21
10.5
 31
0.0
  0
LINE
  5
FE
330
1E
100
AcDbEntity
  8
0
100
AcDbLine
 10
91.77001
 20
85.0
 30
0.0
 11
94.47001
 21
85.0
 31
0.0
  0
LINE
  5
FF
330
1E
100
AcDbEntity
  8
0
100
AcDbLine
 10
90.87000999999998
 20
85.0
 30
0.0
 11
91.77001
 21
85.0
 31
0.0
  0
LINE
  5
100
330
1E
100
AcDbEntity
  8
0
100
AcDbLine
 10
89.87000999999999
 20
84.0
 30
0.0
 11
90.87000999999998
 21
85.0
 31
0.0
  0
LINE
  5
103
330
1E
100
AcDbEntity
  8
0
100
AcDbLine
 10
88.77000999999999
 20
20.69999999999999
 30
0.0
 11
89.87000999999999
 21
10.5
 31
0.0
  0
LINE
  5
104
330
1E
100
AcDbEntity
  8
0
100
AcDbLine
 10
87.87001
 20
5.0
 30
0.0
 11
89.87000999999999
 21
7.0
 31
0.0
  0
LINE
  5
105
330
1E
100
AcDbEntity
  8
0
100
AcDbLine
 10
86.37000999999999
 20
2.0
 30
0.0
 11
87.87001
 21
5.0
 31
0.0
  0
LINE
  5
106
330
1E
100
AcDbEntity
  8
0
100
AcDbLine
 10
85.37001
 20
-0.0000000000000042
 30
0.0
 11
86.47001000000001
 21
-0.0000000000000043
 31
0.0
  0
LINE
  5
107
330
1E
100
AcDbEntity
  8
0
100
AcDbLine
 10
85.37001
 20
-0.0000000000000042
 30
0.0
 11
86.37000999999999
 21
2.0
 31
0.0
  0
LINE
  5
10A
330
1E
100
AcDbEntity
  8
0
100
AcDbLine
 10
93.35351000000001
 20
86.0
 30
0.0
 11
93.5201766666667
 21
87.0
 31
0.0
  0
LINE
  5
10B
330
1E
100
AcDbEntity
  8
0
100
AcDbLine
 10
93.35351000000001
 20
86.0
 30
0.0
 11
93.35351000000001
 21
85.0
 31
0.0
  0
LINE
  5
10C
330
1E
100
AcDbEntity
  8
0
100
AcDbLine
 10
93.57001
 20
10.5
 30
0.0
 11
98.07000999999999
 21
10.5
 31
0.0
  0
LINE
  5
10D
330
1E
100
AcDbEntity
  8
0
100
AcDbLine
 10
93.35351000000001
 20
85.0
 30
0.0
 11
93.35351000000001
 21
86.0
 31
0.0
  0
LINE
  5
10E
330
1E
100
AcDbEntity
  8
0
100
AcDbLine
 10
93.57001
 20
6.99999999999999
 30
0.0
 11
98.07000999999999
 21
6.99999999999999
 31
0.0
  0
LINE
  5
10F
330
1E
100
AcDbEntity
  8
0
100
AcDbLine
 10
94.47001
 20
85.0
 30
0.0
 11
98.77000999999999
 21
85.0
 31
0.0
  0
LINE
  5
110
330
1E
100
AcDbEntity
  8
0
100
AcDbLine
 10
94.87000999999999
 20
-0.0000000000000048
 30
0.0
 11
101.6695099999999
 21
-0.0000000000000052
 31
0.0
  0
LINE
  5
111
330
1E
100
AcDbEntity
  8
0
100
AcDbLine
 10
98.07000999999999
 20
10.5
 30
0.0
 11
103.97051
 21
10.5
 31
0.0
  0
LINE
  5
115
330
1E
100
AcDbEntity
  8
0
100
AcDbLine
 10
103.97051
 20
10.5
 30
0.0
 11
110.66951
 21
10.5
 31
0.0
  0
LINE
  5
117
330
1E
100
AcDbEntity
  8
0
100
AcDbLine
 10
103.97051
 20
6.99999999999999
 30
0.0
 11
110.66951
 21
6.99999999999999
 31
0.0
  0
LINE
  5
118
330
1E
100
AcDbEntity
  8
0
100
AcDbLine
 10
98.07000999999999
 20
6.99999999999999
 30
0.0
 11
103.97051
 21
6.99999999999999
 31
0.0
  0
LINE
  5
119
330
1E
100
AcDbEntity
  8
0
100
AcDbLine
 10
101.6695099999999
 20
-0.0000000000000052
 30
0.0
 11
109.47051
 21
-0.0000000000000057
 31
0.0
  0
LINE
  5
11A
330
1E
100
AcDbEntity
  8
0
100
AcDbLine
 10
103.97051
 20
84.0
 30
0.0
 11
110.66951
 21
84.0
 31
0.0
  0
LINE
  5
11B
330
1E
100
AcDbEntity
  8
0
100
AcDbLine
 10
104.47051
 20
85.0
 30
0.0
 11
110.9705099999999
 21
85.0
 31
0.0
  0
LINE
  5
11C
330
1E
100
AcDbEntity
  8
0
100
AcDbLine
 10
98.77000999999999
 20
85.0
 30
0.0
 11
104.47051
 21
85.0
 31
0.0
  0
LINE
  5
11D
330
1E
100
AcDbEntity
  8
0
100
AcDbLine
 10
89.87000999999999
 20
84.0
 30
0.0
 11
103.97051
 21
84.0
 31
0.0
  0
LINE
  5
120
330
1E
100
AcDbEntity
  8
0
100
AcDbLine
 10
110.66951
 20
6.99999999999999
 30
0.0
 11
117.87051
 21
6.99999999999999
 31
0.0
  0
LINE
  5
121
330
1E
100
AcDbEntity
  8
0
100
AcDbLine
 10
110.66951
 20
84.0
 30
0.0
 11
117.87051
 21
84.0
 31
0.0
  0
LINE
  5
122
330
1E
100
AcDbEntity
  8
0
100
AcDbLine
 10
110.9705099999999
 20
85.0
 30
0.0
 11
117.87051
 21
85.0
 31
0.0
  0
LINE
  5
123
330
1E
100
AcDbEntity
  8
0
100
AcDbLine
 10
110.66951
 20
10.5
 30
0.0
 11
117.87051
 21
10.5
 31
0.0
  0
LINE
  5
124
330
1E
100
AcDbEntity
  8
0
100
AcDbLine
 10
109.47051
 20
-0.0000000000000057
 30
0.0
 11
117.87051
 21
-0.0000000000000062
 31
0.0
  0
LINE
  5
127
330
1E
100
AcDbEntity
  8
0
100
AcDbLine
 10
117.87051
 20
6.99999999999999
 30
0.0
 11
125.06951
 21
6.99999999999999
 31
0.0
  0
LINE
  5
128
330
1E
100
AcDbEntity
  8
0
100
AcDbLine
 10
117.87051
 20
85.0
 30
0.0
 11
124.76951
 21
85.0
 31
0.0
  0
LINE
  5
129
330
1E
100
AcDbEntity
  8
0
100
AcDbLine
 10
117.87051
 20
84.0
 30
0.0
 11
125.06951
 21
84.0
 31
0.0
  0
LINE
  5
12A
330
1E
100
AcDbEntity
  8
0
100
AcDbLine
 10
117.87051
 20
10.5
 30
0.0
 11
125.06951
 21
10.5
 31
0.0
  0
LINE
  5
12D
330
1E
100
AcDbEntity
  8
0
100
AcDbLine
 10
125.06951
 20
6.99999999999999
 30
0.0
 11
131.7705099999999
 21
6.99999999999999
 31
0.0
  0
LINE
  5
12E
330
1E
100
AcDbEntity
  8
0
100
AcDbLine
 10
131.7705099999999
 20
6.99999999999999
 30
0.0
 11
137.66951
 21
6.99999999999999
 31
0.0
  0
LINE
  5
12F
330
1E
100
AcDbEntity
  8
0
100
AcDbLine
 10
126.26951
 20
-0.0000000000000067
 30
0.0
 11
134.07051
 21
-0.0000000000000072
 31
0.0
  0
LINE
  5
130
330
1E
100
AcDbEntity
  8
0
100
AcDbLine
 10
125.06951
 20
10.5
 30
0.0
 11
131.7705099999999
 21
10.5
 31
0.0
  0
LINE
  5
135
330
1E
100
AcDbEntity
  8
0
100
AcDbLine
 10
137.66951
 20
6.99999999999999
 30
0.0
 11
142.1695099999999
 21
6.99999999999999
 31
0.0
  0
LINE
  5
136
330
1E
100
AcDbEntity
  8
0
100
AcDbLine
 10
131.7705099999999
 20
10.5
 30
0.0
 11
137.66951
 21
10.5
 31
0.0
  0
LINE
  5
137
330
1E
100
AcDbEntity
  8
0
100
AcDbLine
 10
125.06951
 20
84.0
 30
0.0
 11
131.7705099999999
 21
84.0
 31
0.0
  0
LINE
  5
138
330
1E
100
AcDbEntity
  8
0
100
AcDbLine
 10
124.76951
 20
85.0
 30
0.0
 11
131.27051
 21
85.0
 31
0.0
  0
LINE
  5
139
330
1E
100
AcDbEntity
  8
0
100
AcDbLine
 10
131.27051
 20
85.0
 30
0.0
 11
136.97051
 21
85.0
 31
0.0
  0
LINE
  5
13A
330
1E
100
AcDbEntity
  8
0
100
AcDbLine
 10
136.97051
 20
85.0
 30
0.0
 11
141.2705099999999
 21
85.0
 31
0.0
  0
LINE
  5
13B
330
1E
100
AcDbEntity
  8
0
100
AcDbLine
 10
131.7705099999999
 20
84.0
 30
0.0
 11
137.66951
 21
84.0
 31
0.0
  0
LINE
  5
13C
330
1E
100
AcDbEntity
  8
0
100
AcDbLine
 10
137.66951
 20
84.0
 30
0.0
 11
142.1695099999999
 21
84.0
 31
0.0
  0
LINE
  5
13D
330
1E
100
AcDbEntity
  8
0
100
AcDbLine
 10
137.66951
 20
10.5
 30
0.0
 11
142.1695099999999
 21
10.5
 31
0.0
  0
LINE
  5
13E
330
1E
100
AcDbEntity
  8
0
100
AcDbLine
 10
117.87051
 20
-0.0000000000000062
 30
0.0
 11
126.26951
 21
-0.0000000000000067
 31
0.0
  0
LINE
  5
13F
330
1E
100
AcDbEntity
  8
0
100
AcDbLine
 10
134.07051
 20
-0.0000000000000072
 30
0.0
 11
140.86951
 21
-0.0000000000000076
 31
0.0
  0
LINE
  5
142
330
1E
100
AcDbEntity
  8
0
100
AcDbLine
 10
142.1695099999999
 20
6.99999999999999
 30
0.0
 11
144.86951
 21
6.99999999999999
 31
0.0
  0
LINE
  5
143
330
1E
100
AcDbEntity
  8
0
100
AcDbLine
 10
144.86951
 20
6.99999999999999
 30
0.0
 11
145.86951
 21
6.99999999999999
 31
0.0
  0
LINE
  5
144
330
1E
100
AcDbEntity
  8
0
100
AcDbLine
 10
142.1695099999999
 20
10.5
 30
0.0
 11
144.86951
 21
10.5
 31
0.0
  0
LINE
  5
147
330
1E
100
AcDbEntity
  8
0
100
AcDbLine
 10
144.86951
 20
10.5
 30
0.0
 11
145.86951
 21
10.5
 31
0.0
  0
LINE
  5
14A
330
1E
100
AcDbEntity
  8
0
100
AcDbLine
 10
144.86951
 20
37.58203783479629
 30
0.0
 11
149.3705073523399
 21
51.8614342066568
 31
0.0
  0
LINE
  5
14B
330
1E
100
AcDbEntity
  8
0
100
AcDbLine
 10
144.8295099999999
 20
22.3198
 30
0.0
 11
153.7128665737269
 21
50.5022137405601
 31
0.0
  0
LINE
  5
14C
330
1E
100
AcDbEntity
  8
0
100
AcDbLine
 10
142.1695099999999
 20
84.0
 30
0.0
 11
144.86951
 21
84.0
 31
0.0
  0
LINE
  5
14D
330
1E
100
AcDbEntity
  8
0
100
AcDbLine
 10
144.86951
 20
84.0
 30
0.0
 11
145.86951
 21
84.0
 31
0.0
  0
LINE
  5
14E
330
1E
100
AcDbEntity
  8
0
100
AcDbLine
 10
145.86951
 20
40.75453389601619
 30
0.0
 11
145.86951
 21
84.0
 31
0.0
  0
LINE
  5
14F
330
1E
100
AcDbEntity
  8
0
100
AcDbLine
 10
145.86951
 20
10.5
 30
0.0
 11
145.86951
 21
25.6191959036687
 31
0.0
  0
LINE
  5
150
330
1E
100
AcDbEntity
  8
0
100
AcDbLine
 10
145.86951
 20
10.5
 30
0.0
 11
146.86951
 21
9.499999999999991
 31
0.0
  0
LINE
  5
151
330
1E
100
AcDbEntity
  8
0
100
AcDbLine
 10
145.86951
 20
25.6191959036687
 30
0.0
 11
145.86951
 21
10.5
 31
0.0
  0
LINE
  5
152
330
1E
100
AcDbEntity
  8
0
100
AcDbLine
 10
142.35351
 20
85.0
 30
0.0
 11
142.35351
 21
86.0
 31
0.0
  0
LINE
  5
153
330
1E
100
AcDbEntity
  8
0
100
AcDbLine
 10
141.2705099999999
 20
85.0
 30
0.0
 11
143.97051
 21
85.0
 31
0.0
  0
LINE
  5
154
330
1E
100
AcDbEntity
  8
0
100
AcDbLine
 10
142.35351
 20
86.0
 30
0.0
 11
142.35351
 21
85.0
 31
0.0
  0
LINE
  5
155
330
1E
100
AcDbEntity
  8
0
100
AcDbLine
 10
143.97051
 20
85.0
 30
0.0
 11
144.86951
 21
85.0
 31
0.0
  0
LINE
  5
156
330
1E
100
AcDbEntity
  8
0
100
AcDbLine
 10
144.86951
 20
85.0
 30
0.0
 11
145.86951
 21
84.0
 31
0.0
  0
LINE
  5
157
330
1E
100
AcDbEntity
  8
0
100
AcDbLine
 10
145.86951
 20
84.0
 30
0.0
 11
145.86951
 21
40.75453389601619
 31
0.0
  0
LINE
  5
158
330
1E
100
AcDbEntity
  8
0
100
AcDbLine
 10
146.86951
 20
7.99999999999999
 30
0.0
 11
146.86951
 21
9.499999999999991
 31
0.0
  0
LINE
  5
159
330
1E
100
AcDbEntity
  8
0
100
AcDbLine
 10
147.55951
 20
58.2782
 30
0.0
 11
148.64551
 21
60.3967
 31
0.0
  0
LINE
  5
15A
330
1E
100
AcDbEntity
  8
0
100
AcDbLine
 10
147.22451
 20
55.8862
 30
0.0
 11
147.35051
 21
55.4757
 31
0.0
  0
LINE
  5
15B
330
1E
100
AcDbEntity
  8
0
100
AcDbLine
 10
147.22451
 20
55.8862
 30
0.0
 11
147.55951
 21
58.2782
 31
0.0
  0
LINE
  5
15C
330
1E
100
AcDbEntity
  8
0
100
AcDbLine
 10
147.35051
 20
55.4757
 30
0.0
 11
147.83951
 21
53.4167
 31
0.0
  0
LINE
  5
15D
330
1E
100
AcDbEntity
  8
0
100
AcDbLine
 10
148.64551
 20
60.3967
 30
0.0
 11
150.35351
 21
61.8059
 31
0.0
  0
LINE
  5
15E
330
1E
100
AcDbEntity
  8
0
100
AcDbLine
 10
147.83951
 20
53.4167
 30
0.0
 11
149.45451
 21
51.7761
 31
0.0
  0
LINE
  5
15F
330
1E
100
AcDbEntity
  8
0
100
AcDbLine
 10
146.86951
 20
9.499999999999991
 30
0.0
 11
146.86951
 21
7.99999999999999
 31
0.0
  0
LINE
  5
160
330
1E
100
AcDbEntity
  8
0
100
AcDbLine
 10
145.86951
 20
6.99999999999999
 30
0.0
 11
147.86951
 21
4.99999999999999
 31
0.0
  0
LINE
  5
161
330
1E
100
AcDbEntity
  8
0
100
AcDbLine
 10
145.86951
 20
6.99999999999999
 30
0.0
 11
146.86951
 21
7.99999999999999
 31
0.0
  0
LINE
  5
162
330
1E
100
AcDbEntity
  8
0
100
AcDbLine
 10
147.86951
 20
4.99999999999999
 30
0.0
 11
149.36951
 21
1.999999999999989
 31
0.0
  0
LINE
  5
163
330
1E
100
AcDbEntity
  8
0
100
AcDbLine
 10
140.86951
 20
-0.0000000000000076
 30
0.0
 11
146.07051
 21
-0.0000000000000079
 31
0.0
  0
LINE
  5
164
330
1E
100
AcDbEntity
  8
0
100
AcDbLine
 10
146.07051
 20
-0.0000000000000079
 30
0.0
 11
149.27051
 21
-0.0000000000000081
 31
0.0
  0
LINE
  5
165
330
1E
100
AcDbEntity
  8
0
100
AcDbLine
 10
152.81551
 20
50.51059999999999
 30
0.0
 11
153.42851
 21
50.4422
 31
0.0
  0
LINE
  5
166
330
1E
100
AcDbEntity
  8
0
100
AcDbLine
 10
152.05851
 20
50.6816
 30
0.0
 11
152.81551
 21
50.51059999999999
 31
0.0
  0
LINE
  5
167
330
1E
100
AcDbEntity
  8
0
100
AcDbLine
 10
151.23851
 20
50.92100000000001
 30
0.0
 11
152.05851
 21
50.6816
 31
0.0
  0
LINE
  5
168
330
1E
100
AcDbEntity
  8
0
100
AcDbLine
 10
149.45451
 20
51.7761
 30
0.0
 11
149.77351
 21
51.5366
 31
0.0
  0
LINE
  5
169
330
1E
100
AcDbEntity
  8
0
100
AcDbLine
 10
152.65551
 20
62.2837
 30
0.0
 11
152.94251
 21
62.3521
 31
0.0
  0
LINE
  5
16A
330
1E
100
AcDbEntity
  8
0
100
AcDbLine
 10
150.35351
 20
61.8059
 30
0.0
 11
152.65551
 21
62.2837
 31
0.0
  0
LINE
  5
16B
330
1E
100
AcDbEntity
  8
0
100
AcDbLine
 10
149.77351
 20
51.5366
 30
0.0
 11
150.40651
 21
51.2288
 31
0.0
  0
LINE
  5
16C
330
1E
100
AcDbEntity
  8
0
100
AcDbLine
 10
150.40651
 20
51.2288
 30
0.0
 11
151.23851
 21
50.92100000000001
 31
0.0
  0
LINE
  5
16D
330
1E
100
AcDbEntity
  8
0
100
AcDbLine
 10
153.9770051219309
 20
50.5648991609121
 30
0.0
 11
156.01651
 21
50.9884
 31
0.0
  0
LINE
  5
16E
330
1E
100
AcDbEntity
  8
0
100
AcDbLine
 10
153.55551
 20
62.2837
 30
0.0
 11
154.96251
 21
62.0353
 31
0.0
  0
LINE
  5
16F
330
1E
100
AcDbEntity
  8
0
100
AcDbLine
 10
156.59651
 20
61.25759999999999
 30
0.0
 11
156.91651
 21
61.0182
 31
0.0
  0
LINE
  5
170
330
1E
100
AcDbEntity
  8
0
100
AcDbLine
 10
156.91651
 20
61.0182
 30
0.0
 11
158.53151
 21
59.3775
 31
0.0
  0
LINE
  5
171
330
1E
100
AcDbEntity
  8
0
100
AcDbLine
 10
155.96451
 20
61.56539999999999
 30
0.0
 11
156.59651
 21
61.25759999999999
 31
0.0
  0
LINE
  5
172
330
1E
100
AcDbEntity
  8
0
100
AcDbLine
 10
158.53151
 20
59.3775
 30
0.0
 11
158.9045581645339
 21
57.80673073460999
 31
0.0
  0
LINE
  5
173
330
1E
100
AcDbEntity
  8
0
100
AcDbLine
 10
158.81151
 20
54.516
 30
0.0
 11
158.9045581645339
 21
57.80673073460999
 31
0.0
  0
LINE
  5
174
330
1E
100
AcDbEntity
  8
0
100
AcDbLine
 10
157.72451
 20
52.3976
 30
0.0
 11
158.81151
 21
54.516
 31
0.0
  0
LINE
  5
175
330
1E
100
AcDbEntity
  8
0
100
AcDbLine
 10
156.01651
 20
50.9884
 30
0.0
 11
157.72451
 21
52.3976
 31
0.0
  0
LINE
  5
176
330
1E
100
AcDbEntity
  8
0
100
AcDbLine
 10
154.96251
 20
62.0353
 30
0.0
 11
155.96451
 21
61.56539999999999
 31
0.0
  0
LINE
  5
177
330
1E
100
AcDbEntity
  8
0
100
AcDbLine
 10
152.94251
 20
62.3521
 30
0.0
 11
153.55551
 21
62.2837
 31
0.0
  0
LINE
  5
178
330
1E
100
AcDbEntity
  8
0
100
AcDbLine
 10
149.36951
 20
1.999999999999989
 30
0.0
 11
150.36951
 21
-0.0000000000000083
 31
0.0
  0
LINE
  5
179
330
1E
100
AcDbEntity
  8
0
100
AcDbLine
 10
149.36951
 20
1.999999999999989
 30
0.0
 11
150.36951
 21
-0.0000000000000082
 31
0.0
  0
LINE
  5
17A
330
1E
100
AcDbEntity
  8
0
100
AcDbLine
 10
149.27051
 20
-0.0000000000000081
 30
0.0
 11
150.36951
 21
-0.0000000000000082
 31
0.0
  0
LINE
  5
17B
330
1E
100
AcDbEntity
  8
0
100
AcDbLine
 10
117.85351
 20
87.0
 30
0.0
 11
124.59351
 21
88.0
 31
0.0
  0
LINE
  5
17C
330
1E
100
AcDbEntity
  8
0
100
AcDbLine
 10
111.15351
 20
87.0
 30
0.0
 11
117.85351
 21
87.0
 31
0.0
  0
LINE
  5
17D
330
1E
100
AcDbEntity
  8
0
100
AcDbLine
 10
104.95351
 20
87.0
 30
0.0
 11
111.15351
 21
87.0
 31
0.0
  0
LINE
  5
17E
330
1E
100
AcDbEntity
  8
0
100
AcDbLine
 10
99.45351
 20
87.0
 30
0.0
 11
104.95351
 21
87.0
 31
0.0
  0
LINE
  5
17F
330
1E
100
AcDbEntity
  8
0
100
AcDbLine
 10
95.25350999999998
 20
87.0
 30
0.0
 11
99.45351
 21
87.0
 31
0.0
  0
LINE
  5
180
330
1E
100
AcDbEntity
  8
0
100
AcDbLine
 10
124.59351
 20
88.0
 30
0.0
 11
131.0135099999999
 21
89.1
 31
0.0
  0
LINE
  5
181
330
1E
100
AcDbEntity
  8
0
100
AcDbLine
 10
131.0135099999999
 20
89.1
 30
0.0
 11
136.68351
 21
89.77999999999999
 31
0.0
  0
LINE
  5
182
330
1E
100
AcDbEntity
  8
0
100
AcDbLine
 10
136.68351
 20
89.77999999999999
 30
0.0
 11
140.95351
 21
90.4
 31
0.0
  0
LINE
  5
183
330
1E
100
AcDbEntity
  8
0
100
AcDbLine
 10
141.3665385714289
 20
90.46091428571429
 30
0.0
 11
141.8535099999999
 21
89.0
 31
0.0
  0
LINE
  5
184
330
1E
100
AcDbEntity
  8
0
100
AcDbLine
 10
141.8535099999999
 20
89.0
 30
0.0
 11
142.35351
 21
86.0
 31
0.0
  0
LINE
  5
185
330
1E
100
AcDbEntity
  8
0
100
AcDbLine
 10
140.95351
 20
90.4
 30
0.0
 11
143.73351
 21
90.81000000000001
 31
0.0
  0
LINE
  5
186
330
1E
100
AcDbEntity
  8
0
100
AcDbLine
 10
92.75350999999998
 20
87.0
 30
0.0
 11
95.25350999999998
 21
87.0
 31
0.0
  0
LINE
  5
187
330
1E
100
AcDbEntity
  8
0
100
AcDbLine
 10
92.75350999999998
 20
87.0
 30
0.0
 11
93.5201766666667
 21
87.0
 31
0.0
  0
LINE
  5
188
330
1E
100
AcDbEntity
  8
0
100
AcDbLine
 10
91.85351
 20
87.0
 30
0.0
 11
92.75350999999998
 21
87.0
 31
0.0
  0
LINE
  5
189
330
1E
100
AcDbEntity
  8
0
100
AcDbLine
 10
85.50971
 20
112.912
 30
0.0
 11
86.16861
 21
114.27
 31
0.0
  0
LINE
  5
18A
330
1E
100
AcDbEntity
  8
0
100
AcDbLine
 10
84.90140999999999
 20
111.6579999999999
 30
0.0
 11
85.50971
 21
112.912
 31
0.0
  0
LINE
  5
18B
330
1E
100
AcDbEntity
  8
0
100
AcDbLine
 10
84.37770999999999
 20
110.5779999999999
 30
0.0
 11
84.90140999999999
 21
111.6579999999999
 31
0.0
  0
LINE
  5
18C
330
1E
100
AcDbEntity
  8
0
100
AcDbLine
 10
89.85350999999999
 20
103.0
 30
0.0
 11
89.85350999999999
 21
99.0
 31
0.0
  0
LINE
  5
18D
330
1E
100
AcDbEntity
  8
0
100
AcDbLine
 10
89.85350999999999
 20
103.0
 30
0.0
 11
90.43294045832451
 21
107.345728437434
 31
0.0
  0
LINE
  5
18E
330
1E
100
AcDbEntity
  8
0
100
AcDbLine
 10
89.85350999999999
 20
99.0
 30
0.0
 11
90.85351000000001
 21
91.0
 31
0.0
  0
LINE
  5
18F
330
1E
100
AcDbEntity
  8
0
100
AcDbLine
 10
89.85350999999999
 20
99.0
 30
0.0
 11
89.85350999999999
 21
103.0
 31
0.0
  0
LINE
  5
190
330
1E
100
AcDbEntity
  8
0
100
AcDbLine
 10
90.85351000000001
 20
91.0
 30
0.0
 11
91.85351
 21
87.0
 31
0.0
  0
LINE
  5
191
330
1E
100
AcDbEntity
  8
0
100
AcDbLine
 10
145.8535099999999
 20
99.0
 30
0.0
 11
145.8535099999999
 21
103.0
 31
0.0
  0
LINE
  5
192
330
1E
100
AcDbEntity
  8
0
100
AcDbLine
 10
144.8535099999999
 20
110.4999999999999
 30
0.0
 11
145.8535099999999
 21
103.0
 31
0.0
  0
LINE
  5
193
330
1E
100
AcDbEntity
  8
0
100
AcDbLine
 10
145.8535099999999
 20
103.0
 30
0.0
 11
145.8535099999999
 21
99.0
 31
0.0
  0
LINE
  5
194
330
1E
100
AcDbEntity
  8
0
100
AcDbLine
 10
145.05351
 20
92.4
 30
0.0
 11
145.8535099999999
 21
99.0
 31
0.0
  0
LINE
  5
195
330
1E
100
AcDbEntity
  8
0
100
AcDbLine
 10
144.65351
 20
91.0
 30
0.0
 11
145.05351
 21
92.4
 31
0.0
  0
LINE
  5
196
330
1E
100
AcDbEntity
  8
0
100
AcDbLine
 10
143.73351
 20
90.81000000000001
 30
0.0
 11
144.65351
 21
91.0
 31
0.0
  0
LINE
  5
197
330
1E
100
AcDbEntity
  8
0
100
AcDbLine
 10
83.9912545871217
 20
109.781263316483
 30
0.0
 11
90.43294045832451
 21
107.345728437434
 31
0.0
  0
LINE
  5
198
330
1E
100
AcDbEntity
  8
0
100
AcDbLine
 10
86.16861
 20
114.27
 30
0.0
 11
86.82751000000001
 21
115.6279999999999
 31
0.0
  0
LINE
  5
199
330
1E
100
AcDbEntity
  8
0
100
AcDbLine
 10
86.82751000000001
 20
115.6279999999999
 30
0.0
 11
87.43571000000001
 21
116.8819999999999
 31
0.0
  0
LINE
  5
19A
330
1E
100
AcDbEntity
  8
0
100
AcDbLine
 10
84.36911
 20
115.1429999999999
 30
0.0
 11
85.02800999999999
 21
116.501
 31
0.0
  0
LINE
  5
19B
330
1E
100
AcDbEntity
  8
0
100
AcDbLine
 10
85.02800999999999
 20
116.501
 30
0.0
 11
85.63630999999999
 21
117.7549999999999
 31
0.0
  0
LINE
  5
19C
330
1E
100
AcDbEntity
  8
0
100
AcDbLine
 10
85.63630999999999
 20
117.7549999999999
 30
0.0
 11
86.16001
 21
118.835
 31
0.0
  0
LINE
  5
19D
330
1E
100
AcDbEntity
  8
0
100
AcDbLine
 10
87.43571000000001
 20
116.8819999999999
 30
0.0
 11
87.95951
 21
117.962
 31
0.0
  0
LINE
  5
19E
330
1E
100
AcDbEntity
  8
0
100
AcDbLine
 10
87.95951
 20
117.962
 30
0.0
 11
88.36501
 21
118.7979999999999
 31
0.0
  0
LINE
  5
19F
330
1E
100
AcDbEntity
  8
0
100
AcDbLine
 10
88.36501
 20
118.7979999999999
 30
0.0
 11
88.61841
 21
119.32
 31
0.0
  0
LINE
  5
1A0
330
1E
100
AcDbEntity
  8
0
100
AcDbLine
 10
86.16001
 20
118.835
 30
0.0
 11
86.56551
 21
119.671
 31
0.0
  0
LINE
  5
1A1
330
1E
100
AcDbEntity
  8
0
100
AcDbLine
 10
93.0547676704983
 20
116.251572088123
 30
0.0
 11
96.85351
 21
121.0
 31
0.0
  0
LINE
  5
1A2
330
1E
100
AcDbEntity
  8
0
100
AcDbLine
 10
142.8535099999999
 20
116.0
 30
0.0
 11
144.8535099999999
 21
110.4999999999999
 31
0.0
  0
LINE
  5
1A3
330
1E
100
AcDbEntity
  8
0
100
AcDbLine
 10
86.56551
 20
119.671
 30
0.0
 11
86.81891
 21
120.1929999999999
 31
0.0
  0
LINE
  5
1A4
330
1E
100
AcDbEntity
  8
0
100
AcDbLine
 10
88.61841
 20
119.32
 30
0.0
 11
88.70290999999999
 21
119.494
 31
0.0
  0
LINE
  5
1A5
330
1E
100
AcDbEntity
  8
0
100
AcDbLine
 10
88.33750999999999
 20
119.886
 30
0.0
 11
88.70290999999999
 21
119.494
 31
0.0
  0
LINE
  5
1A6
330
1E
100
AcDbEntity
  8
0
100
AcDbLine
 10
87.43781
 20
120.323
 30
0.0
 11
88.33750999999999
 21
119.886
 31
0.0
  0
LINE
  5
1A7
330
1E
100
AcDbEntity
  8
0
100
AcDbLine
 10
86.90341
 20
120.367
 30
0.0
 11
87.43781
 21
120.323
 31
0.0
  0
LINE
  5
1A8
330
1E
100
AcDbEntity
  8
0
100
AcDbLine
 10
86.81891
 20
120.1929999999999
 30
0.0
 11
86.90341
 21
120.367
 31
0.0
  0
LINE
  5
1A9
330
1E
100
AcDbEntity
  8
0
100
AcDbLine
 10
117.85351
 20
126.0
 30
0.0
 11
121.75351
 21
126.0
 31
0.0
  0
LINE
  5
1AA
330
1E
100
AcDbEntity
  8
0
100
AcDbLine
 10
121.75351
 20
126.0
 30
0.0
 11
125.35351
 21
126.0
 31
0.0
  0
LINE
  5
1AB
330
1E
100
AcDbEntity
  8
0
100
AcDbLine
 10
125.35351
 20
126.0
 30
0.0
 11
128.45351
 21
126.0
 31
0.0
  0
LINE
  5
1AC
330
1E
100
AcDbEntity
  8
0
100
AcDbLine
 10
128.45351
 20
126.0
 30
0.0
 11
130.85351
 21
126.0
 31
0.0
  0
LINE
  5
1AD
330
1E
100
AcDbEntity
  8
0
100
AcDbLine
 10
130.85351
 20
126.0
 30
0.0
 11
132.3535099999999
 21
126.0
 31
0.0
  0
LINE
  5
1AE
330
1E
100
AcDbEntity
  8
0
100
AcDbLine
 10
132.3535099999999
 20
126.0
 30
0.0
 11
132.85351
 21
126.0
 31
0.0
  0
LINE
  5
1AF
330
1E
100
AcDbEntity
  8
0
100
AcDbLine
 10
113.95351
 20
126.0
 30
0.0
 11
117.85351
 21
126.0
 31
0.0
  0
LINE
  5
1B0
330
1E
100
AcDbEntity
  8
0
100
AcDbLine
 10
110.35351
 20
126.0
 30
0.0
 11
113.95351
 21
126.0
 31
0.0
  0
LINE
  5
1B1
330
1E
100
AcDbEntity
  8
0
100
AcDbLine
 10
107.25351
 20
126.0
 30
0.0
 11
110.35351
 21
126.0
 31
0.0
  0
LINE
  5
1B2
330
1E
100
AcDbEntity
  8
0
100
AcDbLine
 10
104.85351
 20
126.0
 30
0.0
 11
107.25351
 21
126.0
 31
0.0
  0
LINE
  5
1B3
330
1E
100
AcDbEntity
  8
0
100
AcDbLine
 10
103.3535099999999
 20
126.0
 30
0.0
 11
104.85351
 21
126.0
 31
0.0
  0
LINE
  5
1B4
330
1E
100
AcDbEntity
  8
0
100
AcDbLine
 10
102.85351
 20
126.0
 30
0.0
 11
103.3535099999999
 21
126.0
 31
0.0
  0
LINE
  5
1B5
330
1E
100
AcDbEntity
  8
0
100
AcDbLine
 10
96.85351
 20
121.0
 30
0.0
 11
102.85351
 21
126.0
 31
0.0
  0
LINE
  5
1BB
330
1E
100
AcDbEntity
  8
0
100
AcDbLine
 10
102.3535099999999
 20
126.5
 30
0.0
 11
102.85351
 21
126.0
 31
0.0
  0
LINE
  5
1BD
330
1E
100
AcDbEntity
  8
0
100
AcDbLine
 10
102.3535099999999
 20
126.5
 30
0.0
 11
102.3535099999999
 21
127.5
 31
0.0
  0
LINE
  5
1C3
330
1E
100
AcDbEntity
  8
0
100
AcDbLine
 10
133.3535099999999
 20
126.5
 30
0.0
 11
133.3535099999999
 21
127.5
 31
0.0
  0
LINE
  5
1C5
330
1E
100
AcDbEntity
  8
0
100
AcDbLine
 10
132.85351
 20
126.0
 30
0.0
 11
138.85351
 21
121.0
 31
0.0
  0
LINE
  5
1C6
330
1E
100
AcDbEntity
  8
0
100
AcDbLine
 10
132.85351
 20
126.0
 30
0.0
 11
133.3535099999999
 21
126.5
 31
0.0
  0
LINE
  5
1C7
330
1E
100
AcDbEntity
  8
0
100
AcDbLine
 10
138.85351
 20
121.0
 30
0.0
 11
142.8535099999999
 21
116.0
 31
0.0
  0
LINE
  5
1C8
330
1E
100
AcDbEntity
  8
0
100
AcDbLine
 10
88.39713986384479
 20
118.86418701234
 30
0.0
 11
93.07782838717328
 21
116.238636582099
 31
0.0
  0
LINE
  5
1C9
330
1E
100
AcDbEntity
  8
0
100
AcDbLine
 10
88.39713986384479
 20
118.86418701234
 30
0.0
 11
88.61841
 21
119.32
 31
0.0
  0
LINE
  5
1CA
330
1E
100
AcDbEntity
  8
0
100
AcDbLine
 10
77.21430999999999
 20
125.137
 30
0.0
 11
86.64968198939858
 21
119.8443929694789
 31
0.0
  0
LINE
  5
1CB
330
1E
100
AcDbEntity
  8
0
100
AcDbLine
 10
72.14291
 20
114.261
 30
0.0
 11
82.11275949422178
 21
110.491502904435
 31
0.0
  0
LINE
  5
1CC
330
1E
100
AcDbEntity
  8
0
100
AcDbLine
 10
54.50051
 20
121.385
 30
0.0
 11
72.14291
 21
114.261
 31
0.0
  0
LINE
  5
1D2
330
1E
100
AcDbEntity
  8
0
100
AcDbLine
 10
102.3535099999999
 20
127.5
 30
0.0
 11
102.3535099999999
 21
126.5
 31
0.0
  0
LINE
  5
1D4
330
1E
100
AcDbEntity
  8
0
100
AcDbLine
 10
102.3535099999999
 20
127.5
 30
0.0
 11
102.85351
 21
128.0
 31
0.0
  0
LINE
  5
1D9
330
1E
100
AcDbEntity
  8
0
100
AcDbLine
 10
113.95351
 20
128.0
 30
0.0
 11
117.85351
 21
128.0
 31
0.0
  0
LINE
  5
1DA
330
1E
100
AcDbEntity
  8
0
100
AcDbLine
 10
110.35351
 20
128.0
 30
0.0
 11
113.95351
 21
128.0
 31
0.0
  0
LINE
  5
1DB
330
1E
100
AcDbEntity
  8
0
100
AcDbLine
 10
107.25351
 20
128.0
 30
0.0
 11
110.35351
 21
128.0
 31
0.0
  0
LINE
  5
1DC
330
1E
100
AcDbEntity
  8
0
100
AcDbLine
 10
104.85351
 20
128.0
 30
0.0
 11
107.25351
 21
128.0
 31
0.0
  0
LINE
  5
1DD
330
1E
100
AcDbEntity
  8
0
100
AcDbLine
 10
103.3535099999999
 20
128.0
 30
0.0
 11
104.85351
 21
128.0
 31
0.0
  0
LINE
  5
1DE
330
1E
100
AcDbEntity
  8
0
100
AcDbLine
 10
102.85351
 20
128.0
 30
0.0
 11
103.3535099999999
 21
128.0
 31
0.0
  0
LINE
  5
1DF
330
1E
100
AcDbEntity
  8
0
100
AcDbLine
 10
102.85351
 20
128.0
 30
0.0
 11
106.35351
 21
129.4999999999999
 31
0.0
  0
LINE
  5
1E0
330
1E
100
AcDbEntity
  8
0
100
AcDbLine
 10
117.85351
 20
128.0
 30
0.0
 11
121.75351
 21
128.0
 31
0.0
  0
LINE
  5
1E1
330
1E
100
AcDbEntity
  8
0
100
AcDbLine
 10
121.75351
 20
128.0
 30
0.0
 11
125.35351
 21
128.0
 31
0.0
  0
LINE
  5
1E2
330
1E
100
AcDbEntity
  8
0
100
AcDbLine
 10
125.35351
 20
128.0
 30
0.0
 11
128.45351
 21
128.0
 31
0.0
  0
LINE
  5
1E3
330
1E
100
AcDbEntity
  8
0
100
AcDbLine
 10
128.45351
 20
128.0
 30
0.0
 11
130.85351
 21
128.0
 31
0.0
  0
LINE
  5
1E4
330
1E
100
AcDbEntity
  8
0
100
AcDbLine
 10
130.85351
 20
128.0
 30
0.0
 11
132.3535099999999
 21
128.0
 31
0.0
  0
LINE
  5
1E5
330
1E
100
AcDbEntity
  8
0
100
AcDbLine
 10
111.35351
 20
130.4999999999999
 30
0.0
 11
117.85351
 21
131.0
 31
0.0
  0
LINE
  5
1E6
330
1E
100
AcDbEntity
  8
0
100
AcDbLine
 10
106.35351
 20
129.4999999999999
 30
0.0
 11
111.35351
 21
130.4999999999999
 31
0.0
  0
LINE
  5
1E7
330
1E
100
AcDbEntity
  8
0
100
AcDbLine
 10
117.85351
 20
131.0
 30
0.0
 11
124.35351
 21
130.4999999999999
 31
0.0
  0
LINE
  5
1E8
330
1E
100
AcDbEntity
  8
0
100
AcDbLine
 10
124.35351
 20
130.4999999999999
 30
0.0
 11
129.3535099999999
 21
129.4999999999999
 31
0.0
  0
LINE
  5
1E9
330
1E
100
AcDbEntity
  8
0
100
AcDbLine
 10
129.3535099999999
 20
129.4999999999999
 30
0.0
 11
132.85351
 21
128.0
 31
0.0
  0
LINE
  5
1EA
330
1E
100
AcDbEntity
  8
0
100
AcDbLine
 10
132.3535099999999
 20
128.0
 30
0.0
 11
132.85351
 21
128.0
 31
0.0
  0
LINE
  5
1EB
330
1E
100
AcDbEntity
  8
0
100
AcDbLine
 10
132.85351
 20
128.0
 30
0.0
 11
133.3535099999999
 21
127.5
 31
0.0
  0
LINE
  5
1ED
330
1E
100
AcDbEntity
  8
0
100
AcDbLine
 10
133.3535099999999
 20
127.5
 30
0.0
 11
133.3535099999999
 21
126.5
 31
0.0
  0
LINE
  5
1EF
330
1E
100
AcDbEntity
  8
0
100
AcDbLine
 10
42.63391
 20
126.697
 30
0.0
 11
54.50051
 21
121.385
 31
0.0
  0
LINE
  5
1F0
330
1E
100
AcDbEntity
  8
0
100
AcDbLine
 10
34.35041
 20
130.2289999999999
 30
0.0
 11
42.63391
 21
126.697
 31
0.0
  0
LINE
  5
1F1
330
1E
100
AcDbEntity
  8
0
100
AcDbLine
 10
60.41711
 20
134.0729999999999
 30
0.0
 11
77.21430999999999
 21
125.137
 31
0.0
  0
LINE
  5
1F2
330
1E
100
AcDbEntity
  8
0
100
AcDbLine
 10
31.38961
 20
132.1609999999999
 30
0.0
 11
34.35041
 21
130.2289999999999
 31
0.0
  0
LINE
  5
1F3
330
1E
100
AcDbEntity
  8
0
100
AcDbLine
 10
29.54651
 20
134.1239999999999
 30
0.0
 11
31.38961
 21
132.1609999999999
 31
0.0
  0
LINE
  5
1F4
330
1E
100
AcDbEntity
  8
0
100
AcDbLine
 10
48.71960999999999
 20
139.7479999999999
 30
0.0
 11
60.41711
 21
134.0729999999999
 31
0.0
  0
LINE
  5
1F5
330
1E
100
AcDbEntity
  8
0
100
AcDbLine
 10
40.68971
 20
143.8239999999999
 30
0.0
 11
48.71960999999999
 21
139.7479999999999
 31
0.0
  0
LINE
  5
1F6
330
1E
100
AcDbEntity
  8
0
100
AcDbLine
 10
37.30630999999999
 20
144.8499999999999
 30
0.0
 11
40.68971
 21
143.8239999999999
 31
0.0
  0
LINE
  5
1F7
330
1E
100
AcDbEntity
  8
0
100
AcDbLine
 10
34.61790999999999
 20
145.0
 30
0.0
 11
37.30630999999999
 21
144.8499999999999
 31
0.0
  0
LINE
  5
1F8
330
1E
100
AcDbEntity
  8
0
100
AcDbLine
 10
32.17131
 20
144.486
 30
0.0
 11
34.61790999999999
 21
145.0
 31
0.0
  0
LINE
  5
1F9
330
1E
100
AcDbEntity
  8
0
100
AcDbLine
 10
29.96660999999999
 20
143.307
 30
0.0
 11
32.17131
 21
144.486
 31
0.0
  0
LINE
  5
1FA
330
1E
100
AcDbEntity
  8
0
100
AcDbLine
 10
28.45691
 20
141.2529999999999
 30
0.0
 11
29.96660999999999
 21
143.307
 31
0.0
  0
LINE
  5
1FB
330
1E
100
AcDbEntity
  8
0
100
AcDbLine
 10
28.36781
 20
136.329
 30
0.0
 11
29.54651
 21
134.1239999999999
 31
0.0
  0
LINE
  5
1FC
330
1E
100
AcDbEntity
  8
0
100
AcDbLine
 10
27.85350999999999
 20
138.776
 30
0.0
 11
28.45691
 21
141.2529999999999
 31
0.0
  0
LINE
  5
1FD
330
1E
100
AcDbEntity
  8
0
100
AcDbLine
 10
27.85350999999999
 20
138.776
 30
0.0
 11
28.36781
 21
136.329
 31
0.0
  0
LINE
  5
202
330
1E
100
AcDbEntity
  8
0
100
AcDbLine
 10
24.98721
 20
98.02039999999999
 30
0.0
 11
24.98721
 21
93.49269999999995
 31
0.0
  0
LINE
  5
203
330
1E
100
AcDbEntity
  8
0
100
AcDbLine
 10
24.98721
 20
93.49269999999995
 30
0.0
 11
25.0404371496401
 21
71.2737282554756
 31
0.0
  0
LINE
  5
204
330
1E
100
AcDbEntity
  8
0
100
AcDbLine
 10
25.0404371496401
 20
71.2737282554756
 30
0.0
 11
25.05621
 21
66.3569
 31
0.0
  0
ENDSEC
  0
SECTION
  2
OBJECTS
  0
DICTIONARY
  5
C
330
0
100
AcDbDictionary
281
     1
  3
ACAD_GROUP
350
D
  3
ACAD_LAYOUT
350
19
  3
ACAD_MLINESTYLE
350
16
  3
ACAD_PLOTSETTINGS
350
18
  3
ACAD_PLOTSTYLENAME
350
E
  3
AcDbVariableDictionary
350
205
  0
DICTIONARY
  5
D
102
{ACAD_REACTORS
330
C
102
}
330
C
100
AcDbDictionary
281
     1
  0
DICTIONARY
  5
19
102
{ACAD_REACTORS
330
C
102
}
330
C
100
AcDbDictionary
281
     1
  3
Layout1
350
1D
  3
Model
350
21
  0
DICTIONARY
  5
16
102
{ACAD_REACTORS
330
C
102
}
330
C
100
AcDbDictionary
281
     1
  3
Standard
350
17
  0
DICTIONARY
  5
18
102
{ACAD_REACTORS
330
C
102
}
330
C
100
AcDbDictionary
281
     1
  0
ACDBDICTIONARYWDFLT
  5
E
102
{ACAD_REACTORS
330
C
102
}
330
C
100
AcDbDictionary
281
     1
  3
Normal
350
F
100
AcDbDictionaryWithDefault
340
F
  0
DICTIONARY
  5
205
102
{ACAD_REACTORS
330
C
102
}
330
C
100
AcDbDictionary
281
     1
  3
DIMASSOC
350
206
  0
LAYOUT
  5
1D
102
{ACAD_REACTORS
330
19
102
}
330
19
100
AcDbPlotSettings
  1

  2
hp deskjet 980c series
  4

  6

 40
0.0
 41
0.0
 42
0.0
 43
0.0
 44
0.0
 45
0.0
 46
0.0
 47
0.0
 48
0.0
 49
0.0
140
0.0
141
0.0
142
1.0
143
1.0
 70
   688
 72
     0
 73
     0
 74
     5
  7

 75
    16
147
1.0
148
0.0
149
0.0
100
AcDbLayout
  1
Layout1
 70
     1
 71
     1
 10
0.0
 20
0.0
 11
12.0
 21
9.0
 12
0.0
 22
0.0
 32
0.0
 14
1.000000000000000E+20
 24
1.000000000000000E+20
 34
1.000000000000000E+20
 15
-1.000000000000000E+20
 25
-1.000000000000000E+20
 35
-1.000000000000000E+20
146
0.0
 13
0.0
 23
0.0
 33
0.0
 16
1.0
 26
0.0
 36
0.0
 17
0.0
 27
1.0
 37
0.0
 76
     0
330
1A
  0
LAYOUT
  5
21
102
{ACAD_REACTORS
330
19
102
}
330
19
100
AcDbPlotSettings
  1

  2
hp deskjet 980c series
  4

  6

 40
0.0
 41
0.0
 42
0.0
 43
0.0
 44
0.0
 45
0.0
 46
0.0
 47
0.0
 48
0.0
 49
0.0
140
0.0
141
0.0
142
1.0
143
1.0
 70
  1712
 72
     0
 73
     0
 74
     0
  7

 75
     0
147
1.0
148
0.0
149
0.0
100
AcDbLayout
  1
Model
 70
     1
 71
     0
 10
0.0
 20
0.0
 11
12.0
 21
9.0
 12
0.0
 22
0.0
 32
0.0
 14
0.0
 24
0.0
 34
0.0
 15
0.0
 25
0.0
 35
0.0
146
0.0
 13
0.0
 23
0.0
 33
0.0
 16
1.0
 26
0.0
 36
0.0
 17
0.0
 27
1.0
 37
0.0
 76
     0
330
1E
  0
MLINESTYLE
  5
17
102
{ACAD_REACTORS
330
16
102
}
330
16
100
AcDbMlineStyle
  2
STANDARD
 70
     0
  3

 62
   256
 51
90.0
 52
90.0
 71
     2
 49
0.5
 62
   256
  6
BYLAYER
 49
-0.5
 62
   256
  6
BYLAYER
  0
ACDBPLACEHOLDER
  5
F
102
{ACAD_REACTORS
330
E
102
}
330
E
  0
DICTIONARYVAR
  5
206
102
{ACAD_REACTORS
330
205
102
}
330
205
100
DictionaryVariables
280
     0
  1
1
  0
ENDSEC
  0
EOF
