  0
SECTION
  2
HEADER
  9
$ACADVER
  1
AC1015
  9
$ACADMAINTVER
 70
    13
  9
$DWGCODEPAGE
  3
ANSI_1252
  9
$INSBASE
 10
0.0
 20
0.0
 30
0.0
  9
$EXTMIN
 10
-0.0000000000000142
 20
-0.0000000000000015
 30
0.0
  9
$EXTMAX
 10
364.0
 20
84.0
 30
0.0
  9
$LIMMIN
 10
0.0
 20
0.0
  9
$LIMMAX
 10
12.0
 20
9.0
  9
$ORTHOMODE
 70
     0
  9
$REGENMODE
 70
     1
  9
$FILLMODE
 70
     1
  9
$QTEXTMODE
 70
     0
  9
$MIRRTEXT
 70
     1
  9
$LTSCALE
 40
1.0
  9
$ATTMODE
 70
     1
  9
$TEXTSIZE
 40
0.2
  9
$TRACEWID
 40
0.05
  9
$TEXTSTYLE
  7
Standard
  9
$CLAYER
  8
0
  9
$CELTYPE
  6
Continuous
  9
$CECOLOR
 62
   256
  9
$CELTSCALE
 40
1.0
  9
$DISPSILH
 70
     0
  9
$DIMSCALE
 40
1.0
  9
$DIMASZ
 40
0.18
  9
$DIMEXO
 40
0.0625
  9
$DIMDLI
 40
0.38
  9
$DIMRND
 40
0.0
  9
$DIMDLE
 40
0.0
  9
$DIMEXE
 40
0.18
  9
$DIMTP
 40
0.0
  9
$DIMTM
 40
0.0
  9
$DIMTXT
 40
0.18
  9
$DIMCEN
 40
0.09
  9
$DIMTSZ
 40
0.0
  9
$DIMTOL
 70
     0
  9
$DIMLIM
 70
     0
  9
$DIMTIH
 70
     1
  9
$DIMTOH
 70
     1
  9
$DIMSE1
 70
     0
  9
$DIMSE2
 70
     0
  9
$DIMTAD
 70
     0
  9
$DIMZIN
 70
     0
  9
$DIMBLK
  1

  9
$DIMASO
 70
     1
  9
$DIMSHO
 70
     1
  9
$DIMPOST
  1

  9
$DIMAPOST
  1

  9
$DIMALT
 70
     0
  9
$DIMALTD
 70
     2
  9
$DIMALTF
 40
25.4
  9
$DIMLFAC
 40
1.0
  9
$DIMTOFL
 70
     0
  9
$DIMTVP
 40
0.0
  9
$DIMTIX
 70
     0
  9
$DIMSOXD
 70
     0
  9
$DIMSAH
 70
     0
  9
$DIMBLK1
  1

  9
$DIMBLK2
  1

  9
$DIMSTYLE
  2
Standard
  9
$DIMCLRD
 70
     0
  9
$DIMCLRE
 70
     0
  9
$DIMCLRT
 70
     0
  9
$DIMTFAC
 40
1.0
  9
$DIMGAP
 40
0.09
  9
$DIMJUST
 70
     0
  9
$DIMSD1
 70
     0
  9
$DIMSD2
 70
     0
  9
$DIMTOLJ
 70
     1
  9
$DIMTZIN
 70
     0
  9
$DIMALTZ
 70
     0
  9
$DIMALTTZ
 70
     0
  9
$DIMUPT
 70
     0
  9
$DIMDEC
 70
     4
  9
$DIMTDEC
 70
     4
  9
$DIMALTU
 70
     2
  9
$DIMALTTD
 70
     2
  9
$DIMTXSTY
  7
Standard
  9
$DIMAUNIT
 70
     0
  9
$DIMADEC
 70
     0
  9
$DIMALTRND
 40
0.0
  9
$DIMAZIN
 70
     0
  9
$DIMDSEP
 70
    46
  9
$DIMATFIT
 70
     3
  9
$DIMFRAC
 70
     0
  9
$DIMLDRBLK
  1

  9
$DIMLUNIT
 70
     2
  9
$DIMLWD
 70
    -2
  9
$DIMLWE
 70
    -2
  9
$DIMTMOVE
 70
     0
  9
$LUNITS
 70
     2
  9
$LUPREC
 70
     4
  9
$SKETCHINC
 40
0.1
  9
$FILLETRAD
 40
0.0
  9
$AUNITS
 70
     0
  9
$AUPREC
 70
     0
  9
$MENU
  1
.
  9
$ELEVATION
 40
0.0
  9
$PELEVATION
 40
0.0
  9
$THICKNESS
 40
0.0
  9
$LIMCHECK
 70
     0
  9
$CHAMFERA
 40
0.0
  9
$CHAMFERB
 40
0.0
  9
$CHAMFERC
 40
0.0
  9
$CHAMFERD
 40
0.0
  9
$SKPOLY
 70
     0
  9
$TDCREATE
 40
2454752.824248402
  9
$TDUCREATE
 40
2454752.740915069
  9
$TDUPDATE
 40
2454752.826017789
  9
$TDUUPDATE
 40
2454752.742684456
  9
$TDINDWG
 40
0.0017693866
  9
$TDUSRTIMER
 40
0.0017693866
  9
$USRTIMER
 70
     1
  9
$ANGBASE
 50
0.0
  9
$ANGDIR
 70
     0
  9
$PDMODE
 70
     0
  9
$PDSIZE
 40
0.0
  9
$PLINEWID
 40
0.0
  9
$SPLFRAME
 70
     0
  9
$SPLINETYPE
 70
     6
  9
$SPLINESEGS
 70
     8
  9
$HANDSEED
  5
399
  9
$SURFTAB1
 70
     6
  9
$SURFTAB2
 70
     6
  9
$SURFTYPE
 70
     6
  9
$SURFU
 70
     6
  9
$SURFV
 70
     6
  9
$UCSBASE
  2

  9
$UCSNAME
  2

  9
$UCSORG
 10
0.0
 20
0.0
 30
0.0
  9
$UCSXDIR
 10
1.0
 20
0.0
 30
0.0
  9
$UCSYDIR
 10
0.0
 20
1.0
 30
0.0
  9
$UCSORTHOREF
  2

  9
$UCSORTHOVIEW
 70
     1
  9
$UCSORGTOP
 10
0.0
 20
0.0
 30
0.0
  9
$UCSORGBOTTOM
 10
0.0
 20
0.0
 30
0.0
  9
$UCSORGLEFT
 10
0.0
 20
0.0
 30
0.0
  9
$UCSORGRIGHT
 10
0.0
 20
0.0
 30
0.0
  9
$UCSORGFRONT
 10
0.0
 20
0.0
 30
0.0
  9
$UCSORGBACK
 10
0.0
 20
0.0
 30
0.0
  9
$PUCSBASE
  2

  9
$PUCSNAME
  2

  9
$PUCSORG
 10
0.0
 20
0.0
 30
0.0
  9
$PUCSXDIR
 10
1.0
 20
0.0
 30
0.0
  9
$PUCSYDIR
 10
0.0
 20
1.0
 30
0.0
  9
$PUCSORTHOREF
  2

  9
$PUCSORTHOVIEW
 70
     0
  9
$PUCSORGTOP
 10
0.0
 20
0.0
 30
0.0
  9
$PUCSORGBOTTOM
 10
0.0
 20
0.0
 30
0.0
  9
$PUCSORGLEFT
 10
0.0
 20
0.0
 30
0.0
  9
$PUCSORGRIGHT
 10
0.0
 20
0.0
 30
0.0
  9
$PUCSORGFRONT
 10
0.0
 20
0.0
 30
0.0
  9
$PUCSORGBACK
 10
0.0
 20
0.0
 30
0.0
  9
$USERI1
 70
     0
  9
$USERI2
 70
     0
  9
$USERI3
 70
     0
  9
$USERI4
 70
     0
  9
$USERI5
 70
     0
  9
$USERR1
 40
0.0
  9
$USERR2
 40
0.0
  9
$USERR3
 40
0.0
  9
$USERR4
 40
0.0
  9
$USERR5
 40
0.0
  9
$WORLDVIEW
 70
     1
  9
$SHADEDGE
 70
     3
  9
$SHADEDIF
 70
    70
  9
$TILEMODE
 70
     1
  9
$MAXACTVP
 70
    64
  9
$PINSBASE
 10
0.0
 20
0.0
 30
0.0
  9
$PLIMCHECK
 70
     0
  9
$PEXTMIN
 10
1.000000000000000E+20
 20
1.000000000000000E+20
 30
1.000000000000000E+20
  9
$PEXTMAX
 10
-1.000000000000000E+20
 20
-1.000000000000000E+20
 30
-1.000000000000000E+20
  9
$PLIMMIN
 10
0.0
 20
0.0
  9
$PLIMMAX
 10
12.0
 20
9.0
  9
$UNITMODE
 70
     0
  9
$VISRETAIN
 70
     1
  9
$PLINEGEN
 70
     0
  9
$PSLTSCALE
 70
     1
  9
$TREEDEPTH
 70
  3020
  9
$CMLSTYLE
  2
Standard
  9
$CMLJUST
 70
     0
  9
$CMLSCALE
 40
1.0
  9
$PROXYGRAPHICS
 70
     1
  9
$MEASUREMENT
 70
     0
  9
$CELWEIGHT
370
    -1
  9
$ENDCAPS
280
     0
  9
$JOINSTYLE
280
     0
  9
$LWDISPLAY
290
     0
  9
$INSUNITS
 70
     0
  9
$HYPERLINKBASE
  1

  9
$STYLESHEET
  1

  9
$XEDIT
290
     1
  9
$CEPSNTYPE
380
     0
  9
$PSTYLEMODE
290
     1
  9
$FINGERPRINTGUID
  2
{35200A79-F644-4F1C-8763-5D2272A0C824}
  9
$VERSIONGUID
  2
{28E0F0ED-E41E-4D33-9156-290CBF248511}
  9
$EXTNAMES
290
     1
  9
$PSVPSCALE
 40
0.0
  9
$OLESTARTUP
290
     0
  0
ENDSEC
  0
SECTION
  2
CLASSES
  0
CLASS
  1
ACDBDICTIONARYWDFLT
  2
AcDbDictionaryWithDefault
  3
AutoCAD 2000
 90
        0
280
     0
281
     0
  0
CLASS
  1
ACDBPLACEHOLDER
  2
AcDbPlaceHolder
  3
AutoCAD 2000
 90
        0
280
     0
281
     0
  0
CLASS
  1
LAYOUT
  2
AcDbLayout
  3
AutoCAD 2000
 90
        0
280
     0
281
     0
  0
CLASS
  1
DICTIONARYVAR
  2
AcDbDictionaryVar
  3
AutoCAD 2000
 90
        0
280
     0
281
     0
  0
ENDSEC
  0
SECTION
  2
TABLES
  0
TABLE
  2
VPORT
  5
8
330
0
100
AcDbSymbolTable
 70
     2
  0
VPORT
  5
398
330
8
100
AcDbSymbolTableRecord
100
AcDbViewportTableRecord
  2
*Active
 70
     0
 10
0.0
 20
0.0
 11
1.0
 21
1.0
 12
182.0
 22
42.0
 13
0.0
 23
0.0
 14
1.0
 24
1.0
 15
0.0
 25
0.0
 16
0.0
 26
0.0
 36
1.0
 17
0.0
 27
0.0
 37
0.0
 40
175.8067223319948
 41
2.078104993597951
 42
50.0
 43
0.0
 44
0.0
 50
0.0
 51
0.0
 71
     0
 72
   100
 73
     1
 74
     3
 75
     0
 76
     0
 77
     0
 78
     0
281
     0
 65
     1
110
0.0
120
0.0
130
0.0
111
1.0
121
0.0
131
0.0
112
0.0
122
1.0
132
0.0
 79
     1
146
0.0
  0
ENDTAB
  0
TABLE
  2
LTYPE
  5
5
330
0
100
AcDbSymbolTable
 70
     1
  0
LTYPE
  5
13
330
5
100
AcDbSymbolTableRecord
100
AcDbLinetypeTableRecord
  2
ByBlock
 70
     0
  3

 72
    65
 73
     0
 40
0.0
  0
LTYPE
  5
14
330
5
100
AcDbSymbolTableRecord
100
AcDbLinetypeTableRecord
  2
ByLayer
 70
     0
  3

 72
    65
 73
     0
 40
0.0
  0
LTYPE
  5
15
330
5
100
AcDbSymbolTableRecord
100
AcDbLinetypeTableRecord
  2
Continuous
 70
     0
  3
Solid line
 72
    65
 73
     0
 40
0.0
  0
ENDTAB
  0
TABLE
  2
LAYER
  5
2
330
0
100
AcDbSymbolTable
 70
     1
  0
LAYER
  5
10
330
2
100
AcDbSymbolTableRecord
100
AcDbLayerTableRecord
  2
0
 70
     0
 62
     7
  6
Continuous
370
    -3
390
F
  0
ENDTAB
  0
TABLE
  2
STYLE
  5
3
330
0
100
AcDbSymbolTable
 70
     1
  0
STYLE
  5
11
330
3
100
AcDbSymbolTableRecord
100
AcDbTextStyleTableRecord
  2
Standard
 70
     0
 40
0.0
 41
1.0
 50
0.0
 71
     0
 42
0.2
  3
txt
  4

  0
ENDTAB
  0
TABLE
  2
VIEW
  5
6
330
0
100
AcDbSymbolTable
 70
     0
  0
ENDTAB
  0
TABLE
  2
UCS
  5
7
330
0
100
AcDbSymbolTable
 70
     0
  0
ENDTAB
  0
TABLE
  2
APPID
  5
9
330
0
100
AcDbSymbolTable
 70
     1
  0
APPID
  5
12
330
9
100
AcDbSymbolTableRecord
100
AcDbRegAppTableRecord
  2
ACAD
 70
     0
  0
ENDTAB
  0
TABLE
  2
DIMSTYLE
  5
A
330
0
100
AcDbSymbolTable
 70
     1
100
AcDbDimStyleTable
 71
     0
  0
DIMSTYLE
105
2E0
330
A
100
AcDbSymbolTableRecord
100
AcDbDimStyleTableRecord
  2
Standard
 70
     0
340
11
  0
ENDTAB
  0
TABLE
  2
BLOCK_RECORD
  5
1
330
0
100
AcDbSymbolTable
 70
     0
  0
BLOCK_RECORD
  5
1E
330
1
100
AcDbSymbolTableRecord
100
AcDbBlockTableRecord
  2
*Model_Space
340
21
  0
BLOCK_RECORD
  5
1A
330
1
100
AcDbSymbolTableRecord
100
AcDbBlockTableRecord
  2
*Paper_Space
340
1D
  0
ENDTAB
  0
ENDSEC
  0
SECTION
  2
BLOCKS
  0
BLOCK
  5
1F
330
1E
100
AcDbEntity
  8
0
100
AcDbBlockBegin
  2
*Model_Space
 70
     0
 10
0.0
 20
0.0
 30
0.0
  3
*Model_Space
  1

  0
ENDBLK
  5
20
330
1E
100
AcDbEntity
  8
0
100
AcDbBlockEnd
  0
BLOCK
  5
1B
330
1A
100
AcDbEntity
 67
     1
  8
0
100
AcDbBlockBegin
  2
*Paper_Space
 70
     0
 10
0.0
 20
0.0
 30
0.0
  3
*Paper_Space
  1

  0
ENDBLK
  5
1C
330
1A
100
AcDbEntity
 67
     1
  8
0
100
AcDbBlockEnd
  0
ENDSEC
  0
SECTION
  2
ENTITIES
  0
LINE
  5
22
330
1E
100
AcDbEntity
  8
0
100
AcDbLine
 10
54.5
 20
0.0000000000000006
 30
0.0
 11
55.0
 21
3.0
 31
0.0
  0
LINE
  5
23
330
1E
100
AcDbEntity
  8
0
100
AcDbLine
 10
82.0
 20
-0.0000000000000014
 30
0.0
 11
89.1
 21
-0.0000000000000013
 31
0.0
  0
LINE
  5
24
330
1E
100
AcDbEntity
  8
0
100
AcDbLine
 10
89.1
 20
-0.0000000000000013
 30
0.0
 11
95.7
 21
-0.0000000000000011
 31
0.0
  0
LINE
  5
25
330
1E
100
AcDbEntity
  8
0
100
AcDbLine
 10
95.7
 20
-0.0000000000000011
 30
0.0
 11
101.4
 21
-0.0000000000000009
 31
0.0
  0
LINE
  5
26
330
1E
100
AcDbEntity
  8
0
100
AcDbLine
 10
101.4
 20
-0.0000000000000009
 30
0.0
 11
105.8
 21
-0.0000000000000005
 31
0.0
  0
LINE
  5
27
330
1E
100
AcDbEntity
  8
0
100
AcDbLine
 10
74.90000000000001
 20
-0.0000000000000013
 30
0.0
 11
82.0
 21
-0.0000000000000014
 31
0.0
  0
LINE
  5
28
330
1E
100
AcDbEntity
  8
0
100
AcDbLine
 10
68.3
 20
-0.0000000000000011
 30
0.0
 11
74.90000000000001
 21
-0.0000000000000013
 31
0.0
  0
LINE
  5
29
330
1E
100
AcDbEntity
  8
0
100
AcDbLine
 10
105.8
 20
-0.0000000000000005
 30
0.0
 11
108.4999999999999
 21
-0.0000000000000001
 31
0.0
  0
LINE
  5
2A
330
1E
100
AcDbEntity
  8
0
100
AcDbLine
 10
108.4999999999999
 20
-0.0000000000000001
 30
0.0
 11
109.4999999999999
 21
0.0000000000000003
 31
0.0
  0
LINE
  5
2B
330
1E
100
AcDbEntity
  8
0
100
AcDbLine
 10
62.6
 20
-0.0000000000000009
 30
0.0
 11
68.3
 21
-0.0000000000000011
 31
0.0
  0
LINE
  5
2C
330
1E
100
AcDbEntity
  8
0
100
AcDbLine
 10
58.2
 20
-0.0000000000000005
 30
0.0
 11
62.6
 21
-0.0000000000000009
 31
0.0
  0
LINE
  5
2D
330
1E
100
AcDbEntity
  8
0
100
AcDbLine
 10
55.5
 20
-0.0000000000000001
 30
0.0
 11
58.2
 21
-0.0000000000000005
 31
0.0
  0
LINE
  5
2E
330
1E
100
AcDbEntity
  8
0
100
AcDbLine
 10
54.5
 20
0.0000000000000003
 30
0.0
 11
55.0
 21
3.0
 31
0.0
  0
LINE
  5
2F
330
1E
100
AcDbEntity
  8
0
100
AcDbLine
 10
54.5
 20
0.0000000000000003
 30
0.0
 11
55.5
 21
0.0000000000000008
 31
0.0
  0
LINE
  5
30
330
1E
100
AcDbEntity
  8
0
100
AcDbLine
 10
54.5
 20
0.0000000000000003
 30
0.0
 11
55.5
 21
-0.0000000000000001
 31
0.0
  0
LINE
  5
31
330
1E
100
AcDbEntity
  8
0
100
AcDbLine
 10
0.499999999999986
 20
48.5
 30
0.0
 11
1.999999999999989
 21
46.5
 31
0.0
  0
LINE
  5
32
330
1E
100
AcDbEntity
  8
0
100
AcDbLine
 10
51.0
 20
45.0
 30
0.0
 11
69.9300411522634
 21
46.4197530864197
 31
0.0
  0
LINE
  5
33
330
1E
100
AcDbEntity
  8
0
100
AcDbLine
 10
32.0
 20
44.0
 30
0.0
 11
51.0
 21
45.0
 31
0.0
  0
LINE
  5
34
330
1E
100
AcDbEntity
  8
0
100
AcDbLine
 10
19.0
 20
43.79999999999999
 30
0.0
 11
32.0
 21
44.0
 31
0.0
  0
LINE
  5
35
330
1E
100
AcDbEntity
  8
0
100
AcDbLine
 10
9.999999999999991
 20
43.5
 30
0.0
 11
19.0
 21
43.79999999999999
 31
0.0
  0
LINE
  5
36
330
1E
100
AcDbEntity
  8
0
100
AcDbLine
 10
6.49999999999999
 20
44.0
 30
0.0
 11
9.999999999999991
 21
43.5
 31
0.0
  0
LINE
  5
37
330
1E
100
AcDbEntity
  8
0
100
AcDbLine
 10
3.99999999999999
 20
45.0
 30
0.0
 11
6.49999999999999
 21
44.0
 31
0.0
  0
LINE
  5
38
330
1E
100
AcDbEntity
  8
0
100
AcDbLine
 10
1.999999999999989
 20
46.5
 30
0.0
 11
3.99999999999999
 21
45.0
 31
0.0
  0
LINE
  5
39
330
1E
100
AcDbEntity
  8
0
100
AcDbLine
 10
0.499999999999986
 20
53.5
 30
0.0
 11
1.999999999999989
 21
55.5
 31
0.0
  0
LINE
  5
3A
330
1E
100
AcDbEntity
  8
0
100
AcDbLine
 10
51.0
 20
57.0
 30
0.0
 11
70.0
 21
55.575
 31
0.0
  0
LINE
  5
3B
330
1E
100
AcDbEntity
  8
0
100
AcDbLine
 10
32.0
 20
58.0
 30
0.0
 11
51.0
 21
57.0
 31
0.0
  0
LINE
  5
3C
330
1E
100
AcDbEntity
  8
0
100
AcDbLine
 10
19.0
 20
58.2
 30
0.0
 11
32.0
 21
58.0
 31
0.0
  0
LINE
  5
3D
330
1E
100
AcDbEntity
  8
0
100
AcDbLine
 10
9.999999999999991
 20
58.5
 30
0.0
 11
19.0
 21
58.2
 31
0.0
  0
LINE
  5
3E
330
1E
100
AcDbEntity
  8
0
100
AcDbLine
 10
6.49999999999999
 20
58.0
 30
0.0
 11
9.999999999999991
 21
58.5
 31
0.0
  0
LINE
  5
3F
330
1E
100
AcDbEntity
  8
0
100
AcDbLine
 10
3.99999999999999
 20
57.0
 30
0.0
 11
6.49999999999999
 21
58.0
 31
0.0
  0
LINE
  5
40
330
1E
100
AcDbEntity
  8
0
100
AcDbLine
 10
1.999999999999989
 20
55.5
 30
0.0
 11
3.99999999999999
 21
57.0
 31
0.0
  0
LINE
  5
41
330
1E
100
AcDbEntity
  8
0
100
AcDbLine
 10
0.499999999999986
 20
53.5
 30
0.0
 11
1.999999999999989
 21
55.5
 31
0.0
  0
LINE
  5
42
330
1E
100
AcDbEntity
  8
0
100
AcDbLine
 10
0.499999999999986
 20
48.5
 30
0.0
 11
1.999999999999989
 21
46.5
 31
0.0
  0
LINE
  5
43
330
1E
100
AcDbEntity
  8
0
100
AcDbLine
 10
-0.0000000000000142
 20
51.0
 30
0.0
 11
0.499999999999986
 21
48.5
 31
0.0
  0
LINE
  5
44
330
1E
100
AcDbEntity
  8
0
100
AcDbLine
 10
-0.0000000000000142
 20
51.0
 30
0.0
 11
0.499999999999986
 21
53.5
 31
0.0
  0
LINE
  5
45
330
1E
100
AcDbEntity
  8
0
100
AcDbLine
 10
55.0
 20
3.0
 30
0.0
 11
56.0
 21
5.0
 31
0.0
  0
LINE
  5
46
330
1E
100
AcDbEntity
  8
0
100
AcDbLine
 10
105.8
 20
0.0000000000000012
 30
0.0
 11
108.4999999999999
 21
0.0000000000000008
 31
0.0
  0
LINE
  5
47
330
1E
100
AcDbEntity
  8
0
100
AcDbLine
 10
108.4999999999999
 20
0.0000000000000008
 30
0.0
 11
109.4999999999999
 21
0.0000000000000003
 31
0.0
  0
LINE
  5
48
330
1E
100
AcDbEntity
  8
0
100
AcDbLine
 10
61.2
 20
7.0
 30
0.0
 11
65.09999999999999
 21
7.0
 31
0.0
  0
LINE
  5
4A
330
1E
100
AcDbEntity
  8
0
100
AcDbLine
 10
60.0
 20
9.5
 30
0.0
 11
60.0
 21
8.0
 31
0.0
  0
LINE
  5
4C
330
1E
100
AcDbEntity
  8
0
100
AcDbLine
 10
60.0
 20
9.5
 30
0.0
 11
61.0
 21
10.5
 31
0.0
  0
LINE
  5
4D
330
1E
100
AcDbEntity
  8
0
100
AcDbLine
 10
61.79999999999999
 20
10.5
 30
0.0
 11
63.79999999999999
 21
10.5
 31
0.0
  0
LINE
  5
4E
330
1E
100
AcDbEntity
  8
0
100
AcDbLine
 10
61.0
 20
10.5
 30
0.0
 11
61.79999999999999
 21
10.5
 31
0.0
  0
LINE
  5
50
330
1E
100
AcDbEntity
  8
0
100
AcDbLine
 10
60.0
 20
8.0
 30
0.0
 11
61.0
 21
7.0
 31
0.0
  0
LINE
  5
52
330
1E
100
AcDbEntity
  8
0
100
AcDbLine
 10
60.0
 20
8.0
 30
0.0
 11
60.0
 21
9.5
 31
0.0
  0
LINE
  5
53
330
1E
100
AcDbEntity
  8
0
100
AcDbLine
 10
62.0
 20
10.5
 30
0.0
 11
63.0
 21
16.5
 31
0.0
  0
LINE
  5
54
330
1E
100
AcDbEntity
  8
0
100
AcDbLine
 10
58.9
 20
7.0
 30
0.0
 11
61.2
 21
7.0
 31
0.0
  0
LINE
  5
55
330
1E
100
AcDbEntity
  8
0
100
AcDbLine
 10
58.0
 20
7.0
 30
0.0
 11
58.9
 21
7.0
 31
0.0
  0
LINE
  5
56
330
1E
100
AcDbEntity
  8
0
100
AcDbLine
 10
56.0
 20
5.0
 30
0.0
 11
58.0
 21
7.0
 31
0.0
  0
LINE
  5
57
330
1E
100
AcDbEntity
  8
0
100
AcDbLine
 10
95.7
 20
0.0000000000000018
 30
0.0
 11
101.4
 21
0.0000000000000015
 31
0.0
  0
LINE
  5
58
330
1E
100
AcDbEntity
  8
0
100
AcDbLine
 10
101.4
 20
0.0000000000000015
 30
0.0
 11
105.8
 21
0.0000000000000012
 31
0.0
  0
LINE
  5
59
330
1E
100
AcDbEntity
  8
0
100
AcDbLine
 10
70.0
 20
7.0
 30
0.0
 11
75.8
 21
7.0
 31
0.0
  0
LINE
  5
5C
330
1E
100
AcDbEntity
  8
0
100
AcDbLine
 10
63.79999999999999
 20
10.5
 30
0.0
 11
67.2
 21
10.5
 31
0.0
  0
LINE
  5
61
330
1E
100
AcDbEntity
  8
0
100
AcDbLine
 10
71.5
 20
10.5
 30
0.0
 11
76.6
 21
10.5
 31
0.0
  0
LINE
  5
62
330
1E
100
AcDbEntity
  8
0
100
AcDbLine
 10
67.2
 20
10.5
 30
0.0
 11
71.5
 21
10.5
 31
0.0
  0
LINE
  5
65
330
1E
100
AcDbEntity
  8
0
100
AcDbLine
 10
72.0
 20
39.0
 30
0.0
 11
72.0
 21
38.0
 31
0.0
  0
LINE
  5
67
330
1E
100
AcDbEntity
  8
0
100
AcDbLine
 10
72.0
 20
39.0
 30
0.0
 11
73.0
 21
40.0
 31
0.0
  0
LINE
  5
68
330
1E
100
AcDbEntity
  8
0
100
AcDbLine
 10
72.0
 20
38.0
 30
0.0
 11
73.0
 21
37.0
 31
0.0
  0
LINE
  5
6A
330
1E
100
AcDbEntity
  8
0
100
AcDbLine
 10
72.0
 20
38.0
 30
0.0
 11
72.0
 21
39.0
 31
0.0
  0
LINE
  5
6B
330
1E
100
AcDbEntity
  8
0
100
AcDbLine
 10
73.0
 20
40.0
 30
0.0
 11
73.3
 21
40.0
 31
0.0
  0
LINE
  5
6C
330
1E
100
AcDbEntity
  8
0
100
AcDbLine
 10
70.0
 20
56.0
 30
0.0
 11
71.0
 21
59.0
 31
0.0
  0
LINE
  5
6D
330
1E
100
AcDbEntity
  8
0
100
AcDbLine
 10
69.9300411522634
 20
55.58024691358021
 30
0.0
 11
70.0
 21
56.0
 31
0.0
  0
LINE
  5
6E
330
1E
100
AcDbEntity
  8
0
100
AcDbLine
 10
69.9300411522634
 20
46.4197530864197
 30
0.0
 11
70.0
 21
46.0
 31
0.0
  0
LINE
  5
6F
330
1E
100
AcDbEntity
  8
0
100
AcDbLine
 10
72.5
 20
59.0
 30
0.0
 11
74.2
 21
59.0
 31
0.0
  0
LINE
  5
70
330
1E
100
AcDbEntity
  8
0
100
AcDbLine
 10
71.4
 20
59.0
 30
0.0
 11
72.5
 21
59.0
 31
0.0
  0
LINE
  5
71
330
1E
100
AcDbEntity
  8
0
100
AcDbLine
 10
70.5
 20
60.5
 30
0.0
 11
70.5
 21
59.5
 31
0.0
  0
LINE
  5
73
330
1E
100
AcDbEntity
  8
0
100
AcDbLine
 10
70.5
 20
60.5
 30
0.0
 11
71.0
 21
61.0
 31
0.0
  0
LINE
  5
75
330
1E
100
AcDbEntity
  8
0
100
AcDbLine
 10
72.5
 20
61.0
 30
0.0
 11
74.2
 21
61.0
 31
0.0
  0
LINE
  5
76
330
1E
100
AcDbEntity
  8
0
100
AcDbLine
 10
71.4
 20
61.0
 30
0.0
 11
72.5
 21
61.0
 31
0.0
  0
LINE
  5
77
330
1E
100
AcDbEntity
  8
0
100
AcDbLine
 10
71.0
 20
61.0
 30
0.0
 11
71.4
 21
61.0
 31
0.0
  0
LINE
  5
78
330
1E
100
AcDbEntity
  8
0
100
AcDbLine
 10
71.0
 20
61.0
 30
0.0
 11
74.8
 21
63.5
 31
0.0
  0
LINE
  5
7C
330
1E
100
AcDbEntity
  8
0
100
AcDbLine
 10
70.5
 20
59.5
 30
0.0
 11
71.0
 21
59.0
 31
0.0
  0
LINE
  5
7E
330
1E
100
AcDbEntity
  8
0
100
AcDbLine
 10
70.5
 20
59.5
 30
0.0
 11
70.5
 21
60.5
 31
0.0
  0
LINE
  5
7F
330
1E
100
AcDbEntity
  8
0
100
AcDbLine
 10
71.0
 20
59.0
 30
0.0
 11
71.4
 21
59.0
 31
0.0
  0
LINE
  5
80
330
1E
100
AcDbEntity
  8
0
100
AcDbLine
 10
70.0
 20
46.0
 30
0.0
 11
71.0
 21
43.0
 31
0.0
  0
LINE
  5
81
330
1E
100
AcDbEntity
  8
0
100
AcDbLine
 10
71.0
 20
43.0
 30
0.0
 11
73.0
 21
40.0
 31
0.0
  0
LINE
  5
82
330
1E
100
AcDbEntity
  8
0
100
AcDbLine
 10
74.2
 20
37.0
 30
0.0
 11
75.59999999999999
 21
37.0
 31
0.0
  0
LINE
  5
87
330
1E
100
AcDbEntity
  8
0
100
AcDbLine
 10
74.2
 20
61.0
 30
0.0
 11
76.5
 21
61.0
 31
0.0
  0
LINE
  5
8A
330
1E
100
AcDbEntity
  8
0
100
AcDbLine
 10
74.8
 20
63.5
 30
0.0
 11
78.7
 21
64.8
 31
0.0
  0
LINE
  5
8B
330
1E
100
AcDbEntity
  8
0
100
AcDbLine
 10
74.2
 20
59.0
 30
0.0
 11
76.5
 21
59.0
 31
0.0
  0
LINE
  5
8C
330
1E
100
AcDbEntity
  8
0
100
AcDbLine
 10
74.2
 20
40.0
 30
0.0
 11
75.59999999999999
 21
40.0
 31
0.0
  0
LINE
  5
8D
330
1E
100
AcDbEntity
  8
0
100
AcDbLine
 10
73.3
 20
40.0
 30
0.0
 11
74.2
 21
40.0
 31
0.0
  0
LINE
  5
8E
330
1E
100
AcDbEntity
  8
0
100
AcDbLine
 10
73.3
 20
37.0
 30
0.0
 11
74.2
 21
37.0
 31
0.0
  0
LINE
  5
8F
330
1E
100
AcDbEntity
  8
0
100
AcDbLine
 10
73.0
 20
37.0
 30
0.0
 11
73.3
 21
37.0
 31
0.0
  0
LINE
  5
90
330
1E
100
AcDbEntity
  8
0
100
AcDbLine
 10
70.0
 20
34.0
 30
0.0
 11
73.0
 21
37.0
 31
0.0
  0
LINE
  5
91
330
1E
100
AcDbEntity
  8
0
100
AcDbLine
 10
67.5
 20
29.0
 30
0.0
 11
70.0
 21
34.0
 31
0.0
  0
LINE
  5
92
330
1E
100
AcDbEntity
  8
0
100
AcDbLine
 10
65.0
 20
23.0
 30
0.0
 11
67.5
 21
29.0
 31
0.0
  0
LINE
  5
93
330
1E
100
AcDbEntity
  8
0
100
AcDbLine
 10
63.0
 20
16.5
 30
0.0
 11
65.0
 21
23.0
 31
0.0
  0
LINE
  5
94
330
1E
100
AcDbEntity
  8
0
100
AcDbLine
 10
65.09999999999999
 20
7.0
 30
0.0
 11
70.0
 21
7.0
 31
0.0
  0
LINE
  5
95
330
1E
100
AcDbEntity
  8
0
100
AcDbLine
 10
88.2
 20
7.0
 30
0.0
 11
94.0
 21
7.0
 31
0.0
  0
LINE
  5
96
330
1E
100
AcDbEntity
  8
0
100
AcDbLine
 10
94.0
 20
7.0
 30
0.0
 11
98.9
 21
7.0
 31
0.0
  0
LINE
  5
97
330
1E
100
AcDbEntity
  8
0
100
AcDbLine
 10
98.9
 20
7.0
 30
0.0
 11
102.8
 21
7.0
 31
0.0
  0
LINE
  5
98
330
1E
100
AcDbEntity
  8
0
100
AcDbLine
 10
103.0
 20
7.0
 30
0.0
 11
104.0
 21
8.0
 31
0.0
  0
LINE
  5
99
330
1E
100
AcDbEntity
  8
0
100
AcDbLine
 10
102.8
 20
7.0
 30
0.0
 11
105.0999999999999
 21
7.0
 31
0.0
  0
LINE
  5
9A
330
1E
100
AcDbEntity
  8
0
100
AcDbLine
 10
105.0999999999999
 20
7.0
 30
0.0
 11
106.0
 21
7.0
 31
0.0
  0
LINE
  5
9B
330
1E
100
AcDbEntity
  8
0
100
AcDbLine
 10
106.0
 20
7.0
 30
0.0
 11
108.0
 21
5.0
 31
0.0
  0
LINE
  5
9C
330
1E
100
AcDbEntity
  8
0
100
AcDbLine
 10
108.0
 20
5.0
 30
0.0
 11
109.0
 21
3.0
 31
0.0
  0
LINE
  5
9D
330
1E
100
AcDbEntity
  8
0
100
AcDbLine
 10
82.0
 20
0.000000000000002
 30
0.0
 11
89.1
 21
0.0000000000000019
 31
0.0
  0
LINE
  5
9E
330
1E
100
AcDbEntity
  8
0
100
AcDbLine
 10
89.1
 20
0.0000000000000019
 30
0.0
 11
95.7
 21
0.0000000000000018
 31
0.0
  0
LINE
  5
9F
330
1E
100
AcDbEntity
  8
0
100
AcDbLine
 10
109.0
 20
3.0
 30
0.0
 11
109.4999999999999
 21
0.0000000000000006
 31
0.0
  0
LINE
  5
A0
330
1E
100
AcDbEntity
  8
0
100
AcDbLine
 10
109.0
 20
3.0
 30
0.0
 11
109.4999999999999
 21
0.0000000000000003
 31
0.0
  0
LINE
  5
A1
330
1E
100
AcDbEntity
  8
0
100
AcDbLine
 10
75.59999999999999
 20
40.0
 30
0.0
 11
77.5
 21
40.0
 31
0.0
  0
LINE
  5
A2
330
1E
100
AcDbEntity
  8
0
100
AcDbLine
 10
76.6
 20
10.5
 30
0.0
 11
82.0
 21
10.5
 31
0.0
  0
LINE
  5
A5
330
1E
100
AcDbEntity
  8
0
100
AcDbLine
 10
82.0
 20
10.5
 30
0.0
 11
87.4
 21
10.5
 31
0.0
  0
LINE
  5
AB
330
1E
100
AcDbEntity
  8
0
100
AcDbLine
 10
87.4
 20
10.5
 30
0.0
 11
92.5
 21
10.5
 31
0.0
  0
LINE
  5
AC
330
1E
100
AcDbEntity
  8
0
100
AcDbLine
 10
92.5
 20
10.5
 30
0.0
 11
96.79999999999999
 21
10.5
 31
0.0
  0
LINE
  5
AD
330
1E
100
AcDbEntity
  8
0
100
AcDbLine
 10
96.79999999999999
 20
10.5
 30
0.0
 11
100.2
 21
10.5
 31
0.0
  0
LINE
  5
AF
330
1E
100
AcDbEntity
  8
0
100
AcDbLine
 10
100.2
 20
10.5
 30
0.0
 11
102.2
 21
10.5
 31
0.0
  0
LINE
  5
B2
330
1E
100
AcDbEntity
  8
0
100
AcDbLine
 10
82.0
 20
37.0
 30
0.0
 11
84.29999999999999
 21
37.0
 31
0.0
  0
LINE
  5
B3
330
1E
100
AcDbEntity
  8
0
100
AcDbLine
 10
84.29999999999999
 20
37.0
 30
0.0
 11
86.5
 21
37.0
 31
0.0
  0
LINE
  5
B4
330
1E
100
AcDbEntity
  8
0
100
AcDbLine
 10
86.5
 20
37.0
 30
0.0
 11
88.40000000000001
 21
37.0
 31
0.0
  0
LINE
  5
B5
330
1E
100
AcDbEntity
  8
0
100
AcDbLine
 10
88.40000000000001
 20
37.0
 30
0.0
 11
89.8
 21
37.0
 31
0.0
  0
LINE
  5
B6
330
1E
100
AcDbEntity
  8
0
100
AcDbLine
 10
89.8
 20
37.0
 30
0.0
 11
90.7
 21
37.0
 31
0.0
  0
LINE
  5
B7
330
1E
100
AcDbEntity
  8
0
100
AcDbLine
 10
90.7
 20
37.0
 30
0.0
 11
91.0
 21
37.0
 31
0.0
  0
LINE
  5
B8
330
1E
100
AcDbEntity
  8
0
100
AcDbLine
 10
91.0
 20
37.0
 30
0.0
 11
94.0
 21
34.0
 31
0.0
  0
LINE
  5
B9
330
1E
100
AcDbEntity
  8
0
100
AcDbLine
 10
91.0
 20
37.0
 30
0.0
 11
92.0
 21
38.0
 31
0.0
  0
LINE
  5
BA
330
1E
100
AcDbEntity
  8
0
100
AcDbLine
 10
94.0
 20
34.0
 30
0.0
 11
96.5
 21
29.0
 31
0.0
  0
LINE
  5
BB
330
1E
100
AcDbEntity
  8
0
100
AcDbLine
 10
96.5
 20
29.0
 30
0.0
 11
99.0
 21
23.0
 31
0.0
  0
LINE
  5
BC
330
1E
100
AcDbEntity
  8
0
100
AcDbLine
 10
99.0
 20
23.0
 30
0.0
 11
101.0
 21
16.5
 31
0.0
  0
LINE
  5
BD
330
1E
100
AcDbEntity
  8
0
100
AcDbLine
 10
104.0
 20
8.0
 30
0.0
 11
104.0
 21
9.5
 31
0.0
  0
LINE
  5
BF
330
1E
100
AcDbEntity
  8
0
100
AcDbLine
 10
102.2
 20
10.5
 30
0.0
 11
103.0
 21
10.5
 31
0.0
  0
LINE
  5
C0
330
1E
100
AcDbEntity
  8
0
100
AcDbLine
 10
103.0
 20
10.5
 30
0.0
 11
104.0
 21
9.5
 31
0.0
  0
LINE
  5
C2
330
1E
100
AcDbEntity
  8
0
100
AcDbLine
 10
104.0
 20
9.5
 30
0.0
 11
104.0
 21
8.0
 31
0.0
  0
LINE
  5
C5
330
1E
100
AcDbEntity
  8
0
100
AcDbLine
 10
101.0
 20
16.5
 30
0.0
 11
102.0
 21
10.5
 31
0.0
  0
LINE
  5
C6
330
1E
100
AcDbEntity
  8
0
100
AcDbLine
 10
82.0
 20
7.0
 30
0.0
 11
88.2
 21
7.0
 31
0.0
  0
LINE
  5
C7
330
1E
100
AcDbEntity
  8
0
100
AcDbLine
 10
79.7
 20
37.0
 30
0.0
 11
82.0
 21
37.0
 31
0.0
  0
LINE
  5
CB
330
1E
100
AcDbEntity
  8
0
100
AcDbLine
 10
76.5
 20
61.0
 30
0.0
 11
79.2
 21
61.0
 31
0.0
  0
LINE
  5
CD
330
1E
100
AcDbEntity
  8
0
100
AcDbLine
 10
76.5
 20
59.0
 30
0.0
 11
79.2
 21
59.0
 31
0.0
  0
LINE
  5
D2
330
1E
100
AcDbEntity
  8
0
100
AcDbLine
 10
82.0
 20
40.0
 30
0.0
 11
84.29999999999999
 21
40.0
 31
0.0
  0
LINE
  5
D7
330
1E
100
AcDbEntity
  8
0
100
AcDbLine
 10
84.29999999999999
 20
40.0
 30
0.0
 11
86.5
 21
40.0
 31
0.0
  0
LINE
  5
D8
330
1E
100
AcDbEntity
  8
0
100
AcDbLine
 10
86.5
 20
40.0
 30
0.0
 11
88.40000000000001
 21
40.0
 31
0.0
  0
LINE
  5
DD
330
1E
100
AcDbEntity
  8
0
100
AcDbLine
 10
88.40000000000001
 20
40.0
 30
0.0
 11
89.8
 21
40.0
 31
0.0
  0
LINE
  5
DE
330
1E
100
AcDbEntity
  8
0
100
AcDbLine
 10
89.8
 20
40.0
 30
0.0
 11
90.7
 21
40.0
 31
0.0
  0
LINE
  5
E0
330
1E
100
AcDbEntity
  8
0
100
AcDbLine
 10
92.0
 20
39.0
 30
0.0
 11
92.0
 21
38.0
 31
0.0
  0
LINE
  5
E1
330
1E
100
AcDbEntity
  8
0
100
AcDbLine
 10
92.0
 20
38.0
 30
0.0
 11
92.0
 21
39.0
 31
0.0
  0
LINE
  5
E3
330
1E
100
AcDbEntity
  8
0
100
AcDbLine
 10
91.0
 20
40.0
 30
0.0
 11
93.0
 21
43.0
 31
0.0
  0
LINE
  5
E4
330
1E
100
AcDbEntity
  8
0
100
AcDbLine
 10
91.0
 20
40.0
 30
0.0
 11
92.0
 21
39.0
 31
0.0
  0
LINE
  5
E5
330
1E
100
AcDbEntity
  8
0
100
AcDbLine
 10
90.7
 20
40.0
 30
0.0
 11
91.0
 21
40.0
 31
0.0
  0
LINE
  5
E6
330
1E
100
AcDbEntity
  8
0
100
AcDbLine
 10
78.7
 20
64.8
 30
0.0
 11
82.0
 21
65.0
 31
0.0
  0
LINE
  5
E7
330
1E
100
AcDbEntity
  8
0
100
AcDbLine
 10
79.2
 20
61.0
 30
0.0
 11
82.0
 21
61.0
 31
0.0
  0
LINE
  5
EA
330
1E
100
AcDbEntity
  8
0
100
AcDbLine
 10
82.0
 20
59.0
 30
0.0
 11
84.8
 21
59.0
 31
0.0
  0
LINE
  5
EB
330
1E
100
AcDbEntity
  8
0
100
AcDbLine
 10
84.8
 20
59.0
 30
0.0
 11
87.5
 21
59.0
 31
0.0
  0
LINE
  5
EC
330
1E
100
AcDbEntity
  8
0
100
AcDbLine
 10
87.5
 20
59.0
 30
0.0
 11
89.8
 21
59.0
 31
0.0
  0
LINE
  5
ED
330
1E
100
AcDbEntity
  8
0
100
AcDbLine
 10
89.8
 20
59.0
 30
0.0
 11
91.5
 21
59.0
 31
0.0
  0
LINE
  5
EE
330
1E
100
AcDbEntity
  8
0
100
AcDbLine
 10
91.5
 20
59.0
 30
0.0
 11
92.59999999999999
 21
59.0
 31
0.0
  0
LINE
  5
F5
330
1E
100
AcDbEntity
  8
0
100
AcDbLine
 10
82.0
 20
61.0
 30
0.0
 11
84.8
 21
61.0
 31
0.0
  0
LINE
  5
F6
330
1E
100
AcDbEntity
  8
0
100
AcDbLine
 10
84.8
 20
61.0
 30
0.0
 11
87.5
 21
61.0
 31
0.0
  0
LINE
  5
F7
330
1E
100
AcDbEntity
  8
0
100
AcDbLine
 10
87.5
 20
61.0
 30
0.0
 11
89.8
 21
61.0
 31
0.0
  0
LINE
  5
F8
330
1E
100
AcDbEntity
  8
0
100
AcDbLine
 10
82.0
 20
65.0
 30
0.0
 11
85.29999999999999
 21
64.8
 31
0.0
  0
LINE
  5
F9
330
1E
100
AcDbEntity
  8
0
100
AcDbLine
 10
85.29999999999999
 20
64.8
 30
0.0
 11
89.19999999999999
 21
63.5
 31
0.0
  0
LINE
  5
FA
330
1E
100
AcDbEntity
  8
0
100
AcDbLine
 10
89.19999999999999
 20
63.5
 30
0.0
 11
93.0
 21
61.0
 31
0.0
  0
LINE
  5
FB
330
1E
100
AcDbEntity
  8
0
100
AcDbLine
 10
89.8
 20
61.0
 30
0.0
 11
91.5
 21
61.0
 31
0.0
  0
LINE
  5
FC
330
1E
100
AcDbEntity
  8
0
100
AcDbLine
 10
91.5
 20
61.0
 30
0.0
 11
92.59999999999999
 21
61.0
 31
0.0
  0
LINE
  5
100
330
1E
100
AcDbEntity
  8
0
100
AcDbLine
 10
92.59999999999999
 20
61.0
 30
0.0
 11
93.0
 21
61.0
 31
0.0
  0
LINE
  5
101
330
1E
100
AcDbEntity
  8
0
100
AcDbLine
 10
93.0
 20
61.0
 30
0.0
 11
93.49999999999999
 21
60.5
 31
0.0
  0
LINE
  5
103
330
1E
100
AcDbEntity
  8
0
100
AcDbLine
 10
92.59999999999999
 20
59.0
 30
0.0
 11
93.0
 21
59.0
 31
0.0
  0
LINE
  5
104
330
1E
100
AcDbEntity
  8
0
100
AcDbLine
 10
93.49999999999999
 20
59.5
 30
0.0
 11
93.49999999999999
 21
60.5
 31
0.0
  0
LINE
  5
105
330
1E
100
AcDbEntity
  8
0
100
AcDbLine
 10
93.49999999999999
 20
60.5
 30
0.0
 11
93.49999999999999
 21
59.5
 31
0.0
  0
LINE
  5
108
330
1E
100
AcDbEntity
  8
0
100
AcDbLine
 10
93.0
 20
59.0
 30
0.0
 11
94.0
 21
56.0
 31
0.0
  0
LINE
  5
109
330
1E
100
AcDbEntity
  8
0
100
AcDbLine
 10
93.0
 20
59.0
 30
0.0
 11
93.49999999999999
 21
59.5
 31
0.0
  0
LINE
  5
10A
330
1E
100
AcDbEntity
  8
0
100
AcDbLine
 10
94.0
 20
56.0
 30
0.0
 11
94.50000000000001
 21
53.0
 31
0.0
  0
LINE
  5
10B
330
1E
100
AcDbEntity
  8
0
100
AcDbLine
 10
94.50000000000001
 20
53.0
 30
0.0
 11
94.59999999999999
 21
51.0
 31
0.0
  0
LINE
  5
10C
330
1E
100
AcDbEntity
  8
0
100
AcDbLine
 10
94.50000000000001
 20
49.0
 30
0.0
 11
94.59999999999999
 21
51.0
 31
0.0
  0
LINE
  5
10D
330
1E
100
AcDbEntity
  8
0
100
AcDbLine
 10
94.0
 20
46.0
 30
0.0
 11
94.50000000000001
 21
49.0
 31
0.0
  0
LINE
  5
10E
330
1E
100
AcDbEntity
  8
0
100
AcDbLine
 10
93.0
 20
43.0
 30
0.0
 11
94.0
 21
46.0
 31
0.0
  0
LINE
  5
10F
330
1E
100
AcDbEntity
  8
0
100
AcDbLine
 10
79.2
 20
59.0
 30
0.0
 11
82.0
 21
59.0
 31
0.0
  0
LINE
  5
110
330
1E
100
AcDbEntity
  8
0
100
AcDbLine
 10
79.7
 20
40.0
 30
0.0
 11
82.0
 21
40.0
 31
0.0
  0
LINE
  5
111
330
1E
100
AcDbEntity
  8
0
100
AcDbLine
 10
77.5
 20
40.0
 30
0.0
 11
79.7
 21
40.0
 31
0.0
  0
LINE
  5
112
330
1E
100
AcDbEntity
  8
0
100
AcDbLine
 10
77.5
 20
37.0
 30
0.0
 11
79.7
 21
37.0
 31
0.0
  0
LINE
  5
113
330
1E
100
AcDbEntity
  8
0
100
AcDbLine
 10
75.59999999999999
 20
37.0
 30
0.0
 11
77.5
 21
37.0
 31
0.0
  0
LINE
  5
114
330
1E
100
AcDbEntity
  8
0
100
AcDbLine
 10
75.8
 20
7.0
 30
0.0
 11
82.0
 21
7.0
 31
0.0
  0
LINE
  5
115
330
1E
100
AcDbEntity
  8
0
100
AcDbLine
 10
74.90000000000001
 20
0.0000000000000019
 30
0.0
 11
82.0
 21
0.000000000000002
 31
0.0
  0
LINE
  5
116
330
1E
100
AcDbEntity
  8
0
100
AcDbLine
 10
68.3
 20
0.0000000000000018
 30
0.0
 11
74.90000000000001
 21
0.0000000000000019
 31
0.0
  0
LINE
  5
117
330
1E
100
AcDbEntity
  8
0
100
AcDbLine
 10
62.6
 20
0.0000000000000015
 30
0.0
 11
68.3
 21
0.0000000000000018
 31
0.0
  0
LINE
  5
118
330
1E
100
AcDbEntity
  8
0
100
AcDbLine
 10
58.2
 20
0.0000000000000012
 30
0.0
 11
62.6
 21
0.0000000000000015
 31
0.0
  0
LINE
  5
119
330
1E
100
AcDbEntity
  8
0
100
AcDbLine
 10
55.5
 20
0.0000000000000008
 30
0.0
 11
58.2
 21
0.0000000000000012
 31
0.0
  0
LINE
  5
11A
330
1E
100
AcDbEntity
  8
0
100
AcDbLine
 10
151.5
 20
0.0000000000000006
 30
0.0
 11
153.0
 21
3.0
 31
0.0
  0
LINE
  5
11B
330
1E
100
AcDbEntity
  8
0
100
AcDbLine
 10
182.0
 20
-0.0000000000000015
 30
0.0
 11
189.9
 21
-0.0000000000000015
 31
0.0
  0
LINE
  5
11F
330
1E
100
AcDbEntity
  8
0
100
AcDbLine
 10
189.9
 20
-0.0000000000000015
 30
0.0
 11
197.1999999999999
 21
-0.0000000000000013
 31
0.0
  0
LINE
  5
120
330
1E
100
AcDbEntity
  8
0
100
AcDbLine
 10
197.1999999999999
 20
-0.0000000000000013
 30
0.0
 11
203.6
 21
-0.000000000000001
 31
0.0
  0
LINE
  5
121
330
1E
100
AcDbEntity
  8
0
100
AcDbLine
 10
174.0999999999999
 20
-0.0000000000000015
 30
0.0
 11
182.0
 21
-0.0000000000000015
 31
0.0
  0
LINE
  5
122
330
1E
100
AcDbEntity
  8
0
100
AcDbLine
 10
203.6
 20
-0.000000000000001
 30
0.0
 11
208.4999999999999
 21
-0.0000000000000006
 31
0.0
  0
LINE
  5
127
330
1E
100
AcDbEntity
  8
0
100
AcDbLine
 10
208.4999999999999
 20
-0.0000000000000006
 30
0.0
 11
211.5
 21
-0.0000000000000002
 31
0.0
  0
LINE
  5
128
330
1E
100
AcDbEntity
  8
0
100
AcDbLine
 10
166.8
 20
-0.0000000000000013
 30
0.0
 11
174.0999999999999
 21
-0.0000000000000015
 31
0.0
  0
LINE
  5
129
330
1E
100
AcDbEntity
  8
0
100
AcDbLine
 10
160.4
 20
-0.000000000000001
 30
0.0
 11
166.8
 21
-0.0000000000000013
 31
0.0
  0
LINE
  5
12A
330
1E
100
AcDbEntity
  8
0
100
AcDbLine
 10
211.5
 20
0.0000000000000008
 30
0.0
 11
212.5
 21
0.0000000000000003
 31
0.0
  0
LINE
  5
135
330
1E
100
AcDbEntity
  8
0
100
AcDbLine
 10
211.5
 20
-0.0000000000000002
 30
0.0
 11
212.5
 21
0.0000000000000003
 31
0.0
  0
LINE
  5
136
330
1E
100
AcDbEntity
  8
0
100
AcDbLine
 10
155.4999999999999
 20
-0.0000000000000006
 30
0.0
 11
160.4
 21
-0.000000000000001
 31
0.0
  0
LINE
  5
137
330
1E
100
AcDbEntity
  8
0
100
AcDbLine
 10
152.5
 20
-0.0000000000000002
 30
0.0
 11
155.4999999999999
 21
-0.0000000000000006
 31
0.0
  0
LINE
  5
138
330
1E
100
AcDbEntity
  8
0
100
AcDbLine
 10
155.0
 20
5.5
 30
0.0
 11
157.5
 21
7.0
 31
0.0
  0
LINE
  5
139
330
1E
100
AcDbEntity
  8
0
100
AcDbLine
 10
153.0
 20
3.0
 30
0.0
 11
155.0
 21
5.5
 31
0.0
  0
LINE
  5
13A
330
1E
100
AcDbEntity
  8
0
100
AcDbLine
 10
203.6
 20
0.0000000000000016
 30
0.0
 11
208.4999999999999
 21
0.0000000000000013
 31
0.0
  0
LINE
  5
13F
330
1E
100
AcDbEntity
  8
0
100
AcDbLine
 10
208.4999999999999
 20
0.0000000000000013
 30
0.0
 11
211.5
 21
0.0000000000000008
 31
0.0
  0
LINE
  5
140
330
1E
100
AcDbEntity
  8
0
100
AcDbLine
 10
158.0
 20
9.5
 30
0.0
 11
158.0
 21
8.0
 31
0.0
  0
LINE
  5
142
330
1E
100
AcDbEntity
  8
0
100
AcDbLine
 10
158.0
 20
9.5
 30
0.0
 11
159.0
 21
10.5
 31
0.0
  0
LINE
  5
143
330
1E
100
AcDbEntity
  8
0
100
AcDbLine
 10
158.0
 20
8.0
 30
0.0
 11
159.0
 21
7.0
 31
0.0
  0
LINE
  5
145
330
1E
100
AcDbEntity
  8
0
100
AcDbLine
 10
158.0
 20
8.0
 30
0.0
 11
158.0
 21
9.5
 31
0.0
  0
LINE
  5
146
330
1E
100
AcDbEntity
  8
0
100
AcDbLine
 10
164.7
 20
7.0
 30
0.0
 11
169.8
 21
7.0
 31
0.0
  0
LINE
  5
147
330
1E
100
AcDbEntity
  8
0
100
AcDbLine
 10
159.8
 20
10.5
 30
0.0
 11
162.0
 21
10.5
 31
0.0
  0
LINE
  5
148
330
1E
100
AcDbEntity
  8
0
100
AcDbLine
 10
159.0
 20
10.5
 30
0.0
 11
159.8
 21
10.5
 31
0.0
  0
LINE
  5
14B
330
1E
100
AcDbEntity
  8
0
100
AcDbLine
 10
159.8
 20
10.5
 30
0.0
 11
160.1999999999999
 21
38.1
 31
0.0
  0
LINE
  5
152
330
1E
100
AcDbEntity
  8
0
100
AcDbLine
 10
162.0
 20
10.5
 30
0.0
 11
165.7
 21
10.5
 31
0.0
  0
LINE
  5
153
330
1E
100
AcDbEntity
  8
0
100
AcDbLine
 10
165.7
 20
10.5
 30
0.0
 11
170.5
 21
10.5
 31
0.0
  0
LINE
  5
154
330
1E
100
AcDbEntity
  8
0
100
AcDbLine
 10
165.0
 20
47.2
 30
0.0
 11
165.5999999999999
 21
45.0
 31
0.0
  0
LINE
  5
155
330
1E
100
AcDbEntity
  8
0
100
AcDbLine
 10
165.0
 20
47.2
 30
0.0
 11
165.5999999999999
 21
49.4
 31
0.0
  0
LINE
  5
156
330
1E
100
AcDbEntity
  8
0
100
AcDbLine
 10
165.5999999999999
 20
45.0
 30
0.0
 11
167.3
 21
43.0
 31
0.0
  0
LINE
  5
157
330
1E
100
AcDbEntity
  8
0
100
AcDbLine
 10
165.5
 20
44.2
 30
0.0
 11
167.3
 21
43.0
 31
0.0
  0
LINE
  5
158
330
1E
100
AcDbEntity
  8
0
100
AcDbLine
 10
163.7
 20
46.5
 30
0.0
 11
165.5
 21
44.2
 31
0.0
  0
LINE
  5
159
330
1E
100
AcDbEntity
  8
0
100
AcDbLine
 10
165.5999999999999
 20
49.4
 30
0.0
 11
167.3
 21
51.5
 31
0.0
  0
LINE
  5
15A
330
1E
100
AcDbEntity
  8
0
100
AcDbLine
 10
165.5
 20
53.7
 30
0.0
 11
168.5999999999999
 21
55.8
 31
0.0
  0
LINE
  5
15B
330
1E
100
AcDbEntity
  8
0
100
AcDbLine
 10
163.7
 20
51.4
 30
0.0
 11
165.5
 21
53.7
 31
0.0
  0
LINE
  5
15C
330
1E
100
AcDbEntity
  8
0
100
AcDbLine
 10
163.0
 20
53.2
 30
0.0
 11
163.0
 21
49.0
 31
0.0
  0
LINE
  5
15D
330
1E
100
AcDbEntity
  8
0
100
AcDbLine
 10
163.0
 20
49.0
 30
0.0
 11
163.7
 21
46.5
 31
0.0
  0
LINE
  5
15E
330
1E
100
AcDbEntity
  8
0
100
AcDbLine
 10
163.0
 20
49.0
 30
0.0
 11
163.0
 21
53.2
 31
0.0
  0
LINE
  5
15F
330
1E
100
AcDbEntity
  8
0
100
AcDbLine
 10
163.0
 20
49.0
 30
0.0
 11
163.7
 21
51.4
 31
0.0
  0
LINE
  5
160
330
1E
100
AcDbEntity
  8
0
100
AcDbLine
 10
162.8
 20
56.7
 30
0.0
 11
163.0
 21
53.2
 31
0.0
  0
LINE
  5
161
330
1E
100
AcDbEntity
  8
0
100
AcDbLine
 10
162.5999999999999
 20
59.8
 30
0.0
 11
162.8
 21
56.7
 31
0.0
  0
LINE
  5
162
330
1E
100
AcDbEntity
  8
0
100
AcDbLine
 10
162.3
 20
62.6
 30
0.0
 11
162.5999999999999
 21
59.8
 31
0.0
  0
LINE
  5
163
330
1E
100
AcDbEntity
  8
0
100
AcDbLine
 10
162.1999999999999
 20
64.29999999999999
 30
0.0
 11
162.3
 21
62.6
 31
0.0
  0
LINE
  5
164
330
1E
100
AcDbEntity
  8
0
100
AcDbLine
 10
164.7
 20
74.5
 30
0.0
 11
167.9
 21
78.3
 31
0.0
  0
LINE
  5
165
330
1E
100
AcDbEntity
  8
0
100
AcDbLine
 10
162.6999999999999
 20
69.90000000000001
 30
0.0
 11
164.7
 21
74.5
 31
0.0
  0
LINE
  5
166
330
1E
100
AcDbEntity
  8
0
100
AcDbLine
 10
162.4
 20
69.2
 30
0.0
 11
162.6999999999999
 21
69.90000000000001
 31
0.0
  0
LINE
  5
167
330
1E
100
AcDbEntity
  8
0
100
AcDbLine
 10
161.6999999999999
 20
64.40000000000001
 30
0.0
 11
162.4
 21
69.2
 31
0.0
  0
LINE
  5
168
330
1E
100
AcDbEntity
  8
0
100
AcDbLine
 10
161.5
 20
62.6
 30
0.0
 11
161.6999999999999
 21
64.40000000000001
 31
0.0
  0
LINE
  5
169
330
1E
100
AcDbEntity
  8
0
100
AcDbLine
 10
161.0999999999999
 20
59.29999999999999
 30
0.0
 11
161.5
 21
62.6
 31
0.0
  0
LINE
  5
16A
330
1E
100
AcDbEntity
  8
0
100
AcDbLine
 10
160.8999999999999
 20
54.8
 30
0.0
 11
161.0999999999999
 21
59.29999999999999
 31
0.0
  0
LINE
  5
16B
330
1E
100
AcDbEntity
  8
0
100
AcDbLine
 10
160.7
 20
48.1
 30
0.0
 11
160.8999999999999
 21
54.8
 31
0.0
  0
LINE
  5
16C
330
1E
100
AcDbEntity
  8
0
100
AcDbLine
 10
160.1999999999999
 20
38.1
 30
0.0
 11
160.7
 21
48.1
 31
0.0
  0
LINE
  5
16E
330
1E
100
AcDbEntity
  8
0
100
AcDbLine
 10
160.7
 20
7.0
 30
0.0
 11
164.7
 21
7.0
 31
0.0
  0
LINE
  5
16F
330
1E
100
AcDbEntity
  8
0
100
AcDbLine
 10
158.3
 20
7.0
 30
0.0
 11
160.7
 21
7.0
 31
0.0
  0
LINE
  5
170
330
1E
100
AcDbEntity
  8
0
100
AcDbLine
 10
157.5
 20
7.0
 30
0.0
 11
158.3
 21
7.0
 31
0.0
  0
LINE
  5
171
330
1E
100
AcDbEntity
  8
0
100
AcDbLine
 10
189.9
 20
0.0000000000000021
 30
0.0
 11
197.1999999999999
 21
0.0000000000000019
 31
0.0
  0
LINE
  5
177
330
1E
100
AcDbEntity
  8
0
100
AcDbLine
 10
197.1999999999999
 20
0.0000000000000019
 30
0.0
 11
203.6
 21
0.0000000000000016
 31
0.0
  0
LINE
  5
178
330
1E
100
AcDbEntity
  8
0
100
AcDbLine
 10
167.3
 20
51.5
 30
0.0
 11
170.0
 21
53.2
 31
0.0
  0
LINE
  5
179
330
1E
100
AcDbEntity
  8
0
100
AcDbLine
 10
167.3
 20
43.0
 30
0.0
 11
170.0
 21
41.2
 31
0.0
  0
LINE
  5
17A
330
1E
100
AcDbEntity
  8
0
100
AcDbLine
 10
168.5999999999999
 20
55.8
 30
0.0
 11
172.5
 21
57.2
 31
0.0
  0
LINE
  5
17B
330
1E
100
AcDbEntity
  8
0
100
AcDbLine
 10
167.9
 20
78.3
 30
0.0
 11
172.0
 21
81.5
 31
0.0
  0
LINE
  5
17C
330
1E
100
AcDbEntity
  8
0
100
AcDbLine
 10
182.0
 20
0.0000000000000022
 30
0.0
 11
189.9
 21
0.0000000000000021
 31
0.0
  0
LINE
  5
17D
330
1E
100
AcDbEntity
  8
0
100
AcDbLine
 10
194.1999999999999
 20
7.0
 30
0.0
 11
199.3
 21
7.0
 31
0.0
  0
LINE
  5
17E
330
1E
100
AcDbEntity
  8
0
100
AcDbLine
 10
205.0
 20
7.0
 30
0.0
 11
206.0
 21
8.0
 31
0.0
  0
LINE
  5
17F
330
1E
100
AcDbEntity
  8
0
100
AcDbLine
 10
199.3
 20
7.0
 30
0.0
 11
203.3
 21
7.0
 31
0.0
  0
LINE
  5
180
330
1E
100
AcDbEntity
  8
0
100
AcDbLine
 10
182.0
 20
7.0
 30
0.0
 11
188.4
 21
7.0
 31
0.0
  0
LINE
  5
181
330
1E
100
AcDbEntity
  8
0
100
AcDbLine
 10
188.4
 20
7.0
 30
0.0
 11
194.1999999999999
 21
7.0
 31
0.0
  0
LINE
  5
182
330
1E
100
AcDbEntity
  8
0
100
AcDbLine
 10
203.3
 20
7.0
 30
0.0
 11
205.6999999999999
 21
7.0
 31
0.0
  0
LINE
  5
183
330
1E
100
AcDbEntity
  8
0
100
AcDbLine
 10
205.6999999999999
 20
7.0
 30
0.0
 11
206.4999999999999
 21
7.0
 31
0.0
  0
LINE
  5
184
330
1E
100
AcDbEntity
  8
0
100
AcDbLine
 10
206.4999999999999
 20
7.0
 30
0.0
 11
209.0
 21
5.5
 31
0.0
  0
LINE
  5
185
330
1E
100
AcDbEntity
  8
0
100
AcDbLine
 10
209.0
 20
5.5
 30
0.0
 11
211.0
 21
3.0
 31
0.0
  0
LINE
  5
199
330
1E
100
AcDbEntity
  8
0
100
AcDbLine
 10
211.0
 20
3.0
 30
0.0
 11
212.5
 21
0.0000000000000003
 31
0.0
  0
LINE
  5
19A
330
1E
100
AcDbEntity
  8
0
100
AcDbLine
 10
211.0
 20
3.0
 30
0.0
 11
212.5
 21
0.0000000000000006
 31
0.0
  0
LINE
  5
19C
330
1E
100
AcDbEntity
  8
0
100
AcDbLine
 10
170.5
 20
10.5
 30
0.0
 11
176.0
 21
10.5
 31
0.0
  0
LINE
  5
19E
330
1E
100
AcDbEntity
  8
0
100
AcDbLine
 10
170.0
 20
47.2001
 30
0.0
 11
170.0
 21
42.86999999999999
 31
0.0
  0
LINE
  5
19F
330
1E
100
AcDbEntity
  8
0
100
AcDbLine
 10
170.0
 20
47.2001
 30
0.0
 11
170.4
 21
48.7501
 31
0.0
  0
LINE
  5
1A0
330
1E
100
AcDbEntity
  8
0
100
AcDbLine
 10
170.0
 20
42.86999999999999
 30
0.0
 11
170.4
 21
44.42
 31
0.0
  0
LINE
  5
1A1
330
1E
100
AcDbEntity
  8
0
100
AcDbLine
 10
170.0
 20
42.86999999999999
 30
0.0
 11
170.4
 21
41.32
 31
0.0
  0
LINE
  5
1A2
330
1E
100
AcDbEntity
  8
0
100
AcDbLine
 10
170.0
 20
42.86999999999999
 30
0.0
 11
170.0
 21
47.2001
 31
0.0
  0
LINE
  5
1A3
330
1E
100
AcDbEntity
  8
0
100
AcDbLine
 10
170.4
 20
41.32
 30
0.0
 11
171.6
 21
39.87
 31
0.0
  0
LINE
  5
1A4
330
1E
100
AcDbEntity
  8
0
100
AcDbLine
 10
170.4
 20
48.7501
 30
0.0
 11
171.6
 21
50.2001
 31
0.0
  0
LINE
  5
1A5
330
1E
100
AcDbEntity
  8
0
100
AcDbLine
 10
170.4
 20
44.42
 30
0.0
 11
171.6
 21
45.86999999999999
 31
0.0
  0
LINE
  5
1A6
330
1E
100
AcDbEntity
  8
0
100
AcDbLine
 10
170.0
 20
53.2
 30
0.0
 11
173.5
 21
54.6
 31
0.0
  0
LINE
  5
1A7
330
1E
100
AcDbEntity
  8
0
100
AcDbLine
 10
170.0
 20
41.2
 30
0.0
 11
170.746391752577
 21
40.9014432989691
 31
0.0
  0
LINE
  5
1A8
330
1E
100
AcDbEntity
  8
0
100
AcDbLine
 10
171.6
 20
39.87
 30
0.0
 11
173.5
 21
38.62
 31
0.0
  0
LINE
  5
1A9
330
1E
100
AcDbEntity
  8
0
100
AcDbLine
 10
171.6
 20
50.2001
 30
0.0
 11
173.5
 21
51.4501
 31
0.0
  0
LINE
  5
1AA
330
1E
100
AcDbEntity
  8
0
100
AcDbLine
 10
171.6
 20
45.86999999999999
 30
0.0
 11
173.5
 21
47.11999999999999
 31
0.0
  0
LINE
  5
1AB
330
1E
100
AcDbEntity
  8
0
100
AcDbLine
 10
173.5
 20
38.62
 30
0.0
 11
176.0
 21
37.67
 31
0.0
  0
LINE
  5
1AC
330
1E
100
AcDbEntity
  8
0
100
AcDbLine
 10
173.5
 20
51.4501
 30
0.0
 11
176.0
 21
52.4001
 31
0.0
  0
LINE
  5
1AD
330
1E
100
AcDbEntity
  8
0
100
AcDbLine
 10
173.5
 20
47.11999999999999
 30
0.0
 11
176.0
 21
48.07
 31
0.0
  0
LINE
  5
1B4
330
1E
100
AcDbEntity
  8
0
100
AcDbLine
 10
176.0
 20
37.67
 30
0.0
 11
178.9
 21
37.07
 31
0.0
  0
LINE
  5
1B5
330
1E
100
AcDbEntity
  8
0
100
AcDbLine
 10
182.0
 20
36.86999999999999
 30
0.0
 11
185.0999999999999
 21
37.07
 31
0.0
  0
LINE
  5
1B6
330
1E
100
AcDbEntity
  8
0
100
AcDbLine
 10
185.0999999999999
 20
37.07
 30
0.0
 11
188.0
 21
37.67
 31
0.0
  0
LINE
  5
1B7
330
1E
100
AcDbEntity
  8
0
100
AcDbLine
 10
182.0
 20
10.5
 30
0.0
 11
188.0
 21
10.5
 31
0.0
  0
LINE
  5
1B8
330
1E
100
AcDbEntity
  8
0
100
AcDbLine
 10
188.0
 20
10.5
 30
0.0
 11
193.5
 21
10.5
 31
0.0
  0
LINE
  5
1B9
330
1E
100
AcDbEntity
  8
0
100
AcDbLine
 10
188.0
 20
37.67
 30
0.0
 11
190.5
 21
38.62
 31
0.0
  0
LINE
  5
1BA
330
1E
100
AcDbEntity
  8
0
100
AcDbLine
 10
190.5
 20
38.62
 30
0.0
 11
192.4
 21
39.87
 31
0.0
  0
LINE
  5
1BB
330
1E
100
AcDbEntity
  8
0
100
AcDbLine
 10
192.4
 20
39.87
 30
0.0
 11
193.5999999999999
 21
41.32
 31
0.0
  0
LINE
  5
1BC
330
1E
100
AcDbEntity
  8
0
100
AcDbLine
 10
178.9
 20
37.07
 30
0.0
 11
182.0
 21
36.86999999999999
 31
0.0
  0
LINE
  5
1BD
330
1E
100
AcDbEntity
  8
0
100
AcDbLine
 10
176.0
 20
10.5
 30
0.0
 11
182.0
 21
10.5
 31
0.0
  0
LINE
  5
1BF
330
1E
100
AcDbEntity
  8
0
100
AcDbLine
 10
193.5
 20
10.5
 30
0.0
 11
198.3
 21
10.5
 31
0.0
  0
LINE
  5
1C0
330
1E
100
AcDbEntity
  8
0
100
AcDbLine
 10
198.3
 20
10.5
 30
0.0
 11
202.0
 21
10.5
 31
0.0
  0
LINE
  5
1C4
330
1E
100
AcDbEntity
  8
0
100
AcDbLine
 10
194.0
 20
42.86999999999999
 30
0.0
 11
194.0
 21
47.2001
 31
0.0
  0
LINE
  5
1C5
330
1E
100
AcDbEntity
  8
0
100
AcDbLine
 10
193.5999999999999
 20
41.32
 30
0.0
 11
194.0
 21
42.86999999999999
 31
0.0
  0
LINE
  5
1C6
330
1E
100
AcDbEntity
  8
0
100
AcDbLine
 10
196.6999999999999
 20
43.0
 30
0.0
 11
198.5
 21
44.2
 31
0.0
  0
LINE
  5
1C7
330
1E
100
AcDbEntity
  8
0
100
AcDbLine
 10
196.6999999999999
 20
43.0
 30
0.0
 11
198.4
 21
45.0
 31
0.0
  0
LINE
  5
1C8
330
1E
100
AcDbEntity
  8
0
100
AcDbLine
 10
194.0
 20
41.2
 30
0.0
 11
196.6999999999999
 21
43.0
 31
0.0
  0
LINE
  5
1C9
330
1E
100
AcDbEntity
  8
0
100
AcDbLine
 10
193.2536082474229
 20
40.9014432989691
 30
0.0
 11
194.0
 21
41.2
 31
0.0
  0
LINE
  5
1CA
330
1E
100
AcDbEntity
  8
0
100
AcDbLine
 10
185.0999999999999
 20
48.67
 30
0.0
 11
188.0
 21
48.07
 31
0.0
  0
LINE
  5
1CB
330
1E
100
AcDbEntity
  8
0
100
AcDbLine
 10
188.0
 20
48.07
 30
0.0
 11
190.5
 21
47.11999999999999
 31
0.0
  0
LINE
  5
1CC
330
1E
100
AcDbEntity
  8
0
100
AcDbLine
 10
190.5
 20
47.11999999999999
 30
0.0
 11
192.4
 21
45.86999999999999
 31
0.0
  0
LINE
  5
1CD
330
1E
100
AcDbEntity
  8
0
100
AcDbLine
 10
192.4
 20
45.86999999999999
 30
0.0
 11
193.5999999999999
 21
44.42
 31
0.0
  0
LINE
  5
1CE
330
1E
100
AcDbEntity
  8
0
100
AcDbLine
 10
193.5999999999999
 20
44.42
 30
0.0
 11
194.0
 21
42.86999999999999
 31
0.0
  0
LINE
  5
1CF
330
1E
100
AcDbEntity
  8
0
100
AcDbLine
 10
194.0
 20
47.2001
 30
0.0
 11
194.0
 21
42.86999999999999
 31
0.0
  0
LINE
  5
1D0
330
1E
100
AcDbEntity
  8
0
100
AcDbLine
 10
193.5999999999999
 20
48.7501
 30
0.0
 11
194.0
 21
47.2001
 31
0.0
  0
LINE
  5
1D1
330
1E
100
AcDbEntity
  8
0
100
AcDbLine
 10
182.0
 20
48.87
 30
0.0
 11
185.0999999999999
 21
48.67
 31
0.0
  0
LINE
  5
1D2
330
1E
100
AcDbEntity
  8
0
100
AcDbLine
 10
178.9
 20
48.67
 30
0.0
 11
182.0
 21
48.87
 31
0.0
  0
LINE
  5
1D3
330
1E
100
AcDbEntity
  8
0
100
AcDbLine
 10
176.0
 20
48.07
 30
0.0
 11
178.9
 21
48.67
 31
0.0
  0
LINE
  5
1D4
330
1E
100
AcDbEntity
  8
0
100
AcDbLine
 10
192.4
 20
50.2001
 30
0.0
 11
193.5999999999999
 21
48.7501
 31
0.0
  0
LINE
  5
1D5
330
1E
100
AcDbEntity
  8
0
100
AcDbLine
 10
198.4
 20
49.4
 30
0.0
 11
199.0
 21
47.2
 31
0.0
  0
LINE
  5
1D6
330
1E
100
AcDbEntity
  8
0
100
AcDbLine
 10
198.4
 20
45.0
 30
0.0
 11
199.0
 21
47.2
 31
0.0
  0
LINE
  5
1D7
330
1E
100
AcDbEntity
  8
0
100
AcDbLine
 10
190.5
 20
51.4501
 30
0.0
 11
192.4
 21
50.2001
 31
0.0
  0
LINE
  5
1D8
330
1E
100
AcDbEntity
  8
0
100
AcDbLine
 10
185.0999999999999
 20
53.0001
 30
0.0
 11
188.0
 21
52.4001
 31
0.0
  0
LINE
  5
1D9
330
1E
100
AcDbEntity
  8
0
100
AcDbLine
 10
188.0
 20
52.4001
 30
0.0
 11
190.5
 21
51.4501
 31
0.0
  0
LINE
  5
1DA
330
1E
100
AcDbEntity
  8
0
100
AcDbLine
 10
176.0
 20
52.4001
 30
0.0
 11
178.9
 21
53.0001
 31
0.0
  0
LINE
  5
1DB
330
1E
100
AcDbEntity
  8
0
100
AcDbLine
 10
186.4
 20
55.4
 30
0.0
 11
190.5
 21
54.6
 31
0.0
  0
LINE
  5
1DC
330
1E
100
AcDbEntity
  8
0
100
AcDbLine
 10
190.5
 20
54.6
 30
0.0
 11
194.0
 21
53.2
 31
0.0
  0
LINE
  5
1DD
330
1E
100
AcDbEntity
  8
0
100
AcDbLine
 10
194.0
 20
53.2
 30
0.0
 11
196.6999999999999
 21
51.5
 31
0.0
  0
LINE
  5
1DE
330
1E
100
AcDbEntity
  8
0
100
AcDbLine
 10
196.6999999999999
 20
51.5
 30
0.0
 11
198.4
 21
49.4
 31
0.0
  0
LINE
  5
1DF
330
1E
100
AcDbEntity
  8
0
100
AcDbLine
 10
198.5
 20
53.7
 30
0.0
 11
200.3
 21
51.4
 31
0.0
  0
LINE
  5
1E0
330
1E
100
AcDbEntity
  8
0
100
AcDbLine
 10
200.3
 20
51.4
 30
0.0
 11
201.0
 21
49.0
 31
0.0
  0
LINE
  5
1E1
330
1E
100
AcDbEntity
  8
0
100
AcDbLine
 10
201.0
 20
49.0
 30
0.0
 11
201.0
 21
53.2
 31
0.0
  0
LINE
  5
1E2
330
1E
100
AcDbEntity
  8
0
100
AcDbLine
 10
200.3
 20
46.5
 30
0.0
 11
201.0
 21
49.0
 31
0.0
  0
LINE
  5
1E3
330
1E
100
AcDbEntity
  8
0
100
AcDbLine
 10
198.5
 20
44.2
 30
0.0
 11
200.3
 21
46.5
 31
0.0
  0
LINE
  5
1E4
330
1E
100
AcDbEntity
  8
0
100
AcDbLine
 10
202.0
 20
10.5
 30
0.0
 11
204.1999999999999
 21
10.5
 31
0.0
  0
LINE
  5
1E7
330
1E
100
AcDbEntity
  8
0
100
AcDbLine
 10
204.0
 20
10.5
 30
0.0
 11
204.0
 21
28.3
 31
0.0
  0
LINE
  5
1EB
330
1E
100
AcDbEntity
  8
0
100
AcDbLine
 10
206.0
 20
8.0
 30
0.0
 11
206.0
 21
9.5
 31
0.0
  0
LINE
  5
1EC
330
1E
100
AcDbEntity
  8
0
100
AcDbLine
 10
204.1999999999999
 20
10.5
 30
0.0
 11
205.0
 21
10.5
 31
0.0
  0
LINE
  5
1EF
330
1E
100
AcDbEntity
  8
0
100
AcDbLine
 10
205.0
 20
10.5
 30
0.0
 11
206.0
 21
9.5
 31
0.0
  0
LINE
  5
1FA
330
1E
100
AcDbEntity
  8
0
100
AcDbLine
 10
206.0
 20
9.5
 30
0.0
 11
206.0
 21
8.0
 31
0.0
  0
LINE
  5
23F
330
1E
100
AcDbEntity
  8
0
100
AcDbLine
 10
204.0
 20
28.3
 30
0.0
 11
204.0
 21
10.5
 31
0.0
  0
LINE
  5
241
330
1E
100
AcDbEntity
  8
0
100
AcDbLine
 10
203.1
 20
54.8
 30
0.0
 11
203.3
 21
48.1
 31
0.0
  0
LINE
  5
271
330
1E
100
AcDbEntity
  8
0
100
AcDbLine
 10
203.3
 20
48.1
 30
0.0
 11
203.8
 21
38.1
 31
0.0
  0
LINE
  5
272
330
1E
100
AcDbEntity
  8
0
100
AcDbLine
 10
203.8
 20
38.1
 30
0.0
 11
204.0
 21
28.3
 31
0.0
  0
LINE
  5
273
330
1E
100
AcDbEntity
  8
0
100
AcDbLine
 10
201.0
 20
53.2
 30
0.0
 11
201.2
 21
56.7
 31
0.0
  0
LINE
  5
274
330
1E
100
AcDbEntity
  8
0
100
AcDbLine
 10
201.0
 20
53.2
 30
0.0
 11
201.0
 21
49.0
 31
0.0
  0
LINE
  5
275
330
1E
100
AcDbEntity
  8
0
100
AcDbLine
 10
182.0
 20
55.7
 30
0.0
 11
186.4
 21
55.4
 31
0.0
  0
LINE
  5
276
330
1E
100
AcDbEntity
  8
0
100
AcDbLine
 10
186.8999999999999
 20
58.1
 30
0.0
 11
191.5
 21
57.2
 31
0.0
  0
LINE
  5
277
330
1E
100
AcDbEntity
  8
0
100
AcDbLine
 10
191.5
 20
57.2
 30
0.0
 11
195.4
 21
55.8
 31
0.0
  0
LINE
  5
278
330
1E
100
AcDbEntity
  8
0
100
AcDbLine
 10
195.4
 20
55.8
 30
0.0
 11
198.5
 21
53.7
 31
0.0
  0
LINE
  5
281
330
1E
100
AcDbEntity
  8
0
100
AcDbLine
 10
201.2
 20
56.7
 30
0.0
 11
201.4
 21
59.8
 31
0.0
  0
LINE
  5
282
330
1E
100
AcDbEntity
  8
0
100
AcDbLine
 10
177.5999999999999
 20
55.4
 30
0.0
 11
182.0
 21
55.7
 31
0.0
  0
LINE
  5
283
330
1E
100
AcDbEntity
  8
0
100
AcDbLine
 10
173.5
 20
54.6
 30
0.0
 11
177.5999999999999
 21
55.4
 31
0.0
  0
LINE
  5
284
330
1E
100
AcDbEntity
  8
0
100
AcDbLine
 10
182.0
 20
58.5
 30
0.0
 11
186.8999999999999
 21
58.1
 31
0.0
  0
LINE
  5
285
330
1E
100
AcDbEntity
  8
0
100
AcDbLine
 10
192.0
 20
81.5
 30
0.0
 11
196.1
 21
78.3
 31
0.0
  0
LINE
  5
286
330
1E
100
AcDbEntity
  8
0
100
AcDbLine
 10
196.1
 20
78.3
 30
0.0
 11
199.3
 21
74.5
 31
0.0
  0
LINE
  5
2C3
330
1E
100
AcDbEntity
  8
0
100
AcDbLine
 10
202.4999999999999
 20
62.6
 30
0.0
 11
202.8999999999999
 21
59.29999999999999
 31
0.0
  0
LINE
  5
2C4
330
1E
100
AcDbEntity
  8
0
100
AcDbLine
 10
202.8999999999999
 20
59.29999999999999
 30
0.0
 11
203.1
 21
54.8
 31
0.0
  0
LINE
  5
2C5
330
1E
100
AcDbEntity
  8
0
100
AcDbLine
 10
201.4
 20
59.8
 30
0.0
 11
201.6999999999999
 21
62.6
 31
0.0
  0
LINE
  5
2C6
330
1E
100
AcDbEntity
  8
0
100
AcDbLine
 10
201.3
 20
69.90000000000001
 30
0.0
 11
201.6
 21
69.2
 31
0.0
  0
LINE
  5
2C7
330
1E
100
AcDbEntity
  8
0
100
AcDbLine
 10
201.6
 20
69.2
 30
0.0
 11
202.3
 21
64.40000000000001
 31
0.0
  0
LINE
  5
2CD
330
1E
100
AcDbEntity
  8
0
100
AcDbLine
 10
202.3
 20
64.40000000000001
 30
0.0
 11
202.4999999999999
 21
62.6
 31
0.0
  0
LINE
  5
2CE
330
1E
100
AcDbEntity
  8
0
100
AcDbLine
 10
201.6999999999999
 20
62.6
 30
0.0
 11
201.8
 21
64.29999999999999
 31
0.0
  0
LINE
  5
2CF
330
1E
100
AcDbEntity
  8
0
100
AcDbLine
 10
199.3
 20
74.5
 30
0.0
 11
201.3
 21
69.90000000000001
 31
0.0
  0
LINE
  5
2D0
330
1E
100
AcDbEntity
  8
0
100
AcDbLine
 10
177.0999999999999
 20
58.1
 30
0.0
 11
182.0
 21
58.5
 31
0.0
  0
LINE
  5
2D1
330
1E
100
AcDbEntity
  8
0
100
AcDbLine
 10
172.5
 20
57.2
 30
0.0
 11
177.0999999999999
 21
58.1
 31
0.0
  0
LINE
  5
2D2
330
1E
100
AcDbEntity
  8
0
100
AcDbLine
 10
182.0
 20
84.0
 30
0.0
 11
187.1999999999999
 21
83.3
 31
0.0
  0
LINE
  5
2D3
330
1E
100
AcDbEntity
  8
0
100
AcDbLine
 10
187.1999999999999
 20
83.3
 30
0.0
 11
192.0
 21
81.5
 31
0.0
  0
LINE
  5
2D4
330
1E
100
AcDbEntity
  8
0
100
AcDbLine
 10
176.8
 20
83.3
 30
0.0
 11
182.0
 21
84.0
 31
0.0
  0
LINE
  5
2D5
330
1E
100
AcDbEntity
  8
0
100
AcDbLine
 10
172.0
 20
81.5
 30
0.0
 11
176.8
 21
83.3
 31
0.0
  0
LINE
  5
2D6
330
1E
100
AcDbEntity
  8
0
100
AcDbLine
 10
175.6
 20
7.0
 30
0.0
 11
182.0
 21
7.0
 31
0.0
  0
LINE
  5
2D7
330
1E
100
AcDbEntity
  8
0
100
AcDbLine
 10
169.8
 20
7.0
 30
0.0
 11
175.6
 21
7.0
 31
0.0
  0
LINE
  5
2D8
330
1E
100
AcDbEntity
  8
0
100
AcDbLine
 10
174.0999999999999
 20
0.0000000000000021
 30
0.0
 11
182.0
 21
0.0000000000000022
 31
0.0
  0
LINE
  5
2D9
330
1E
100
AcDbEntity
  8
0
100
AcDbLine
 10
166.8
 20
0.0000000000000019
 30
0.0
 11
174.0999999999999
 21
0.0000000000000021
 31
0.0
  0
LINE
  5
2DA
330
1E
100
AcDbEntity
  8
0
100
AcDbLine
 10
160.4
 20
0.0000000000000016
 30
0.0
 11
166.8
 21
0.0000000000000019
 31
0.0
  0
LINE
  5
2DB
330
1E
100
AcDbEntity
  8
0
100
AcDbLine
 10
155.4999999999999
 20
0.0000000000000013
 30
0.0
 11
160.4
 21
0.0000000000000016
 31
0.0
  0
LINE
  5
2DC
330
1E
100
AcDbEntity
  8
0
100
AcDbLine
 10
152.5
 20
0.0000000000000008
 30
0.0
 11
155.4999999999999
 21
0.0000000000000013
 31
0.0
  0
LINE
  5
2DD
330
1E
100
AcDbEntity
  8
0
100
AcDbLine
 10
151.5
 20
0.0000000000000003
 30
0.0
 11
153.0
 21
3.0
 31
0.0
  0
LINE
  5
2DE
330
1E
100
AcDbEntity
  8
0
100
AcDbLine
 10
151.5
 20
0.0000000000000003
 30
0.0
 11
152.5
 21
0.0000000000000008
 31
0.0
  0
LINE
  5
2DF
330
1E
100
AcDbEntity
  8
0
100
AcDbLine
 10
151.5
 20
0.0000000000000003
 30
0.0
 11
152.5
 21
-0.0000000000000002
 31
0.0
  0
LINE
  5
2E4
330
1E
100
AcDbEntity
  8
0
100
AcDbLine
 10
178.9
 20
53.0001
 30
0.0
 11
181.8545861221571
 21
53.21270433154831
 31
0.0
  0
LINE
  5
2E5
330
1E
100
AcDbEntity
  8
0
100
AcDbLine
 10
181.8545861221571
 20
53.21270433154831
 30
0.0
 11
185.0999999999999
 21
53.0001
 31
0.0
  0
LINE
  5
2E6
330
1E
100
AcDbEntity
  8
0
100
AcDbLine
 10
273.0
 20
40.0
 30
0.0
 11
271.0
 21
43.0
 31
0.0
  0
LINE
  5
2E7
330
1E
100
AcDbEntity
  8
0
100
AcDbLine
 10
293.0
 20
43.0
 30
0.0
 11
291.0
 21
40.0
 31
0.0
  0
LINE
  5
2E8
330
1E
100
AcDbEntity
  8
0
100
AcDbLine
 10
301.3999999999999
 20
0.0000000000000015
 30
0.0
 11
295.6999999999999
 21
0.0000000000000018
 31
0.0
  0
LINE
  5
2E9
330
1E
100
AcDbEntity
  8
0
100
AcDbLine
 10
298.8999999999999
 20
7.0
 30
0.0
 11
294.0
 21
7.0
 31
0.0
  0
LINE
  5
2EA
330
1E
100
AcDbEntity
  8
0
100
AcDbLine
 10
296.4999999999999
 20
29.0
 30
0.0
 11
294.0
 21
34.0
 31
0.0
  0
LINE
  5
2EB
330
1E
100
AcDbEntity
  8
0
100
AcDbLine
 10
296.7999999999999
 20
10.5
 30
0.0
 11
292.5
 21
10.5
 31
0.0
  0
LINE
  5
2EC
330
1E
100
AcDbEntity
  8
0
100
AcDbLine
 10
301.3999999999999
 20
-0.0000000000000009
 30
0.0
 11
295.6999999999999
 21
-0.0000000000000011
 31
0.0
  0
LINE
  5
2ED
330
1E
100
AcDbEntity
  8
0
100
AcDbLine
 10
302.0
 20
10.5
 30
0.0
 11
301.0
 21
16.5
 31
0.0
  0
LINE
  5
2EE
330
1E
100
AcDbEntity
  8
0
100
AcDbLine
 10
309.5
 20
0.0000000000000003
 30
0.0
 11
309.0
 21
3.0
 31
0.0
  0
LINE
  5
2EF
330
1E
100
AcDbEntity
  8
0
100
AcDbLine
 10
309.5
 20
0.0000000000000006
 30
0.0
 11
309.0
 21
3.0
 31
0.0
  0
LINE
  5
2F0
330
1E
100
AcDbEntity
  8
0
100
AcDbLine
 10
305.8
 20
0.0000000000000012
 30
0.0
 11
301.3999999999999
 21
0.0000000000000015
 31
0.0
  0
LINE
  5
2F1
330
1E
100
AcDbEntity
  8
0
100
AcDbLine
 10
305.8
 20
-0.0000000000000005
 30
0.0
 11
301.3999999999999
 21
-0.0000000000000009
 31
0.0
  0
LINE
  5
2F2
330
1E
100
AcDbEntity
  8
0
100
AcDbLine
 10
308.4999999999999
 20
0.0000000000000008
 30
0.0
 11
305.8
 21
0.0000000000000012
 31
0.0
  0
LINE
  5
2F3
330
1E
100
AcDbEntity
  8
0
100
AcDbLine
 10
308.4999999999999
 20
-0.0000000000000001
 30
0.0
 11
305.8
 21
-0.0000000000000005
 31
0.0
  0
LINE
  5
2F4
330
1E
100
AcDbEntity
  8
0
100
AcDbLine
 10
309.5
 20
0.0000000000000003
 30
0.0
 11
308.4999999999999
 21
-0.0000000000000001
 31
0.0
  0
LINE
  5
2F5
330
1E
100
AcDbEntity
  8
0
100
AcDbLine
 10
309.5
 20
0.0000000000000003
 30
0.0
 11
308.4999999999999
 21
0.0000000000000008
 31
0.0
  0
LINE
  5
2F6
330
1E
100
AcDbEntity
  8
0
100
AcDbLine
 10
304.0
 20
8.0
 30
0.0
 11
304.0
 21
9.5
 31
0.0
  0
LINE
  5
2F7
330
1E
100
AcDbEntity
  8
0
100
AcDbLine
 10
304.0
 20
9.5
 30
0.0
 11
304.0
 21
8.0
 31
0.0
  0
LINE
  5
2F8
330
1E
100
AcDbEntity
  8
0
100
AcDbLine
 10
308.0
 20
5.0
 30
0.0
 11
306.0
 21
7.0
 31
0.0
  0
LINE
  5
2F9
330
1E
100
AcDbEntity
  8
0
100
AcDbLine
 10
309.0
 20
3.0
 30
0.0
 11
308.0
 21
5.0
 31
0.0
  0
LINE
  5
2FA
330
1E
100
AcDbEntity
  8
0
100
AcDbLine
 10
305.1
 20
7.0
 30
0.0
 11
302.8
 21
7.0
 31
0.0
  0
LINE
  5
2FB
330
1E
100
AcDbEntity
  8
0
100
AcDbLine
 10
304.0
 20
8.0
 30
0.0
 11
303.0
 21
7.0
 31
0.0
  0
LINE
  5
2FC
330
1E
100
AcDbEntity
  8
0
100
AcDbLine
 10
306.0
 20
7.0
 30
0.0
 11
305.1
 21
7.0
 31
0.0
  0
LINE
  5
2FD
330
1E
100
AcDbEntity
  8
0
100
AcDbLine
 10
302.8
 20
7.0
 30
0.0
 11
298.8999999999999
 21
7.0
 31
0.0
  0
LINE
  5
2FE
330
1E
100
AcDbEntity
  8
0
100
AcDbLine
 10
303.0
 20
10.5
 30
0.0
 11
302.1999999999999
 21
10.5
 31
0.0
  0
LINE
  5
2FF
330
1E
100
AcDbEntity
  8
0
100
AcDbLine
 10
304.0
 20
9.5
 30
0.0
 11
303.0
 21
10.5
 31
0.0
  0
LINE
  5
300
330
1E
100
AcDbEntity
  8
0
100
AcDbLine
 10
300.1999999999999
 20
10.5
 30
0.0
 11
296.7999999999999
 21
10.5
 31
0.0
  0
LINE
  5
301
330
1E
100
AcDbEntity
  8
0
100
AcDbLine
 10
302.1999999999999
 20
10.5
 30
0.0
 11
300.1999999999999
 21
10.5
 31
0.0
  0
LINE
  5
302
330
1E
100
AcDbEntity
  8
0
100
AcDbLine
 10
299.0
 20
23.0
 30
0.0
 11
296.4999999999999
 21
29.0
 31
0.0
  0
LINE
  5
303
330
1E
100
AcDbEntity
  8
0
100
AcDbLine
 10
301.0
 20
16.5
 30
0.0
 11
299.0
 21
23.0
 31
0.0
  0
LINE
  5
304
330
1E
100
AcDbEntity
  8
0
100
AcDbLine
 10
263.0
 20
16.5
 30
0.0
 11
262.0
 21
10.5
 31
0.0
  0
LINE
  5
305
330
1E
100
AcDbEntity
  8
0
100
AcDbLine
 10
255.0
 20
3.0
 30
0.0
 11
254.4999999999999
 21
0.0000000000000003
 31
0.0
  0
LINE
  5
306
330
1E
100
AcDbEntity
  8
0
100
AcDbLine
 10
255.0
 20
3.0
 30
0.0
 11
254.4999999999999
 21
0.0000000000000006
 31
0.0
  0
LINE
  5
307
330
1E
100
AcDbEntity
  8
0
100
AcDbLine
 10
268.3
 20
0.0000000000000018
 30
0.0
 11
262.6
 21
0.0000000000000015
 31
0.0
  0
LINE
  5
308
330
1E
100
AcDbEntity
  8
0
100
AcDbLine
 10
268.3
 20
-0.0000000000000011
 30
0.0
 11
262.6
 21
-0.0000000000000009
 31
0.0
  0
LINE
  5
309
330
1E
100
AcDbEntity
  8
0
100
AcDbLine
 10
282.0
 20
0.000000000000002
 30
0.0
 11
274.8999999999999
 21
0.0000000000000019
 31
0.0
  0
LINE
  5
30A
330
1E
100
AcDbEntity
  8
0
100
AcDbLine
 10
282.0
 20
-0.0000000000000014
 30
0.0
 11
274.8999999999999
 21
-0.0000000000000013
 31
0.0
  0
LINE
  5
30B
330
1E
100
AcDbEntity
  8
0
100
AcDbLine
 10
289.1
 20
0.0000000000000019
 30
0.0
 11
282.0
 21
0.000000000000002
 31
0.0
  0
LINE
  5
30C
330
1E
100
AcDbEntity
  8
0
100
AcDbLine
 10
289.1
 20
-0.0000000000000013
 30
0.0
 11
282.0
 21
-0.0000000000000014
 31
0.0
  0
LINE
  5
30D
330
1E
100
AcDbEntity
  8
0
100
AcDbLine
 10
295.6999999999999
 20
0.0000000000000018
 30
0.0
 11
289.1
 21
0.0000000000000019
 31
0.0
  0
LINE
  5
30E
330
1E
100
AcDbEntity
  8
0
100
AcDbLine
 10
295.6999999999999
 20
-0.0000000000000011
 30
0.0
 11
289.1
 21
-0.0000000000000013
 31
0.0
  0
LINE
  5
30F
330
1E
100
AcDbEntity
  8
0
100
AcDbLine
 10
274.8999999999999
 20
0.0000000000000019
 30
0.0
 11
268.3
 21
0.0000000000000018
 31
0.0
  0
LINE
  5
310
330
1E
100
AcDbEntity
  8
0
100
AcDbLine
 10
274.8999999999999
 20
-0.0000000000000013
 30
0.0
 11
268.3
 21
-0.0000000000000011
 31
0.0
  0
LINE
  5
311
330
1E
100
AcDbEntity
  8
0
100
AcDbLine
 10
262.6
 20
0.0000000000000015
 30
0.0
 11
258.1999999999999
 21
0.0000000000000012
 31
0.0
  0
LINE
  5
312
330
1E
100
AcDbEntity
  8
0
100
AcDbLine
 10
262.6
 20
-0.0000000000000009
 30
0.0
 11
258.1999999999999
 21
-0.0000000000000005
 31
0.0
  0
LINE
  5
313
330
1E
100
AcDbEntity
  8
0
100
AcDbLine
 10
258.1999999999999
 20
0.0000000000000012
 30
0.0
 11
255.5
 21
0.0000000000000008
 31
0.0
  0
LINE
  5
314
330
1E
100
AcDbEntity
  8
0
100
AcDbLine
 10
258.1999999999999
 20
-0.0000000000000005
 30
0.0
 11
255.5
 21
-0.0000000000000001
 31
0.0
  0
LINE
  5
315
330
1E
100
AcDbEntity
  8
0
100
AcDbLine
 10
255.5
 20
0.0000000000000008
 30
0.0
 11
254.4999999999999
 21
0.0000000000000003
 31
0.0
  0
LINE
  5
316
330
1E
100
AcDbEntity
  8
0
100
AcDbLine
 10
255.5
 20
-0.0000000000000001
 30
0.0
 11
254.4999999999999
 21
0.0000000000000003
 31
0.0
  0
LINE
  5
317
330
1E
100
AcDbEntity
  8
0
100
AcDbLine
 10
271.4999999999999
 20
10.5
 30
0.0
 11
267.2
 21
10.5
 31
0.0
  0
LINE
  5
318
330
1E
100
AcDbEntity
  8
0
100
AcDbLine
 10
270.0
 20
7.0
 30
0.0
 11
265.1
 21
7.0
 31
0.0
  0
LINE
  5
319
330
1E
100
AcDbEntity
  8
0
100
AcDbLine
 10
282.0
 20
7.0
 30
0.0
 11
275.8
 21
7.0
 31
0.0
  0
LINE
  5
31A
330
1E
100
AcDbEntity
  8
0
100
AcDbLine
 10
294.0
 20
7.0
 30
0.0
 11
288.2
 21
7.0
 31
0.0
  0
LINE
  5
31B
330
1E
100
AcDbEntity
  8
0
100
AcDbLine
 10
288.2
 20
7.0
 30
0.0
 11
282.0
 21
7.0
 31
0.0
  0
LINE
  5
31C
330
1E
100
AcDbEntity
  8
0
100
AcDbLine
 10
275.8
 20
7.0
 30
0.0
 11
270.0
 21
7.0
 31
0.0
  0
LINE
  5
31D
330
1E
100
AcDbEntity
  8
0
100
AcDbLine
 10
282.0
 20
10.5
 30
0.0
 11
276.6
 21
10.5
 31
0.0
  0
LINE
  5
31E
330
1E
100
AcDbEntity
  8
0
100
AcDbLine
 10
292.5
 20
10.5
 30
0.0
 11
287.3999999999999
 21
10.5
 31
0.0
  0
LINE
  5
31F
330
1E
100
AcDbEntity
  8
0
100
AcDbLine
 10
287.3999999999999
 20
10.5
 30
0.0
 11
282.0
 21
10.5
 31
0.0
  0
LINE
  5
320
330
1E
100
AcDbEntity
  8
0
100
AcDbLine
 10
276.6
 20
10.5
 30
0.0
 11
271.4999999999999
 21
10.5
 31
0.0
  0
LINE
  5
321
330
1E
100
AcDbEntity
  8
0
100
AcDbLine
 10
260.0
 20
9.5
 30
0.0
 11
260.0
 21
8.0
 31
0.0
  0
LINE
  5
322
330
1E
100
AcDbEntity
  8
0
100
AcDbLine
 10
260.0
 20
8.0
 30
0.0
 11
260.0
 21
9.5
 31
0.0
  0
LINE
  5
323
330
1E
100
AcDbEntity
  8
0
100
AcDbLine
 10
258.0
 20
7.0
 30
0.0
 11
256.0
 21
5.0
 31
0.0
  0
LINE
  5
324
330
1E
100
AcDbEntity
  8
0
100
AcDbLine
 10
256.0
 20
5.0
 30
0.0
 11
255.0
 21
3.0
 31
0.0
  0
LINE
  5
325
330
1E
100
AcDbEntity
  8
0
100
AcDbLine
 10
261.2
 20
7.0
 30
0.0
 11
258.8999999999999
 21
7.0
 31
0.0
  0
LINE
  5
326
330
1E
100
AcDbEntity
  8
0
100
AcDbLine
 10
261.0
 20
7.0
 30
0.0
 11
260.0
 21
8.0
 31
0.0
  0
LINE
  5
327
330
1E
100
AcDbEntity
  8
0
100
AcDbLine
 10
265.1
 20
7.0
 30
0.0
 11
261.2
 21
7.0
 31
0.0
  0
LINE
  5
328
330
1E
100
AcDbEntity
  8
0
100
AcDbLine
 10
258.8999999999999
 20
7.0
 30
0.0
 11
258.0
 21
7.0
 31
0.0
  0
LINE
  5
329
330
1E
100
AcDbEntity
  8
0
100
AcDbLine
 10
261.0
 20
10.5
 30
0.0
 11
260.0
 21
9.5
 31
0.0
  0
LINE
  5
32A
330
1E
100
AcDbEntity
  8
0
100
AcDbLine
 10
263.8
 20
10.5
 30
0.0
 11
261.8
 21
10.5
 31
0.0
  0
LINE
  5
32B
330
1E
100
AcDbEntity
  8
0
100
AcDbLine
 10
267.2
 20
10.5
 30
0.0
 11
263.8
 21
10.5
 31
0.0
  0
LINE
  5
32C
330
1E
100
AcDbEntity
  8
0
100
AcDbLine
 10
261.8
 20
10.5
 30
0.0
 11
261.0
 21
10.5
 31
0.0
  0
LINE
  5
32D
330
1E
100
AcDbEntity
  8
0
100
AcDbLine
 10
267.5
 20
29.0
 30
0.0
 11
265.0
 21
23.0
 31
0.0
  0
LINE
  5
32E
330
1E
100
AcDbEntity
  8
0
100
AcDbLine
 10
265.0
 20
23.0
 30
0.0
 11
263.0
 21
16.5
 31
0.0
  0
LINE
  5
32F
330
1E
100
AcDbEntity
  8
0
100
AcDbLine
 10
273.0
 20
37.0
 30
0.0
 11
270.0
 21
34.0
 31
0.0
  0
LINE
  5
330
330
1E
100
AcDbEntity
  8
0
100
AcDbLine
 10
294.0
 20
34.0
 30
0.0
 11
291.0
 21
37.0
 31
0.0
  0
LINE
  5
331
330
1E
100
AcDbEntity
  8
0
100
AcDbLine
 10
270.0
 20
34.0
 30
0.0
 11
267.5
 21
29.0
 31
0.0
  0
LINE
  5
332
330
1E
100
AcDbEntity
  8
0
100
AcDbLine
 10
282.0
 20
40.0
 30
0.0
 11
279.7
 21
40.0
 31
0.0
  0
LINE
  5
333
330
1E
100
AcDbEntity
  8
0
100
AcDbLine
 10
282.0
 20
37.0
 30
0.0
 11
279.7
 21
37.0
 31
0.0
  0
LINE
  5
334
330
1E
100
AcDbEntity
  8
0
100
AcDbLine
 10
292.0
 20
38.0
 30
0.0
 11
292.0
 21
39.0
 31
0.0
  0
LINE
  5
335
330
1E
100
AcDbEntity
  8
0
100
AcDbLine
 10
292.0
 20
39.0
 30
0.0
 11
292.0
 21
38.0
 31
0.0
  0
LINE
  5
336
330
1E
100
AcDbEntity
  8
0
100
AcDbLine
 10
289.8
 20
37.0
 30
0.0
 11
288.3999999999999
 21
37.0
 31
0.0
  0
LINE
  5
337
330
1E
100
AcDbEntity
  8
0
100
AcDbLine
 10
292.0
 20
38.0
 30
0.0
 11
291.0
 21
37.0
 31
0.0
  0
LINE
  5
338
330
1E
100
AcDbEntity
  8
0
100
AcDbLine
 10
291.0
 20
37.0
 30
0.0
 11
290.7
 21
37.0
 31
0.0
  0
LINE
  5
339
330
1E
100
AcDbEntity
  8
0
100
AcDbLine
 10
290.7
 20
37.0
 30
0.0
 11
289.8
 21
37.0
 31
0.0
  0
LINE
  5
33A
330
1E
100
AcDbEntity
  8
0
100
AcDbLine
 10
286.5
 20
37.0
 30
0.0
 11
284.2999999999999
 21
37.0
 31
0.0
  0
LINE
  5
33B
330
1E
100
AcDbEntity
  8
0
100
AcDbLine
 10
288.3999999999999
 20
37.0
 30
0.0
 11
286.5
 21
37.0
 31
0.0
  0
LINE
  5
33C
330
1E
100
AcDbEntity
  8
0
100
AcDbLine
 10
284.2999999999999
 20
37.0
 30
0.0
 11
282.0
 21
37.0
 31
0.0
  0
LINE
  5
33D
330
1E
100
AcDbEntity
  8
0
100
AcDbLine
 10
289.8
 20
40.0
 30
0.0
 11
288.3999999999999
 21
40.0
 31
0.0
  0
LINE
  5
33E
330
1E
100
AcDbEntity
  8
0
100
AcDbLine
 10
290.7
 20
40.0
 30
0.0
 11
289.8
 21
40.0
 31
0.0
  0
LINE
  5
33F
330
1E
100
AcDbEntity
  8
0
100
AcDbLine
 10
291.0
 20
40.0
 30
0.0
 11
290.7
 21
40.0
 31
0.0
  0
LINE
  5
340
330
1E
100
AcDbEntity
  8
0
100
AcDbLine
 10
292.0
 20
39.0
 30
0.0
 11
291.0
 21
40.0
 31
0.0
  0
LINE
  5
341
330
1E
100
AcDbEntity
  8
0
100
AcDbLine
 10
286.5
 20
40.0
 30
0.0
 11
284.2999999999999
 21
40.0
 31
0.0
  0
LINE
  5
342
330
1E
100
AcDbEntity
  8
0
100
AcDbLine
 10
288.3999999999999
 20
40.0
 30
0.0
 11
286.5
 21
40.0
 31
0.0
  0
LINE
  5
343
330
1E
100
AcDbEntity
  8
0
100
AcDbLine
 10
284.2999999999999
 20
40.0
 30
0.0
 11
282.0
 21
40.0
 31
0.0
  0
LINE
  5
344
330
1E
100
AcDbEntity
  8
0
100
AcDbLine
 10
272.0
 20
38.0
 30
0.0
 11
272.0
 21
39.0
 31
0.0
  0
LINE
  5
345
330
1E
100
AcDbEntity
  8
0
100
AcDbLine
 10
272.0
 20
39.0
 30
0.0
 11
272.0
 21
38.0
 31
0.0
  0
LINE
  5
346
330
1E
100
AcDbEntity
  8
0
100
AcDbLine
 10
275.6
 20
37.0
 30
0.0
 11
274.1999999999999
 21
37.0
 31
0.0
  0
LINE
  5
347
330
1E
100
AcDbEntity
  8
0
100
AcDbLine
 10
279.7
 20
37.0
 30
0.0
 11
277.4999999999999
 21
37.0
 31
0.0
  0
LINE
  5
348
330
1E
100
AcDbEntity
  8
0
100
AcDbLine
 10
277.4999999999999
 20
37.0
 30
0.0
 11
275.6
 21
37.0
 31
0.0
  0
LINE
  5
349
330
1E
100
AcDbEntity
  8
0
100
AcDbLine
 10
273.0
 20
37.0
 30
0.0
 11
272.0
 21
38.0
 31
0.0
  0
LINE
  5
34A
330
1E
100
AcDbEntity
  8
0
100
AcDbLine
 10
273.3
 20
37.0
 30
0.0
 11
273.0
 21
37.0
 31
0.0
  0
LINE
  5
34B
330
1E
100
AcDbEntity
  8
0
100
AcDbLine
 10
274.1999999999999
 20
37.0
 30
0.0
 11
273.3
 21
37.0
 31
0.0
  0
LINE
  5
34C
330
1E
100
AcDbEntity
  8
0
100
AcDbLine
 10
275.6
 20
40.0
 30
0.0
 11
274.1999999999999
 21
40.0
 31
0.0
  0
LINE
  5
34D
330
1E
100
AcDbEntity
  8
0
100
AcDbLine
 10
279.7
 20
40.0
 30
0.0
 11
277.4999999999999
 21
40.0
 31
0.0
  0
LINE
  5
34E
330
1E
100
AcDbEntity
  8
0
100
AcDbLine
 10
277.4999999999999
 20
40.0
 30
0.0
 11
275.6
 21
40.0
 31
0.0
  0
LINE
  5
34F
330
1E
100
AcDbEntity
  8
0
100
AcDbLine
 10
273.3
 20
40.0
 30
0.0
 11
273.0
 21
40.0
 31
0.0
  0
LINE
  5
350
330
1E
100
AcDbEntity
  8
0
100
AcDbLine
 10
273.0
 20
40.0
 30
0.0
 11
272.0
 21
39.0
 31
0.0
  0
LINE
  5
351
330
1E
100
AcDbEntity
  8
0
100
AcDbLine
 10
274.1999999999999
 20
40.0
 30
0.0
 11
273.3
 21
40.0
 31
0.0
  0
LINE
  5
352
330
1E
100
AcDbEntity
  8
0
100
AcDbLine
 10
313.0
 20
57.0
 30
0.0
 11
294.0
 21
55.575
 31
0.0
  0
LINE
  5
353
330
1E
100
AcDbEntity
  8
0
100
AcDbLine
 10
313.0
 20
45.0
 30
0.0
 11
294.0699588477365
 21
46.4197530864197
 31
0.0
  0
LINE
  5
354
330
1E
100
AcDbEntity
  8
0
100
AcDbLine
 10
354.0
 20
58.5
 30
0.0
 11
345.0
 21
58.2
 31
0.0
  0
LINE
  5
355
330
1E
100
AcDbEntity
  8
0
100
AcDbLine
 10
354.0
 20
43.5
 30
0.0
 11
345.0
 21
43.79999999999999
 31
0.0
  0
LINE
  5
356
330
1E
100
AcDbEntity
  8
0
100
AcDbLine
 10
363.5
 20
53.5
 30
0.0
 11
362.0
 21
55.5
 31
0.0
  0
LINE
  5
357
330
1E
100
AcDbEntity
  8
0
100
AcDbLine
 10
363.5
 20
53.5
 30
0.0
 11
362.0
 21
55.5
 31
0.0
  0
LINE
  5
358
330
1E
100
AcDbEntity
  8
0
100
AcDbLine
 10
364.0
 20
51.0
 30
0.0
 11
363.5
 21
48.5
 31
0.0
  0
LINE
  5
359
330
1E
100
AcDbEntity
  8
0
100
AcDbLine
 10
362.0
 20
46.5
 30
0.0
 11
360.0
 21
45.0
 31
0.0
  0
LINE
  5
35A
330
1E
100
AcDbEntity
  8
0
100
AcDbLine
 10
360.0
 20
45.0
 30
0.0
 11
357.5
 21
44.0
 31
0.0
  0
LINE
  5
35B
330
1E
100
AcDbEntity
  8
0
100
AcDbLine
 10
357.5
 20
44.0
 30
0.0
 11
354.0
 21
43.5
 31
0.0
  0
LINE
  5
35C
330
1E
100
AcDbEntity
  8
0
100
AcDbLine
 10
363.5
 20
48.5
 30
0.0
 11
362.0
 21
46.5
 31
0.0
  0
LINE
  5
35D
330
1E
100
AcDbEntity
  8
0
100
AcDbLine
 10
363.5
 20
48.5
 30
0.0
 11
362.0
 21
46.5
 31
0.0
  0
LINE
  5
35E
330
1E
100
AcDbEntity
  8
0
100
AcDbLine
 10
364.0
 20
51.0
 30
0.0
 11
363.5
 21
53.5
 31
0.0
  0
LINE
  5
35F
330
1E
100
AcDbEntity
  8
0
100
AcDbLine
 10
357.5
 20
58.0
 30
0.0
 11
354.0
 21
58.5
 31
0.0
  0
LINE
  5
360
330
1E
100
AcDbEntity
  8
0
100
AcDbLine
 10
360.0
 20
57.0
 30
0.0
 11
357.5
 21
58.0
 31
0.0
  0
LINE
  5
361
330
1E
100
AcDbEntity
  8
0
100
AcDbLine
 10
362.0
 20
55.5
 30
0.0
 11
360.0
 21
57.0
 31
0.0
  0
LINE
  5
362
330
1E
100
AcDbEntity
  8
0
100
AcDbLine
 10
332.0
 20
44.0
 30
0.0
 11
313.0
 21
45.0
 31
0.0
  0
LINE
  5
363
330
1E
100
AcDbEntity
  8
0
100
AcDbLine
 10
345.0
 20
43.79999999999999
 30
0.0
 11
332.0
 21
44.0
 31
0.0
  0
LINE
  5
364
330
1E
100
AcDbEntity
  8
0
100
AcDbLine
 10
332.0
 20
58.0
 30
0.0
 11
313.0
 21
57.0
 31
0.0
  0
LINE
  5
365
330
1E
100
AcDbEntity
  8
0
100
AcDbLine
 10
345.0
 20
58.2
 30
0.0
 11
332.0
 21
58.0
 31
0.0
  0
LINE
  5
366
330
1E
100
AcDbEntity
  8
0
100
AcDbLine
 10
270.0
 20
56.0
 30
0.0
 11
269.4999999999999
 21
53.0
 31
0.0
  0
LINE
  5
367
330
1E
100
AcDbEntity
  8
0
100
AcDbLine
 10
270.0
 20
46.0
 30
0.0
 11
269.4999999999999
 21
49.0
 31
0.0
  0
LINE
  5
368
330
1E
100
AcDbEntity
  8
0
100
AcDbLine
 10
294.0
 20
46.0
 30
0.0
 11
293.0
 21
43.0
 31
0.0
  0
LINE
  5
369
330
1E
100
AcDbEntity
  8
0
100
AcDbLine
 10
294.0699588477365
 20
46.4197530864197
 30
0.0
 11
294.0
 21
46.0
 31
0.0
  0
LINE
  5
36A
330
1E
100
AcDbEntity
  8
0
100
AcDbLine
 10
271.0
 20
43.0
 30
0.0
 11
270.0
 21
46.0
 31
0.0
  0
LINE
  5
36B
330
1E
100
AcDbEntity
  8
0
100
AcDbLine
 10
269.4999999999999
 20
53.0
 30
0.0
 11
269.3999999999999
 21
51.0
 31
0.0
  0
LINE
  5
36C
330
1E
100
AcDbEntity
  8
0
100
AcDbLine
 10
269.4999999999999
 20
49.0
 30
0.0
 11
269.3999999999999
 21
51.0
 31
0.0
  0
LINE
  5
36D
330
1E
100
AcDbEntity
  8
0
100
AcDbLine
 10
274.8
 20
63.5
 30
0.0
 11
271.0
 21
61.0
 31
0.0
  0
LINE
  5
36E
330
1E
100
AcDbEntity
  8
0
100
AcDbLine
 10
293.0
 20
61.0
 30
0.0
 11
289.1999999999999
 21
63.5
 31
0.0
  0
LINE
  5
36F
330
1E
100
AcDbEntity
  8
0
100
AcDbLine
 10
282.0
 20
61.0
 30
0.0
 11
279.1999999999999
 21
61.0
 31
0.0
  0
LINE
  5
370
330
1E
100
AcDbEntity
  8
0
100
AcDbLine
 10
282.0
 20
59.0
 30
0.0
 11
279.1999999999999
 21
59.0
 31
0.0
  0
LINE
  5
371
330
1E
100
AcDbEntity
  8
0
100
AcDbLine
 10
294.0
 20
56.0
 30
0.0
 11
293.0
 21
59.0
 31
0.0
  0
LINE
  5
372
330
1E
100
AcDbEntity
  8
0
100
AcDbLine
 10
294.0699588477365
 20
55.58024691358021
 30
0.0
 11
294.0
 21
56.0
 31
0.0
  0
LINE
  5
373
330
1E
100
AcDbEntity
  8
0
100
AcDbLine
 10
289.8
 20
59.0
 30
0.0
 11
287.5
 21
59.0
 31
0.0
  0
LINE
  5
374
330
1E
100
AcDbEntity
  8
0
100
AcDbLine
 10
289.8
 20
61.0
 30
0.0
 11
287.5
 21
61.0
 31
0.0
  0
LINE
  5
375
330
1E
100
AcDbEntity
  8
0
100
AcDbLine
 10
293.5
 20
59.5
 30
0.0
 11
293.5
 21
60.5
 31
0.0
  0
LINE
  5
376
330
1E
100
AcDbEntity
  8
0
100
AcDbLine
 10
293.5
 20
60.5
 30
0.0
 11
293.5
 21
59.5
 31
0.0
  0
LINE
  5
377
330
1E
100
AcDbEntity
  8
0
100
AcDbLine
 10
292.6
 20
59.0
 30
0.0
 11
291.5
 21
59.0
 31
0.0
  0
LINE
  5
378
330
1E
100
AcDbEntity
  8
0
100
AcDbLine
 10
293.0
 20
59.0
 30
0.0
 11
292.6
 21
59.0
 31
0.0
  0
LINE
  5
379
330
1E
100
AcDbEntity
  8
0
100
AcDbLine
 10
293.5
 20
59.5
 30
0.0
 11
293.0
 21
59.0
 31
0.0
  0
LINE
  5
37A
330
1E
100
AcDbEntity
  8
0
100
AcDbLine
 10
291.5
 20
59.0
 30
0.0
 11
289.8
 21
59.0
 31
0.0
  0
LINE
  5
37B
330
1E
100
AcDbEntity
  8
0
100
AcDbLine
 10
292.6
 20
61.0
 30
0.0
 11
291.5
 21
61.0
 31
0.0
  0
LINE
  5
37C
330
1E
100
AcDbEntity
  8
0
100
AcDbLine
 10
293.0
 20
61.0
 30
0.0
 11
292.6
 21
61.0
 31
0.0
  0
LINE
  5
37D
330
1E
100
AcDbEntity
  8
0
100
AcDbLine
 10
293.5
 20
60.5
 30
0.0
 11
293.0
 21
61.0
 31
0.0
  0
LINE
  5
37E
330
1E
100
AcDbEntity
  8
0
100
AcDbLine
 10
291.5
 20
61.0
 30
0.0
 11
289.8
 21
61.0
 31
0.0
  0
LINE
  5
37F
330
1E
100
AcDbEntity
  8
0
100
AcDbLine
 10
287.5
 20
59.0
 30
0.0
 11
284.8
 21
59.0
 31
0.0
  0
LINE
  5
380
330
1E
100
AcDbEntity
  8
0
100
AcDbLine
 10
284.8
 20
59.0
 30
0.0
 11
282.0
 21
59.0
 31
0.0
  0
LINE
  5
381
330
1E
100
AcDbEntity
  8
0
100
AcDbLine
 10
287.5
 20
61.0
 30
0.0
 11
284.8
 21
61.0
 31
0.0
  0
LINE
  5
382
330
1E
100
AcDbEntity
  8
0
100
AcDbLine
 10
284.8
 20
61.0
 30
0.0
 11
282.0
 21
61.0
 31
0.0
  0
LINE
  5
383
330
1E
100
AcDbEntity
  8
0
100
AcDbLine
 10
271.0
 20
59.0
 30
0.0
 11
270.0
 21
56.0
 31
0.0
  0
LINE
  5
384
330
1E
100
AcDbEntity
  8
0
100
AcDbLine
 10
276.5
 20
61.0
 30
0.0
 11
274.1999999999999
 21
61.0
 31
0.0
  0
LINE
  5
385
330
1E
100
AcDbEntity
  8
0
100
AcDbLine
 10
276.5
 20
59.0
 30
0.0
 11
274.1999999999999
 21
59.0
 31
0.0
  0
LINE
  5
386
330
1E
100
AcDbEntity
  8
0
100
AcDbLine
 10
279.1999999999999
 20
59.0
 30
0.0
 11
276.5
 21
59.0
 31
0.0
  0
LINE
  5
387
330
1E
100
AcDbEntity
  8
0
100
AcDbLine
 10
279.1999999999999
 20
61.0
 30
0.0
 11
276.5
 21
61.0
 31
0.0
  0
LINE
  5
388
330
1E
100
AcDbEntity
  8
0
100
AcDbLine
 10
270.5
 20
60.5
 30
0.0
 11
270.5
 21
59.5
 31
0.0
  0
LINE
  5
389
330
1E
100
AcDbEntity
  8
0
100
AcDbLine
 10
270.5
 20
59.5
 30
0.0
 11
270.5
 21
60.5
 31
0.0
  0
LINE
  5
38A
330
1E
100
AcDbEntity
  8
0
100
AcDbLine
 10
271.0
 20
59.0
 30
0.0
 11
270.5
 21
59.5
 31
0.0
  0
LINE
  5
38B
330
1E
100
AcDbEntity
  8
0
100
AcDbLine
 10
271.3999999999999
 20
59.0
 30
0.0
 11
271.0
 21
59.0
 31
0.0
  0
LINE
  5
38C
330
1E
100
AcDbEntity
  8
0
100
AcDbLine
 10
272.5
 20
59.0
 30
0.0
 11
271.3999999999999
 21
59.0
 31
0.0
  0
LINE
  5
38D
330
1E
100
AcDbEntity
  8
0
100
AcDbLine
 10
274.1999999999999
 20
59.0
 30
0.0
 11
272.5
 21
59.0
 31
0.0
  0
LINE
  5
38E
330
1E
100
AcDbEntity
  8
0
100
AcDbLine
 10
271.0
 20
61.0
 30
0.0
 11
270.5
 21
60.5
 31
0.0
  0
LINE
  5
38F
330
1E
100
AcDbEntity
  8
0
100
AcDbLine
 10
271.3999999999999
 20
61.0
 30
0.0
 11
271.0
 21
61.0
 31
0.0
  0
LINE
  5
390
330
1E
100
AcDbEntity
  8
0
100
AcDbLine
 10
272.5
 20
61.0
 30
0.0
 11
271.3999999999999
 21
61.0
 31
0.0
  0
LINE
  5
391
330
1E
100
AcDbEntity
  8
0
100
AcDbLine
 10
274.1999999999999
 20
61.0
 30
0.0
 11
272.5
 21
61.0
 31
0.0
  0
LINE
  5
392
330
1E
100
AcDbEntity
  8
0
100
AcDbLine
 10
282.0
 20
65.0
 30
0.0
 11
278.6999999999999
 21
64.8
 31
0.0
  0
LINE
  5
393
330
1E
100
AcDbEntity
  8
0
100
AcDbLine
 10
285.3
 20
64.8
 30
0.0
 11
282.0
 21
65.0
 31
0.0
  0
LINE
  5
394
330
1E
100
AcDbEntity
  8
0
100
AcDbLine
 10
289.1999999999999
 20
63.5
 30
0.0
 11
285.3
 21
64.8
 31
0.0
  0
LINE
  5
395
330
1E
100
AcDbEntity
  8
0
100
AcDbLine
 10
278.6999999999999
 20
64.8
 30
0.0
 11
274.8
 21
63.5
 31
0.0
  0
ENDSEC
  0
SECTION
  2
OBJECTS
  0
DICTIONARY
  5
C
330
0
100
AcDbDictionary
281
     1
  3
ACAD_GROUP
350
D
  3
ACAD_LAYOUT
350
19
  3
ACAD_MLINESTYLE
350
16
  3
ACAD_PLOTSETTINGS
350
18
  3
ACAD_PLOTSTYLENAME
350
E
  3
AcDbVariableDictionary
350
396
  0
DICTIONARY
  5
D
102
{ACAD_REACTORS
330
C
102
}
330
C
100
AcDbDictionary
281
     1
  0
DICTIONARY
  5
19
102
{ACAD_REACTORS
330
C
102
}
330
C
100
AcDbDictionary
281
     1
  3
Layout1
350
1D
  3
Model
350
21
  0
DICTIONARY
  5
16
102
{ACAD_REACTORS
330
C
102
}
330
C
100
AcDbDictionary
281
     1
  3
Standard
350
17
  0
DICTIONARY
  5
18
102
{ACAD_REACTORS
330
C
102
}
330
C
100
AcDbDictionary
281
     1
  0
ACDBDICTIONARYWDFLT
  5
E
102
{ACAD_REACTORS
330
C
102
}
330
C
100
AcDbDictionary
281
     1
  3
Normal
350
F
100
AcDbDictionaryWithDefault
340
F
  0
DICTIONARY
  5
396
102
{ACAD_REACTORS
330
C
102
}
330
C
100
AcDbDictionary
281
     1
  3
DIMASSOC
350
397
  0
LAYOUT
  5
1D
102
{ACAD_REACTORS
330
19
102
}
330
19
100
AcDbPlotSettings
  1

  2
hp deskjet 980c series
  4

  6

 40
0.0
 41
0.0
 42
0.0
 43
0.0
 44
0.0
 45
0.0
 46
0.0
 47
0.0
 48
0.0
 49
0.0
140
0.0
141
0.0
142
1.0
143
1.0
 70
   688
 72
     0
 73
     0
 74
     5
  7

 75
    16
147
1.0
148
0.0
149
0.0
100
AcDbLayout
  1
Layout1
 70
     1
 71
     1
 10
0.0
 20
0.0
 11
12.0
 21
9.0
 12
0.0
 22
0.0
 32
0.0
 14
1.000000000000000E+20
 24
1.000000000000000E+20
 34
1.000000000000000E+20
 15
-1.000000000000000E+20
 25
-1.000000000000000E+20
 35
-1.000000000000000E+20
146
0.0
 13
0.0
 23
0.0
 33
0.0
 16
1.0
 26
0.0
 36
0.0
 17
0.0
 27
1.0
 37
0.0
 76
     0
330
1A
  0
LAYOUT
  5
21
102
{ACAD_REACTORS
330
19
102
}
330
19
100
AcDbPlotSettings
  1

  2
hp deskjet 980c series
  4

  6

 40
0.0
 41
0.0
 42
0.0
 43
0.0
 44
0.0
 45
0.0
 46
0.0
 47
0.0
 48
0.0
 49
0.0
140
0.0
141
0.0
142
1.0
143
1.0
 70
  1712
 72
     0
 73
     0
 74
     0
  7

 75
     0
147
1.0
148
0.0
149
0.0
100
AcDbLayout
  1
Model
 70
     1
 71
     0
 10
0.0
 20
0.0
 11
12.0
 21
9.0
 12
0.0
 22
0.0
 32
0.0
 14
0.0
 24
0.0
 34
0.0
 15
0.0
 25
0.0
 35
0.0
146
0.0
 13
0.0
 23
0.0
 33
0.0
 16
1.0
 26
0.0
 36
0.0
 17
0.0
 27
1.0
 37
0.0
 76
     0
330
1E
  0
MLINESTYLE
  5
17
102
{ACAD_REACTORS
330
16
102
}
330
16
100
AcDbMlineStyle
  2
STANDARD
 70
     0
  3

 62
   256
 51
90.0
 52
90.0
 71
     2
 49
0.5
 62
   256
  6
BYLAYER
 49
-0.5
 62
   256
  6
BYLAYER
  0
ACDBPLACEHOLDER
  5
F
102
{ACAD_REACTORS
330
E
102
}
330
E
  0
DICTIONARYVAR
  5
397
102
{ACAD_REACTORS
330
396
102
}
330
396
100
DictionaryVariables
280
     0
  1
1
  0
ENDSEC
  0
EOF
