  0
SECTION
  2
HEADER
  9
$ACADVER
  1
AC1015
  9
$ACADMAINTVER
 70
    13
  9
$DWGCODEPAGE
  3
ANSI_1252
  9
$INSBASE
 10
0.0
 20
0.0
 30
0.0
  9
$EXTMIN
 10
-0.0125015000000063
 20
-0.0000000000000014
 30
0.0
  9
$EXTMAX
 10
177.0125015
 20
187.0
 30
0.0
  9
$LIMMIN
 10
0.0
 20
0.0
  9
$LIMMAX
 10
12.0
 20
9.0
  9
$ORTHOMODE
 70
     0
  9
$REGENMODE
 70
     1
  9
$FILLMODE
 70
     1
  9
$QTEXTMODE
 70
     0
  9
$MIRRTEXT
 70
     1
  9
$LTSCALE
 40
1.0
  9
$ATTMODE
 70
     1
  9
$TEXTSIZE
 40
0.2
  9
$TRACEWID
 40
0.05
  9
$TEXTSTYLE
  7
Standard
  9
$CLAYER
  8
0
  9
$CELTYPE
  6
Continuous
  9
$CECOLOR
 62
   256
  9
$CELTSCALE
 40
1.0
  9
$DISPSILH
 70
     0
  9
$DIMSCALE
 40
1.0
  9
$DIMASZ
 40
0.18
  9
$DIMEXO
 40
0.0625
  9
$DIMDLI
 40
0.38
  9
$DIMRND
 40
0.0
  9
$DIMDLE
 40
0.0
  9
$DIMEXE
 40
0.18
  9
$DIMTP
 40
0.0
  9
$DIMTM
 40
0.0
  9
$DIMTXT
 40
0.18
  9
$DIMCEN
 40
0.09
  9
$DIMTSZ
 40
0.0
  9
$DIMTOL
 70
     0
  9
$DIMLIM
 70
     0
  9
$DIMTIH
 70
     1
  9
$DIMTOH
 70
     1
  9
$DIMSE1
 70
     0
  9
$DIMSE2
 70
     0
  9
$DIMTAD
 70
     0
  9
$DIMZIN
 70
     0
  9
$DIMBLK
  1

  9
$DIMASO
 70
     1
  9
$DIMSHO
 70
     1
  9
$DIMPOST
  1

  9
$DIMAPOST
  1

  9
$DIMALT
 70
     0
  9
$DIMALTD
 70
     2
  9
$DIMALTF
 40
25.4
  9
$DIMLFAC
 40
1.0
  9
$DIMTOFL
 70
     0
  9
$DIMTVP
 40
0.0
  9
$DIMTIX
 70
     0
  9
$DIMSOXD
 70
     0
  9
$DIMSAH
 70
     0
  9
$DIMBLK1
  1

  9
$DIMBLK2
  1

  9
$DIMSTYLE
  2
Standard
  9
$DIMCLRD
 70
     0
  9
$DIMCLRE
 70
     0
  9
$DIMCLRT
 70
     0
  9
$DIMTFAC
 40
1.0
  9
$DIMGAP
 40
0.09
  9
$DIMJUST
 70
     0
  9
$DIMSD1
 70
     0
  9
$DIMSD2
 70
     0
  9
$DIMTOLJ
 70
     1
  9
$DIMTZIN
 70
     0
  9
$DIMALTZ
 70
     0
  9
$DIMALTTZ
 70
     0
  9
$DIMUPT
 70
     0
  9
$DIMDEC
 70
     4
  9
$DIMTDEC
 70
     4
  9
$DIMALTU
 70
     2
  9
$DIMALTTD
 70
     2
  9
$DIMTXSTY
  7
Standard
  9
$DIMAUNIT
 70
     0
  9
$DIMADEC
 70
     0
  9
$DIMALTRND
 40
0.0
  9
$DIMAZIN
 70
     0
  9
$DIMDSEP
 70
    46
  9
$DIMATFIT
 70
     3
  9
$DIMFRAC
 70
     0
  9
$DIMLDRBLK
  1

  9
$DIMLUNIT
 70
     2
  9
$DIMLWD
 70
    -2
  9
$DIMLWE
 70
    -2
  9
$DIMTMOVE
 70
     0
  9
$LUNITS
 70
     2
  9
$LUPREC
 70
     4
  9
$SKETCHINC
 40
0.1
  9
$FILLETRAD
 40
0.0
  9
$AUNITS
 70
     0
  9
$AUPREC
 70
     0
  9
$MENU
  1
.
  9
$ELEVATION
 40
0.0
  9
$PELEVATION
 40
0.0
  9
$THICKNESS
 40
0.0
  9
$LIMCHECK
 70
     0
  9
$CHAMFERA
 40
0.0
  9
$CHAMFERB
 40
0.0
  9
$CHAMFERC
 40
0.0
  9
$CHAMFERD
 40
0.0
  9
$SKPOLY
 70
     0
  9
$TDCREATE
 40
2454752.595264931
  9
$TDUCREATE
 40
2454752.511931597
  9
$TDUPDATE
 40
2454752.745362766
  9
$TDUUPDATE
 40
2454752.662029433
  9
$TDINDWG
 40
0.1500978356
  9
$TDUSRTIMER
 40
0.1500978356
  9
$USRTIMER
 70
     1
  9
$ANGBASE
 50
0.0
  9
$ANGDIR
 70
     0
  9
$PDMODE
 70
     0
  9
$PDSIZE
 40
0.0
  9
$PLINEWID
 40
0.0
  9
$SPLFRAME
 70
     0
  9
$SPLINETYPE
 70
     6
  9
$SPLINESEGS
 70
     8
  9
$HANDSEED
  5
3DC
  9
$SURFTAB1
 70
     6
  9
$SURFTAB2
 70
     6
  9
$SURFTYPE
 70
     6
  9
$SURFU
 70
     6
  9
$SURFV
 70
     6
  9
$UCSBASE
  2

  9
$UCSNAME
  2

  9
$UCSORG
 10
0.0
 20
0.0
 30
0.0
  9
$UCSXDIR
 10
1.0
 20
0.0
 30
0.0
  9
$UCSYDIR
 10
0.0
 20
1.0
 30
0.0
  9
$UCSORTHOREF
  2

  9
$UCSORTHOVIEW
 70
     1
  9
$UCSORGTOP
 10
0.0
 20
0.0
 30
0.0
  9
$UCSORGBOTTOM
 10
0.0
 20
0.0
 30
0.0
  9
$UCSORGLEFT
 10
0.0
 20
0.0
 30
0.0
  9
$UCSORGRIGHT
 10
0.0
 20
0.0
 30
0.0
  9
$UCSORGFRONT
 10
0.0
 20
0.0
 30
0.0
  9
$UCSORGBACK
 10
0.0
 20
0.0
 30
0.0
  9
$PUCSBASE
  2

  9
$PUCSNAME
  2

  9
$PUCSORG
 10
0.0
 20
0.0
 30
0.0
  9
$PUCSXDIR
 10
1.0
 20
0.0
 30
0.0
  9
$PUCSYDIR
 10
0.0
 20
1.0
 30
0.0
  9
$PUCSORTHOREF
  2

  9
$PUCSORTHOVIEW
 70
     0
  9
$PUCSORGTOP
 10
0.0
 20
0.0
 30
0.0
  9
$PUCSORGBOTTOM
 10
0.0
 20
0.0
 30
0.0
  9
$PUCSORGLEFT
 10
0.0
 20
0.0
 30
0.0
  9
$PUCSORGRIGHT
 10
0.0
 20
0.0
 30
0.0
  9
$PUCSORGFRONT
 10
0.0
 20
0.0
 30
0.0
  9
$PUCSORGBACK
 10
0.0
 20
0.0
 30
0.0
  9
$USERI1
 70
     0
  9
$USERI2
 70
     0
  9
$USERI3
 70
     0
  9
$USERI4
 70
     0
  9
$USERI5
 70
     0
  9
$USERR1
 40
0.0
  9
$USERR2
 40
0.0
  9
$USERR3
 40
0.0
  9
$USERR4
 40
0.0
  9
$USERR5
 40
0.0
  9
$WORLDVIEW
 70
     1
  9
$SHADEDGE
 70
     3
  9
$SHADEDIF
 70
    70
  9
$TILEMODE
 70
     1
  9
$MAXACTVP
 70
    64
  9
$PINSBASE
 10
0.0
 20
0.0
 30
0.0
  9
$PLIMCHECK
 70
     0
  9
$PEXTMIN
 10
1.000000000000000E+20
 20
1.000000000000000E+20
 30
1.000000000000000E+20
  9
$PEXTMAX
 10
-1.000000000000000E+20
 20
-1.000000000000000E+20
 30
-1.000000000000000E+20
  9
$PLIMMIN
 10
0.0
 20
0.0
  9
$PLIMMAX
 10
12.0
 20
9.0
  9
$UNITMODE
 70
     0
  9
$VISRETAIN
 70
     1
  9
$PLINEGEN
 70
     0
  9
$PSLTSCALE
 70
     1
  9
$TREEDEPTH
 70
  3020
  9
$CMLSTYLE
  2
Standard
  9
$CMLJUST
 70
     0
  9
$CMLSCALE
 40
1.0
  9
$PROXYGRAPHICS
 70
     1
  9
$MEASUREMENT
 70
     0
  9
$CELWEIGHT
370
    -1
  9
$ENDCAPS
280
     0
  9
$JOINSTYLE
280
     0
  9
$LWDISPLAY
290
     0
  9
$INSUNITS
 70
     0
  9
$HYPERLINKBASE
  1

  9
$STYLESHEET
  1

  9
$XEDIT
290
     1
  9
$CEPSNTYPE
380
     0
  9
$PSTYLEMODE
290
     1
  9
$FINGERPRINTGUID
  2
{FCBF3F38-9918-4889-A1AA-3F9AC681CD4D}
  9
$VERSIONGUID
  2
{3E47D2DF-26E9-4B82-AA05-FAE4450D61E7}
  9
$EXTNAMES
290
     1
  9
$PSVPSCALE
 40
0.0
  9
$OLESTARTUP
290
     0
  0
ENDSEC
  0
SECTION
  2
CLASSES
  0
CLASS
  1
ACDBDICTIONARYWDFLT
  2
AcDbDictionaryWithDefault
  3
AutoCAD 2000
 90
        0
280
     0
281
     0
  0
CLASS
  1
ACDBPLACEHOLDER
  2
AcDbPlaceHolder
  3
AutoCAD 2000
 90
        0
280
     0
281
     0
  0
CLASS
  1
LAYOUT
  2
AcDbLayout
  3
AutoCAD 2000
 90
        0
280
     0
281
     0
  0
CLASS
  1
DICTIONARYVAR
  2
AcDbDictionaryVar
  3
AutoCAD 2000
 90
        0
280
     0
281
     0
  0
ENDSEC
  0
SECTION
  2
TABLES
  0
TABLE
  2
VPORT
  5
8
330
0
100
AcDbSymbolTable
 70
     2
  0
VPORT
  5
3DB
330
8
100
AcDbSymbolTableRecord
100
AcDbViewportTableRecord
  2
*Active
 70
     0
 10
0.0
 20
0.0
 11
1.0
 21
1.0
 12
88.49999999999999
 22
93.49999999999999
 13
0.0
 23
0.0
 14
1.0
 24
1.0
 15
0.0
 25
0.0
 16
0.0
 26
0.0
 36
1.0
 17
0.0
 27
0.0
 37
0.0
 40
188.4347826086956
 41
2.078104993597951
 42
50.0
 43
0.0
 44
0.0
 50
0.0
 51
0.0
 71
     0
 72
   100
 73
     1
 74
     3
 75
     0
 76
     0
 77
     0
 78
     0
281
     0
 65
     1
110
0.0
120
0.0
130
0.0
111
1.0
121
0.0
131
0.0
112
0.0
122
1.0
132
0.0
 79
     1
146
0.0
  0
ENDTAB
  0
TABLE
  2
LTYPE
  5
5
330
0
100
AcDbSymbolTable
 70
     1
  0
LTYPE
  5
13
330
5
100
AcDbSymbolTableRecord
100
AcDbLinetypeTableRecord
  2
ByBlock
 70
     0
  3

 72
    65
 73
     0
 40
0.0
  0
LTYPE
  5
14
330
5
100
AcDbSymbolTableRecord
100
AcDbLinetypeTableRecord
  2
ByLayer
 70
     0
  3

 72
    65
 73
     0
 40
0.0
  0
LTYPE
  5
15
330
5
100
AcDbSymbolTableRecord
100
AcDbLinetypeTableRecord
  2
Continuous
 70
     0
  3
Solid line
 72
    65
 73
     0
 40
0.0
  0
ENDTAB
  0
TABLE
  2
LAYER
  5
2
330
0
100
AcDbSymbolTable
 70
     1
  0
LAYER
  5
10
330
2
100
AcDbSymbolTableRecord
100
AcDbLayerTableRecord
  2
0
 70
     0
 62
     7
  6
Continuous
370
    -3
390
F
  0
ENDTAB
  0
TABLE
  2
STYLE
  5
3
330
0
100
AcDbSymbolTable
 70
     1
  0
STYLE
  5
11
330
3
100
AcDbSymbolTableRecord
100
AcDbTextStyleTableRecord
  2
Standard
 70
     0
 40
0.0
 41
1.0
 50
0.0
 71
     0
 42
0.2
  3
txt
  4

  0
ENDTAB
  0
TABLE
  2
VIEW
  5
6
330
0
100
AcDbSymbolTable
 70
     0
  0
ENDTAB
  0
TABLE
  2
UCS
  5
7
330
0
100
AcDbSymbolTable
 70
     0
  0
ENDTAB
  0
TABLE
  2
APPID
  5
9
330
0
100
AcDbSymbolTable
 70
     1
  0
APPID
  5
12
330
9
100
AcDbSymbolTableRecord
100
AcDbRegAppTableRecord
  2
ACAD
 70
     0
  0
ENDTAB
  0
TABLE
  2
DIMSTYLE
  5
A
330
0
100
AcDbSymbolTable
 70
     1
100
AcDbDimStyleTable
 71
     0
  0
DIMSTYLE
105
32C
330
A
100
AcDbSymbolTableRecord
100
AcDbDimStyleTableRecord
  2
Standard
 70
     0
340
11
  0
ENDTAB
  0
TABLE
  2
BLOCK_RECORD
  5
1
330
0
100
AcDbSymbolTable
 70
     0
  0
BLOCK_RECORD
  5
1E
330
1
100
AcDbSymbolTableRecord
100
AcDbBlockTableRecord
  2
*Model_Space
340
21
  0
BLOCK_RECORD
  5
1A
330
1
100
AcDbSymbolTableRecord
100
AcDbBlockTableRecord
  2
*Paper_Space
340
1D
  0
ENDTAB
  0
ENDSEC
  0
SECTION
  2
BLOCKS
  0
BLOCK
  5
1F
330
1E
100
AcDbEntity
  8
0
100
AcDbBlockBegin
  2
*Model_Space
 70
     0
 10
0.0
 20
0.0
 30
0.0
  3
*Model_Space
  1

  0
ENDBLK
  5
20
330
1E
100
AcDbEntity
  8
0
100
AcDbBlockEnd
  0
BLOCK
  5
1B
330
1A
100
AcDbEntity
 67
     1
  8
0
100
AcDbBlockBegin
  2
*Paper_Space
 70
     0
 10
0.0
 20
0.0
 30
0.0
  3
*Paper_Space
  1

  0
ENDBLK
  5
1C
330
1A
100
AcDbEntity
 67
     1
  8
0
100
AcDbBlockEnd
  0
ENDSEC
  0
SECTION
  2
ENTITIES
  0
LINE
  5
22
330
1E
100
AcDbEntity
  8
0
100
AcDbLine
 10
64.69980150000001
 20
-0.0000000000000005
 30
0.0
 11
69.09980149999999
 21
-0.0000000000000009
 31
0.0
  0
LINE
  5
23
330
1E
100
AcDbEntity
  8
0
100
AcDbLine
 10
61.9998015
 20
-0.0000000000000001
 30
0.0
 11
64.69980150000001
 21
-0.0000000000000005
 31
0.0
  0
LINE
  5
24
330
1E
100
AcDbEntity
  8
0
100
AcDbLine
 10
60.9998015
 20
0.0000000000000003
 30
0.0
 11
61.49980150000001
 21
2.0
 31
0.0
  0
LINE
  5
25
330
1E
100
AcDbEntity
  8
0
100
AcDbLine
 10
61.49980150000001
 20
2.0
 30
0.0
 11
63.4998015
 21
4.5
 31
0.0
  0
LINE
  5
26
330
1E
100
AcDbEntity
  8
0
100
AcDbLine
 10
64.4998015
 20
8.0
 30
0.0
 11
64.4998015
 21
7.0
 31
0.0
  0
LINE
  5
29
330
1E
100
AcDbEntity
  8
0
100
AcDbLine
 10
65.4998015
 20
9.0
 30
0.0
 11
66.2998015
 21
9.0
 31
0.0
  0
LINE
  5
2D
330
1E
100
AcDbEntity
  8
0
100
AcDbLine
 10
64.4998015
 20
7.0
 30
0.0
 11
65.4998015
 21
6.0
 31
0.0
  0
LINE
  5
2E
330
1E
100
AcDbEntity
  8
0
100
AcDbLine
 10
64.4998015
 20
7.0
 30
0.0
 11
64.4998015
 21
8.0
 31
0.0
  0
LINE
  5
2F
330
1E
100
AcDbEntity
  8
0
100
AcDbLine
 10
63.4998015
 20
4.5
 30
0.0
 11
65.4998015
 21
6.0
 31
0.0
  0
LINE
  5
30
330
1E
100
AcDbEntity
  8
0
100
AcDbLine
 10
66.2998015
 20
6.0
 30
0.0
 11
68.5998015
 21
6.0
 31
0.0
  0
LINE
  5
31
330
1E
100
AcDbEntity
  8
0
100
AcDbLine
 10
65.4998015
 20
6.0
 30
0.0
 11
66.2998015
 21
6.0
 31
0.0
  0
LINE
  5
32
330
1E
100
AcDbEntity
  8
0
100
AcDbLine
 10
64.69980150000001
 20
0.0000000000000012
 30
0.0
 11
69.09980149999999
 21
0.0000000000000015
 31
0.0
  0
LINE
  5
33
330
1E
100
AcDbEntity
  8
0
100
AcDbLine
 10
61.9998015
 20
0.0000000000000007
 30
0.0
 11
64.69980150000001
 21
0.0000000000000012
 31
0.0
  0
LINE
  5
34
330
1E
100
AcDbEntity
  8
0
100
AcDbLine
 10
60.9998015
 20
0.0000000000000003
 30
0.0
 11
61.49980150000001
 21
2.0
 31
0.0
  0
LINE
  5
35
330
1E
100
AcDbEntity
  8
0
100
AcDbLine
 10
60.9998015
 20
0.0000000000000003
 30
0.0
 11
61.9998015
 21
0.0000000000000007
 31
0.0
  0
LINE
  5
36
330
1E
100
AcDbEntity
  8
0
100
AcDbLine
 10
60.9998015
 20
0.0000000000000003
 30
0.0
 11
61.9998015
 21
-0.0000000000000001
 31
0.0
  0
LINE
  5
37
330
1E
100
AcDbEntity
  8
0
100
AcDbLine
 10
69.09980149999999
 20
-0.0000000000000009
 30
0.0
 11
74.7998015
 21
-0.0000000000000011
 31
0.0
  0
LINE
  5
3C
330
1E
100
AcDbEntity
  8
0
100
AcDbLine
 10
68.5998015
 20
6.0
 30
0.0
 11
72.2998015
 21
6.0
 31
0.0
  0
LINE
  5
3D
330
1E
100
AcDbEntity
  8
0
100
AcDbLine
 10
69.09980149999999
 20
0.0000000000000015
 30
0.0
 11
74.7998015
 21
0.0000000000000018
 31
0.0
  0
LINE
  5
3E
330
1E
100
AcDbEntity
  8
0
100
AcDbLine
 10
66.49980150000001
 20
9.0
 30
0.0
 11
66.49980150000001
 21
24.5
 31
0.0
  0
LINE
  5
3F
330
1E
100
AcDbEntity
  8
0
100
AcDbLine
 10
-0.0125015000000063
 20
63.8501
 30
0.0
 11
0.555406499999994
 21
61.4155
 31
0.0
  0
LINE
  5
40
330
1E
100
AcDbEntity
  8
0
100
AcDbLine
 10
0.555406499999994
 20
61.4155
 30
0.0
 11
2.149121499999989
 21
59.4255
 31
0.0
  0
LINE
  5
41
330
1E
100
AcDbEntity
  8
0
100
AcDbLine
 10
-0.0125015000000063
 20
63.8501
 30
0.0
 11
0.124007499999994
 21
66.3464
 31
0.0
  0
LINE
  5
42
330
1E
100
AcDbEntity
  8
0
100
AcDbLine
 10
0.124007499999994
 20
66.3464
 30
0.0
 11
0.9649314999999941
 21
68.90430000000001
 31
0.0
  0
LINE
  5
43
330
1E
100
AcDbEntity
  8
0
100
AcDbLine
 10
0.124007499999994
 20
66.3464
 30
0.0
 11
0.9649314999999941
 21
68.90430000000001
 31
0.0
  0
LINE
  5
44
330
1E
100
AcDbEntity
  8
0
100
AcDbLine
 10
-0.0125015000000063
 20
63.8501
 30
0.0
 11
0.555406499999994
 21
61.4155
 31
0.0
  0
LINE
  5
45
330
1E
100
AcDbEntity
  8
0
100
AcDbLine
 10
-0.0125015000000063
 20
63.8501
 30
0.0
 11
0.124007499999994
 21
66.3464
 31
0.0
  0
LINE
  5
46
330
1E
100
AcDbEntity
  8
0
100
AcDbLine
 10
9.316541499999999
 20
58.633
 30
0.0
 11
11.68960149999999
 21
59.90529999999999
 31
0.0
  0
LINE
  5
47
330
1E
100
AcDbEntity
  8
0
100
AcDbLine
 10
6.88190149999999
 20
58.06499999999999
 30
0.0
 11
9.316541499999999
 21
58.633
 31
0.0
  0
LINE
  5
48
330
1E
100
AcDbEntity
  8
0
100
AcDbLine
 10
4.38563149999999
 20
58.2016
 30
0.0
 11
6.88190149999999
 21
58.06499999999999
 31
0.0
  0
LINE
  5
49
330
1E
100
AcDbEntity
  8
0
100
AcDbLine
 10
16.6637015
 20
65.52209999999999
 30
0.0
 11
18.4388015
 21
67.9487
 31
0.0
  0
LINE
  5
4A
330
1E
100
AcDbEntity
  8
0
100
AcDbLine
 10
14.3223015
 20
62.265
 30
0.0
 11
16.6637015
 21
65.52209999999999
 31
0.0
  0
LINE
  5
4B
330
1E
100
AcDbEntity
  8
0
100
AcDbLine
 10
11.68960149999999
 20
59.90529999999999
 30
0.0
 11
14.3223015
 21
62.265
 31
0.0
  0
LINE
  5
4C
330
1E
100
AcDbEntity
  8
0
100
AcDbLine
 10
2.149121499999989
 20
59.4255
 30
0.0
 11
4.38563149999999
 21
58.2016
 31
0.0
  0
LINE
  5
4D
330
1E
100
AcDbEntity
  8
0
100
AcDbLine
 10
0.555406499999994
 20
61.4155
 30
0.0
 11
2.149121499999989
 21
59.4255
 31
0.0
  0
LINE
  5
4E
330
1E
100
AcDbEntity
  8
0
100
AcDbLine
 10
18.4388015
 20
67.9487
 30
0.0
 11
20.24390149999999
 21
71.65569999999999
 31
0.0
  0
LINE
  5
4F
330
1E
100
AcDbEntity
  8
0
100
AcDbLine
 10
20.24390149999999
 20
71.65569999999999
 30
0.0
 11
21.3034860298863
 21
74.6571980101217
 31
0.0
  0
LINE
  5
50
330
1E
100
AcDbEntity
  8
0
100
AcDbLine
 10
2.83167149999999
 20
71.9069
 30
0.0
 11
5.63263149999999
 21
74.7782
 31
0.0
  0
LINE
  5
51
330
1E
100
AcDbEntity
  8
0
100
AcDbLine
 10
0.9649314999999941
 20
68.90430000000001
 30
0.0
 11
2.83167149999999
 21
71.9069
 31
0.0
  0
LINE
  5
54
330
1E
100
AcDbEntity
  8
0
100
AcDbLine
 10
28.0541015
 20
71.62919999999999
 30
0.0
 11
28.8202015
 21
70.9864
 31
0.0
  0
LINE
  5
59
330
1E
100
AcDbEntity
  8
0
100
AcDbLine
 10
28.8202015
 20
70.9864
 30
0.0
 11
30.2290015
 21
71.1097
 31
0.0
  0
LINE
  5
5A
330
1E
100
AcDbEntity
  8
0
100
AcDbLine
 10
28.1237015
 20
73.26789999999999
 30
0.0
 11
28.7022015
 21
73.9573
 31
0.0
  0
LINE
  5
5B
330
1E
100
AcDbEntity
  8
0
100
AcDbLine
 10
27.9309015
 20
73.03799999999999
 30
0.0
 11
28.1237015
 21
73.26789999999999
 31
0.0
  0
LINE
  5
5C
330
1E
100
AcDbEntity
  8
0
100
AcDbLine
 10
27.9309015
 20
73.03799999999999
 30
0.0
 11
28.0541015
 21
71.62919999999999
 31
0.0
  0
LINE
  5
5D
330
1E
100
AcDbEntity
  8
0
100
AcDbLine
 10
11.0514015
 20
79.3692
 30
0.0
 11
13.8415183686394
 21
80.94418129781811
 31
0.0
  0
LINE
  5
5E
330
1E
100
AcDbEntity
  8
0
100
AcDbLine
 10
7.714201499999999
 20
76.9478
 30
0.0
 11
11.0514015
 21
79.3692
 31
0.0
  0
LINE
  5
5F
330
1E
100
AcDbEntity
  8
0
100
AcDbLine
 10
5.63263149999999
 20
74.7782
 30
0.0
 11
7.714201499999999
 21
76.9478
 31
0.0
  0
LINE
  5
60
330
1E
100
AcDbEntity
  8
0
100
AcDbLine
 10
10.81550149999999
 20
85.3109
 30
0.0
 11
11.5225015
 21
86.1536
 31
0.0
  0
LINE
  5
61
330
1E
100
AcDbEntity
  8
0
100
AcDbLine
 10
10.5584015
 20
85.00449999999998
 30
0.0
 11
10.6200015
 21
84.30010000000001
 31
0.0
  0
LINE
  5
62
330
1E
100
AcDbEntity
  8
0
100
AcDbLine
 10
10.5584015
 20
85.00449999999998
 30
0.0
 11
10.81550149999999
 21
85.3109
 31
0.0
  0
LINE
  5
63
330
1E
100
AcDbEntity
  8
0
100
AcDbLine
 10
10.5584015
 20
85.00449999999998
 30
0.0
 11
11.0858015
 21
89.52240000000001
 31
0.0
  0
LINE
  5
64
330
1E
100
AcDbEntity
  8
0
100
AcDbLine
 10
11.0858015
 20
89.52240000000001
 30
0.0
 11
12.59690149999999
 21
93.34560000000001
 31
0.0
  0
LINE
  5
65
330
1E
100
AcDbEntity
  8
0
100
AcDbLine
 10
11.5225015
 20
86.1536
 30
0.0
 11
12.6153015
 21
87.4558
 31
0.0
  0
LINE
  5
69
330
1E
100
AcDbEntity
  8
0
100
AcDbLine
 10
10.6200015
 20
84.30010000000001
 30
0.0
 11
11.3860015
 21
83.6573
 31
0.0
  0
LINE
  5
6C
330
1E
100
AcDbEntity
  8
0
100
AcDbLine
 10
11.3860015
 20
83.6573
 30
0.0
 11
12.0905015
 21
83.7189
 31
0.0
  0
LINE
  5
6D
330
1E
100
AcDbEntity
  8
0
100
AcDbLine
 10
20.4686015
 20
81.2578
 30
0.0
 11
22.19350149999999
 21
80.202
 31
0.0
  0
LINE
  5
6E
330
1E
100
AcDbEntity
  8
0
100
AcDbLine
 10
19.1293015
 20
82.77320000000001
 30
0.0
 11
20.4686015
 21
81.2578
 31
0.0
  0
LINE
  5
6F
330
1E
100
AcDbEntity
  8
0
100
AcDbLine
 10
12.59690149999999
 20
93.34560000000001
 30
0.0
 11
14.5649015
 21
96.0021
 31
0.0
  0
LINE
  5
70
330
1E
100
AcDbEntity
  8
0
100
AcDbLine
 10
12.6153015
 20
87.4558
 30
0.0
 11
14.0937015
 21
89.2177
 31
0.0
  0
LINE
  5
73
330
1E
100
AcDbEntity
  8
0
100
AcDbLine
 10
18.2004015
 20
84.4664
 30
0.0
 11
19.1293015
 21
82.77320000000001
 31
0.0
  0
LINE
  5
74
330
1E
100
AcDbEntity
  8
0
100
AcDbLine
 10
14.5649015
 20
96.0021
 30
0.0
 11
16.8393015
 21
98.40150000000001
 31
0.0
  0
LINE
  5
75
330
1E
100
AcDbEntity
  8
0
100
AcDbLine
 10
14.0937015
 20
89.2177
 30
0.0
 11
15.8292015
 21
91.2861
 31
0.0
  0
LINE
  5
79
330
1E
100
AcDbEntity
  8
0
100
AcDbLine
 10
17.8676015
 20
88.2703
 30
0.0
 11
18.4884015
 21
90.09910000000001
 31
0.0
  0
LINE
  5
7A
330
1E
100
AcDbEntity
  8
0
100
AcDbLine
 10
17.8227015
 20
86.3498
 30
0.0
 11
18.2004015
 21
84.4664
 31
0.0
  0
LINE
  5
7B
330
1E
100
AcDbEntity
  8
0
100
AcDbLine
 10
17.8227015
 20
86.3498
 30
0.0
 11
17.8676015
 21
88.2703
 31
0.0
  0
LINE
  5
7C
330
1E
100
AcDbEntity
  8
0
100
AcDbLine
 10
15.8292015
 20
91.2861
 30
0.0
 11
17.6290015
 21
93.43099999999999
 31
0.0
  0
LINE
  5
7D
330
1E
100
AcDbEntity
  8
0
100
AcDbLine
 10
16.8393015
 20
98.40150000000001
 30
0.0
 11
20.3420015
 21
100.553
 31
0.0
  0
LINE
  5
7E
330
1E
100
AcDbEntity
  8
0
100
AcDbLine
 10
17.6290015
 20
93.43099999999999
 30
0.0
 11
19.4288015
 21
95.57590000000001
 31
0.0
  0
LINE
  5
83
330
1E
100
AcDbEntity
  8
0
100
AcDbLine
 10
19.5441015
 20
91.82399999999999
 30
0.0
 11
21.05950149999999
 21
93.1633
 31
0.0
  0
LINE
  5
84
330
1E
100
AcDbEntity
  8
0
100
AcDbLine
 10
21.05950149999999
 20
93.1633
 30
0.0
 11
22.75280149999999
 21
94.09220000000001
 31
0.0
  0
LINE
  5
85
330
1E
100
AcDbEntity
  8
0
100
AcDbLine
 10
19.1611015
 20
92.14539999999999
 30
0.0
 11
20.9609015
 21
94.2903
 31
0.0
  0
LINE
  5
86
330
1E
100
AcDbEntity
  8
0
100
AcDbLine
 10
20.3420015
 20
100.553
 30
0.0
 11
24.69970149999999
 21
101.857
 31
0.0
  0
LINE
  5
87
330
1E
100
AcDbEntity
  8
0
100
AcDbLine
 10
19.4288015
 20
95.57590000000001
 30
0.0
 11
21.1644015
 21
97.64420000000001
 31
0.0
  0
LINE
  5
89
330
1E
100
AcDbEntity
  8
0
100
AcDbLine
 10
21.1644015
 20
97.64420000000001
 30
0.0
 11
22.6428015
 21
99.40609999999999
 31
0.0
  0
LINE
  5
8B
330
1E
100
AcDbEntity
  8
0
100
AcDbLine
 10
20.9609015
 20
94.2903
 30
0.0
 11
22.69650149999999
 21
96.3587
 31
0.0
  0
LINE
  5
8C
330
1E
100
AcDbEntity
  8
0
100
AcDbLine
 10
18.4884015
 20
90.09910000000001
 30
0.0
 11
19.5441015
 21
91.82399999999999
 31
0.0
  0
LINE
  5
8D
330
1E
100
AcDbEntity
  8
0
100
AcDbLine
 10
17.3613015
 20
90.00049999999999
 30
0.0
 11
19.1611015
 21
92.14539999999999
 31
0.0
  0
LINE
  5
8E
330
1E
100
AcDbEntity
  8
0
100
AcDbLine
 10
15.6258015
 20
87.93219999999999
 30
0.0
 11
17.3613015
 21
90.00049999999999
 31
0.0
  0
LINE
  5
8F
330
1E
100
AcDbEntity
  8
0
100
AcDbLine
 10
14.1474015
 20
86.17029999999999
 30
0.0
 11
15.6258015
 21
87.93219999999999
 31
0.0
  0
LINE
  5
90
330
1E
100
AcDbEntity
  8
0
100
AcDbLine
 10
13.0546015
 20
84.868
 30
0.0
 11
14.1474015
 21
86.17029999999999
 31
0.0
  0
LINE
  5
91
330
1E
100
AcDbEntity
  8
0
100
AcDbLine
 10
12.3476015
 20
84.0253
 30
0.0
 11
13.0546015
 21
84.868
 31
0.0
  0
LINE
  5
92
330
1E
100
AcDbEntity
  8
0
100
AcDbLine
 10
12.0905015
 20
83.7189
 30
0.0
 11
13.7458015
 21
81.02450000000001
 31
0.0
  0
LINE
  5
93
330
1E
100
AcDbEntity
  8
0
100
AcDbLine
 10
12.0905015
 20
83.7189
 30
0.0
 11
12.3476015
 21
84.0253
 31
0.0
  0
LINE
  5
94
330
1E
100
AcDbEntity
  8
0
100
AcDbLine
 10
13.7458015
 20
81.02450000000001
 30
0.0
 11
13.8232895974973
 21
80.9338914157154
 31
0.0
  0
LINE
  5
95
330
1E
100
AcDbEntity
  8
0
100
AcDbLine
 10
27.8262015
 20
79.914
 30
0.0
 11
29.5194015
 21
80.84290000000001
 31
0.0
  0
LINE
  5
96
330
1E
100
AcDbEntity
  8
0
100
AcDbLine
 10
25.9427015
 20
79.5363
 30
0.0
 11
27.8262015
 21
79.914
 31
0.0
  0
LINE
  5
97
330
1E
100
AcDbEntity
  8
0
100
AcDbLine
 10
24.0223015
 20
79.5812
 30
0.0
 11
25.9427015
 21
79.5363
 31
0.0
  0
LINE
  5
9A
330
1E
100
AcDbEntity
  8
0
100
AcDbLine
 10
22.75280149999999
 20
94.09220000000001
 30
0.0
 11
24.6362015
 21
94.46989999999999
 31
0.0
  0
LINE
  5
9B
330
1E
100
AcDbEntity
  8
0
100
AcDbLine
 10
24.6362015
 20
94.46989999999999
 30
0.0
 11
26.5566015
 21
94.425
 31
0.0
  0
LINE
  5
9C
330
1E
100
AcDbEntity
  8
0
100
AcDbLine
 10
22.69650149999999
 20
96.3587
 30
0.0
 11
24.1749015
 21
98.1206
 31
0.0
  0
LINE
  5
9D
330
1E
100
AcDbEntity
  8
0
100
AcDbLine
 10
22.6428015
 20
99.40609999999999
 30
0.0
 11
23.7355015
 21
100.7079999999999
 31
0.0
  0
LINE
  5
A1
330
1E
100
AcDbEntity
  8
0
100
AcDbLine
 10
24.1749015
 20
98.1206
 30
0.0
 11
25.2676015
 21
99.4228
 31
0.0
  0
LINE
  5
A2
330
1E
100
AcDbEntity
  8
0
100
AcDbLine
 10
25.2676015
 20
99.4228
 30
0.0
 11
25.9747015
 21
100.265
 31
0.0
  0
LINE
  5
A3
330
1E
100
AcDbEntity
  8
0
100
AcDbLine
 10
23.7355015
 20
100.7079999999999
 30
0.0
 11
24.4426015
 21
101.551
 31
0.0
  0
LINE
  5
A4
330
1E
100
AcDbEntity
  8
0
100
AcDbLine
 10
24.4426015
 20
101.551
 30
0.0
 11
24.69970149999999
 21
101.857
 31
0.0
  0
LINE
  5
A6
330
1E
100
AcDbEntity
  8
0
100
AcDbLine
 10
24.69970149999999
 20
101.857
 30
0.0
 11
25.4041015
 21
101.919
 31
0.0
  0
LINE
  5
A7
330
1E
100
AcDbEntity
  8
0
100
AcDbLine
 10
25.4041015
 20
101.919
 30
0.0
 11
26.1702015
 21
101.276
 31
0.0
  0
LINE
  5
A9
330
1E
100
AcDbEntity
  8
0
100
AcDbLine
 10
26.1702015
 20
101.276
 30
0.0
 11
26.2318015
 21
100.5719999999999
 31
0.0
  0
LINE
  5
AB
330
1E
100
AcDbEntity
  8
0
100
AcDbLine
 10
25.9747015
 20
100.265
 30
0.0
 11
26.2318015
 21
100.5719999999999
 31
0.0
  0
LINE
  5
AC
330
1E
100
AcDbEntity
  8
0
100
AcDbLine
 10
26.5566015
 20
94.425
 30
0.0
 11
28.3855015
 21
93.80419999999999
 31
0.0
  0
LINE
  5
AD
330
1E
100
AcDbEntity
  8
0
100
AcDbLine
 10
28.3855015
 20
93.80419999999999
 30
0.0
 11
30.1104015
 21
92.74840000000001
 31
0.0
  0
LINE
  5
AE
330
1E
100
AcDbEntity
  8
0
100
AcDbLine
 10
26.2318015
 20
100.5719999999999
 30
0.0
 11
29.1727015
 21
99.4096
 31
0.0
  0
LINE
  5
AF
330
1E
100
AcDbEntity
  8
0
100
AcDbLine
 10
22.19350149999999
 20
80.202
 30
0.0
 11
24.0223015
 21
79.5812
 31
0.0
  0
LINE
  5
B0
330
1E
100
AcDbEntity
  8
0
100
AcDbLine
 10
21.3034860298863
 20
74.6571980101217
 30
0.0
 11
21.4062015
 21
74.59659999999999
 31
0.0
  0
LINE
  5
B1
330
1E
100
AcDbEntity
  8
0
100
AcDbLine
 10
21.4062015
 20
74.59659999999999
 30
0.0
 11
24.3472015
 21
73.43429999999999
 31
0.0
  0
LINE
  5
B3
330
1E
100
AcDbEntity
  8
0
100
AcDbLine
 10
29.2754542132059
 20
99.3489800179468
 30
0.0
 11
30.3350015
 21
102.3499999999999
 31
0.0
  0
LINE
  5
B4
330
1E
100
AcDbEntity
  8
0
100
AcDbLine
 10
29.1727015
 20
99.4096
 30
0.0
 11
29.2754542132059
 21
99.3489800179468
 31
0.0
  0
LINE
  5
B5
330
1E
100
AcDbEntity
  8
0
100
AcDbLine
 10
30.1104015
 20
92.74840000000001
 30
0.0
 11
31.4496015
 21
91.23299999999998
 31
0.0
  0
LINE
  5
B6
330
1E
100
AcDbEntity
  8
0
100
AcDbLine
 10
29.5194015
 20
80.84290000000001
 30
0.0
 11
31.0348015
 21
82.1822
 31
0.0
  0
LINE
  5
B7
330
1E
100
AcDbEntity
  8
0
100
AcDbLine
 10
29.60210149999999
 20
75.02979999999999
 30
0.0
 11
30.8234015
 21
76.48520000000001
 31
0.0
  0
LINE
  5
B8
330
1E
100
AcDbEntity
  8
0
100
AcDbLine
 10
28.7022015
 20
73.9573
 30
0.0
 11
29.60210149999999
 21
75.02979999999999
 31
0.0
  0
LINE
  5
B9
330
1E
100
AcDbEntity
  8
0
100
AcDbLine
 10
24.3472015
 20
73.43429999999999
 30
0.0
 11
27.9309015
 21
73.03799999999999
 31
0.0
  0
LINE
  5
BB
330
1E
100
AcDbEntity
  8
0
100
AcDbLine
 10
30.3350015
 20
102.3499999999999
 30
0.0
 11
32.1401015
 21
106.057
 31
0.0
  0
LINE
  5
BC
330
1E
100
AcDbEntity
  8
0
100
AcDbLine
 10
30.8234015
 20
76.48520000000001
 30
0.0
 11
32.2376015
 21
78.1705
 31
0.0
  0
LINE
  5
BE
330
1E
100
AcDbEntity
  8
0
100
AcDbLine
 10
31.0348015
 20
82.1822
 30
0.0
 11
32.0906015
 21
83.9071
 31
0.0
  0
LINE
  5
C0
330
1E
100
AcDbEntity
  8
0
100
AcDbLine
 10
32.0906015
 20
83.9071
 30
0.0
 11
32.7114015
 21
85.736
 31
0.0
  0
LINE
  5
C1
330
1E
100
AcDbEntity
  8
0
100
AcDbLine
 10
31.4496015
 20
91.23299999999998
 30
0.0
 11
32.3786015
 21
89.53979999999999
 31
0.0
  0
LINE
  5
C2
330
1E
100
AcDbEntity
  8
0
100
AcDbLine
 10
32.1401015
 20
106.057
 30
0.0
 11
33.91530149999999
 21
108.484
 31
0.0
  0
LINE
  5
C4
330
1E
100
AcDbEntity
  8
0
100
AcDbLine
 10
32.7114015
 20
85.736
 30
0.0
 11
32.7563015
 21
87.65640000000001
 31
0.0
  0
LINE
  5
C5
330
1E
100
AcDbEntity
  8
0
100
AcDbLine
 10
32.3786015
 20
89.53979999999999
 30
0.0
 11
32.7563015
 21
87.65640000000001
 31
0.0
  0
LINE
  5
C6
330
1E
100
AcDbEntity
  8
0
100
AcDbLine
 10
32.2376015
 20
78.1705
 30
0.0
 11
33.7160015
 21
79.9324
 31
0.0
  0
LINE
  5
C7
330
1E
100
AcDbEntity
  8
0
100
AcDbLine
 10
31.9003015
 20
73.1014
 30
0.0
 11
33.1216015
 21
74.5569
 31
0.0
  0
LINE
  5
C8
330
1E
100
AcDbEntity
  8
0
100
AcDbLine
 10
31.0004015
 20
72.0289
 30
0.0
 11
31.9003015
 21
73.1014
 31
0.0
  0
LINE
  5
C9
330
1E
100
AcDbEntity
  8
0
100
AcDbLine
 10
30.4218015
 20
71.3395
 30
0.0
 11
31.0004015
 21
72.0289
 31
0.0
  0
LINE
  5
CA
330
1E
100
AcDbEntity
  8
0
100
AcDbLine
 10
30.2290015
 20
71.1097
 30
0.0
 11
30.5988015
 21
66.8832
 31
0.0
  0
LINE
  5
CB
330
1E
100
AcDbEntity
  8
0
100
AcDbLine
 10
30.2290015
 20
71.1097
 30
0.0
 11
30.4218015
 21
71.3395
 31
0.0
  0
LINE
  5
CC
330
1E
100
AcDbEntity
  8
0
100
AcDbLine
 10
30.5988015
 20
66.8832
 30
0.0
 11
32.82200149999999
 21
61.7541
 31
0.0
  0
LINE
  5
CF
330
1E
100
AcDbEntity
  8
0
100
AcDbLine
 10
33.91530149999999
 20
108.484
 30
0.0
 11
36.2566015
 21
111.741
 31
0.0
  0
LINE
  5
D0
330
1E
100
AcDbEntity
  8
0
100
AcDbLine
 10
33.7160015
 20
79.9324
 30
0.0
 11
35.19440149999999
 21
81.6943
 31
0.0
  0
LINE
  5
D4
330
1E
100
AcDbEntity
  8
0
100
AcDbLine
 10
36.0141015
 20
78.00409999999999
 30
0.0
 11
37.4925015
 21
79.76600000000001
 31
0.0
  0
LINE
  5
D5
330
1E
100
AcDbEntity
  8
0
100
AcDbLine
 10
37.4925015
 20
79.76600000000001
 30
0.0
 11
38.9066015
 21
81.45129999999999
 31
0.0
  0
LINE
  5
D6
330
1E
100
AcDbEntity
  8
0
100
AcDbLine
 10
35.19440149999999
 20
81.6943
 30
0.0
 11
36.6085015
 21
83.3796
 31
0.0
  0
LINE
  5
D9
330
1E
100
AcDbEntity
  8
0
100
AcDbLine
 10
36.6085015
 20
83.3796
 30
0.0
 11
37.8298015
 21
84.8351
 31
0.0
  0
LINE
  5
DA
330
1E
100
AcDbEntity
  8
0
100
AcDbLine
 10
37.8298015
 20
84.8351
 30
0.0
 11
38.7297015
 21
85.90760000000001
 31
0.0
  0
LINE
  5
DC
330
1E
100
AcDbEntity
  8
0
100
AcDbLine
 10
38.7297015
 20
85.90760000000001
 30
0.0
 11
39.3082015
 21
86.597
 31
0.0
  0
LINE
  5
DD
330
1E
100
AcDbEntity
  8
0
100
AcDbLine
 10
36.7373946857081
 20
93.0620102652977
 30
0.0
 11
39.5276015
 21
94.63700000000001
 31
0.0
  0
LINE
  5
DE
330
1E
100
AcDbEntity
  8
0
100
AcDbLine
 10
36.2566015
 20
111.741
 30
0.0
 11
38.88940149999999
 21
114.101
 31
0.0
  0
LINE
  5
DF
330
1E
100
AcDbEntity
  8
0
100
AcDbLine
 10
36.75562170156339
 20
93.0722988800052
 30
0.0
 11
36.8331015
 21
92.9817
 31
0.0
  0
LINE
  5
E0
330
1E
100
AcDbEntity
  8
0
100
AcDbLine
 10
38.88940149999999
 20
114.101
 30
0.0
 11
41.2624015
 21
115.3729999999999
 31
0.0
  0
LINE
  5
E1
330
1E
100
AcDbEntity
  8
0
100
AcDbLine
 10
36.8331015
 20
92.9817
 30
0.0
 11
38.4885015
 21
90.28730000000001
 31
0.0
  0
LINE
  5
E2
330
1E
100
AcDbEntity
  8
0
100
AcDbLine
 10
38.4885015
 20
90.28730000000001
 30
0.0
 11
39.5011015
 21
86.82680000000001
 31
0.0
  0
LINE
  5
E3
330
1E
100
AcDbEntity
  8
0
100
AcDbLine
 10
39.5011015
 20
86.82680000000001
 30
0.0
 11
40.9099015
 21
86.95010000000001
 31
0.0
  0
LINE
  5
E4
330
1E
100
AcDbEntity
  8
0
100
AcDbLine
 10
39.3082015
 20
86.597
 30
0.0
 11
39.5011015
 21
86.82680000000001
 31
0.0
  0
LINE
  5
E5
330
1E
100
AcDbEntity
  8
0
100
AcDbLine
 10
38.9066015
 20
81.45129999999999
 30
0.0
 11
40.12790149999999
 21
82.9068
 31
0.0
  0
LINE
  5
E6
330
1E
100
AcDbEntity
  8
0
100
AcDbLine
 10
34.5357015
 20
76.2422
 30
0.0
 11
36.0141015
 21
78.00409999999999
 31
0.0
  0
LINE
  5
E7
330
1E
100
AcDbEntity
  8
0
100
AcDbLine
 10
33.1216015
 20
74.5569
 30
0.0
 11
34.5357015
 21
76.2422
 31
0.0
  0
LINE
  5
E8
330
1E
100
AcDbEntity
  8
0
100
AcDbLine
 10
32.82200149999999
 20
61.7541
 30
0.0
 11
35.81130149999999
 21
55.9823
 31
0.0
  0
LINE
  5
E9
330
1E
100
AcDbEntity
  8
0
100
AcDbLine
 10
35.81130149999999
 20
55.9823
 30
0.0
 11
39.50500149999999
 21
50.2721
 31
0.0
  0
LINE
  5
EA
330
1E
100
AcDbEntity
  8
0
100
AcDbLine
 10
43.3300015
 20
45.4961
 30
0.0
 11
69.2986015
 21
76.44429999999999
 31
0.0
  0
LINE
  5
EB
330
1E
100
AcDbEntity
  8
0
100
AcDbLine
 10
42.8157015
 20
44.8833
 30
0.0
 11
42.9390015
 21
43.4744
 31
0.0
  0
LINE
  5
EC
330
1E
100
AcDbEntity
  8
0
100
AcDbLine
 10
42.8157015
 20
44.8833
 30
0.0
 11
43.3300015
 21
45.4961
 31
0.0
  0
LINE
  5
EF
330
1E
100
AcDbEntity
  8
0
100
AcDbLine
 10
42.9390015
 20
43.4744
 30
0.0
 11
44.08810149999999
 21
42.5103
 31
0.0
  0
LINE
  5
F2
330
1E
100
AcDbEntity
  8
0
100
AcDbLine
 10
44.08810149999999
 20
42.5103
 30
0.0
 11
45.49690149999999
 21
42.63349999999999
 31
0.0
  0
LINE
  5
F3
330
1E
100
AcDbEntity
  8
0
100
AcDbLine
 10
68.5998015
 20
9.0
 30
0.0
 11
72.2998015
 21
9.0
 31
0.0
  0
LINE
  5
F4
330
1E
100
AcDbEntity
  8
0
100
AcDbLine
 10
66.2998015
 20
9.0
 30
0.0
 11
68.5998015
 21
9.0
 31
0.0
  0
LINE
  5
F9
330
1E
100
AcDbEntity
  8
0
100
AcDbLine
 10
46.0111015
 20
43.24629999999999
 30
0.0
 11
71.9797015
 21
74.19450000000001
 31
0.0
  0
LINE
  5
FA
330
1E
100
AcDbEntity
  8
0
100
AcDbLine
 10
66.49980150000001
 20
24.5
 30
0.0
 11
66.49980150000001
 21
9.0
 31
0.0
  0
LINE
  5
FC
330
1E
100
AcDbEntity
  8
0
100
AcDbLine
 10
45.49690149999999
 20
42.63349999999999
 30
0.0
 11
66.49980150000001
 21
24.5
 31
0.0
  0
LINE
  5
FD
330
1E
100
AcDbEntity
  8
0
100
AcDbLine
 10
45.49690149999999
 20
42.63349999999999
 30
0.0
 11
46.0111015
 21
43.24629999999999
 31
0.0
  0
LINE
  5
FF
330
1E
100
AcDbEntity
  8
0
100
AcDbLine
 10
40.12790149999999
 20
82.9068
 30
0.0
 11
41.0278015
 21
83.9792
 31
0.0
  0
LINE
  5
100
330
1E
100
AcDbEntity
  8
0
100
AcDbLine
 10
41.0278015
 20
83.9792
 30
0.0
 11
41.6064015
 21
84.6687
 31
0.0
  0
LINE
  5
101
330
1E
100
AcDbEntity
  8
0
100
AcDbLine
 10
41.6064015
 20
84.6687
 30
0.0
 11
41.7992015
 21
84.8985
 31
0.0
  0
LINE
  5
105
330
1E
100
AcDbEntity
  8
0
100
AcDbLine
 10
41.7992015
 20
84.8985
 30
0.0
 11
46.0257015
 21
85.26819999999998
 31
0.0
  0
LINE
  5
108
330
1E
100
AcDbEntity
  8
0
100
AcDbLine
 10
40.9099015
 20
86.95010000000001
 30
0.0
 11
41.6759015
 21
86.30729999999999
 31
0.0
  0
LINE
  5
10A
330
1E
100
AcDbEntity
  8
0
100
AcDbLine
 10
39.5276015
 20
94.63700000000001
 30
0.0
 11
42.8648015
 21
97.05840000000002
 31
0.0
  0
LINE
  5
10B
330
1E
100
AcDbEntity
  8
0
100
AcDbLine
 10
41.6759015
 20
86.30729999999999
 30
0.0
 11
41.7992015
 21
84.8985
 31
0.0
  0
LINE
  5
10D
330
1E
100
AcDbEntity
  8
0
100
AcDbLine
 10
42.8648015
 20
97.05840000000002
 30
0.0
 11
44.9463015
 21
99.228
 31
0.0
  0
LINE
  5
10E
330
1E
100
AcDbEntity
  8
0
100
AcDbLine
 10
44.9463015
 20
99.228
 30
0.0
 11
47.74730149999999
 21
102.0989999999999
 31
0.0
  0
LINE
  5
10F
330
1E
100
AcDbEntity
  8
0
100
AcDbLine
 10
41.2624015
 20
115.3729999999999
 30
0.0
 11
43.6971015
 21
115.941
 31
0.0
  0
LINE
  5
110
330
1E
100
AcDbEntity
  8
0
100
AcDbLine
 10
43.6971015
 20
115.941
 30
0.0
 11
46.1933015
 21
115.805
 31
0.0
  0
LINE
  5
111
330
1E
100
AcDbEntity
  8
0
100
AcDbLine
 10
46.1933015
 20
115.805
 30
0.0
 11
48.4298015
 21
114.5809999999999
 31
0.0
  0
LINE
  5
112
330
1E
100
AcDbEntity
  8
0
100
AcDbLine
 10
46.0257015
 20
85.26819999999998
 30
0.0
 11
51.4629015
 21
83.96939999999998
 31
0.0
  0
LINE
  5
117
330
1E
100
AcDbEntity
  8
0
100
AcDbLine
 10
47.74730149999999
 20
102.0989999999999
 30
0.0
 11
49.6140015
 21
105.102
 31
0.0
  0
LINE
  5
118
330
1E
100
AcDbEntity
  8
0
100
AcDbLine
 10
49.6140015
 20
105.102
 30
0.0
 11
50.4549015
 21
107.66
 31
0.0
  0
LINE
  5
119
330
1E
100
AcDbEntity
  8
0
100
AcDbLine
 10
48.4298015
 20
114.5809999999999
 30
0.0
 11
50.0235015
 21
112.591
 31
0.0
  0
LINE
  5
138
330
1E
100
AcDbEntity
  8
0
100
AcDbLine
 10
71.9797015
 20
74.19450000000001
 30
0.0
 11
72.49400149999999
 21
74.8074
 31
0.0
  0
LINE
  5
13A
330
1E
100
AcDbEntity
  8
0
100
AcDbLine
 10
50.4549015
 20
107.66
 30
0.0
 11
50.5915015
 21
110.156
 31
0.0
  0
LINE
  5
13B
330
1E
100
AcDbEntity
  8
0
100
AcDbLine
 10
50.0235015
 20
112.591
 30
0.0
 11
50.5915015
 21
110.156
 31
0.0
  0
LINE
  5
13C
330
1E
100
AcDbEntity
  8
0
100
AcDbLine
 10
51.4629015
 20
83.96939999999998
 30
0.0
 11
57.6661015
 21
82.0278
 31
0.0
  0
LINE
  5
13D
330
1E
100
AcDbEntity
  8
0
100
AcDbLine
 10
57.6661015
 20
82.0278
 30
0.0
 11
63.9310015
 21
79.3818
 31
0.0
  0
LINE
  5
13E
330
1E
100
AcDbEntity
  8
0
100
AcDbLine
 10
69.2986015
 20
76.44429999999999
 30
0.0
 11
69.8128015
 21
77.0571
 31
0.0
  0
LINE
  5
13F
330
1E
100
AcDbEntity
  8
0
100
AcDbLine
 10
69.8128015
 20
77.0571
 30
0.0
 11
71.2216015
 21
77.18040000000001
 31
0.0
  0
LINE
  5
140
330
1E
100
AcDbEntity
  8
0
100
AcDbLine
 10
71.2216015
 20
77.18040000000001
 30
0.0
 11
72.3707015
 21
76.2162
 31
0.0
  0
LINE
  5
142
330
1E
100
AcDbEntity
  8
0
100
AcDbLine
 10
63.9310015
 20
79.3818
 30
0.0
 11
69.17000149999999
 21
76.2911
 31
0.0
  0
LINE
  5
147
330
1E
100
AcDbEntity
  8
0
100
AcDbLine
 10
43.4585015
 20
45.64929999999999
 30
0.0
 11
43.637910505638
 21
45.8630757973847
 31
0.0
  0
LINE
  5
148
330
1E
100
AcDbEntity
  8
0
100
AcDbLine
 10
39.50500149999999
 20
50.2721
 30
0.0
 11
43.4585015
 21
45.64929999999999
 31
0.0
  0
LINE
  5
149
330
1E
100
AcDbEntity
  8
0
100
AcDbLine
 10
72.2998015
 20
9.0
 30
0.0
 11
76.9998015
 21
9.0
 31
0.0
  0
LINE
  5
14A
330
1E
100
AcDbEntity
  8
0
100
AcDbLine
 10
72.2998015
 20
6.0
 30
0.0
 11
76.9998015
 21
6.0
 31
0.0
  0
LINE
  5
14B
330
1E
100
AcDbEntity
  8
0
100
AcDbLine
 10
72.9998015
 20
74.5
 30
0.0
 11
76.49980150000001
 21
77.0
 31
0.0
  0
LINE
  5
14F
330
1E
100
AcDbEntity
  8
0
100
AcDbLine
 10
95.59980149999999
 20
-0.0000000000000013
 30
0.0
 11
102.1995014999999
 21
-0.0000000000000011
 31
0.0
  0
LINE
  5
150
330
1E
100
AcDbEntity
  8
0
100
AcDbLine
 10
88.4998015
 20
-0.0000000000000014
 30
0.0
 11
95.59980149999999
 21
-0.0000000000000013
 31
0.0
  0
LINE
  5
151
330
1E
100
AcDbEntity
  8
0
100
AcDbLine
 10
102.1995014999999
 20
-0.0000000000000011
 30
0.0
 11
107.8995014999999
 21
-0.0000000000000009
 31
0.0
  0
LINE
  5
152
330
1E
100
AcDbEntity
  8
0
100
AcDbLine
 10
102.1995014999999
 20
0.0000000000000018
 30
0.0
 11
107.8995014999999
 21
0.0000000000000015
 31
0.0
  0
LINE
  5
153
330
1E
100
AcDbEntity
  8
0
100
AcDbLine
 10
107.8995014999999
 20
0.0000000000000015
 30
0.0
 11
112.2995014999999
 21
0.0000000000000012
 31
0.0
  0
LINE
  5
154
330
1E
100
AcDbEntity
  8
0
100
AcDbLine
 10
114.9995015
 20
-0.0000000000000001
 30
0.0
 11
115.9995015
 21
0.0000000000000003
 31
0.0
  0
LINE
  5
155
330
1E
100
AcDbEntity
  8
0
100
AcDbLine
 10
112.2995014999999
 20
0.0000000000000012
 30
0.0
 11
114.9995015
 21
0.0000000000000007
 31
0.0
  0
LINE
  5
156
330
1E
100
AcDbEntity
  8
0
100
AcDbLine
 10
114.9995015
 20
0.0000000000000007
 30
0.0
 11
115.9995015
 21
0.0000000000000003
 31
0.0
  0
LINE
  5
157
330
1E
100
AcDbEntity
  8
0
100
AcDbLine
 10
112.2995014999999
 20
-0.0000000000000005
 30
0.0
 11
114.9995015
 21
-0.0000000000000001
 31
0.0
  0
LINE
  5
158
330
1E
100
AcDbEntity
  8
0
100
AcDbLine
 10
107.8995014999999
 20
-0.0000000000000009
 30
0.0
 11
112.2995014999999
 21
-0.0000000000000005
 31
0.0
  0
LINE
  5
159
330
1E
100
AcDbEntity
  8
0
100
AcDbLine
 10
81.39980149999999
 20
-0.0000000000000013
 30
0.0
 11
88.4998015
 21
-0.0000000000000014
 31
0.0
  0
LINE
  5
15A
330
1E
100
AcDbEntity
  8
0
100
AcDbLine
 10
74.7998015
 20
-0.0000000000000011
 30
0.0
 11
81.39980149999999
 21
-0.0000000000000013
 31
0.0
  0
LINE
  5
15C
330
1E
100
AcDbEntity
  8
0
100
AcDbLine
 10
76.9998015
 20
9.0
 30
0.0
 11
82.5998015
 21
9.0
 31
0.0
  0
LINE
  5
15E
330
1E
100
AcDbEntity
  8
0
100
AcDbLine
 10
76.9998015
 20
6.0
 30
0.0
 11
82.5998015
 21
6.0
 31
0.0
  0
LINE
  5
15F
330
1E
100
AcDbEntity
  8
0
100
AcDbLine
 10
95.59980149999999
 20
0.0000000000000019
 30
0.0
 11
102.1995014999999
 21
0.0000000000000018
 31
0.0
  0
LINE
  5
160
330
1E
100
AcDbEntity
  8
0
100
AcDbLine
 10
94.3998015
 20
6.0
 30
0.0
 11
99.99950150000001
 21
6.0
 31
0.0
  0
LINE
  5
161
330
1E
100
AcDbEntity
  8
0
100
AcDbLine
 10
88.4998015
 20
6.0
 30
0.0
 11
94.3998015
 21
6.0
 31
0.0
  0
LINE
  5
162
330
1E
100
AcDbEntity
  8
0
100
AcDbLine
 10
88.4998015
 20
0.000000000000002
 30
0.0
 11
95.59980149999999
 21
0.0000000000000019
 31
0.0
  0
LINE
  5
163
330
1E
100
AcDbEntity
  8
0
100
AcDbLine
 10
99.99950150000001
 20
6.0
 30
0.0
 11
104.6995015
 21
6.0
 31
0.0
  0
LINE
  5
164
330
1E
100
AcDbEntity
  8
0
100
AcDbLine
 10
104.6995015
 20
6.0
 30
0.0
 11
108.3995014999999
 21
6.0
 31
0.0
  0
LINE
  5
165
330
1E
100
AcDbEntity
  8
0
100
AcDbLine
 10
115.4995014999999
 20
2.0
 30
0.0
 11
115.9995015
 21
0.0000000000000003
 31
0.0
  0
LINE
  5
166
330
1E
100
AcDbEntity
  8
0
100
AcDbLine
 10
115.4995014999999
 20
2.0
 30
0.0
 11
115.9995015
 21
0.0000000000000003
 31
0.0
  0
LINE
  5
167
330
1E
100
AcDbEntity
  8
0
100
AcDbLine
 10
113.4995014999999
 20
4.5
 30
0.0
 11
115.4995014999999
 21
2.0
 31
0.0
  0
LINE
  5
168
330
1E
100
AcDbEntity
  8
0
100
AcDbLine
 10
111.4995014999999
 20
6.0
 30
0.0
 11
113.4995014999999
 21
4.5
 31
0.0
  0
LINE
  5
169
330
1E
100
AcDbEntity
  8
0
100
AcDbLine
 10
111.4995014999999
 20
6.0
 30
0.0
 11
112.4995014999999
 21
7.0
 31
0.0
  0
LINE
  5
16A
330
1E
100
AcDbEntity
  8
0
100
AcDbLine
 10
110.6995015
 20
6.0
 30
0.0
 11
111.4995014999999
 21
6.0
 31
0.0
  0
LINE
  5
16B
330
1E
100
AcDbEntity
  8
0
100
AcDbLine
 10
108.3995014999999
 20
6.0
 30
0.0
 11
110.6995015
 21
6.0
 31
0.0
  0
LINE
  5
178
330
1E
100
AcDbEntity
  8
0
100
AcDbLine
 10
88.4998015
 20
9.0
 30
0.0
 11
94.3998015
 21
9.0
 31
0.0
  0
LINE
  5
179
330
1E
100
AcDbEntity
  8
0
100
AcDbLine
 10
94.3998015
 20
9.0
 30
0.0
 11
99.99950150000001
 21
9.0
 31
0.0
  0
LINE
  5
17A
330
1E
100
AcDbEntity
  8
0
100
AcDbLine
 10
82.5998015
 20
9.0
 30
0.0
 11
88.4998015
 21
9.0
 31
0.0
  0
LINE
  5
17B
330
1E
100
AcDbEntity
  8
0
100
AcDbLine
 10
99.99950150000001
 20
9.0
 30
0.0
 11
104.6995015
 21
9.0
 31
0.0
  0
LINE
  5
17C
330
1E
100
AcDbEntity
  8
0
100
AcDbLine
 10
104.6995015
 20
9.0
 30
0.0
 11
108.3995014999999
 21
9.0
 31
0.0
  0
LINE
  5
180
330
1E
100
AcDbEntity
  8
0
100
AcDbLine
 10
108.3995014999999
 20
9.0
 30
0.0
 11
110.6995015
 21
9.0
 31
0.0
  0
LINE
  5
188
330
1E
100
AcDbEntity
  8
0
100
AcDbLine
 10
112.4995014999999
 20
7.0
 30
0.0
 11
112.4995014999999
 21
8.0
 31
0.0
  0
LINE
  5
18B
330
1E
100
AcDbEntity
  8
0
100
AcDbLine
 10
110.6995015
 20
9.0
 30
0.0
 11
111.4995014999999
 21
9.0
 31
0.0
  0
LINE
  5
18C
330
1E
100
AcDbEntity
  8
0
100
AcDbLine
 10
111.4995014999999
 20
9.0
 30
0.0
 11
112.4995014999999
 21
8.0
 31
0.0
  0
LINE
  5
18D
330
1E
100
AcDbEntity
  8
0
100
AcDbLine
 10
112.4995014999999
 20
8.0
 30
0.0
 11
112.4995014999999
 21
7.0
 31
0.0
  0
LINE
  5
1EA
330
1E
100
AcDbEntity
  8
0
100
AcDbLine
 10
82.5998015
 20
6.0
 30
0.0
 11
88.4998015
 21
6.0
 31
0.0
  0
LINE
  5
1EB
330
1E
100
AcDbEntity
  8
0
100
AcDbLine
 10
81.39980149999999
 20
0.0000000000000019
 30
0.0
 11
88.4998015
 21
0.000000000000002
 31
0.0
  0
LINE
  5
1EC
330
1E
100
AcDbEntity
  8
0
100
AcDbLine
 10
74.7998015
 20
0.0000000000000018
 30
0.0
 11
81.39980149999999
 21
0.0000000000000019
 31
0.0
  0
LINE
  5
1EE
330
1E
100
AcDbEntity
  8
0
100
AcDbLine
 10
75.4998015
 20
79.0
 30
0.0
 11
75.4998015
 21
78.0
 31
0.0
  0
LINE
  5
1F0
330
1E
100
AcDbEntity
  8
0
100
AcDbLine
 10
75.4998015
 20
79.0
 30
0.0
 11
76.49980150000001
 21
80.0
 31
0.0
  0
LINE
  5
1F4
330
1E
100
AcDbEntity
  8
0
100
AcDbLine
 10
75.4998015
 20
78.0
 30
0.0
 11
76.49980150000001
 21
77.0
 31
0.0
  0
LINE
  5
1F5
330
1E
100
AcDbEntity
  8
0
100
AcDbLine
 10
75.4998015
 20
78.0
 30
0.0
 11
75.4998015
 21
79.0
 31
0.0
  0
LINE
  5
1F6
330
1E
100
AcDbEntity
  8
0
100
AcDbLine
 10
72.3707015
 20
76.2162
 30
0.0
 11
72.49400149999999
 21
74.8074
 31
0.0
  0
LINE
  5
1F7
330
1E
100
AcDbEntity
  8
0
100
AcDbLine
 10
76.49980150000001
 20
80.0
 30
0.0
 11
76.49980150000001
 21
107.0
 31
0.0
  0
LINE
  5
1F8
330
1E
100
AcDbEntity
  8
0
100
AcDbLine
 10
76.49980150000001
 20
80.0
 30
0.0
 11
76.8998015
 21
80.0
 31
0.0
  0
LINE
  5
1F9
330
1E
100
AcDbEntity
  8
0
100
AcDbLine
 10
76.49980150000001
 20
124.5999999999999
 30
0.0
 11
76.49980150000001
 21
107.0
 31
0.0
  0
LINE
  5
1FA
330
1E
100
AcDbEntity
  8
0
100
AcDbLine
 10
76.49980150000001
 20
124.5999999999999
 30
0.0
 11
76.49980150000001
 21
141.0
 31
0.0
  0
LINE
  5
1FB
330
1E
100
AcDbEntity
  8
0
100
AcDbLine
 10
76.49980150000001
 20
165.8899999999999
 30
0.0
 11
76.49980150000001
 21
155.0829999999999
 31
0.0
  0
LINE
  5
1FC
330
1E
100
AcDbEntity
  8
0
100
AcDbLine
 10
76.49980150000001
 20
165.8899999999999
 30
0.0
 11
76.49980150000001
 21
172.6829999999999
 31
0.0
  0
LINE
  5
1FD
330
1E
100
AcDbEntity
  8
0
100
AcDbLine
 10
76.49980150000001
 20
155.0829999999999
 30
0.0
 11
76.49980150000001
 21
141.0
 31
0.0
  0
LINE
  5
1FE
330
1E
100
AcDbEntity
  8
0
100
AcDbLine
 10
76.49980150000001
 20
155.0829999999999
 30
0.0
 11
76.49980150000001
 21
165.8899999999999
 31
0.0
  0
LINE
  5
1FF
330
1E
100
AcDbEntity
  8
0
100
AcDbLine
 10
76.49980150000001
 20
141.0
 30
0.0
 11
76.49980150000001
 21
136.316
 31
0.0
  0
LINE
  5
200
330
1E
100
AcDbEntity
  8
0
100
AcDbLine
 10
76.49980150000001
 20
141.0
 30
0.0
 11
76.49980150000001
 21
155.0829999999999
 31
0.0
  0
LINE
  5
201
330
1E
100
AcDbEntity
  8
0
100
AcDbLine
 10
76.49980150000001
 20
141.0
 30
0.0
 11
76.49980150000001
 21
124.5999999999999
 31
0.0
  0
LINE
  5
202
330
1E
100
AcDbEntity
  8
0
100
AcDbLine
 10
76.49980150000001
 20
172.6829999999999
 30
0.0
 11
76.49980150000001
 21
175.0
 31
0.0
  0
LINE
  5
203
330
1E
100
AcDbEntity
  8
0
100
AcDbLine
 10
76.49980150000001
 20
172.6829999999999
 30
0.0
 11
76.49980150000001
 21
165.8899999999999
 31
0.0
  0
LINE
  5
204
330
1E
100
AcDbEntity
  8
0
100
AcDbLine
 10
76.49980150000001
 20
175.0
 30
0.0
 11
76.49980150000001
 21
172.6829999999999
 31
0.0
  0
LINE
  5
205
330
1E
100
AcDbEntity
  8
0
100
AcDbLine
 10
76.49980150000001
 20
175.0
 30
0.0
 11
76.8998015
 21
178.0999999999999
 31
0.0
  0
LINE
  5
206
330
1E
100
AcDbEntity
  8
0
100
AcDbLine
 10
76.49980150000001
 20
136.316
 30
0.0
 11
76.8998015
 21
135.023
 31
0.0
  0
LINE
  5
207
330
1E
100
AcDbEntity
  8
0
100
AcDbLine
 10
76.49980150000001
 20
136.316
 30
0.0
 11
76.8998015
 21
137.55
 31
0.0
  0
LINE
  5
208
330
1E
100
AcDbEntity
  8
0
100
AcDbLine
 10
76.49980150000001
 20
136.316
 30
0.0
 11
76.49980150000001
 21
141.0
 31
0.0
  0
LINE
  5
209
330
1E
100
AcDbEntity
  8
0
100
AcDbLine
 10
76.49980150000001
 20
107.0
 30
0.0
 11
76.49980150000001
 21
80.0
 31
0.0
  0
LINE
  5
20A
330
1E
100
AcDbEntity
  8
0
100
AcDbLine
 10
76.49980150000001
 20
107.0
 30
0.0
 11
76.49980150000001
 21
124.5999999999999
 31
0.0
  0
LINE
  5
20E
330
1E
100
AcDbEntity
  8
0
100
AcDbLine
 10
91.5998015
 20
77.0
 30
0.0
 11
94.4998015
 21
77.0
 31
0.0
  0
LINE
  5
20F
330
1E
100
AcDbEntity
  8
0
100
AcDbLine
 10
94.4998015
 20
77.0
 30
0.0
 11
96.99980150000001
 21
77.0
 31
0.0
  0
LINE
  5
210
330
1E
100
AcDbEntity
  8
0
100
AcDbLine
 10
88.4998015
 20
77.0
 30
0.0
 11
91.5998015
 21
77.0
 31
0.0
  0
LINE
  5
211
330
1E
100
AcDbEntity
  8
0
100
AcDbLine
 10
100.0995014999999
 20
77.0
 30
0.0
 11
100.4995014999999
 21
77.0
 31
0.0
  0
LINE
  5
212
330
1E
100
AcDbEntity
  8
0
100
AcDbLine
 10
98.89980149999999
 20
77.0
 30
0.0
 11
100.0995014999999
 21
77.0
 31
0.0
  0
LINE
  5
21D
330
1E
100
AcDbEntity
  8
0
100
AcDbLine
 10
100.4995014999999
 20
77.0
 30
0.0
 11
101.4995015
 21
78.0
 31
0.0
  0
LINE
  5
21E
330
1E
100
AcDbEntity
  8
0
100
AcDbLine
 10
96.99980150000001
 20
77.0
 30
0.0
 11
98.89980149999999
 21
77.0
 31
0.0
  0
LINE
  5
225
330
1E
100
AcDbEntity
  8
0
100
AcDbLine
 10
85.39980149999999
 20
77.0
 30
0.0
 11
88.4998015
 21
77.0
 31
0.0
  0
LINE
  5
226
330
1E
100
AcDbEntity
  8
0
100
AcDbLine
 10
82.4998015
 20
77.0
 30
0.0
 11
85.39980149999999
 21
77.0
 31
0.0
  0
LINE
  5
227
330
1E
100
AcDbEntity
  8
0
100
AcDbLine
 10
79.9998015
 20
77.0
 30
0.0
 11
82.4998015
 21
77.0
 31
0.0
  0
LINE
  5
228
330
1E
100
AcDbEntity
  8
0
100
AcDbLine
 10
78.0998015
 20
77.0
 30
0.0
 11
79.9998015
 21
77.0
 31
0.0
  0
LINE
  5
229
330
1E
100
AcDbEntity
  8
0
100
AcDbLine
 10
76.8998015
 20
178.0999999999999
 30
0.0
 11
78.0998015
 21
181.0
 31
0.0
  0
LINE
  5
22A
330
1E
100
AcDbEntity
  8
0
100
AcDbLine
 10
76.8998015
 20
137.55
 30
0.0
 11
78.0998015
 21
138.6069999999999
 31
0.0
  0
LINE
  5
239
330
1E
100
AcDbEntity
  8
0
100
AcDbLine
 10
101.4995015
 20
78.0
 30
0.0
 11
101.4995015
 21
79.0
 31
0.0
  0
LINE
  5
243
330
1E
100
AcDbEntity
  8
0
100
AcDbLine
 10
98.89980149999999
 20
80.0
 30
0.0
 11
100.0995014999999
 21
80.0
 31
0.0
  0
LINE
  5
245
330
1E
100
AcDbEntity
  8
0
100
AcDbLine
 10
101.4995015
 20
79.0
 30
0.0
 11
101.4995015
 21
78.0
 31
0.0
  0
LINE
  5
247
330
1E
100
AcDbEntity
  8
0
100
AcDbLine
 10
100.0995014999999
 20
80.0
 30
0.0
 11
100.4995014999999
 21
80.0
 31
0.0
  0
LINE
  5
248
330
1E
100
AcDbEntity
  8
0
100
AcDbLine
 10
100.4995014999999
 20
80.0
 30
0.0
 11
100.4995014999999
 21
107.0
 31
0.0
  0
LINE
  5
249
330
1E
100
AcDbEntity
  8
0
100
AcDbLine
 10
100.4995014999999
 20
80.0
 30
0.0
 11
101.4995015
 21
79.0
 31
0.0
  0
LINE
  5
24A
330
1E
100
AcDbEntity
  8
0
100
AcDbLine
 10
96.99980150000001
 20
80.0
 30
0.0
 11
98.89980149999999
 21
80.0
 31
0.0
  0
LINE
  5
24B
330
1E
100
AcDbEntity
  8
0
100
AcDbLine
 10
91.5998015
 20
80.0
 30
0.0
 11
94.4998015
 21
80.0
 31
0.0
  0
LINE
  5
24C
330
1E
100
AcDbEntity
  8
0
100
AcDbLine
 10
88.4998015
 20
80.0
 30
0.0
 11
91.5998015
 21
80.0
 31
0.0
  0
LINE
  5
24D
330
1E
100
AcDbEntity
  8
0
100
AcDbLine
 10
94.4998015
 20
80.0
 30
0.0
 11
96.99980150000001
 21
80.0
 31
0.0
  0
LINE
  5
258
330
1E
100
AcDbEntity
  8
0
100
AcDbLine
 10
85.39980149999999
 20
80.0
 30
0.0
 11
88.4998015
 21
80.0
 31
0.0
  0
LINE
  5
259
330
1E
100
AcDbEntity
  8
0
100
AcDbLine
 10
82.4998015
 20
80.0
 30
0.0
 11
85.39980149999999
 21
80.0
 31
0.0
  0
LINE
  5
25A
330
1E
100
AcDbEntity
  8
0
100
AcDbLine
 10
79.9998015
 20
80.0
 30
0.0
 11
82.4998015
 21
80.0
 31
0.0
  0
LINE
  5
25B
330
1E
100
AcDbEntity
  8
0
100
AcDbLine
 10
77.4998015
 20
135.304
 30
0.0
 11
77.4998015
 21
132.8189999999999
 31
0.0
  0
LINE
  5
25C
330
1E
100
AcDbEntity
  8
0
100
AcDbLine
 10
77.8958015
 20
133.901
 30
0.0
 11
78.9518015
 21
134.914
 31
0.0
  0
LINE
  5
25D
330
1E
100
AcDbEntity
  8
0
100
AcDbLine
 10
78.9518015
 20
134.914
 30
0.0
 11
80.71180150000001
 21
135.81
 31
0.0
  0
LINE
  5
25E
330
1E
100
AcDbEntity
  8
0
100
AcDbLine
 10
77.4998015
 20
132.8189999999999
 30
0.0
 11
77.8958015
 21
131.7379999999999
 31
0.0
  0
LINE
  5
25F
330
1E
100
AcDbEntity
  8
0
100
AcDbLine
 10
77.4998015
 20
132.8189999999999
 30
0.0
 11
77.4998015
 21
135.304
 31
0.0
  0
LINE
  5
260
330
1E
100
AcDbEntity
  8
0
100
AcDbLine
 10
77.4998015
 20
132.8189999999999
 30
0.0
 11
77.8958015
 21
133.901
 31
0.0
  0
LINE
  5
261
330
1E
100
AcDbEntity
  8
0
100
AcDbLine
 10
77.8958015
 20
131.7379999999999
 30
0.0
 11
78.9518015
 21
130.7239999999999
 31
0.0
  0
LINE
  5
262
330
1E
100
AcDbEntity
  8
0
100
AcDbLine
 10
78.9518015
 20
130.7239999999999
 30
0.0
 11
80.71180150000001
 21
129.829
 31
0.0
  0
LINE
  5
263
330
1E
100
AcDbEntity
  8
0
100
AcDbLine
 10
78.0998015
 20
138.6069999999999
 30
0.0
 11
79.9998015
 21
139.6649999999999
 31
0.0
  0
LINE
  5
264
330
1E
100
AcDbEntity
  8
0
100
AcDbLine
 10
80.71180150000001
 20
135.81
 30
0.0
 11
83.0438015
 21
136.4859999999999
 31
0.0
  0
LINE
  5
265
330
1E
100
AcDbEntity
  8
0
100
AcDbLine
 10
83.0438015
 20
136.4859999999999
 30
0.0
 11
85.68380150000001
 21
136.8909999999999
 31
0.0
  0
LINE
  5
266
330
1E
100
AcDbEntity
  8
0
100
AcDbLine
 10
80.71180150000001
 20
129.829
 30
0.0
 11
83.0438015
 21
129.1529999999999
 31
0.0
  0
LINE
  5
267
330
1E
100
AcDbEntity
  8
0
100
AcDbLine
 10
83.0438015
 20
129.1529999999999
 30
0.0
 11
85.68380150000001
 21
128.7479999999999
 31
0.0
  0
LINE
  5
268
330
1E
100
AcDbEntity
  8
0
100
AcDbLine
 10
79.9998015
 20
139.6649999999999
 30
0.0
 11
82.4998015
 21
140.311
 31
0.0
  0
LINE
  5
269
330
1E
100
AcDbEntity
  8
0
100
AcDbLine
 10
85.39980149999999
 20
186.5999999999999
 30
0.0
 11
88.4998015
 21
187.0
 31
0.0
  0
LINE
  5
26A
330
1E
100
AcDbEntity
  8
0
100
AcDbLine
 10
82.4998015
 20
185.4
 30
0.0
 11
85.39980149999999
 21
186.5999999999999
 31
0.0
  0
LINE
  5
26B
330
1E
100
AcDbEntity
  8
0
100
AcDbLine
 10
79.9998015
 20
183.4999999999999
 30
0.0
 11
82.4998015
 21
185.4
 31
0.0
  0
LINE
  5
26C
330
1E
100
AcDbEntity
  8
0
100
AcDbLine
 10
78.0998015
 20
181.0
 30
0.0
 11
79.9998015
 21
183.4999999999999
 31
0.0
  0
LINE
  5
26D
330
1E
100
AcDbEntity
  8
0
100
AcDbLine
 10
82.4998015
 20
140.311
 30
0.0
 11
85.39980149999999
 21
140.84
 31
0.0
  0
LINE
  5
286
330
1E
100
AcDbEntity
  8
0
100
AcDbLine
 10
100.4995014999999
 20
107.0
 30
0.0
 11
100.4995014999999
 21
80.0
 31
0.0
  0
LINE
  5
287
330
1E
100
AcDbEntity
  8
0
100
AcDbLine
 10
100.4995014999999
 20
107.0
 30
0.0
 11
100.4995014999999
 21
124.5999999999999
 31
0.0
  0
LINE
  5
2FC
330
1E
100
AcDbEntity
  8
0
100
AcDbLine
 10
91.31580150000001
 20
128.7479999999999
 30
0.0
 11
93.9558015
 21
129.1529999999999
 31
0.0
  0
LINE
  5
2FD
330
1E
100
AcDbEntity
  8
0
100
AcDbLine
 10
88.4998015
 20
128.596
 30
0.0
 11
91.31580150000001
 21
128.7479999999999
 31
0.0
  0
LINE
  5
2FE
330
1E
100
AcDbEntity
  8
0
100
AcDbLine
 10
96.2878015
 20
135.81
 30
0.0
 11
98.0478015
 21
134.914
 31
0.0
  0
LINE
  5
2FF
330
1E
100
AcDbEntity
  8
0
100
AcDbLine
 10
93.9558015
 20
136.4859999999999
 30
0.0
 11
96.2878015
 21
135.81
 31
0.0
  0
LINE
  5
300
330
1E
100
AcDbEntity
  8
0
100
AcDbLine
 10
91.31580150000001
 20
136.8909999999999
 30
0.0
 11
93.9558015
 21
136.4859999999999
 31
0.0
  0
LINE
  5
301
330
1E
100
AcDbEntity
  8
0
100
AcDbLine
 10
88.4998015
 20
137.043
 30
0.0
 11
91.31580150000001
 21
136.8909999999999
 31
0.0
  0
LINE
  5
302
330
1E
100
AcDbEntity
  8
0
100
AcDbLine
 10
99.10380150000001
 20
133.901
 30
0.0
 11
99.49980150000001
 21
132.8189999999999
 31
0.0
  0
LINE
  5
303
330
1E
100
AcDbEntity
  8
0
100
AcDbLine
 10
98.0478015
 20
134.914
 30
0.0
 11
99.10380150000001
 21
133.901
 31
0.0
  0
LINE
  5
304
330
1E
100
AcDbEntity
  8
0
100
AcDbLine
 10
99.49980150000001
 20
132.8189999999999
 30
0.0
 11
99.49980150000001
 21
135.304
 31
0.0
  0
LINE
  5
305
330
1E
100
AcDbEntity
  8
0
100
AcDbLine
 10
99.49980150000001
 20
135.304
 30
0.0
 11
99.49980150000001
 21
132.8189999999999
 31
0.0
  0
LINE
  5
306
330
1E
100
AcDbEntity
  8
0
100
AcDbLine
 10
99.10380150000001
 20
131.7379999999999
 30
0.0
 11
99.49980150000001
 21
132.8189999999999
 31
0.0
  0
LINE
  5
307
330
1E
100
AcDbEntity
  8
0
100
AcDbLine
 10
98.0478015
 20
130.7239999999999
 30
0.0
 11
99.10380150000001
 21
131.7379999999999
 31
0.0
  0
LINE
  5
308
330
1E
100
AcDbEntity
  8
0
100
AcDbLine
 10
96.2878015
 20
129.829
 30
0.0
 11
98.0478015
 21
130.7239999999999
 31
0.0
  0
LINE
  5
309
330
1E
100
AcDbEntity
  8
0
100
AcDbLine
 10
93.9558015
 20
129.1529999999999
 30
0.0
 11
96.2878015
 21
129.829
 31
0.0
  0
LINE
  5
30A
330
1E
100
AcDbEntity
  8
0
100
AcDbLine
 10
85.68380150000001
 20
136.8909999999999
 30
0.0
 11
88.4998015
 21
137.043
 31
0.0
  0
LINE
  5
30B
330
1E
100
AcDbEntity
  8
0
100
AcDbLine
 10
85.68380150000001
 20
128.7479999999999
 30
0.0
 11
88.4998015
 21
128.596
 31
0.0
  0
LINE
  5
30C
330
1E
100
AcDbEntity
  8
0
100
AcDbLine
 10
100.0995014999999
 20
135.023
 30
0.0
 11
100.4995014999999
 21
136.316
 31
0.0
  0
LINE
  5
30D
330
1E
100
AcDbEntity
  8
0
100
AcDbLine
 10
98.89980149999999
 20
138.6069999999999
 30
0.0
 11
100.0995014999999
 21
137.55
 31
0.0
  0
LINE
  5
30E
330
1E
100
AcDbEntity
  8
0
100
AcDbLine
 10
96.99980150000001
 20
139.6649999999999
 30
0.0
 11
98.89980149999999
 21
138.6069999999999
 31
0.0
  0
LINE
  5
30F
330
1E
100
AcDbEntity
  8
0
100
AcDbLine
 10
94.4998015
 20
140.311
 30
0.0
 11
96.99980150000001
 21
139.6649999999999
 31
0.0
  0
LINE
  5
310
330
1E
100
AcDbEntity
  8
0
100
AcDbLine
 10
91.5998015
 20
140.84
 30
0.0
 11
94.4998015
 21
140.311
 31
0.0
  0
LINE
  5
311
330
1E
100
AcDbEntity
  8
0
100
AcDbLine
 10
96.99980150000001
 20
183.4999999999999
 30
0.0
 11
98.89980149999999
 21
181.0
 31
0.0
  0
LINE
  5
312
330
1E
100
AcDbEntity
  8
0
100
AcDbLine
 10
94.4998015
 20
185.4
 30
0.0
 11
96.99980150000001
 21
183.4999999999999
 31
0.0
  0
LINE
  5
313
330
1E
100
AcDbEntity
  8
0
100
AcDbLine
 10
91.5998015
 20
186.5999999999999
 30
0.0
 11
94.4998015
 21
185.4
 31
0.0
  0
LINE
  5
314
330
1E
100
AcDbEntity
  8
0
100
AcDbLine
 10
88.4998015
 20
187.0
 30
0.0
 11
91.5998015
 21
186.5999999999999
 31
0.0
  0
LINE
  5
315
330
1E
100
AcDbEntity
  8
0
100
AcDbLine
 10
100.4995014999999
 20
155.0829999999999
 30
0.0
 11
100.4995014999999
 21
141.0
 31
0.0
  0
LINE
  5
316
330
1E
100
AcDbEntity
  8
0
100
AcDbLine
 10
100.4995014999999
 20
155.0829999999999
 30
0.0
 11
100.4995014999999
 21
165.8899999999999
 31
0.0
  0
LINE
  5
317
330
1E
100
AcDbEntity
  8
0
100
AcDbLine
 10
100.4995014999999
 20
165.8899999999999
 30
0.0
 11
100.4995014999999
 21
172.6829999999999
 31
0.0
  0
LINE
  5
318
330
1E
100
AcDbEntity
  8
0
100
AcDbLine
 10
100.4995014999999
 20
165.8899999999999
 30
0.0
 11
100.4995014999999
 21
155.0829999999999
 31
0.0
  0
LINE
  5
319
330
1E
100
AcDbEntity
  8
0
100
AcDbLine
 10
100.4995014999999
 20
172.6829999999999
 30
0.0
 11
100.4995014999999
 21
175.0
 31
0.0
  0
LINE
  5
31A
330
1E
100
AcDbEntity
  8
0
100
AcDbLine
 10
100.4995014999999
 20
172.6829999999999
 30
0.0
 11
100.4995014999999
 21
165.8899999999999
 31
0.0
  0
LINE
  5
31B
330
1E
100
AcDbEntity
  8
0
100
AcDbLine
 10
100.0995014999999
 20
178.0999999999999
 30
0.0
 11
100.4995014999999
 21
175.0
 31
0.0
  0
LINE
  5
31C
330
1E
100
AcDbEntity
  8
0
100
AcDbLine
 10
100.4995014999999
 20
175.0
 30
0.0
 11
100.4995014999999
 21
172.6829999999999
 31
0.0
  0
LINE
  5
31D
330
1E
100
AcDbEntity
  8
0
100
AcDbLine
 10
98.89980149999999
 20
181.0
 30
0.0
 11
100.0995014999999
 21
178.0999999999999
 31
0.0
  0
LINE
  5
31E
330
1E
100
AcDbEntity
  8
0
100
AcDbLine
 10
88.4998015
 20
141.0169999999999
 30
0.0
 11
91.5998015
 21
140.84
 31
0.0
  0
LINE
  5
31F
330
1E
100
AcDbEntity
  8
0
100
AcDbLine
 10
100.4995014999999
 20
141.0
 30
0.0
 11
100.4995014999999
 21
136.316
 31
0.0
  0
LINE
  5
320
330
1E
100
AcDbEntity
  8
0
100
AcDbLine
 10
100.4995014999999
 20
141.0
 30
0.0
 11
100.4995014999999
 21
155.0829999999999
 31
0.0
  0
LINE
  5
321
330
1E
100
AcDbEntity
  8
0
100
AcDbLine
 10
100.0995014999999
 20
137.55
 30
0.0
 11
100.4995014999999
 21
136.316
 31
0.0
  0
LINE
  5
322
330
1E
100
AcDbEntity
  8
0
100
AcDbLine
 10
100.4995014999999
 20
136.316
 30
0.0
 11
100.4995014999999
 21
124.5999999999999
 31
0.0
  0
LINE
  5
323
330
1E
100
AcDbEntity
  8
0
100
AcDbLine
 10
100.4995014999999
 20
136.316
 30
0.0
 11
100.4995014999999
 21
141.0
 31
0.0
  0
LINE
  5
324
330
1E
100
AcDbEntity
  8
0
100
AcDbLine
 10
100.4995014999999
 20
124.5999999999999
 30
0.0
 11
100.4995014999999
 21
136.316
 31
0.0
  0
LINE
  5
325
330
1E
100
AcDbEntity
  8
0
100
AcDbLine
 10
100.4995014999999
 20
124.5999999999999
 30
0.0
 11
100.4995014999999
 21
107.0
 31
0.0
  0
LINE
  5
326
330
1E
100
AcDbEntity
  8
0
100
AcDbLine
 10
85.39980149999999
 20
140.84
 30
0.0
 11
88.4998015
 21
141.0169999999999
 31
0.0
  0
LINE
  5
327
330
1E
100
AcDbEntity
  8
0
100
AcDbLine
 10
78.0998015
 20
80.0
 30
0.0
 11
79.9998015
 21
80.0
 31
0.0
  0
LINE
  5
328
330
1E
100
AcDbEntity
  8
0
100
AcDbLine
 10
76.8998015
 20
80.0
 30
0.0
 11
78.0998015
 21
80.0
 31
0.0
  0
LINE
  5
329
330
1E
100
AcDbEntity
  8
0
100
AcDbLine
 10
76.8998015
 20
77.0
 30
0.0
 11
78.0998015
 21
77.0
 31
0.0
  0
LINE
  5
32A
330
1E
100
AcDbEntity
  8
0
100
AcDbLine
 10
76.49980150000001
 20
77.0
 30
0.0
 11
76.8998015
 21
77.0
 31
0.0
  0
LINE
  5
32B
330
1E
100
AcDbEntity
  8
0
100
AcDbLine
 10
72.49400149999999
 20
74.8074
 30
0.0
 11
72.9998015
 21
74.5
 31
0.0
  0
LINE
  5
330
330
1E
100
AcDbEntity
  8
0
100
AcDbLine
 10
65.4998015
 20
9.0
 30
0.0
 11
64.4998015
 21
8.0
 31
0.0
  0
LINE
  5
331
330
1E
100
AcDbEntity
  8
0
100
AcDbLine
 10
140.2626053142919
 20
93.0620102652977
 30
0.0
 11
137.4723984999999
 21
94.63700000000001
 31
0.0
  0
LINE
  5
332
330
1E
100
AcDbEntity
  8
0
100
AcDbLine
 10
148.6144984999999
 20
93.80419999999999
 30
0.0
 11
146.8895985
 21
92.74840000000001
 31
0.0
  0
LINE
  5
333
330
1E
100
AcDbEntity
  8
0
100
AcDbLine
 10
157.8388985
 20
92.14539999999999
 30
0.0
 11
156.0390984999999
 21
94.2903
 31
0.0
  0
LINE
  5
334
330
1E
100
AcDbEntity
  8
0
100
AcDbLine
 10
155.9404985
 20
93.1633
 30
0.0
 11
154.2471984999999
 21
94.09220000000001
 31
0.0
  0
LINE
  5
335
330
1E
100
AcDbEntity
  8
0
100
AcDbLine
 10
159.3709984999999
 20
93.43099999999999
 30
0.0
 11
157.5711985
 21
95.57590000000001
 31
0.0
  0
LINE
  5
336
330
1E
100
AcDbEntity
  8
0
100
AcDbLine
 10
164.4030985
 20
93.34560000000001
 30
0.0
 11
162.4350985
 21
96.0021
 31
0.0
  0
LINE
  5
337
330
1E
100
AcDbEntity
  8
0
100
AcDbLine
 10
144.1779984999999
 20
61.7541
 30
0.0
 11
141.1886984999999
 21
55.9823
 31
0.0
  0
LINE
  5
338
330
1E
100
AcDbEntity
  8
0
100
AcDbLine
 10
143.8783985
 20
74.5569
 30
0.0
 11
142.4642985
 21
76.2422
 31
0.0
  0
LINE
  5
339
330
1E
100
AcDbEntity
  8
0
100
AcDbLine
 10
144.7623984999999
 20
78.1705
 30
0.0
 11
143.2839985
 21
79.9324
 31
0.0
  0
LINE
  5
33A
330
1E
100
AcDbEntity
  8
0
100
AcDbLine
 10
174.1683285
 20
71.9069
 30
0.0
 11
171.3673685
 21
74.7782
 31
0.0
  0
LINE
  5
33B
330
1E
100
AcDbEntity
  8
0
100
AcDbLine
 10
172.6143685
 20
58.2016
 30
0.0
 11
170.1180985
 21
58.06499999999999
 31
0.0
  0
LINE
  5
33C
330
1E
100
AcDbEntity
  8
0
100
AcDbLine
 10
177.0125015
 20
63.8501
 30
0.0
 11
176.8759924999999
 21
66.3464
 31
0.0
  0
LINE
  5
33D
330
1E
100
AcDbEntity
  8
0
100
AcDbLine
 10
177.0125015
 20
63.8501
 30
0.0
 11
176.8759924999999
 21
66.3464
 31
0.0
  0
LINE
  5
33E
330
1E
100
AcDbEntity
  8
0
100
AcDbLine
 10
176.4445934999999
 20
61.4155
 30
0.0
 11
174.8508785
 21
59.4255
 31
0.0
  0
LINE
  5
33F
330
1E
100
AcDbEntity
  8
0
100
AcDbLine
 10
176.4445934999999
 20
61.4155
 30
0.0
 11
174.8508785
 21
59.4255
 31
0.0
  0
LINE
  5
340
330
1E
100
AcDbEntity
  8
0
100
AcDbLine
 10
177.0125015
 20
63.8501
 30
0.0
 11
176.4445934999999
 21
61.4155
 31
0.0
  0
LINE
  5
341
330
1E
100
AcDbEntity
  8
0
100
AcDbLine
 10
177.0125015
 20
63.8501
 30
0.0
 11
176.4445934999999
 21
61.4155
 31
0.0
  0
LINE
  5
342
330
1E
100
AcDbEntity
  8
0
100
AcDbLine
 10
174.8508785
 20
59.4255
 30
0.0
 11
172.6143685
 21
58.2016
 31
0.0
  0
LINE
  5
343
330
1E
100
AcDbEntity
  8
0
100
AcDbLine
 10
176.0350684999999
 20
68.90430000000001
 30
0.0
 11
174.1683285
 21
71.9069
 31
0.0
  0
LINE
  5
344
330
1E
100
AcDbEntity
  8
0
100
AcDbLine
 10
176.8759924999999
 20
66.3464
 30
0.0
 11
176.0350684999999
 21
68.90430000000001
 31
0.0
  0
LINE
  5
345
330
1E
100
AcDbEntity
  8
0
100
AcDbLine
 10
176.8759924999999
 20
66.3464
 30
0.0
 11
176.0350684999999
 21
68.90430000000001
 31
0.0
  0
LINE
  5
346
330
1E
100
AcDbEntity
  8
0
100
AcDbLine
 10
146.4011984999999
 20
66.8832
 30
0.0
 11
144.1779984999999
 21
61.7541
 31
0.0
  0
LINE
  5
347
330
1E
100
AcDbEntity
  8
0
100
AcDbLine
 10
162.6776985
 20
62.265
 30
0.0
 11
160.3362984999999
 21
65.52209999999999
 31
0.0
  0
LINE
  5
348
330
1E
100
AcDbEntity
  8
0
100
AcDbLine
 10
165.3103984999999
 20
59.90529999999999
 30
0.0
 11
162.6776985
 21
62.265
 31
0.0
  0
LINE
  5
349
330
1E
100
AcDbEntity
  8
0
100
AcDbLine
 10
170.1180985
 20
58.06499999999999
 30
0.0
 11
167.6834584999999
 21
58.633
 31
0.0
  0
LINE
  5
34A
330
1E
100
AcDbEntity
  8
0
100
AcDbLine
 10
167.6834584999999
 20
58.633
 30
0.0
 11
165.3103984999999
 21
59.90529999999999
 31
0.0
  0
LINE
  5
34B
330
1E
100
AcDbEntity
  8
0
100
AcDbLine
 10
158.5115984999999
 20
90.09910000000001
 30
0.0
 11
157.4558984999999
 21
91.82399999999999
 31
0.0
  0
LINE
  5
34C
330
1E
100
AcDbEntity
  8
0
100
AcDbLine
 10
157.8706985
 20
82.77320000000001
 30
0.0
 11
156.5313984999999
 21
81.2578
 31
0.0
  0
LINE
  5
34D
330
1E
100
AcDbEntity
  8
0
100
AcDbLine
 10
158.5611984999999
 20
67.9487
 30
0.0
 11
156.7560985
 21
71.65569999999999
 31
0.0
  0
LINE
  5
34E
330
1E
100
AcDbEntity
  8
0
100
AcDbLine
 10
169.2857985
 20
76.9478
 30
0.0
 11
165.9485985
 21
79.3692
 31
0.0
  0
LINE
  5
34F
330
1E
100
AcDbEntity
  8
0
100
AcDbLine
 10
171.3673685
 20
74.7782
 30
0.0
 11
169.2857985
 21
76.9478
 31
0.0
  0
LINE
  5
350
330
1E
100
AcDbEntity
  8
0
100
AcDbLine
 10
160.3362984999999
 20
65.52209999999999
 30
0.0
 11
158.5611984999999
 21
67.9487
 31
0.0
  0
LINE
  5
351
330
1E
100
AcDbEntity
  8
0
100
AcDbLine
 10
164.9094985
 20
83.7189
 30
0.0
 11
163.2541985
 21
81.02450000000001
 31
0.0
  0
LINE
  5
352
330
1E
100
AcDbEntity
  8
0
100
AcDbLine
 10
164.6523984999999
 20
84.0253
 30
0.0
 11
163.9453985
 21
84.868
 31
0.0
  0
LINE
  5
353
330
1E
100
AcDbEntity
  8
0
100
AcDbLine
 10
165.4774984999999
 20
86.1536
 30
0.0
 11
164.3846985
 21
87.4558
 31
0.0
  0
LINE
  5
354
330
1E
100
AcDbEntity
  8
0
100
AcDbLine
 10
165.9141984999999
 20
89.52240000000001
 30
0.0
 11
164.4030985
 21
93.34560000000001
 31
0.0
  0
LINE
  5
355
330
1E
100
AcDbEntity
  8
0
100
AcDbLine
 10
165.9485985
 20
79.3692
 30
0.0
 11
163.1584816313606
 21
80.94418129781811
 31
0.0
  0
LINE
  5
356
330
1E
100
AcDbEntity
  8
0
100
AcDbLine
 10
166.4415984999999
 20
85.00449999999998
 30
0.0
 11
165.9141984999999
 21
89.52240000000001
 31
0.0
  0
LINE
  5
357
330
1E
100
AcDbEntity
  8
0
100
AcDbLine
 10
166.3799984999999
 20
84.30010000000001
 30
0.0
 11
165.6139985
 21
83.6573
 31
0.0
  0
LINE
  5
358
330
1E
100
AcDbEntity
  8
0
100
AcDbLine
 10
166.4415984999999
 20
85.00449999999998
 30
0.0
 11
166.1844984999999
 21
85.3109
 31
0.0
  0
LINE
  5
359
330
1E
100
AcDbEntity
  8
0
100
AcDbLine
 10
166.4415984999999
 20
85.00449999999998
 30
0.0
 11
166.3799984999999
 21
84.30010000000001
 31
0.0
  0
LINE
  5
35A
330
1E
100
AcDbEntity
  8
0
100
AcDbLine
 10
164.9094985
 20
83.7189
 30
0.0
 11
164.6523984999999
 21
84.0253
 31
0.0
  0
LINE
  5
35B
330
1E
100
AcDbEntity
  8
0
100
AcDbLine
 10
165.6139985
 20
83.6573
 30
0.0
 11
164.9094985
 21
83.7189
 31
0.0
  0
LINE
  5
35C
330
1E
100
AcDbEntity
  8
0
100
AcDbLine
 10
166.1844984999999
 20
85.3109
 30
0.0
 11
165.4774984999999
 21
86.1536
 31
0.0
  0
LINE
  5
35D
330
1E
100
AcDbEntity
  8
0
100
AcDbLine
 10
162.8525985
 20
86.17029999999999
 30
0.0
 11
161.3741985
 21
87.93219999999999
 31
0.0
  0
LINE
  5
35E
330
1E
100
AcDbEntity
  8
0
100
AcDbLine
 10
159.1772985
 20
86.3498
 30
0.0
 11
158.7995985
 21
84.4664
 31
0.0
  0
LINE
  5
35F
330
1E
100
AcDbEntity
  8
0
100
AcDbLine
 10
163.2541985
 20
81.02450000000001
 30
0.0
 11
163.1767104025026
 21
80.9338914157154
 31
0.0
  0
LINE
  5
360
330
1E
100
AcDbEntity
  8
0
100
AcDbLine
 10
163.9453985
 20
84.868
 30
0.0
 11
162.8525985
 21
86.17029999999999
 31
0.0
  0
LINE
  5
361
330
1E
100
AcDbEntity
  8
0
100
AcDbLine
 10
158.7995985
 20
84.4664
 30
0.0
 11
157.8706985
 21
82.77320000000001
 31
0.0
  0
LINE
  5
362
330
1E
100
AcDbEntity
  8
0
100
AcDbLine
 10
161.3741985
 20
87.93219999999999
 30
0.0
 11
159.6386985
 21
90.00049999999999
 31
0.0
  0
LINE
  5
363
330
1E
100
AcDbEntity
  8
0
100
AcDbLine
 10
161.1707984999999
 20
91.2861
 30
0.0
 11
159.3709984999999
 21
93.43099999999999
 31
0.0
  0
LINE
  5
364
330
1E
100
AcDbEntity
  8
0
100
AcDbLine
 10
162.9062985
 20
89.2177
 30
0.0
 11
161.1707984999999
 21
91.2861
 31
0.0
  0
LINE
  5
365
330
1E
100
AcDbEntity
  8
0
100
AcDbLine
 10
164.3846985
 20
87.4558
 30
0.0
 11
162.9062985
 21
89.2177
 31
0.0
  0
LINE
  5
366
330
1E
100
AcDbEntity
  8
0
100
AcDbLine
 10
159.1323985
 20
88.2703
 30
0.0
 11
158.5115984999999
 21
90.09910000000001
 31
0.0
  0
LINE
  5
367
330
1E
100
AcDbEntity
  8
0
100
AcDbLine
 10
159.1772985
 20
86.3498
 30
0.0
 11
159.1323985
 21
88.2703
 31
0.0
  0
LINE
  5
368
330
1E
100
AcDbEntity
  8
0
100
AcDbLine
 10
159.6386985
 20
90.00049999999999
 30
0.0
 11
157.8388985
 21
92.14539999999999
 31
0.0
  0
LINE
  5
369
330
1E
100
AcDbEntity
  8
0
100
AcDbLine
 10
152.6527984999999
 20
73.43429999999999
 30
0.0
 11
149.0690985
 21
73.03799999999999
 31
0.0
  0
LINE
  5
36A
330
1E
100
AcDbEntity
  8
0
100
AcDbLine
 10
155.5937984999999
 20
74.59659999999999
 30
0.0
 11
152.6527984999999
 21
73.43429999999999
 31
0.0
  0
LINE
  5
36B
330
1E
100
AcDbEntity
  8
0
100
AcDbLine
 10
156.7560985
 20
71.65569999999999
 30
0.0
 11
155.6965139701136
 21
74.6571980101217
 31
0.0
  0
LINE
  5
36C
330
1E
100
AcDbEntity
  8
0
100
AcDbLine
 10
155.6965139701136
 20
74.6571980101217
 30
0.0
 11
155.5937984999999
 21
74.59659999999999
 31
0.0
  0
LINE
  5
36D
330
1E
100
AcDbEntity
  8
0
100
AcDbLine
 10
146.5781984999999
 20
71.3395
 30
0.0
 11
145.9995984999999
 21
72.0289
 31
0.0
  0
LINE
  5
36E
330
1E
100
AcDbEntity
  8
0
100
AcDbLine
 10
148.9458984999999
 20
71.62919999999999
 30
0.0
 11
148.1797985
 21
70.9864
 31
0.0
  0
LINE
  5
36F
330
1E
100
AcDbEntity
  8
0
100
AcDbLine
 10
148.1797985
 20
70.9864
 30
0.0
 11
146.7709984999999
 21
71.1097
 31
0.0
  0
LINE
  5
370
330
1E
100
AcDbEntity
  8
0
100
AcDbLine
 10
146.7709984999999
 20
71.1097
 30
0.0
 11
146.4011984999999
 21
66.8832
 31
0.0
  0
LINE
  5
371
330
1E
100
AcDbEntity
  8
0
100
AcDbLine
 10
146.7709984999999
 20
71.1097
 30
0.0
 11
146.5781984999999
 21
71.3395
 31
0.0
  0
LINE
  5
372
330
1E
100
AcDbEntity
  8
0
100
AcDbLine
 10
147.3978985
 20
75.02979999999999
 30
0.0
 11
146.1765985
 21
76.48520000000001
 31
0.0
  0
LINE
  5
373
330
1E
100
AcDbEntity
  8
0
100
AcDbLine
 10
149.0690985
 20
73.03799999999999
 30
0.0
 11
148.9458984999999
 21
71.62919999999999
 31
0.0
  0
LINE
  5
374
330
1E
100
AcDbEntity
  8
0
100
AcDbLine
 10
149.0690985
 20
73.03799999999999
 30
0.0
 11
148.8762984999999
 21
73.26789999999999
 31
0.0
  0
LINE
  5
375
330
1E
100
AcDbEntity
  8
0
100
AcDbLine
 10
148.2977984999999
 20
73.9573
 30
0.0
 11
147.3978985
 21
75.02979999999999
 31
0.0
  0
LINE
  5
376
330
1E
100
AcDbEntity
  8
0
100
AcDbLine
 10
148.8762984999999
 20
73.26789999999999
 30
0.0
 11
148.2977984999999
 21
73.9573
 31
0.0
  0
LINE
  5
377
330
1E
100
AcDbEntity
  8
0
100
AcDbLine
 10
145.9995984999999
 20
72.0289
 30
0.0
 11
145.0996984999999
 21
73.1014
 31
0.0
  0
LINE
  5
378
330
1E
100
AcDbEntity
  8
0
100
AcDbLine
 10
145.0996984999999
 20
73.1014
 30
0.0
 11
143.8783985
 21
74.5569
 31
0.0
  0
LINE
  5
379
330
1E
100
AcDbEntity
  8
0
100
AcDbLine
 10
146.1765985
 20
76.48520000000001
 30
0.0
 11
144.7623984999999
 21
78.1705
 31
0.0
  0
LINE
  5
37A
330
1E
100
AcDbEntity
  8
0
100
AcDbLine
 10
151.0572985
 20
79.5363
 30
0.0
 11
149.1737985
 21
79.914
 31
0.0
  0
LINE
  5
37B
330
1E
100
AcDbEntity
  8
0
100
AcDbLine
 10
154.8064985
 20
80.202
 30
0.0
 11
152.9776984999999
 21
79.5812
 31
0.0
  0
LINE
  5
37C
330
1E
100
AcDbEntity
  8
0
100
AcDbLine
 10
156.5313984999999
 20
81.2578
 30
0.0
 11
154.8064985
 21
80.202
 31
0.0
  0
LINE
  5
37D
330
1E
100
AcDbEntity
  8
0
100
AcDbLine
 10
152.9776984999999
 20
79.5812
 30
0.0
 11
151.0572985
 21
79.5363
 31
0.0
  0
LINE
  5
37E
330
1E
100
AcDbEntity
  8
0
100
AcDbLine
 10
157.4558984999999
 20
91.82399999999999
 30
0.0
 11
155.9404985
 21
93.1633
 31
0.0
  0
LINE
  5
37F
330
1E
100
AcDbEntity
  8
0
100
AcDbLine
 10
144.2885985
 20
85.736
 30
0.0
 11
144.2436985
 21
87.65640000000001
 31
0.0
  0
LINE
  5
380
330
1E
100
AcDbEntity
  8
0
100
AcDbLine
 10
147.4805984999999
 20
80.84290000000001
 30
0.0
 11
145.9651984999999
 21
82.1822
 31
0.0
  0
LINE
  5
381
330
1E
100
AcDbEntity
  8
0
100
AcDbLine
 10
149.1737985
 20
79.914
 30
0.0
 11
147.4805984999999
 21
80.84290000000001
 31
0.0
  0
LINE
  5
382
330
1E
100
AcDbEntity
  8
0
100
AcDbLine
 10
145.9651984999999
 20
82.1822
 30
0.0
 11
144.9093985
 21
83.9071
 31
0.0
  0
LINE
  5
383
330
1E
100
AcDbEntity
  8
0
100
AcDbLine
 10
144.9093985
 20
83.9071
 30
0.0
 11
144.2885985
 21
85.736
 31
0.0
  0
LINE
  5
384
330
1E
100
AcDbEntity
  8
0
100
AcDbLine
 10
145.5503985
 20
91.23299999999998
 30
0.0
 11
144.6213984999999
 21
89.53979999999999
 31
0.0
  0
LINE
  5
385
330
1E
100
AcDbEntity
  8
0
100
AcDbLine
 10
144.6213984999999
 20
89.53979999999999
 30
0.0
 11
144.2436985
 21
87.65640000000001
 31
0.0
  0
LINE
  5
386
330
1E
100
AcDbEntity
  8
0
100
AcDbLine
 10
146.8895985
 20
92.74840000000001
 30
0.0
 11
145.5503985
 21
91.23299999999998
 31
0.0
  0
LINE
  5
387
330
1E
100
AcDbEntity
  8
0
100
AcDbLine
 10
131.5030984999999
 20
42.63349999999999
 30
0.0
 11
110.5001984999999
 21
24.5
 31
0.0
  0
LINE
  5
388
330
1E
100
AcDbEntity
  8
0
100
AcDbLine
 10
110.5001984999999
 20
24.5
 30
0.0
 11
110.5001984999999
 21
9.0
 31
0.0
  0
LINE
  5
389
330
1E
100
AcDbEntity
  8
0
100
AcDbLine
 10
110.5001984999999
 20
9.0
 30
0.0
 11
110.5001984999999
 21
24.5
 31
0.0
  0
LINE
  5
38A
330
1E
100
AcDbEntity
  8
0
100
AcDbLine
 10
133.6699984999999
 20
45.4961
 30
0.0
 11
107.7013985
 21
76.44429999999999
 31
0.0
  0
LINE
  5
38B
330
1E
100
AcDbEntity
  8
0
100
AcDbLine
 10
130.9888985
 20
43.24629999999999
 30
0.0
 11
105.0202984999999
 21
74.19450000000001
 31
0.0
  0
LINE
  5
38C
330
1E
100
AcDbEntity
  8
0
100
AcDbLine
 10
119.3338985
 20
82.0278
 30
0.0
 11
113.0689984999999
 21
79.3818
 31
0.0
  0
LINE
  5
38D
330
1E
100
AcDbEntity
  8
0
100
AcDbLine
 10
137.4949985
 20
50.2721
 30
0.0
 11
133.5414984999999
 21
45.64929999999999
 31
0.0
  0
LINE
  5
38E
330
1E
100
AcDbEntity
  8
0
100
AcDbLine
 10
133.5414984999999
 20
45.64929999999999
 30
0.0
 11
133.362089494362
 21
45.8630757973847
 31
0.0
  0
LINE
  5
38F
330
1E
100
AcDbEntity
  8
0
100
AcDbLine
 10
134.0609984999999
 20
43.4744
 30
0.0
 11
132.9118985
 21
42.5103
 31
0.0
  0
LINE
  5
390
330
1E
100
AcDbEntity
  8
0
100
AcDbLine
 10
134.1842985
 20
44.8833
 30
0.0
 11
133.6699984999999
 21
45.4961
 31
0.0
  0
LINE
  5
391
330
1E
100
AcDbEntity
  8
0
100
AcDbLine
 10
134.1842985
 20
44.8833
 30
0.0
 11
134.0609984999999
 21
43.4744
 31
0.0
  0
LINE
  5
392
330
1E
100
AcDbEntity
  8
0
100
AcDbLine
 10
132.9118985
 20
42.5103
 30
0.0
 11
131.5030984999999
 21
42.63349999999999
 31
0.0
  0
LINE
  5
393
330
1E
100
AcDbEntity
  8
0
100
AcDbLine
 10
131.5030984999999
 20
42.63349999999999
 30
0.0
 11
130.9888985
 21
43.24629999999999
 31
0.0
  0
LINE
  5
394
330
1E
100
AcDbEntity
  8
0
100
AcDbLine
 10
141.1886984999999
 20
55.9823
 30
0.0
 11
137.4949985
 21
50.2721
 31
0.0
  0
LINE
  5
395
330
1E
100
AcDbEntity
  8
0
100
AcDbLine
 10
130.9742984999999
 20
85.26819999999998
 30
0.0
 11
125.5370985
 21
83.96939999999998
 31
0.0
  0
LINE
  5
396
330
1E
100
AcDbEntity
  8
0
100
AcDbLine
 10
140.9858984999999
 20
78.00409999999999
 30
0.0
 11
139.5074984999999
 21
79.76600000000001
 31
0.0
  0
LINE
  5
397
330
1E
100
AcDbEntity
  8
0
100
AcDbLine
 10
142.4642985
 20
76.2422
 30
0.0
 11
140.9858984999999
 21
78.00409999999999
 31
0.0
  0
LINE
  5
398
330
1E
100
AcDbEntity
  8
0
100
AcDbLine
 10
138.0933985
 20
81.45129999999999
 30
0.0
 11
136.8720984999999
 21
82.9068
 31
0.0
  0
LINE
  5
399
330
1E
100
AcDbEntity
  8
0
100
AcDbLine
 10
137.4988984999999
 20
86.82680000000001
 30
0.0
 11
136.0900985
 21
86.95010000000001
 31
0.0
  0
LINE
  5
39A
330
1E
100
AcDbEntity
  8
0
100
AcDbLine
 10
138.2702984999999
 20
85.90760000000001
 30
0.0
 11
137.6917985
 21
86.597
 31
0.0
  0
LINE
  5
39B
330
1E
100
AcDbEntity
  8
0
100
AcDbLine
 10
140.3914985
 20
83.3796
 30
0.0
 11
139.1701985
 21
84.8351
 31
0.0
  0
LINE
  5
39C
330
1E
100
AcDbEntity
  8
0
100
AcDbLine
 10
141.8055985
 20
81.6943
 30
0.0
 11
140.3914985
 21
83.3796
 31
0.0
  0
LINE
  5
39D
330
1E
100
AcDbEntity
  8
0
100
AcDbLine
 10
143.2839985
 20
79.9324
 30
0.0
 11
141.8055985
 21
81.6943
 31
0.0
  0
LINE
  5
39E
330
1E
100
AcDbEntity
  8
0
100
AcDbLine
 10
139.5074984999999
 20
79.76600000000001
 30
0.0
 11
138.0933985
 21
81.45129999999999
 31
0.0
  0
LINE
  5
39F
330
1E
100
AcDbEntity
  8
0
100
AcDbLine
 10
139.1701985
 20
84.8351
 30
0.0
 11
138.2702984999999
 21
85.90760000000001
 31
0.0
  0
LINE
  5
3A0
330
1E
100
AcDbEntity
  8
0
100
AcDbLine
 10
138.5114985
 20
90.28730000000001
 30
0.0
 11
137.4988984999999
 21
86.82680000000001
 31
0.0
  0
LINE
  5
3A1
330
1E
100
AcDbEntity
  8
0
100
AcDbLine
 10
137.6917985
 20
86.597
 30
0.0
 11
137.4988984999999
 21
86.82680000000001
 31
0.0
  0
LINE
  5
3A2
330
1E
100
AcDbEntity
  8
0
100
AcDbLine
 10
140.1668985
 20
92.9817
 30
0.0
 11
138.5114985
 21
90.28730000000001
 31
0.0
  0
LINE
  5
3A3
330
1E
100
AcDbEntity
  8
0
100
AcDbLine
 10
140.2443782984366
 20
93.0722988800052
 30
0.0
 11
140.1668985
 21
92.9817
 31
0.0
  0
LINE
  5
3A4
330
1E
100
AcDbEntity
  8
0
100
AcDbLine
 10
135.3240985
 20
86.30729999999999
 30
0.0
 11
135.2007984999999
 21
84.8985
 31
0.0
  0
LINE
  5
3A5
330
1E
100
AcDbEntity
  8
0
100
AcDbLine
 10
135.2007984999999
 20
84.8985
 30
0.0
 11
130.9742984999999
 21
85.26819999999998
 31
0.0
  0
LINE
  5
3A6
330
1E
100
AcDbEntity
  8
0
100
AcDbLine
 10
135.3935984999999
 20
84.6687
 30
0.0
 11
135.2007984999999
 21
84.8985
 31
0.0
  0
LINE
  5
3A7
330
1E
100
AcDbEntity
  8
0
100
AcDbLine
 10
135.9721984999999
 20
83.9792
 30
0.0
 11
135.3935984999999
 21
84.6687
 31
0.0
  0
LINE
  5
3A8
330
1E
100
AcDbEntity
  8
0
100
AcDbLine
 10
136.8720984999999
 20
82.9068
 30
0.0
 11
135.9721984999999
 21
83.9792
 31
0.0
  0
LINE
  5
3A9
330
1E
100
AcDbEntity
  8
0
100
AcDbLine
 10
136.0900985
 20
86.95010000000001
 30
0.0
 11
135.3240985
 21
86.30729999999999
 31
0.0
  0
LINE
  5
3AA
330
1E
100
AcDbEntity
  8
0
100
AcDbLine
 10
125.5370985
 20
83.96939999999998
 30
0.0
 11
119.3338985
 21
82.0278
 31
0.0
  0
LINE
  5
3AB
330
1E
100
AcDbEntity
  8
0
100
AcDbLine
 10
104.0001984999999
 20
74.5
 30
0.0
 11
100.5001985
 21
77.0
 31
0.0
  0
LINE
  5
3AC
330
1E
100
AcDbEntity
  8
0
100
AcDbLine
 10
113.0689984999999
 20
79.3818
 30
0.0
 11
107.8299985
 21
76.2911
 31
0.0
  0
LINE
  5
3AD
330
1E
100
AcDbEntity
  8
0
100
AcDbLine
 10
107.1871985
 20
77.0571
 30
0.0
 11
105.7783984999999
 21
77.18040000000001
 31
0.0
  0
LINE
  5
3AE
330
1E
100
AcDbEntity
  8
0
100
AcDbLine
 10
107.7013985
 20
76.44429999999999
 30
0.0
 11
107.1871985
 21
77.0571
 31
0.0
  0
LINE
  5
3AF
330
1E
100
AcDbEntity
  8
0
100
AcDbLine
 10
104.6292985
 20
76.2162
 30
0.0
 11
104.5059984999999
 21
74.8074
 31
0.0
  0
LINE
  5
3B0
330
1E
100
AcDbEntity
  8
0
100
AcDbLine
 10
104.5059984999999
 20
74.8074
 30
0.0
 11
104.0001984999999
 21
74.5
 31
0.0
  0
LINE
  5
3B1
330
1E
100
AcDbEntity
  8
0
100
AcDbLine
 10
105.0202984999999
 20
74.19450000000001
 30
0.0
 11
104.5059984999999
 21
74.8074
 31
0.0
  0
LINE
  5
3B2
330
1E
100
AcDbEntity
  8
0
100
AcDbLine
 10
105.7783984999999
 20
77.18040000000001
 30
0.0
 11
104.6292985
 21
76.2162
 31
0.0
  0
LINE
  5
3B3
330
1E
100
AcDbEntity
  8
0
100
AcDbLine
 10
144.8598984999999
 20
106.057
 30
0.0
 11
143.0846985
 21
108.484
 31
0.0
  0
LINE
  5
3B4
330
1E
100
AcDbEntity
  8
0
100
AcDbLine
 10
160.1606985
 20
98.40150000000001
 30
0.0
 11
156.6579984999999
 21
100.553
 31
0.0
  0
LINE
  5
3B5
330
1E
100
AcDbEntity
  8
0
100
AcDbLine
 10
162.4350985
 20
96.0021
 30
0.0
 11
160.1606985
 21
98.40150000000001
 31
0.0
  0
LINE
  5
3B6
330
1E
100
AcDbEntity
  8
0
100
AcDbLine
 10
150.7681984999999
 20
100.5719999999999
 30
0.0
 11
147.8272984999999
 21
99.4096
 31
0.0
  0
LINE
  5
3B7
330
1E
100
AcDbEntity
  8
0
100
AcDbLine
 10
152.3637985
 20
94.46989999999999
 30
0.0
 11
150.4433985
 21
94.425
 31
0.0
  0
LINE
  5
3B8
330
1E
100
AcDbEntity
  8
0
100
AcDbLine
 10
150.8297985
 20
101.276
 30
0.0
 11
150.7681984999999
 21
100.5719999999999
 31
0.0
  0
LINE
  5
3B9
330
1E
100
AcDbEntity
  8
0
100
AcDbLine
 10
153.2644985
 20
100.7079999999999
 30
0.0
 11
152.5573985
 21
101.551
 31
0.0
  0
LINE
  5
3BA
330
1E
100
AcDbEntity
  8
0
100
AcDbLine
 10
156.6579984999999
 20
100.553
 30
0.0
 11
152.3002984999999
 21
101.857
 31
0.0
  0
LINE
  5
3BB
330
1E
100
AcDbEntity
  8
0
100
AcDbLine
 10
154.3571984999999
 20
99.40609999999999
 30
0.0
 11
153.2644985
 21
100.7079999999999
 31
0.0
  0
LINE
  5
3BC
330
1E
100
AcDbEntity
  8
0
100
AcDbLine
 10
154.3034985
 20
96.3587
 30
0.0
 11
152.8250984999999
 21
98.1206
 31
0.0
  0
LINE
  5
3BD
330
1E
100
AcDbEntity
  8
0
100
AcDbLine
 10
154.2471984999999
 20
94.09220000000001
 30
0.0
 11
152.3637985
 21
94.46989999999999
 31
0.0
  0
LINE
  5
3BE
330
1E
100
AcDbEntity
  8
0
100
AcDbLine
 10
157.5711985
 20
95.57590000000001
 30
0.0
 11
155.8355985
 21
97.64420000000001
 31
0.0
  0
LINE
  5
3BF
330
1E
100
AcDbEntity
  8
0
100
AcDbLine
 10
156.0390984999999
 20
94.2903
 30
0.0
 11
154.3034985
 21
96.3587
 31
0.0
  0
LINE
  5
3C0
330
1E
100
AcDbEntity
  8
0
100
AcDbLine
 10
155.8355985
 20
97.64420000000001
 30
0.0
 11
154.3571984999999
 21
99.40609999999999
 31
0.0
  0
LINE
  5
3C1
330
1E
100
AcDbEntity
  8
0
100
AcDbLine
 10
152.8250984999999
 20
98.1206
 30
0.0
 11
151.7323984999999
 21
99.4228
 31
0.0
  0
LINE
  5
3C2
330
1E
100
AcDbEntity
  8
0
100
AcDbLine
 10
151.0252984999999
 20
100.265
 30
0.0
 11
150.7681984999999
 21
100.5719999999999
 31
0.0
  0
LINE
  5
3C3
330
1E
100
AcDbEntity
  8
0
100
AcDbLine
 10
151.7323984999999
 20
99.4228
 30
0.0
 11
151.0252984999999
 21
100.265
 31
0.0
  0
LINE
  5
3C4
330
1E
100
AcDbEntity
  8
0
100
AcDbLine
 10
152.5573985
 20
101.551
 30
0.0
 11
152.3002984999999
 21
101.857
 31
0.0
  0
LINE
  5
3C5
330
1E
100
AcDbEntity
  8
0
100
AcDbLine
 10
151.5958985
 20
101.919
 30
0.0
 11
150.8297985
 21
101.276
 31
0.0
  0
LINE
  5
3C6
330
1E
100
AcDbEntity
  8
0
100
AcDbLine
 10
152.3002984999999
 20
101.857
 30
0.0
 11
151.5958985
 21
101.919
 31
0.0
  0
LINE
  5
3C7
330
1E
100
AcDbEntity
  8
0
100
AcDbLine
 10
147.724545786794
 20
99.3489800179468
 30
0.0
 11
146.6649984999999
 21
102.3499999999999
 31
0.0
  0
LINE
  5
3C8
330
1E
100
AcDbEntity
  8
0
100
AcDbLine
 10
150.4433985
 20
94.425
 30
0.0
 11
148.6144984999999
 21
93.80419999999999
 31
0.0
  0
LINE
  5
3C9
330
1E
100
AcDbEntity
  8
0
100
AcDbLine
 10
147.8272984999999
 20
99.4096
 30
0.0
 11
147.724545786794
 21
99.3489800179468
 31
0.0
  0
LINE
  5
3CA
330
1E
100
AcDbEntity
  8
0
100
AcDbLine
 10
146.6649984999999
 20
102.3499999999999
 30
0.0
 11
144.8598984999999
 21
106.057
 31
0.0
  0
LINE
  5
3CB
330
1E
100
AcDbEntity
  8
0
100
AcDbLine
 10
130.8066984999999
 20
115.805
 30
0.0
 11
128.5701985
 21
114.5809999999999
 31
0.0
  0
LINE
  5
3CC
330
1E
100
AcDbEntity
  8
0
100
AcDbLine
 10
132.0536984999999
 20
99.228
 30
0.0
 11
129.2526985
 21
102.0989999999999
 31
0.0
  0
LINE
  5
3CD
330
1E
100
AcDbEntity
  8
0
100
AcDbLine
 10
137.4723984999999
 20
94.63700000000001
 30
0.0
 11
134.1351984999999
 21
97.05840000000002
 31
0.0
  0
LINE
  5
3CE
330
1E
100
AcDbEntity
  8
0
100
AcDbLine
 10
134.1351984999999
 20
97.05840000000002
 30
0.0
 11
132.0536984999999
 21
99.228
 31
0.0
  0
LINE
  5
3CF
330
1E
100
AcDbEntity
  8
0
100
AcDbLine
 10
138.1105985
 20
114.101
 30
0.0
 11
135.7375985
 21
115.3729999999999
 31
0.0
  0
LINE
  5
3D0
330
1E
100
AcDbEntity
  8
0
100
AcDbLine
 10
140.7433985
 20
111.741
 30
0.0
 11
138.1105985
 21
114.101
 31
0.0
  0
LINE
  5
3D1
330
1E
100
AcDbEntity
  8
0
100
AcDbLine
 10
143.0846985
 20
108.484
 30
0.0
 11
140.7433985
 21
111.741
 31
0.0
  0
LINE
  5
3D2
330
1E
100
AcDbEntity
  8
0
100
AcDbLine
 10
135.7375985
 20
115.3729999999999
 30
0.0
 11
133.3028985
 21
115.941
 31
0.0
  0
LINE
  5
3D3
330
1E
100
AcDbEntity
  8
0
100
AcDbLine
 10
133.3028985
 20
115.941
 30
0.0
 11
130.8066984999999
 21
115.805
 31
0.0
  0
LINE
  5
3D4
330
1E
100
AcDbEntity
  8
0
100
AcDbLine
 10
126.5450984999999
 20
107.66
 30
0.0
 11
126.4084984999999
 21
110.156
 31
0.0
  0
LINE
  5
3D5
330
1E
100
AcDbEntity
  8
0
100
AcDbLine
 10
129.2526985
 20
102.0989999999999
 30
0.0
 11
127.3859985
 21
105.102
 31
0.0
  0
LINE
  5
3D6
330
1E
100
AcDbEntity
  8
0
100
AcDbLine
 10
127.3859985
 20
105.102
 30
0.0
 11
126.5450984999999
 21
107.66
 31
0.0
  0
LINE
  5
3D7
330
1E
100
AcDbEntity
  8
0
100
AcDbLine
 10
126.9764984999999
 20
112.591
 30
0.0
 11
126.4084984999999
 21
110.156
 31
0.0
  0
LINE
  5
3D8
330
1E
100
AcDbEntity
  8
0
100
AcDbLine
 10
128.5701985
 20
114.5809999999999
 30
0.0
 11
126.9764984999999
 21
112.591
 31
0.0
  0
ENDSEC
  0
SECTION
  2
OBJECTS
  0
DICTIONARY
  5
C
330
0
100
AcDbDictionary
281
     1
  3
ACAD_GROUP
350
D
  3
ACAD_LAYOUT
350
19
  3
ACAD_MLINESTYLE
350
16
  3
ACAD_PLOTSETTINGS
350
18
  3
ACAD_PLOTSTYLENAME
350
E
  3
AcDbVariableDictionary
350
3D9
  0
DICTIONARY
  5
D
102
{ACAD_REACTORS
330
C
102
}
330
C
100
AcDbDictionary
281
     1
  0
DICTIONARY
  5
19
102
{ACAD_REACTORS
330
C
102
}
330
C
100
AcDbDictionary
281
     1
  3
Layout1
350
1D
  3
Model
350
21
  0
DICTIONARY
  5
16
102
{ACAD_REACTORS
330
C
102
}
330
C
100
AcDbDictionary
281
     1
  3
Standard
350
17
  0
DICTIONARY
  5
18
102
{ACAD_REACTORS
330
C
102
}
330
C
100
AcDbDictionary
281
     1
  0
ACDBDICTIONARYWDFLT
  5
E
102
{ACAD_REACTORS
330
C
102
}
330
C
100
AcDbDictionary
281
     1
  3
Normal
350
F
100
AcDbDictionaryWithDefault
340
F
  0
DICTIONARY
  5
3D9
102
{ACAD_REACTORS
330
C
102
}
330
C
100
AcDbDictionary
281
     1
  3
DIMASSOC
350
3DA
  0
LAYOUT
  5
1D
102
{ACAD_REACTORS
330
19
102
}
330
19
100
AcDbPlotSettings
  1

  2
hp deskjet 980c series
  4

  6

 40
0.0
 41
0.0
 42
0.0
 43
0.0
 44
0.0
 45
0.0
 46
0.0
 47
0.0
 48
0.0
 49
0.0
140
0.0
141
0.0
142
1.0
143
1.0
 70
   688
 72
     0
 73
     0
 74
     5
  7

 75
    16
147
1.0
148
0.0
149
0.0
100
AcDbLayout
  1
Layout1
 70
     1
 71
     1
 10
0.0
 20
0.0
 11
12.0
 21
9.0
 12
0.0
 22
0.0
 32
0.0
 14
1.000000000000000E+20
 24
1.000000000000000E+20
 34
1.000000000000000E+20
 15
-1.000000000000000E+20
 25
-1.000000000000000E+20
 35
-1.000000000000000E+20
146
0.0
 13
0.0
 23
0.0
 33
0.0
 16
1.0
 26
0.0
 36
0.0
 17
0.0
 27
1.0
 37
0.0
 76
     0
330
1A
  0
LAYOUT
  5
21
102
{ACAD_REACTORS
330
19
102
}
330
19
100
AcDbPlotSettings
  1

  2
hp deskjet 980c series
  4

  6

 40
0.0
 41
0.0
 42
0.0
 43
0.0
 44
0.0
 45
0.0
 46
0.0
 47
0.0
 48
0.0
 49
0.0
140
0.0
141
0.0
142
1.0
143
1.0
 70
  1712
 72
     0
 73
     0
 74
     0
  7

 75
     0
147
1.0
148
0.0
149
0.0
100
AcDbLayout
  1
Model
 70
     1
 71
     0
 10
0.0
 20
0.0
 11
12.0
 21
9.0
 12
0.0
 22
0.0
 32
0.0
 14
0.0
 24
0.0
 34
0.0
 15
0.0
 25
0.0
 35
0.0
146
0.0
 13
0.0
 23
0.0
 33
0.0
 16
1.0
 26
0.0
 36
0.0
 17
0.0
 27
1.0
 37
0.0
 76
     0
330
1E
  0
MLINESTYLE
  5
17
102
{ACAD_REACTORS
330
16
102
}
330
16
100
AcDbMlineStyle
  2
STANDARD
 70
     0
  3

 62
   256
 51
90.0
 52
90.0
 71
     2
 49
0.5
 62
   256
  6
BYLAYER
 49
-0.5
 62
   256
  6
BYLAYER
  0
ACDBPLACEHOLDER
  5
F
102
{ACAD_REACTORS
330
E
102
}
330
E
  0
DICTIONARYVAR
  5
3DA
102
{ACAD_REACTORS
330
3D9
102
}
330
3D9
100
DictionaryVariables
280
     0
  1
1
  0
ENDSEC
  0
EOF
