  0
SECTION
  2
HEADER
  9
$ACADVER
  1
AC1015
  9
$ACADMAINTVER
 70
    13
  9
$DWGCODEPAGE
  3
ANSI_1252
  9
$INSBASE
 10
0.0
 20
0.0
 30
0.0
  9
$EXTMIN
 10
0.176000000000001
 20
-0.000000000000007
 30
0.0
  9
$EXTMAX
 10
166.578769071887
 20
156.0
 30
0.0
  9
$LIMMIN
 10
0.0
 20
0.0
  9
$LIMMAX
 10
12.0
 20
9.0
  9
$ORTHOMODE
 70
     0
  9
$REGENMODE
 70
     1
  9
$FILLMODE
 70
     1
  9
$QTEXTMODE
 70
     0
  9
$MIRRTEXT
 70
     1
  9
$LTSCALE
 40
1.0
  9
$ATTMODE
 70
     1
  9
$TEXTSIZE
 40
0.2
  9
$TRACEWID
 40
0.05
  9
$TEXTSTYLE
  7
Standard
  9
$CLAYER
  8
0
  9
$CELTYPE
  6
Continuous
  9
$CECOLOR
 62
   256
  9
$CELTSCALE
 40
1.0
  9
$DISPSILH
 70
     0
  9
$DIMSCALE
 40
1.0
  9
$DIMASZ
 40
0.18
  9
$DIMEXO
 40
0.0625
  9
$DIMDLI
 40
0.38
  9
$DIMRND
 40
0.0
  9
$DIMDLE
 40
0.0
  9
$DIMEXE
 40
0.18
  9
$DIMTP
 40
0.0
  9
$DIMTM
 40
0.0
  9
$DIMTXT
 40
0.18
  9
$DIMCEN
 40
0.09
  9
$DIMTSZ
 40
0.0
  9
$DIMTOL
 70
     0
  9
$DIMLIM
 70
     0
  9
$DIMTIH
 70
     1
  9
$DIMTOH
 70
     1
  9
$DIMSE1
 70
     0
  9
$DIMSE2
 70
     0
  9
$DIMTAD
 70
     0
  9
$DIMZIN
 70
     0
  9
$DIMBLK
  1

  9
$DIMASO
 70
     1
  9
$DIMSHO
 70
     1
  9
$DIMPOST
  1

  9
$DIMAPOST
  1

  9
$DIMALT
 70
     0
  9
$DIMALTD
 70
     2
  9
$DIMALTF
 40
25.4
  9
$DIMLFAC
 40
1.0
  9
$DIMTOFL
 70
     0
  9
$DIMTVP
 40
0.0
  9
$DIMTIX
 70
     0
  9
$DIMSOXD
 70
     0
  9
$DIMSAH
 70
     0
  9
$DIMBLK1
  1

  9
$DIMBLK2
  1

  9
$DIMSTYLE
  2
Standard
  9
$DIMCLRD
 70
     0
  9
$DIMCLRE
 70
     0
  9
$DIMCLRT
 70
     0
  9
$DIMTFAC
 40
1.0
  9
$DIMGAP
 40
0.09
  9
$DIMJUST
 70
     0
  9
$DIMSD1
 70
     0
  9
$DIMSD2
 70
     0
  9
$DIMTOLJ
 70
     1
  9
$DIMTZIN
 70
     0
  9
$DIMALTZ
 70
     0
  9
$DIMALTTZ
 70
     0
  9
$DIMUPT
 70
     0
  9
$DIMDEC
 70
     4
  9
$DIMTDEC
 70
     4
  9
$DIMALTU
 70
     2
  9
$DIMALTTD
 70
     2
  9
$DIMTXSTY
  7
Standard
  9
$DIMAUNIT
 70
     0
  9
$DIMADEC
 70
     0
  9
$DIMALTRND
 40
0.0
  9
$DIMAZIN
 70
     0
  9
$DIMDSEP
 70
    46
  9
$DIMATFIT
 70
     3
  9
$DIMFRAC
 70
     0
  9
$DIMLDRBLK
  1

  9
$DIMLUNIT
 70
     2
  9
$DIMLWD
 70
    -2
  9
$DIMLWE
 70
    -2
  9
$DIMTMOVE
 70
     0
  9
$LUNITS
 70
     2
  9
$LUPREC
 70
     4
  9
$SKETCHINC
 40
0.1
  9
$FILLETRAD
 40
0.0
  9
$AUNITS
 70
     0
  9
$AUPREC
 70
     0
  9
$MENU
  1
.
  9
$ELEVATION
 40
0.0
  9
$PELEVATION
 40
0.0
  9
$THICKNESS
 40
0.0
  9
$LIMCHECK
 70
     0
  9
$CHAMFERA
 40
0.0
  9
$CHAMFERB
 40
0.0
  9
$CHAMFERC
 40
0.0
  9
$CHAMFERD
 40
0.0
  9
$SKPOLY
 70
     0
  9
$TDCREATE
 40
2454752.591644235
  9
$TDUCREATE
 40
2454752.508310903
  9
$TDUPDATE
 40
2454752.593104201
  9
$TDUUPDATE
 40
2454752.509770868
  9
$TDINDWG
 40
0.0014599653
  9
$TDUSRTIMER
 40
0.0014599653
  9
$USRTIMER
 70
     1
  9
$ANGBASE
 50
0.0
  9
$ANGDIR
 70
     0
  9
$PDMODE
 70
     0
  9
$PDSIZE
 40
0.0
  9
$PLINEWID
 40
0.0
  9
$SPLFRAME
 70
     0
  9
$SPLINETYPE
 70
     6
  9
$SPLINESEGS
 70
     8
  9
$HANDSEED
  5
18F
  9
$SURFTAB1
 70
     6
  9
$SURFTAB2
 70
     6
  9
$SURFTYPE
 70
     6
  9
$SURFU
 70
     6
  9
$SURFV
 70
     6
  9
$UCSBASE
  2

  9
$UCSNAME
  2

  9
$UCSORG
 10
0.0
 20
0.0
 30
0.0
  9
$UCSXDIR
 10
1.0
 20
0.0
 30
0.0
  9
$UCSYDIR
 10
0.0
 20
1.0
 30
0.0
  9
$UCSORTHOREF
  2

  9
$UCSORTHOVIEW
 70
     1
  9
$UCSORGTOP
 10
0.0
 20
0.0
 30
0.0
  9
$UCSORGBOTTOM
 10
0.0
 20
0.0
 30
0.0
  9
$UCSORGLEFT
 10
0.0
 20
0.0
 30
0.0
  9
$UCSORGRIGHT
 10
0.0
 20
0.0
 30
0.0
  9
$UCSORGFRONT
 10
0.0
 20
0.0
 30
0.0
  9
$UCSORGBACK
 10
0.0
 20
0.0
 30
0.0
  9
$PUCSBASE
  2

  9
$PUCSNAME
  2

  9
$PUCSORG
 10
0.0
 20
0.0
 30
0.0
  9
$PUCSXDIR
 10
1.0
 20
0.0
 30
0.0
  9
$PUCSYDIR
 10
0.0
 20
1.0
 30
0.0
  9
$PUCSORTHOREF
  2

  9
$PUCSORTHOVIEW
 70
     0
  9
$PUCSORGTOP
 10
0.0
 20
0.0
 30
0.0
  9
$PUCSORGBOTTOM
 10
0.0
 20
0.0
 30
0.0
  9
$PUCSORGLEFT
 10
0.0
 20
0.0
 30
0.0
  9
$PUCSORGRIGHT
 10
0.0
 20
0.0
 30
0.0
  9
$PUCSORGFRONT
 10
0.0
 20
0.0
 30
0.0
  9
$PUCSORGBACK
 10
0.0
 20
0.0
 30
0.0
  9
$USERI1
 70
     0
  9
$USERI2
 70
     0
  9
$USERI3
 70
     0
  9
$USERI4
 70
     0
  9
$USERI5
 70
     0
  9
$USERR1
 40
0.0
  9
$USERR2
 40
0.0
  9
$USERR3
 40
0.0
  9
$USERR4
 40
0.0
  9
$USERR5
 40
0.0
  9
$WORLDVIEW
 70
     1
  9
$SHADEDGE
 70
     3
  9
$SHADEDIF
 70
    70
  9
$TILEMODE
 70
     1
  9
$MAXACTVP
 70
    64
  9
$PINSBASE
 10
0.0
 20
0.0
 30
0.0
  9
$PLIMCHECK
 70
     0
  9
$PEXTMIN
 10
1.000000000000000E+20
 20
1.000000000000000E+20
 30
1.000000000000000E+20
  9
$PEXTMAX
 10
-1.000000000000000E+20
 20
-1.000000000000000E+20
 30
-1.000000000000000E+20
  9
$PLIMMIN
 10
0.0
 20
0.0
  9
$PLIMMAX
 10
12.0
 20
9.0
  9
$UNITMODE
 70
     0
  9
$VISRETAIN
 70
     1
  9
$PLINEGEN
 70
     0
  9
$PSLTSCALE
 70
     1
  9
$TREEDEPTH
 70
  3020
  9
$CMLSTYLE
  2
Standard
  9
$CMLJUST
 70
     0
  9
$CMLSCALE
 40
1.0
  9
$PROXYGRAPHICS
 70
     1
  9
$MEASUREMENT
 70
     0
  9
$CELWEIGHT
370
    -1
  9
$ENDCAPS
280
     0
  9
$JOINSTYLE
280
     0
  9
$LWDISPLAY
290
     0
  9
$INSUNITS
 70
     0
  9
$HYPERLINKBASE
  1

  9
$STYLESHEET
  1

  9
$XEDIT
290
     1
  9
$CEPSNTYPE
380
     0
  9
$PSTYLEMODE
290
     1
  9
$FINGERPRINTGUID
  2
{786BCA7E-0082-4252-830C-6A571EF52293}
  9
$VERSIONGUID
  2
{1EDC5B6A-50C1-4A2F-992F-E5B7962B9703}
  9
$EXTNAMES
290
     1
  9
$PSVPSCALE
 40
0.0
  9
$OLESTARTUP
290
     0
  0
ENDSEC
  0
SECTION
  2
CLASSES
  0
CLASS
  1
ACDBDICTIONARYWDFLT
  2
AcDbDictionaryWithDefault
  3
AutoCAD 2000
 90
        0
280
     0
281
     0
  0
CLASS
  1
ACDBPLACEHOLDER
  2
AcDbPlaceHolder
  3
AutoCAD 2000
 90
        0
280
     0
281
     0
  0
CLASS
  1
LAYOUT
  2
AcDbLayout
  3
AutoCAD 2000
 90
        0
280
     0
281
     0
  0
CLASS
  1
DICTIONARYVAR
  2
AcDbDictionaryVar
  3
AutoCAD 2000
 90
        0
280
     0
281
     0
  0
ENDSEC
  0
SECTION
  2
TABLES
  0
TABLE
  2
VPORT
  5
8
330
0
100
AcDbSymbolTable
 70
     2
  0
VPORT
  5
18E
330
8
100
AcDbSymbolTableRecord
100
AcDbViewportTableRecord
  2
*Active
 70
     0
 10
0.0
 20
0.0
 11
1.0
 21
1.0
 12
83.37738453594351
 22
78.0
 13
0.0
 23
0.0
 14
1.0
 24
1.0
 15
0.0
 25
0.0
 16
0.0
 26
0.0
 36
1.0
 17
0.0
 27
0.0
 37
0.0
 40
157.1969309462915
 41
2.078104993597951
 42
50.0
 43
0.0
 44
0.0
 50
0.0
 51
0.0
 71
     0
 72
   100
 73
     1
 74
     3
 75
     0
 76
     0
 77
     0
 78
     0
281
     0
 65
     1
110
0.0
120
0.0
130
0.0
111
1.0
121
0.0
131
0.0
112
0.0
122
1.0
132
0.0
 79
     1
146
0.0
  0
ENDTAB
  0
TABLE
  2
LTYPE
  5
5
330
0
100
AcDbSymbolTable
 70
     1
  0
LTYPE
  5
13
330
5
100
AcDbSymbolTableRecord
100
AcDbLinetypeTableRecord
  2
ByBlock
 70
     0
  3

 72
    65
 73
     0
 40
0.0
  0
LTYPE
  5
14
330
5
100
AcDbSymbolTableRecord
100
AcDbLinetypeTableRecord
  2
ByLayer
 70
     0
  3

 72
    65
 73
     0
 40
0.0
  0
LTYPE
  5
15
330
5
100
AcDbSymbolTableRecord
100
AcDbLinetypeTableRecord
  2
Continuous
 70
     0
  3
Solid line
 72
    65
 73
     0
 40
0.0
  0
ENDTAB
  0
TABLE
  2
LAYER
  5
2
330
0
100
AcDbSymbolTable
 70
     1
  0
LAYER
  5
10
330
2
100
AcDbSymbolTableRecord
100
AcDbLayerTableRecord
  2
0
 70
     0
 62
     7
  6
Continuous
370
    -3
390
F
  0
ENDTAB
  0
TABLE
  2
STYLE
  5
3
330
0
100
AcDbSymbolTable
 70
     1
  0
STYLE
  5
11
330
3
100
AcDbSymbolTableRecord
100
AcDbTextStyleTableRecord
  2
Standard
 70
     0
 40
0.0
 41
1.0
 50
0.0
 71
     0
 42
0.2
  3
txt
  4

  0
ENDTAB
  0
TABLE
  2
VIEW
  5
6
330
0
100
AcDbSymbolTable
 70
     0
  0
ENDTAB
  0
TABLE
  2
UCS
  5
7
330
0
100
AcDbSymbolTable
 70
     0
  0
ENDTAB
  0
TABLE
  2
APPID
  5
9
330
0
100
AcDbSymbolTable
 70
     1
  0
APPID
  5
12
330
9
100
AcDbSymbolTableRecord
100
AcDbRegAppTableRecord
  2
ACAD
 70
     0
  0
ENDTAB
  0
TABLE
  2
DIMSTYLE
  5
A
330
0
100
AcDbSymbolTable
 70
     1
100
AcDbDimStyleTable
 71
     0
  0
DIMSTYLE
105
188
330
A
100
AcDbSymbolTableRecord
100
AcDbDimStyleTableRecord
  2
Standard
 70
     0
340
11
  0
ENDTAB
  0
TABLE
  2
BLOCK_RECORD
  5
1
330
0
100
AcDbSymbolTable
 70
     0
  0
BLOCK_RECORD
  5
1E
330
1
100
AcDbSymbolTableRecord
100
AcDbBlockTableRecord
  2
*Model_Space
340
21
  0
BLOCK_RECORD
  5
1A
330
1
100
AcDbSymbolTableRecord
100
AcDbBlockTableRecord
  2
*Paper_Space
340
1D
  0
ENDTAB
  0
ENDSEC
  0
SECTION
  2
BLOCKS
  0
BLOCK
  5
1F
330
1E
100
AcDbEntity
  8
0
100
AcDbBlockBegin
  2
*Model_Space
 70
     0
 10
0.0
 20
0.0
 30
0.0
  3
*Model_Space
  1

  0
ENDBLK
  5
20
330
1E
100
AcDbEntity
  8
0
100
AcDbBlockEnd
  0
BLOCK
  5
1B
330
1A
100
AcDbEntity
 67
     1
  8
0
100
AcDbBlockBegin
  2
*Paper_Space
 70
     0
 10
0.0
 20
0.0
 30
0.0
  3
*Paper_Space
  1

  0
ENDBLK
  5
1C
330
1A
100
AcDbEntity
 67
     1
  8
0
100
AcDbBlockEnd
  0
ENDSEC
  0
SECTION
  2
ENTITIES
  0
LINE
  5
22
330
1E
100
AcDbEntity
  8
0
100
AcDbLine
 10
19.2063
 20
65.05580000000001
 30
0.0
 11
20.1702
 21
64.3417
 31
0.0
  0
LINE
  5
23
330
1E
100
AcDbEntity
  8
0
100
AcDbLine
 10
20.4915
 20
64.1037
 30
0.0
 11
22.9557268306362
 21
67.433642191959
 31
0.0
  0
LINE
  5
24
330
1E
100
AcDbEntity
  8
0
100
AcDbLine
 10
20.1702
 20
64.3417
 30
0.0
 11
20.4915
 21
64.1037
 31
0.0
  0
LINE
  5
25
330
1E
100
AcDbEntity
  8
0
100
AcDbLine
 10
17.6801
 20
66.1864
 30
0.0
 11
19.2063
 21
65.05580000000001
 31
0.0
  0
LINE
  5
26
330
1E
100
AcDbEntity
  8
0
100
AcDbLine
 10
24.1224
 20
66.5463
 30
0.0
 11
25.3702
 21
65.6074
 31
0.0
  0
LINE
  5
27
330
1E
100
AcDbEntity
  8
0
100
AcDbLine
 10
25.3702
 20
65.6074
 30
0.0
 11
25.88929999999999
 21
65.2329
 31
0.0
  0
LINE
  5
28
330
1E
100
AcDbEntity
  8
0
100
AcDbLine
 10
22.95367171794129
 20
67.4308650910903
 30
0.0
 11
24.1224
 21
66.5463
 31
0.0
  0
LINE
  5
29
330
1E
100
AcDbEntity
  8
0
100
AcDbLine
 10
25.88929999999999
 20
65.2329
 30
0.0
 11
28.7741
 21
65.57739999999999
 31
0.0
  0
LINE
  5
2A
330
1E
100
AcDbEntity
  8
0
100
AcDbLine
 10
28.7741
 20
65.57739999999999
 30
0.0
 11
31.9146
 21
67.6154
 31
0.0
  0
LINE
  5
2B
330
1E
100
AcDbEntity
  8
0
100
AcDbLine
 10
0.176000000000002
 20
87.1762
 30
0.0
 11
0.6950170000000022
 21
86.80159999999998
 31
0.0
  0
LINE
  5
2C
330
1E
100
AcDbEntity
  8
0
100
AcDbLine
 10
0.176000000000001
 20
87.1762
 30
0.0
 11
12.3955
 21
97.77830000000001
 31
0.0
  0
LINE
  5
2D
330
1E
100
AcDbEntity
  8
0
100
AcDbLine
 10
0.6201580000000022
 20
84.29479999999999
 30
0.0
 11
3.8084927361826
 21
81.891666060597
 31
0.0
  0
LINE
  5
2E
330
1E
100
AcDbEntity
  8
0
100
AcDbLine
 10
0.6201580000000022
 20
84.29479999999999
 30
0.0
 11
1.134176999999999
 21
84.0201
 31
0.0
  0
LINE
  5
2F
330
1E
100
AcDbEntity
  8
0
100
AcDbLine
 10
1.21343
 20
78.3849
 30
0.0
 11
3.8084927361826
 21
81.891666060597
 31
0.0
  0
LINE
  5
30
330
1E
100
AcDbEntity
  8
0
100
AcDbLine
 10
1.21343
 20
78.3849
 30
0.0
 11
3.8084927361826
 21
81.891666060597
 31
0.0
  0
LINE
  5
31
330
1E
100
AcDbEntity
  8
0
100
AcDbLine
 10
1.21343
 20
78.3849
 30
0.0
 11
1.53476
 21
78.1469
 31
0.0
  0
LINE
  5
32
330
1E
100
AcDbEntity
  8
0
100
AcDbLine
 10
1.53476
 20
78.1469
 30
0.0
 11
2.498629999999999
 21
77.4328
 31
0.0
  0
LINE
  5
33
330
1E
100
AcDbEntity
  8
0
100
AcDbLine
 10
2.498629999999999
 20
77.4328
 30
0.0
 11
4.024799999999999
 21
76.3023
 31
0.0
  0
LINE
  5
34
330
1E
100
AcDbEntity
  8
0
100
AcDbLine
 10
4.024799999999999
 20
76.3023
 30
0.0
 11
6.032999999999999
 21
74.8146
 31
0.0
  0
LINE
  5
35
330
1E
100
AcDbEntity
  8
0
100
AcDbLine
 10
6.032999999999999
 20
74.8146
 30
0.0
 11
8.362429999999999
 21
73.08889999999999
 31
0.0
  0
LINE
  5
36
330
1E
100
AcDbEntity
  8
0
100
AcDbLine
 10
8.362429999999999
 20
73.08889999999999
 30
0.0
 11
10.8525
 21
71.2443
 31
0.0
  0
LINE
  5
37
330
1E
100
AcDbEntity
  8
0
100
AcDbLine
 10
15.672
 20
67.67399999999999
 30
0.0
 11
17.6801
 21
66.1864
 31
0.0
  0
LINE
  5
38
330
1E
100
AcDbEntity
  8
0
100
AcDbLine
 10
13.34249999999999
 20
69.39960000000001
 30
0.0
 11
15.672
 21
67.67399999999999
 31
0.0
  0
LINE
  5
39
330
1E
100
AcDbEntity
  8
0
100
AcDbLine
 10
10.8525
 20
71.2443
 30
0.0
 11
13.34249999999999
 21
69.39960000000001
 31
0.0
  0
LINE
  5
3A
330
1E
100
AcDbEntity
  8
0
100
AcDbLine
 10
22.146
 20
68.04949999999999
 30
0.0
 11
24.1224
 21
66.5463
 31
0.0
  0
LINE
  5
3B
330
1E
100
AcDbEntity
  8
0
100
AcDbLine
 10
21.67815903717719
 20
68.3962511504226
 30
0.0
 11
24.1224
 21
66.5463
 31
0.0
  0
LINE
  5
3C
330
1E
100
AcDbEntity
  8
0
100
AcDbLine
 10
19.5457
 20
70.02209999999999
 30
0.0
 11
22.146
 21
68.04949999999999
 31
0.0
  0
LINE
  5
3D
330
1E
100
AcDbEntity
  8
0
100
AcDbLine
 10
21.67815903717719
 20
68.3962511504226
 30
0.0
 11
24.1224
 21
66.5463
 31
0.0
  0
LINE
  5
3E
330
1E
100
AcDbEntity
  8
0
100
AcDbLine
 10
16.4314
 20
72.2694
 30
0.0
 11
19.5457
 21
70.02209999999999
 31
0.0
  0
LINE
  5
3F
330
1E
100
AcDbEntity
  8
0
100
AcDbLine
 10
10.7867
 20
79.09600000000001
 30
0.0
 11
14.4251
 21
76.37430000000001
 31
0.0
  0
LINE
  5
40
330
1E
100
AcDbEntity
  8
0
100
AcDbLine
 10
14.4251
 20
76.37430000000001
 30
0.0
 11
18.0685
 21
73.5527
 31
0.0
  0
LINE
  5
41
330
1E
100
AcDbEntity
  8
0
100
AcDbLine
 10
18.0685
 20
73.5527
 30
0.0
 11
28.7741
 21
65.57739999999999
 31
0.0
  0
LINE
  5
42
330
1E
100
AcDbEntity
  8
0
100
AcDbLine
 10
13.2023
 20
74.8113
 30
0.0
 11
16.4314
 21
72.2694
 31
0.0
  0
LINE
  5
43
330
1E
100
AcDbEntity
  8
0
100
AcDbLine
 10
15.8214215389428
 20
72.74956606799459
 30
0.0
 11
16.4314
 21
72.2694
 31
0.0
  0
LINE
  5
44
330
1E
100
AcDbEntity
  8
0
100
AcDbLine
 10
9.978149999999999
 20
77.25329999999999
 30
0.0
 11
13.2023
 21
74.8113
 31
0.0
  0
LINE
  5
45
330
1E
100
AcDbEntity
  8
0
100
AcDbLine
 10
4.33843
 20
83.98009999999999
 30
0.0
 11
7.35298
 21
81.72780000000001
 31
0.0
  0
LINE
  5
46
330
1E
100
AcDbEntity
  8
0
100
AcDbLine
 10
7.35298
 20
81.72780000000001
 30
0.0
 11
10.7867
 21
79.09600000000001
 31
0.0
  0
LINE
  5
47
330
1E
100
AcDbEntity
  8
0
100
AcDbLine
 10
4.36331
 20
81.47820000000001
 30
0.0
 11
6.963599999999999
 21
79.5056
 31
0.0
  0
LINE
  5
48
330
1E
100
AcDbEntity
  8
0
100
AcDbLine
 10
6.963599999999999
 20
79.5056
 30
0.0
 11
8.595594899586469
 21
78.27760800533309
 31
0.0
  0
LINE
  5
49
330
1E
100
AcDbEntity
  8
0
100
AcDbLine
 10
6.963599999999999
 20
79.5056
 30
0.0
 11
9.978149999999999
 21
77.25329999999999
 31
0.0
  0
LINE
  5
4A
330
1E
100
AcDbEntity
  8
0
100
AcDbLine
 10
6.963599999999999
 20
79.5056
 30
0.0
 11
8.595594899586469
 21
78.27760800533309
 31
0.0
  0
LINE
  5
4B
330
1E
100
AcDbEntity
  8
0
100
AcDbLine
 10
2.282049999999999
 20
83.0762
 30
0.0
 11
4.36331
 21
81.47820000000001
 31
0.0
  0
LINE
  5
4C
330
1E
100
AcDbEntity
  8
0
100
AcDbLine
 10
2.047579999999999
 20
85.7679
 30
0.0
 11
4.33843
 21
83.98009999999999
 31
0.0
  0
LINE
  5
4D
330
1E
100
AcDbEntity
  8
0
100
AcDbLine
 10
0.6950170000000022
 20
86.80159999999998
 30
0.0
 11
2.047579999999999
 21
85.7679
 31
0.0
  0
LINE
  5
4E
330
1E
100
AcDbEntity
  8
0
100
AcDbLine
 10
1.134176999999999
 20
84.0201
 30
0.0
 11
2.282049999999999
 21
83.0762
 31
0.0
  0
LINE
  5
4F
330
1E
100
AcDbEntity
  8
0
100
AcDbLine
 10
0.6201580000000022
 20
84.29479999999999
 30
0.0
 11
3.8084927361826
 21
81.891666060597
 31
0.0
  0
LINE
  5
50
330
1E
100
AcDbEntity
  8
0
100
AcDbLine
 10
0.176000000000002
 20
87.1762
 30
0.0
 11
0.6201580000000022
 21
84.29479999999999
 31
0.0
  0
LINE
  5
51
330
1E
100
AcDbEntity
  8
0
100
AcDbLine
 10
0.176000000000002
 20
87.1762
 30
0.0
 11
12.3955
 21
97.77830000000001
 31
0.0
  0
LINE
  5
52
330
1E
100
AcDbEntity
  8
0
100
AcDbLine
 10
0.176000000000002
 20
87.1762
 30
0.0
 11
0.6950170000000022
 21
86.80159999999998
 31
0.0
  0
LINE
  5
53
330
1E
100
AcDbEntity
  8
0
100
AcDbLine
 10
0.176000000000002
 20
87.1762
 30
0.0
 11
0.6201580000000022
 21
84.29479999999999
 31
0.0
  0
LINE
  5
54
330
1E
100
AcDbEntity
  8
0
100
AcDbLine
 10
12.3955
 20
97.77830000000001
 30
0.0
 11
27.0724
 21
103.424
 31
0.0
  0
LINE
  5
55
330
1E
100
AcDbEntity
  8
0
100
AcDbLine
 10
27.0724
 20
103.424
 30
0.0
 11
40.9745
 21
105.5029999999999
 31
0.0
  0
LINE
  5
56
330
1E
100
AcDbEntity
  8
0
100
AcDbLine
 10
31.9146
 20
67.6154
 30
0.0
 11
38.0917
 21
69.1318
 31
0.0
  0
LINE
  5
57
330
1E
100
AcDbEntity
  8
0
100
AcDbLine
 10
40.9745
 20
105.5029999999999
 30
0.0
 11
60.3346
 21
104.569
 31
0.0
  0
LINE
  5
58
330
1E
100
AcDbEntity
  8
0
100
AcDbLine
 10
38.0917
 20
69.1318
 30
0.0
 11
42.77029999999999
 21
69.548
 31
0.0
  0
LINE
  5
59
330
1E
100
AcDbEntity
  8
0
100
AcDbLine
 10
60.3346
 20
104.569
 30
0.0
 11
77.95329999999999
 21
101.2709999999999
 31
0.0
  0
LINE
  5
5A
330
1E
100
AcDbEntity
  8
0
100
AcDbLine
 10
42.77029999999999
 20
69.548
 30
0.0
 11
55.9117
 21
68.90340000000001
 31
0.0
  0
LINE
  5
5B
330
1E
100
AcDbEntity
  8
0
100
AcDbLine
 10
55.9117
 20
68.90340000000001
 30
0.0
 11
64.9032
 21
66.0038
 31
0.0
  0
LINE
  5
5C
330
1E
100
AcDbEntity
  8
0
100
AcDbLine
 10
77.95329999999999
 20
101.2709999999999
 30
0.0
 11
94.0862
 21
95.09999999999999
 31
0.0
  0
LINE
  5
5D
330
1E
100
AcDbEntity
  8
0
100
AcDbLine
 10
64.9032
 20
66.0038
 30
0.0
 11
74.8967
 21
61.7
 31
0.0
  0
LINE
  5
5E
330
1E
100
AcDbEntity
  8
0
100
AcDbLine
 10
74.8967
 20
61.7
 30
0.0
 11
84.09159999999999
 21
53.2
 31
0.0
  0
LINE
  5
5F
330
1E
100
AcDbEntity
  8
0
100
AcDbLine
 10
91.3568
 20
120.046
 30
0.0
 11
91.4413
 21
120.2199999999999
 31
0.0
  0
LINE
  5
60
330
1E
100
AcDbEntity
  8
0
100
AcDbLine
 10
89.5573
 20
120.9189999999999
 30
0.0
 11
89.92270000000001
 21
120.526
 31
0.0
  0
LINE
  5
61
330
1E
100
AcDbEntity
  8
0
100
AcDbLine
 10
89.5573
 20
120.9189999999999
 30
0.0
 11
89.6418
 21
121.0929999999999
 31
0.0
  0
LINE
  5
62
330
1E
100
AcDbEntity
  8
0
100
AcDbLine
 10
89.8952
 20
121.615
 30
0.0
 11
90.3007
 21
122.451
 31
0.0
  0
LINE
  5
63
330
1E
100
AcDbEntity
  8
0
100
AcDbLine
 10
89.6418
 20
121.0929999999999
 30
0.0
 11
89.8352494942218
 21
121.491502904435
 31
0.0
  0
LINE
  5
64
330
1E
100
AcDbEntity
  8
0
100
AcDbLine
 10
89.6418
 20
121.0929999999999
 30
0.0
 11
89.8952
 21
121.615
 31
0.0
  0
LINE
  5
65
330
1E
100
AcDbEntity
  8
0
100
AcDbLine
 10
91.43269999999999
 20
124.7849999999999
 30
0.0
 11
92.0916
 21
126.1429999999999
 31
0.0
  0
LINE
  5
66
330
1E
100
AcDbEntity
  8
0
100
AcDbLine
 10
90.82449999999999
 20
123.531
 30
0.0
 11
91.43269999999999
 21
124.7849999999999
 31
0.0
  0
LINE
  5
67
330
1E
100
AcDbEntity
  8
0
100
AcDbLine
 10
90.3007
 20
122.451
 30
0.0
 11
90.82449999999999
 21
123.531
 31
0.0
  0
LINE
  5
68
330
1E
100
AcDbEntity
  8
0
100
AcDbLine
 10
91.6947
 20
120.742
 30
0.0
 11
92.1002
 21
121.5779999999999
 31
0.0
  0
LINE
  5
69
330
1E
100
AcDbEntity
  8
0
100
AcDbLine
 10
91.4413
 20
120.2199999999999
 30
0.0
 11
91.6947
 21
120.742
 31
0.0
  0
LINE
  5
6A
330
1E
100
AcDbEntity
  8
0
100
AcDbLine
 10
89.92270000000001
 20
120.526
 30
0.0
 11
90.8224
 21
120.09
 31
0.0
  0
LINE
  5
6B
330
1E
100
AcDbEntity
  8
0
100
AcDbLine
 10
90.8224
 20
120.09
 30
0.0
 11
91.3568
 21
120.046
 31
0.0
  0
LINE
  5
6C
330
1E
100
AcDbEntity
  8
0
100
AcDbLine
 10
84.09159999999999
 20
53.2
 30
0.0
 11
91.68750000000001
 21
42.29999999999999
 31
0.0
  0
LINE
  5
6D
330
1E
100
AcDbEntity
  8
0
100
AcDbLine
 10
91.68750000000001
 20
42.29999999999999
 30
0.0
 11
96.4849
 21
30.7
 31
0.0
  0
LINE
  5
6E
330
1E
100
AcDbEntity
  8
0
100
AcDbLine
 10
97.3844
 20
-0.0000000000000032
 30
0.0
 11
102.582
 21
-0.0000000000000036
 31
0.0
  0
LINE
  5
6F
330
1E
100
AcDbEntity
  8
0
100
AcDbLine
 10
94.18609999999999
 20
-0.0000000000000031
 30
0.0
 11
97.3844
 21
-0.0000000000000032
 31
0.0
  0
LINE
  5
70
330
1E
100
AcDbEntity
  8
0
100
AcDbLine
 10
94.0862
 20
2.0
 30
0.0
 11
95.5854
 21
5.0
 31
0.0
  0
LINE
  5
71
330
1E
100
AcDbEntity
  8
0
100
AcDbLine
 10
93.08669999999999
 20
-0.000000000000003
 30
0.0
 11
94.0862
 21
2.0
 31
0.0
  0
LINE
  5
72
330
1E
100
AcDbEntity
  8
0
100
AcDbLine
 10
94.0862
 20
95.09999999999999
 30
0.0
 11
97.5843
 21
94.0
 31
0.0
  0
LINE
  5
73
330
1E
100
AcDbEntity
  8
0
100
AcDbLine
 10
96.5848
 20
9.5
 30
0.0
 11
97.5843
 21
10.5
 31
0.0
  0
LINE
  5
74
330
1E
100
AcDbEntity
  8
0
100
AcDbLine
 10
96.5848
 20
9.5
 30
0.0
 11
96.5848
 21
8.0
 31
0.0
  0
LINE
  5
78
330
1E
100
AcDbEntity
  8
0
100
AcDbLine
 10
96.5848
 20
8.0
 30
0.0
 11
97.5843
 21
7.0
 31
0.0
  0
LINE
  5
79
330
1E
100
AcDbEntity
  8
0
100
AcDbLine
 10
96.5848
 20
8.0
 30
0.0
 11
96.5848
 21
9.5
 31
0.0
  0
LINE
  5
7B
330
1E
100
AcDbEntity
  8
0
100
AcDbLine
 10
97.5843
 20
7.0
 30
0.0
 11
98.5837
 21
7.0
 31
0.0
  0
LINE
  5
7F
330
1E
100
AcDbEntity
  8
0
100
AcDbLine
 10
98.5837
 20
10.5
 30
0.0
 11
101.282
 21
10.5
 31
0.0
  0
LINE
  5
80
330
1E
100
AcDbEntity
  8
0
100
AcDbLine
 10
98.5837
 20
7.0
 30
0.0
 11
101.282
 21
7.0
 31
0.0
  0
LINE
  5
81
330
1E
100
AcDbEntity
  8
0
100
AcDbLine
 10
97.5843
 20
10.5
 30
0.0
 11
98.5837
 21
10.5
 31
0.0
  0
LINE
  5
82
330
1E
100
AcDbEntity
  8
0
100
AcDbLine
 10
99.4833
 20
95.0
 30
0.0
 11
102.1819999999999
 21
95.0
 31
0.0
  0
LINE
  5
83
330
1E
100
AcDbEntity
  8
0
100
AcDbLine
 10
98.5837
 20
95.0
 30
0.0
 11
99.4833
 21
95.0
 31
0.0
  0
LINE
  5
84
330
1E
100
AcDbEntity
  8
0
100
AcDbLine
 10
97.5843
 20
94.0
 30
0.0
 11
98.5837
 21
95.0
 31
0.0
  0
LINE
  5
87
330
1E
100
AcDbEntity
  8
0
100
AcDbLine
 10
96.4849
 20
30.7
 30
0.0
 11
97.5843
 21
10.5
 31
0.0
  0
LINE
  5
88
330
1E
100
AcDbEntity
  8
0
100
AcDbLine
 10
95.5854
 20
5.0
 30
0.0
 11
97.5843
 21
7.0
 31
0.0
  0
LINE
  5
89
330
1E
100
AcDbEntity
  8
0
100
AcDbLine
 10
94.0862
 20
2.0
 30
0.0
 11
95.5854
 21
5.0
 31
0.0
  0
LINE
  5
8A
330
1E
100
AcDbEntity
  8
0
100
AcDbLine
 10
93.08669999999999
 20
-0.000000000000003
 30
0.0
 11
94.0862
 21
2.0
 31
0.0
  0
LINE
  5
8B
330
1E
100
AcDbEntity
  8
0
100
AcDbLine
 10
93.08669999999999
 20
-0.000000000000003
 30
0.0
 11
94.18609999999999
 21
-0.0000000000000031
 31
0.0
  0
LINE
  5
8D
330
1E
100
AcDbEntity
  8
0
100
AcDbLine
 10
101.282
 20
10.5
 30
0.0
 11
105.78
 21
10.5
 31
0.0
  0
LINE
  5
8F
330
1E
100
AcDbEntity
  8
0
100
AcDbLine
 10
101.076
 20
97.0
 30
0.0
 11
101.242666666667
 21
98.0
 31
0.0
  0
LINE
  5
90
330
1E
100
AcDbEntity
  8
0
100
AcDbLine
 10
101.076
 20
97.0
 30
0.0
 11
101.076
 21
95.0
 31
0.0
  0
LINE
  5
91
330
1E
100
AcDbEntity
  8
0
100
AcDbLine
 10
101.076
 20
95.0
 30
0.0
 11
101.076
 21
97.0
 31
0.0
  0
LINE
  5
92
330
1E
100
AcDbEntity
  8
0
100
AcDbLine
 10
102.1819999999999
 20
95.0
 30
0.0
 11
106.4789999999999
 21
95.0
 31
0.0
  0
LINE
  5
93
330
1E
100
AcDbEntity
  8
0
100
AcDbLine
 10
101.282
 20
7.0
 30
0.0
 11
105.78
 21
7.0
 31
0.0
  0
LINE
  5
94
330
1E
100
AcDbEntity
  8
0
100
AcDbLine
 10
102.582
 20
-0.0000000000000036
 30
0.0
 11
109.3779999999999
 21
-0.000000000000004
 31
0.0
  0
LINE
  5
96
330
1E
100
AcDbEntity
  8
0
100
AcDbLine
 10
105.78
 20
10.5
 30
0.0
 11
111.677
 21
10.5
 31
0.0
  0
LINE
  5
99
330
1E
100
AcDbEntity
  8
0
100
AcDbLine
 10
111.677
 20
10.5
 30
0.0
 11
118.3729999999999
 21
10.5
 31
0.0
  0
LINE
  5
9C
330
1E
100
AcDbEntity
  8
0
100
AcDbLine
 10
106.4789999999999
 20
95.0
 30
0.0
 11
112.176
 21
95.0
 31
0.0
  0
LINE
  5
9D
330
1E
100
AcDbEntity
  8
0
100
AcDbLine
 10
105.78
 20
7.0
 30
0.0
 11
111.677
 21
7.0
 31
0.0
  0
LINE
  5
9E
330
1E
100
AcDbEntity
  8
0
100
AcDbLine
 10
112.176
 20
95.0
 30
0.0
 11
118.6729999999999
 21
95.0
 31
0.0
  0
LINE
  5
A0
330
1E
100
AcDbEntity
  8
0
100
AcDbLine
 10
111.677
 20
7.0
 30
0.0
 11
118.3729999999999
 21
7.0
 31
0.0
  0
LINE
  5
A1
330
1E
100
AcDbEntity
  8
0
100
AcDbLine
 10
109.3779999999999
 20
-0.000000000000004
 30
0.0
 11
117.174
 21
-0.0000000000000045
 31
0.0
  0
LINE
  5
A2
330
1E
100
AcDbEntity
  8
0
100
AcDbLine
 10
125.5689999999999
 20
-0.000000000000005
 30
0.0
 11
133.9639999999999
 21
-0.0000000000000055
 31
0.0
  0
LINE
  5
A7
330
1E
100
AcDbEntity
  8
0
100
AcDbLine
 10
118.3729999999999
 20
7.0
 30
0.0
 11
125.5689999999999
 21
6.99999999999999
 31
0.0
  0
LINE
  5
A9
330
1E
100
AcDbEntity
  8
0
100
AcDbLine
 10
118.3729999999999
 20
10.5
 30
0.0
 11
125.5689999999999
 21
10.5
 31
0.0
  0
LINE
  5
AA
330
1E
100
AcDbEntity
  8
0
100
AcDbLine
 10
125.5689999999999
 20
6.99999999999999
 30
0.0
 11
132.7649999999999
 21
6.99999999999999
 31
0.0
  0
LINE
  5
AB
330
1E
100
AcDbEntity
  8
0
100
AcDbLine
 10
118.6729999999999
 20
95.0
 30
0.0
 11
125.5689999999999
 21
95.0
 31
0.0
  0
LINE
  5
AC
330
1E
100
AcDbEntity
  8
0
100
AcDbLine
 10
125.5689999999999
 20
95.0
 30
0.0
 11
132.465
 21
95.0
 31
0.0
  0
LINE
  5
AE
330
1E
100
AcDbEntity
  8
0
100
AcDbLine
 10
125.5689999999999
 20
10.5
 30
0.0
 11
132.7649999999999
 21
10.5
 31
0.0
  0
LINE
  5
AF
330
1E
100
AcDbEntity
  8
0
100
AcDbLine
 10
117.174
 20
-0.0000000000000045
 30
0.0
 11
125.5689999999999
 21
-0.000000000000005
 31
0.0
  0
LINE
  5
B2
330
1E
100
AcDbEntity
  8
0
100
AcDbLine
 10
132.7649999999999
 20
6.99999999999999
 30
0.0
 11
139.461
 21
6.99999999999999
 31
0.0
  0
LINE
  5
B3
330
1E
100
AcDbEntity
  8
0
100
AcDbLine
 10
132.465
 20
95.0
 30
0.0
 11
138.962
 21
95.0
 31
0.0
  0
LINE
  5
B5
330
1E
100
AcDbEntity
  8
0
100
AcDbLine
 10
132.7649999999999
 20
10.5
 30
0.0
 11
139.461
 21
10.5
 31
0.0
  0
LINE
  5
B8
330
1E
100
AcDbEntity
  8
0
100
AcDbLine
 10
139.461
 20
6.99999999999999
 30
0.0
 11
145.358
 21
6.99999999999999
 31
0.0
  0
LINE
  5
B9
330
1E
100
AcDbEntity
  8
0
100
AcDbLine
 10
145.358
 20
6.99999999999999
 30
0.0
 11
149.8559999999999
 21
6.99999999999999
 31
0.0
  0
LINE
  5
BA
330
1E
100
AcDbEntity
  8
0
100
AcDbLine
 10
141.76
 20
-0.000000000000006
 30
0.0
 11
148.556
 21
-0.0000000000000064
 31
0.0
  0
LINE
  5
BF
330
1E
100
AcDbEntity
  8
0
100
AcDbLine
 10
149.8559999999999
 20
6.99999999999999
 30
0.0
 11
152.554
 21
6.99999999999999
 31
0.0
  0
LINE
  5
C0
330
1E
100
AcDbEntity
  8
0
100
AcDbLine
 10
149.8559999999999
 20
10.5
 30
0.0
 11
152.554
 21
10.5
 31
0.0
  0
LINE
  5
C1
330
1E
100
AcDbEntity
  8
0
100
AcDbLine
 10
145.358
 20
10.5
 30
0.0
 11
149.8559999999999
 21
10.5
 31
0.0
  0
LINE
  5
C2
330
1E
100
AcDbEntity
  8
0
100
AcDbLine
 10
138.962
 20
95.0
 30
0.0
 11
144.659
 21
95.0
 31
0.0
  0
LINE
  5
C6
330
1E
100
AcDbEntity
  8
0
100
AcDbLine
 10
150.0759999999999
 20
95.0
 30
0.0
 11
150.0759999999999
 21
97.0
 31
0.0
  0
LINE
  5
C7
330
1E
100
AcDbEntity
  8
0
100
AcDbLine
 10
148.956
 20
95.0
 30
0.0
 11
151.655
 21
95.0
 31
0.0
  0
LINE
  5
C8
330
1E
100
AcDbEntity
  8
0
100
AcDbLine
 10
144.659
 20
95.0
 30
0.0
 11
148.956
 21
95.0
 31
0.0
  0
LINE
  5
C9
330
1E
100
AcDbEntity
  8
0
100
AcDbLine
 10
151.655
 20
95.0
 30
0.0
 11
152.554
 21
95.0
 31
0.0
  0
LINE
  5
CC
330
1E
100
AcDbEntity
  8
0
100
AcDbLine
 10
139.461
 20
10.5
 30
0.0
 11
145.358
 21
10.5
 31
0.0
  0
LINE
  5
CD
330
1E
100
AcDbEntity
  8
0
100
AcDbLine
 10
133.9639999999999
 20
-0.0000000000000055
 30
0.0
 11
141.76
 21
-0.000000000000006
 31
0.0
  0
LINE
  5
CE
330
1E
100
AcDbEntity
  8
0
100
AcDbLine
 10
148.556
 20
-0.0000000000000064
 30
0.0
 11
153.7539999999999
 21
-0.0000000000000067
 31
0.0
  0
LINE
  5
CF
330
1E
100
AcDbEntity
  8
0
100
AcDbLine
 10
125.576
 20
98.0
 30
0.0
 11
132.316
 21
99.0
 31
0.0
  0
LINE
  5
D0
330
1E
100
AcDbEntity
  8
0
100
AcDbLine
 10
118.876
 20
98.0
 30
0.0
 11
125.576
 21
98.0
 31
0.0
  0
LINE
  5
D1
330
1E
100
AcDbEntity
  8
0
100
AcDbLine
 10
112.6759999999999
 20
98.0
 30
0.0
 11
118.876
 21
98.0
 31
0.0
  0
LINE
  5
D2
330
1E
100
AcDbEntity
  8
0
100
AcDbLine
 10
107.176
 20
98.0
 30
0.0
 11
112.6759999999999
 21
98.0
 31
0.0
  0
LINE
  5
D3
330
1E
100
AcDbEntity
  8
0
100
AcDbLine
 10
102.976
 20
98.0
 30
0.0
 11
107.176
 21
98.0
 31
0.0
  0
LINE
  5
D4
330
1E
100
AcDbEntity
  8
0
100
AcDbLine
 10
132.316
 20
99.0
 30
0.0
 11
138.7359999999999
 21
100.0999999999999
 31
0.0
  0
LINE
  5
D5
330
1E
100
AcDbEntity
  8
0
100
AcDbLine
 10
138.7359999999999
 20
100.0999999999999
 30
0.0
 11
144.406
 21
100.78
 31
0.0
  0
LINE
  5
D6
330
1E
100
AcDbEntity
  8
0
100
AcDbLine
 10
144.406
 20
100.78
 30
0.0
 11
148.676
 21
101.4
 31
0.0
  0
LINE
  5
D7
330
1E
100
AcDbEntity
  8
0
100
AcDbLine
 10
149.5759999999999
 20
100.0
 30
0.0
 11
150.0759999999999
 21
97.0
 31
0.0
  0
LINE
  5
D8
330
1E
100
AcDbEntity
  8
0
100
AcDbLine
 10
148.676
 20
101.4
 30
0.0
 11
151.456
 21
101.81
 31
0.0
  0
LINE
  5
D9
330
1E
100
AcDbEntity
  8
0
100
AcDbLine
 10
100.476
 20
98.0
 30
0.0
 11
102.976
 21
98.0
 31
0.0
  0
LINE
  5
DA
330
1E
100
AcDbEntity
  8
0
100
AcDbLine
 10
100.476
 20
98.0
 30
0.0
 11
101.242666666667
 21
98.0
 31
0.0
  0
LINE
  5
DB
330
1E
100
AcDbEntity
  8
0
100
AcDbLine
 10
99.57600000000001
 20
98.0
 30
0.0
 11
100.476
 21
98.0
 31
0.0
  0
LINE
  5
DC
330
1E
100
AcDbEntity
  8
0
100
AcDbLine
 10
97.57600000000001
 20
114.0
 30
0.0
 11
97.57600000000001
 21
110.0
 31
0.0
  0
LINE
  5
DD
330
1E
100
AcDbEntity
  8
0
100
AcDbLine
 10
97.57600000000001
 20
114.0
 30
0.0
 11
98.1554304583245
 21
118.345728437434
 31
0.0
  0
LINE
  5
DE
330
1E
100
AcDbEntity
  8
0
100
AcDbLine
 10
97.57600000000001
 20
110.0
 30
0.0
 11
98.57600000000001
 21
102.0
 31
0.0
  0
LINE
  5
DF
330
1E
100
AcDbEntity
  8
0
100
AcDbLine
 10
97.57600000000001
 20
110.0
 30
0.0
 11
97.57600000000001
 21
114.0
 31
0.0
  0
LINE
  5
E0
330
1E
100
AcDbEntity
  8
0
100
AcDbLine
 10
151.456
 20
101.81
 30
0.0
 11
152.376
 21
102.0
 31
0.0
  0
LINE
  5
E1
330
1E
100
AcDbEntity
  8
0
100
AcDbLine
 10
98.57600000000001
 20
102.0
 30
0.0
 11
99.57600000000001
 21
98.0
 31
0.0
  0
LINE
  5
E2
330
1E
100
AcDbEntity
  8
0
100
AcDbLine
 10
149.089028571429
 20
101.4609142857139
 30
0.0
 11
151.456
 21
101.81
 31
0.0
  0
LINE
  5
E3
330
1E
100
AcDbEntity
  8
0
100
AcDbLine
 10
149.089028571429
 20
101.4609142857139
 30
0.0
 11
149.5759999999999
 21
100.0
 31
0.0
  0
LINE
  5
E4
330
1E
100
AcDbEntity
  8
0
100
AcDbLine
 10
152.554
 20
6.99999999999999
 30
0.0
 11
153.554
 21
6.99999999999999
 31
0.0
  0
LINE
  5
E7
330
1E
100
AcDbEntity
  8
0
100
AcDbLine
 10
152.513
 20
22.3198
 30
0.0
 11
161.392512404762
 21
50.5058779529529
 31
0.0
  0
LINE
  5
E8
330
1E
100
AcDbEntity
  8
0
100
AcDbLine
 10
152.554
 20
10.5
 30
0.0
 11
153.554
 21
10.5
 31
0.0
  0
LINE
  5
E9
330
1E
100
AcDbEntity
  8
0
100
AcDbLine
 10
153.554
 20
10.5
 30
0.0
 11
153.554
 21
25.62422774462339
 31
0.0
  0
LINE
  5
EA
330
1E
100
AcDbEntity
  8
0
100
AcDbLine
 10
153.554
 20
10.5
 30
0.0
 11
154.553
 21
9.499999999999991
 31
0.0
  0
LINE
  5
EB
330
1E
100
AcDbEntity
  8
0
100
AcDbLine
 10
152.554
 20
37.58347315617609
 30
0.0
 11
157.0520214770809
 21
51.8614625555773
 31
0.0
  0
LINE
  5
EC
330
1E
100
AcDbEntity
  8
0
100
AcDbLine
 10
152.554
 20
37.58347315617609
 30
0.0
 11
157.0520214770809
 21
51.8614625555773
 31
0.0
  0
LINE
  5
EE
330
1E
100
AcDbEntity
  8
0
100
AcDbLine
 10
153.554
 20
40.75775533160679
 30
0.0
 11
153.554
 21
94.0
 31
0.0
  0
LINE
  5
EF
330
1E
100
AcDbEntity
  8
0
100
AcDbLine
 10
152.554
 20
95.0
 30
0.0
 11
153.554
 21
94.0
 31
0.0
  0
LINE
  5
F0
330
1E
100
AcDbEntity
  8
0
100
AcDbLine
 10
153.554
 20
25.62422774462339
 30
0.0
 11
153.554
 21
10.5
 31
0.0
  0
LINE
  5
F1
330
1E
100
AcDbEntity
  8
0
100
AcDbLine
 10
154.553
 20
7.99999999999999
 30
0.0
 11
154.553
 21
9.499999999999991
 31
0.0
  0
LINE
  5
F2
330
1E
100
AcDbEntity
  8
0
100
AcDbLine
 10
155.243
 20
58.2782
 30
0.0
 11
156.3279999999999
 21
60.3967
 31
0.0
  0
LINE
  5
F3
330
1E
100
AcDbEntity
  8
0
100
AcDbLine
 10
154.907
 20
55.8862
 30
0.0
 11
155.034
 21
55.4757
 31
0.0
  0
LINE
  5
F4
330
1E
100
AcDbEntity
  8
0
100
AcDbLine
 10
154.907
 20
55.8862
 30
0.0
 11
155.243
 21
58.2782
 31
0.0
  0
LINE
  5
F5
330
1E
100
AcDbEntity
  8
0
100
AcDbLine
 10
155.034
 20
55.4757
 30
0.0
 11
155.522
 21
53.4167
 31
0.0
  0
LINE
  5
F6
330
1E
100
AcDbEntity
  8
0
100
AcDbLine
 10
155.522
 20
53.4167
 30
0.0
 11
157.136
 21
51.7761
 31
0.0
  0
LINE
  5
F7
330
1E
100
AcDbEntity
  8
0
100
AcDbLine
 10
154.553
 20
9.499999999999991
 30
0.0
 11
154.553
 21
7.99999999999999
 31
0.0
  0
LINE
  5
F8
330
1E
100
AcDbEntity
  8
0
100
AcDbLine
 10
153.554
 20
94.0
 30
0.0
 11
153.554
 21
40.75775533160679
 31
0.0
  0
LINE
  5
F9
330
1E
100
AcDbEntity
  8
0
100
AcDbLine
 10
153.554
 20
6.99999999999999
 30
0.0
 11
155.553
 21
4.99999999999999
 31
0.0
  0
LINE
  5
FA
330
1E
100
AcDbEntity
  8
0
100
AcDbLine
 10
153.554
 20
6.99999999999999
 30
0.0
 11
154.553
 21
7.99999999999999
 31
0.0
  0
LINE
  5
FB
330
1E
100
AcDbEntity
  8
0
100
AcDbLine
 10
156.3279999999999
 20
60.3967
 30
0.0
 11
158.0349999999999
 21
61.8059
 31
0.0
  0
LINE
  5
FC
330
1E
100
AcDbEntity
  8
0
100
AcDbLine
 10
155.553
 20
4.99999999999999
 30
0.0
 11
157.052
 21
1.999999999999989
 31
0.0
  0
LINE
  5
FD
330
1E
100
AcDbEntity
  8
0
100
AcDbLine
 10
155.553
 20
4.99999999999999
 30
0.0
 11
157.052
 21
1.999999999999989
 31
0.0
  0
LINE
  5
FE
330
1E
100
AcDbEntity
  8
0
100
AcDbLine
 10
153.7539999999999
 20
-0.0000000000000067
 30
0.0
 11
156.9519999999999
 21
-0.0000000000000069
 31
0.0
  0
LINE
  5
FF
330
1E
100
AcDbEntity
  8
0
100
AcDbLine
 10
160.495
 20
50.51059999999999
 30
0.0
 11
161.108
 21
50.4422
 31
0.0
  0
LINE
  5
100
330
1E
100
AcDbEntity
  8
0
100
AcDbLine
 10
159.738
 20
50.6816
 30
0.0
 11
160.495
 21
50.51059999999999
 31
0.0
  0
LINE
  5
101
330
1E
100
AcDbEntity
  8
0
100
AcDbLine
 10
158.9199999999999
 20
50.92100000000001
 30
0.0
 11
159.738
 21
50.6816
 31
0.0
  0
LINE
  5
102
330
1E
100
AcDbEntity
  8
0
100
AcDbLine
 10
157.136
 20
51.7761
 30
0.0
 11
157.456
 21
51.5366
 31
0.0
  0
LINE
  5
103
330
1E
100
AcDbEntity
  8
0
100
AcDbLine
 10
160.336
 20
62.2837
 30
0.0
 11
160.623
 21
62.3521
 31
0.0
  0
LINE
  5
104
330
1E
100
AcDbEntity
  8
0
100
AcDbLine
 10
158.0349999999999
 20
61.8059
 30
0.0
 11
160.336
 21
62.2837
 31
0.0
  0
LINE
  5
105
330
1E
100
AcDbEntity
  8
0
100
AcDbLine
 10
157.456
 20
51.5366
 30
0.0
 11
158.087
 21
51.2288
 31
0.0
  0
LINE
  5
106
330
1E
100
AcDbEntity
  8
0
100
AcDbLine
 10
158.087
 20
51.2288
 30
0.0
 11
158.9199999999999
 21
50.92100000000001
 31
0.0
  0
LINE
  5
107
330
1E
100
AcDbEntity
  8
0
100
AcDbLine
 10
164.275
 20
61.25759999999999
 30
0.0
 11
164.595
 21
61.0182
 31
0.0
  0
LINE
  5
108
330
1E
100
AcDbEntity
  8
0
100
AcDbLine
 10
164.595
 20
61.0182
 30
0.0
 11
166.209
 21
59.3775
 31
0.0
  0
LINE
  5
109
330
1E
100
AcDbEntity
  8
0
100
AcDbLine
 10
163.643
 20
61.56539999999999
 30
0.0
 11
164.275
 21
61.25759999999999
 31
0.0
  0
LINE
  5
10A
330
1E
100
AcDbEntity
  8
0
100
AcDbLine
 10
166.209
 20
59.3775
 30
0.0
 11
166.578769071887
 21
57.81734729709821
 31
0.0
  0
LINE
  5
10B
330
1E
100
AcDbEntity
  8
0
100
AcDbLine
 10
166.488
 20
54.516
 30
0.0
 11
166.578769071887
 21
57.81734729709821
 31
0.0
  0
LINE
  5
10C
330
1E
100
AcDbEntity
  8
0
100
AcDbLine
 10
165.402
 20
52.3976
 30
0.0
 11
166.488
 21
54.516
 31
0.0
  0
LINE
  5
10D
330
1E
100
AcDbEntity
  8
0
100
AcDbLine
 10
163.6949999999999
 20
50.9884
 30
0.0
 11
165.402
 21
52.3976
 31
0.0
  0
LINE
  5
10E
330
1E
100
AcDbEntity
  8
0
100
AcDbLine
 10
161.6655107590469
 20
50.5669788964245
 30
0.0
 11
163.6949999999999
 21
50.9884
 31
0.0
  0
LINE
  5
10F
330
1E
100
AcDbEntity
  8
0
100
AcDbLine
 10
161.2359999999999
 20
62.2837
 30
0.0
 11
162.6419999999999
 21
62.0353
 31
0.0
  0
LINE
  5
110
330
1E
100
AcDbEntity
  8
0
100
AcDbLine
 10
162.6419999999999
 20
62.0353
 30
0.0
 11
163.643
 21
61.56539999999999
 31
0.0
  0
LINE
  5
111
330
1E
100
AcDbEntity
  8
0
100
AcDbLine
 10
160.623
 20
62.3521
 30
0.0
 11
161.2359999999999
 21
62.2837
 31
0.0
  0
LINE
  5
112
330
1E
100
AcDbEntity
  8
0
100
AcDbLine
 10
157.052
 20
1.999999999999989
 30
0.0
 11
158.051
 21
-0.000000000000007
 31
0.0
  0
LINE
  5
113
330
1E
100
AcDbEntity
  8
0
100
AcDbLine
 10
157.052
 20
1.999999999999989
 30
0.0
 11
158.051
 21
-0.000000000000007
 31
0.0
  0
LINE
  5
114
330
1E
100
AcDbEntity
  8
0
100
AcDbLine
 10
156.9519999999999
 20
-0.0000000000000069
 30
0.0
 11
158.051
 21
-0.000000000000007
 31
0.0
  0
LINE
  5
115
330
1E
100
AcDbEntity
  8
0
100
AcDbLine
 10
153.5759999999999
 20
110.0
 30
0.0
 11
153.5759999999999
 21
114.0
 31
0.0
  0
LINE
  5
116
330
1E
100
AcDbEntity
  8
0
100
AcDbLine
 10
153.5759999999999
 20
114.0
 30
0.0
 11
153.5759999999999
 21
110.0
 31
0.0
  0
LINE
  5
117
330
1E
100
AcDbEntity
  8
0
100
AcDbLine
 10
152.776
 20
103.4
 30
0.0
 11
153.5759999999999
 21
110.0
 31
0.0
  0
LINE
  5
118
330
1E
100
AcDbEntity
  8
0
100
AcDbLine
 10
152.376
 20
102.0
 30
0.0
 11
152.776
 21
103.4
 31
0.0
  0
LINE
  5
119
330
1E
100
AcDbEntity
  8
0
100
AcDbLine
 10
93.2322
 20
123.9119999999999
 30
0.0
 11
93.8911
 21
125.2699999999999
 31
0.0
  0
LINE
  5
11A
330
1E
100
AcDbEntity
  8
0
100
AcDbLine
 10
92.62390000000001
 20
122.658
 30
0.0
 11
93.2322
 21
123.9119999999999
 31
0.0
  0
LINE
  5
11B
330
1E
100
AcDbEntity
  8
0
100
AcDbLine
 10
92.1002
 20
121.5779999999999
 30
0.0
 11
92.62390000000001
 21
122.658
 31
0.0
  0
LINE
  5
11C
330
1E
100
AcDbEntity
  8
0
100
AcDbLine
 10
152.576
 20
121.5
 30
0.0
 11
153.5759999999999
 21
114.0
 31
0.0
  0
LINE
  5
11D
330
1E
100
AcDbEntity
  8
0
100
AcDbLine
 10
91.7137445871217
 20
120.781263316483
 30
0.0
 11
98.1554304583245
 21
118.345728437434
 31
0.0
  0
LINE
  5
11E
330
1E
100
AcDbEntity
  8
0
100
AcDbLine
 10
91.7137445871217
 20
120.781263316483
 30
0.0
 11
98.1554304583245
 21
118.345728437434
 31
0.0
  0
LINE
  5
11F
330
1E
100
AcDbEntity
  8
0
100
AcDbLine
 10
92.0916
 20
126.1429999999999
 30
0.0
 11
92.7505
 21
127.5009999999999
 31
0.0
  0
LINE
  5
120
330
1E
100
AcDbEntity
  8
0
100
AcDbLine
 10
92.7505
 20
127.5009999999999
 30
0.0
 11
93.35880000000001
 21
128.7549999999999
 31
0.0
  0
LINE
  5
121
330
1E
100
AcDbEntity
  8
0
100
AcDbLine
 10
93.8911
 20
125.2699999999999
 30
0.0
 11
94.55
 21
126.6279999999999
 31
0.0
  0
LINE
  5
122
330
1E
100
AcDbEntity
  8
0
100
AcDbLine
 10
94.55
 20
126.6279999999999
 30
0.0
 11
95.15819999999999
 21
127.882
 31
0.0
  0
LINE
  5
123
330
1E
100
AcDbEntity
  8
0
100
AcDbLine
 10
95.15819999999999
 20
127.882
 30
0.0
 11
95.682
 21
128.962
 31
0.0
  0
LINE
  5
124
330
1E
100
AcDbEntity
  8
0
100
AcDbLine
 10
95.682
 20
128.962
 30
0.0
 11
96.0875
 21
129.798
 31
0.0
  0
LINE
  5
125
330
1E
100
AcDbEntity
  8
0
100
AcDbLine
 10
96.0875
 20
129.798
 30
0.0
 11
96.3409
 21
130.3199999999999
 31
0.0
  0
LINE
  5
126
330
1E
100
AcDbEntity
  8
0
100
AcDbLine
 10
93.35880000000001
 20
128.7549999999999
 30
0.0
 11
93.88249999999999
 21
129.835
 31
0.0
  0
LINE
  5
127
330
1E
100
AcDbEntity
  8
0
100
AcDbLine
 10
93.88249999999999
 20
129.835
 30
0.0
 11
94.288
 21
130.671
 31
0.0
  0
LINE
  5
128
330
1E
100
AcDbEntity
  8
0
100
AcDbLine
 10
100.777229620627
 20
127.251537025783
 30
0.0
 11
104.576
 21
132.0
 31
0.0
  0
LINE
  5
129
330
1E
100
AcDbEntity
  8
0
100
AcDbLine
 10
150.5759999999999
 20
127.0
 30
0.0
 11
152.576
 21
121.5
 31
0.0
  0
LINE
  5
12A
330
1E
100
AcDbEntity
  8
0
100
AcDbLine
 10
96.1196161813859
 20
129.864158826691
 30
0.0
 11
100.800287077754
 21
127.2386032742069
 31
0.0
  0
LINE
  5
12B
330
1E
100
AcDbEntity
  8
0
100
AcDbLine
 10
96.1196161813859
 20
129.864158826691
 30
0.0
 11
96.3409
 21
130.3199999999999
 31
0.0
  0
LINE
  5
12C
330
1E
100
AcDbEntity
  8
0
100
AcDbLine
 10
94.288
 20
130.671
 30
0.0
 11
94.5414
 21
131.1929999999999
 31
0.0
  0
LINE
  5
12D
330
1E
100
AcDbEntity
  8
0
100
AcDbLine
 10
94.5414
 20
131.1929999999999
 30
0.0
 11
94.6259
 21
131.367
 31
0.0
  0
LINE
  5
12E
330
1E
100
AcDbEntity
  8
0
100
AcDbLine
 10
96.06000000000001
 20
130.8869999999999
 30
0.0
 11
96.4254
 21
130.4939999999999
 31
0.0
  0
LINE
  5
12F
330
1E
100
AcDbEntity
  8
0
100
AcDbLine
 10
95.1603
 20
131.3229999999999
 30
0.0
 11
96.06000000000001
 21
130.8869999999999
 31
0.0
  0
LINE
  5
130
330
1E
100
AcDbEntity
  8
0
100
AcDbLine
 10
94.6259
 20
131.367
 30
0.0
 11
95.1603
 21
131.3229999999999
 31
0.0
  0
LINE
  5
131
330
1E
100
AcDbEntity
  8
0
100
AcDbLine
 10
94.37216044499608
 20
130.844369188192
 30
0.0
 11
94.5414
 21
131.1929999999999
 31
0.0
  0
LINE
  5
132
330
1E
100
AcDbEntity
  8
0
100
AcDbLine
 10
96.3409
 20
130.3199999999999
 30
0.0
 11
96.4254
 21
130.4939999999999
 31
0.0
  0
LINE
  5
133
330
1E
100
AcDbEntity
  8
0
100
AcDbLine
 10
138.5759999999999
 20
137.0
 30
0.0
 11
140.076
 21
137.0
 31
0.0
  0
LINE
  5
134
330
1E
100
AcDbEntity
  8
0
100
AcDbLine
 10
140.076
 20
137.0
 30
0.0
 11
140.5759999999999
 21
137.0
 31
0.0
  0
LINE
  5
135
330
1E
100
AcDbEntity
  8
0
100
AcDbLine
 10
104.576
 20
132.0
 30
0.0
 11
110.576
 21
137.0
 31
0.0
  0
LINE
  5
137
330
1E
100
AcDbEntity
  8
0
100
AcDbLine
 10
110.076
 20
137.5
 30
0.0
 11
110.576
 21
137.0
 31
0.0
  0
LINE
  5
139
330
1E
100
AcDbEntity
  8
0
100
AcDbLine
 10
110.076
 20
137.5
 30
0.0
 11
110.076
 21
138.5
 31
0.0
  0
LINE
  5
13A
330
1E
100
AcDbEntity
  8
0
100
AcDbLine
 10
125.576
 20
137.0
 30
0.0
 11
129.4759999999999
 21
137.0
 31
0.0
  0
LINE
  5
13B
330
1E
100
AcDbEntity
  8
0
100
AcDbLine
 10
129.4759999999999
 20
137.0
 30
0.0
 11
133.0759999999999
 21
137.0
 31
0.0
  0
LINE
  5
13C
330
1E
100
AcDbEntity
  8
0
100
AcDbLine
 10
133.0759999999999
 20
137.0
 30
0.0
 11
136.176
 21
137.0
 31
0.0
  0
LINE
  5
13D
330
1E
100
AcDbEntity
  8
0
100
AcDbLine
 10
136.176
 20
137.0
 30
0.0
 11
138.5759999999999
 21
137.0
 31
0.0
  0
LINE
  5
13E
330
1E
100
AcDbEntity
  8
0
100
AcDbLine
 10
121.676
 20
137.0
 30
0.0
 11
125.576
 21
137.0
 31
0.0
  0
LINE
  5
13F
330
1E
100
AcDbEntity
  8
0
100
AcDbLine
 10
118.076
 20
137.0
 30
0.0
 11
121.676
 21
137.0
 31
0.0
  0
LINE
  5
140
330
1E
100
AcDbEntity
  8
0
100
AcDbLine
 10
114.976
 20
137.0
 30
0.0
 11
118.076
 21
137.0
 31
0.0
  0
LINE
  5
141
330
1E
100
AcDbEntity
  8
0
100
AcDbLine
 10
112.576
 20
137.0
 30
0.0
 11
114.976
 21
137.0
 31
0.0
  0
LINE
  5
14B
330
1E
100
AcDbEntity
  8
0
100
AcDbLine
 10
141.0759999999999
 20
137.5
 30
0.0
 11
141.0759999999999
 21
138.5
 31
0.0
  0
LINE
  5
14D
330
1E
100
AcDbEntity
  8
0
100
AcDbLine
 10
111.076
 20
137.0
 30
0.0
 11
112.576
 21
137.0
 31
0.0
  0
LINE
  5
14E
330
1E
100
AcDbEntity
  8
0
100
AcDbLine
 10
110.576
 20
137.0
 30
0.0
 11
111.076
 21
137.0
 31
0.0
  0
LINE
  5
14F
330
1E
100
AcDbEntity
  8
0
100
AcDbLine
 10
140.5759999999999
 20
137.0
 30
0.0
 11
146.5759999999999
 21
132.0
 31
0.0
  0
LINE
  5
150
330
1E
100
AcDbEntity
  8
0
100
AcDbLine
 10
140.5759999999999
 20
137.0
 30
0.0
 11
141.0759999999999
 21
137.5
 31
0.0
  0
LINE
  5
151
330
1E
100
AcDbEntity
  8
0
100
AcDbLine
 10
146.5759999999999
 20
132.0
 30
0.0
 11
150.5759999999999
 21
127.0
 31
0.0
  0
LINE
  5
152
330
1E
100
AcDbEntity
  8
0
100
AcDbLine
 10
96.119616181386
 20
129.864158826691
 30
0.0
 11
100.800287077754
 21
127.2386032742069
 31
0.0
  0
LINE
  5
153
330
1E
100
AcDbEntity
  8
0
100
AcDbLine
 10
84.93680000000001
 20
136.1369999999999
 30
0.0
 11
94.37216044499608
 21
130.844369188192
 31
0.0
  0
LINE
  5
154
330
1E
100
AcDbEntity
  8
0
100
AcDbLine
 10
79.86539999999999
 20
125.261
 30
0.0
 11
89.8352494942218
 21
121.491502904435
 31
0.0
  0
LINE
  5
155
330
1E
100
AcDbEntity
  8
0
100
AcDbLine
 10
79.86539999999999
 20
125.261
 30
0.0
 11
89.8352494942218
 21
121.491502904435
 31
0.0
  0
LINE
  5
156
330
1E
100
AcDbEntity
  8
0
100
AcDbLine
 10
62.223
 20
132.3849999999999
 30
0.0
 11
79.86539999999999
 21
125.261
 31
0.0
  0
LINE
  5
15C
330
1E
100
AcDbEntity
  8
0
100
AcDbLine
 10
110.076
 20
138.5
 30
0.0
 11
110.076
 21
137.5
 31
0.0
  0
LINE
  5
15E
330
1E
100
AcDbEntity
  8
0
100
AcDbLine
 10
110.076
 20
138.5
 30
0.0
 11
110.576
 21
139.0
 31
0.0
  0
LINE
  5
163
330
1E
100
AcDbEntity
  8
0
100
AcDbLine
 10
121.676
 20
139.0
 30
0.0
 11
125.576
 21
139.0
 31
0.0
  0
LINE
  5
164
330
1E
100
AcDbEntity
  8
0
100
AcDbLine
 10
118.076
 20
139.0
 30
0.0
 11
121.676
 21
139.0
 31
0.0
  0
LINE
  5
165
330
1E
100
AcDbEntity
  8
0
100
AcDbLine
 10
114.976
 20
139.0
 30
0.0
 11
118.076
 21
139.0
 31
0.0
  0
LINE
  5
166
330
1E
100
AcDbEntity
  8
0
100
AcDbLine
 10
112.576
 20
139.0
 30
0.0
 11
114.976
 21
139.0
 31
0.0
  0
LINE
  5
167
330
1E
100
AcDbEntity
  8
0
100
AcDbLine
 10
111.076
 20
139.0
 30
0.0
 11
112.576
 21
139.0
 31
0.0
  0
LINE
  5
168
330
1E
100
AcDbEntity
  8
0
100
AcDbLine
 10
110.576
 20
139.0
 30
0.0
 11
111.076
 21
139.0
 31
0.0
  0
LINE
  5
169
330
1E
100
AcDbEntity
  8
0
100
AcDbLine
 10
110.576
 20
139.0
 30
0.0
 11
114.0759999999999
 21
140.5
 31
0.0
  0
LINE
  5
16A
330
1E
100
AcDbEntity
  8
0
100
AcDbLine
 10
125.576
 20
139.0
 30
0.0
 11
129.4759999999999
 21
139.0
 31
0.0
  0
LINE
  5
16B
330
1E
100
AcDbEntity
  8
0
100
AcDbLine
 10
129.4759999999999
 20
139.0
 30
0.0
 11
133.0759999999999
 21
139.0
 31
0.0
  0
LINE
  5
16C
330
1E
100
AcDbEntity
  8
0
100
AcDbLine
 10
133.0759999999999
 20
139.0
 30
0.0
 11
136.176
 21
139.0
 31
0.0
  0
LINE
  5
16D
330
1E
100
AcDbEntity
  8
0
100
AcDbLine
 10
136.176
 20
139.0
 30
0.0
 11
138.5759999999999
 21
139.0
 31
0.0
  0
LINE
  5
16E
330
1E
100
AcDbEntity
  8
0
100
AcDbLine
 10
138.5759999999999
 20
139.0
 30
0.0
 11
140.076
 21
139.0
 31
0.0
  0
LINE
  5
16F
330
1E
100
AcDbEntity
  8
0
100
AcDbLine
 10
119.076
 20
141.5
 30
0.0
 11
125.576
 21
142.0
 31
0.0
  0
LINE
  5
170
330
1E
100
AcDbEntity
  8
0
100
AcDbLine
 10
114.0759999999999
 20
140.5
 30
0.0
 11
119.076
 21
141.5
 31
0.0
  0
LINE
  5
171
330
1E
100
AcDbEntity
  8
0
100
AcDbLine
 10
125.576
 20
142.0
 30
0.0
 11
132.0759999999999
 21
141.5
 31
0.0
  0
LINE
  5
172
330
1E
100
AcDbEntity
  8
0
100
AcDbLine
 10
132.0759999999999
 20
141.5
 30
0.0
 11
137.0759999999999
 21
140.5
 31
0.0
  0
LINE
  5
173
330
1E
100
AcDbEntity
  8
0
100
AcDbLine
 10
137.0759999999999
 20
140.5
 30
0.0
 11
140.5759999999999
 21
139.0
 31
0.0
  0
LINE
  5
174
330
1E
100
AcDbEntity
  8
0
100
AcDbLine
 10
140.076
 20
139.0
 30
0.0
 11
140.5759999999999
 21
139.0
 31
0.0
  0
LINE
  5
175
330
1E
100
AcDbEntity
  8
0
100
AcDbLine
 10
140.5759999999999
 20
139.0
 30
0.0
 11
141.0759999999999
 21
138.5
 31
0.0
  0
LINE
  5
177
330
1E
100
AcDbEntity
  8
0
100
AcDbLine
 10
141.0759999999999
 20
138.5
 30
0.0
 11
141.0759999999999
 21
137.5
 31
0.0
  0
LINE
  5
179
330
1E
100
AcDbEntity
  8
0
100
AcDbLine
 10
50.3564
 20
137.697
 30
0.0
 11
62.223
 21
132.3849999999999
 31
0.0
  0
LINE
  5
17A
330
1E
100
AcDbEntity
  8
0
100
AcDbLine
 10
42.07289999999999
 20
141.2289999999999
 30
0.0
 11
50.3564
 21
137.697
 31
0.0
  0
LINE
  5
17B
330
1E
100
AcDbEntity
  8
0
100
AcDbLine
 10
68.1396
 20
145.0729999999999
 30
0.0
 11
84.93680000000001
 21
136.1369999999999
 31
0.0
  0
LINE
  5
17C
330
1E
100
AcDbEntity
  8
0
100
AcDbLine
 10
39.1121
 20
143.161
 30
0.0
 11
42.07289999999999
 21
141.2289999999999
 31
0.0
  0
LINE
  5
17D
330
1E
100
AcDbEntity
  8
0
100
AcDbLine
 10
37.269
 20
145.124
 30
0.0
 11
39.1121
 21
143.161
 31
0.0
  0
LINE
  5
17E
330
1E
100
AcDbEntity
  8
0
100
AcDbLine
 10
56.44210000000001
 20
150.7479999999999
 30
0.0
 11
68.1396
 21
145.0729999999999
 31
0.0
  0
LINE
  5
17F
330
1E
100
AcDbEntity
  8
0
100
AcDbLine
 10
48.41219999999999
 20
154.8239999999999
 30
0.0
 11
56.44210000000001
 21
150.7479999999999
 31
0.0
  0
LINE
  5
180
330
1E
100
AcDbEntity
  8
0
100
AcDbLine
 10
45.0288
 20
155.8499999999999
 30
0.0
 11
48.41219999999999
 21
154.8239999999999
 31
0.0
  0
LINE
  5
181
330
1E
100
AcDbEntity
  8
0
100
AcDbLine
 10
42.3404
 20
156.0
 30
0.0
 11
45.0288
 21
155.8499999999999
 31
0.0
  0
LINE
  5
182
330
1E
100
AcDbEntity
  8
0
100
AcDbLine
 10
39.8938
 20
155.4859999999999
 30
0.0
 11
42.3404
 21
156.0
 31
0.0
  0
LINE
  5
183
330
1E
100
AcDbEntity
  8
0
100
AcDbLine
 10
37.6891
 20
154.307
 30
0.0
 11
39.8938
 21
155.4859999999999
 31
0.0
  0
LINE
  5
184
330
1E
100
AcDbEntity
  8
0
100
AcDbLine
 10
36.1794
 20
152.2529999999999
 30
0.0
 11
37.6891
 21
154.307
 31
0.0
  0
LINE
  5
185
330
1E
100
AcDbEntity
  8
0
100
AcDbLine
 10
36.0903
 20
147.329
 30
0.0
 11
37.269
 21
145.124
 31
0.0
  0
LINE
  5
186
330
1E
100
AcDbEntity
  8
0
100
AcDbLine
 10
35.576
 20
149.776
 30
0.0
 11
36.1794
 21
152.2529999999999
 31
0.0
  0
LINE
  5
187
330
1E
100
AcDbEntity
  8
0
100
AcDbLine
 10
35.576
 20
149.776
 30
0.0
 11
36.0903
 21
147.329
 31
0.0
  0
ENDSEC
  0
SECTION
  2
OBJECTS
  0
DICTIONARY
  5
C
330
0
100
AcDbDictionary
281
     1
  3
ACAD_GROUP
350
D
  3
ACAD_LAYOUT
350
19
  3
ACAD_MLINESTYLE
350
16
  3
ACAD_PLOTSETTINGS
350
18
  3
ACAD_PLOTSTYLENAME
350
E
  3
AcDbVariableDictionary
350
18C
  0
DICTIONARY
  5
D
102
{ACAD_REACTORS
330
C
102
}
330
C
100
AcDbDictionary
281
     1
  0
DICTIONARY
  5
19
102
{ACAD_REACTORS
330
C
102
}
330
C
100
AcDbDictionary
281
     1
  3
Layout1
350
1D
  3
Model
350
21
  0
DICTIONARY
  5
16
102
{ACAD_REACTORS
330
C
102
}
330
C
100
AcDbDictionary
281
     1
  3
Standard
350
17
  0
DICTIONARY
  5
18
102
{ACAD_REACTORS
330
C
102
}
330
C
100
AcDbDictionary
281
     1
  0
ACDBDICTIONARYWDFLT
  5
E
102
{ACAD_REACTORS
330
C
102
}
330
C
100
AcDbDictionary
281
     1
  3
Normal
350
F
100
AcDbDictionaryWithDefault
340
F
  0
DICTIONARY
  5
18C
102
{ACAD_REACTORS
330
C
102
}
330
C
100
AcDbDictionary
281
     1
  3
DIMASSOC
350
18D
  0
LAYOUT
  5
1D
102
{ACAD_REACTORS
330
19
102
}
330
19
100
AcDbPlotSettings
  1

  2
hp deskjet 980c series
  4

  6

 40
0.0
 41
0.0
 42
0.0
 43
0.0
 44
0.0
 45
0.0
 46
0.0
 47
0.0
 48
0.0
 49
0.0
140
0.0
141
0.0
142
1.0
143
1.0
 70
   688
 72
     0
 73
     0
 74
     5
  7

 75
    16
147
1.0
148
0.0
149
0.0
100
AcDbLayout
  1
Layout1
 70
     1
 71
     1
 10
0.0
 20
0.0
 11
12.0
 21
9.0
 12
0.0
 22
0.0
 32
0.0
 14
1.000000000000000E+20
 24
1.000000000000000E+20
 34
1.000000000000000E+20
 15
-1.000000000000000E+20
 25
-1.000000000000000E+20
 35
-1.000000000000000E+20
146
0.0
 13
0.0
 23
0.0
 33
0.0
 16
1.0
 26
0.0
 36
0.0
 17
0.0
 27
1.0
 37
0.0
 76
     0
330
1A
  0
LAYOUT
  5
21
102
{ACAD_REACTORS
330
19
102
}
330
19
100
AcDbPlotSettings
  1

  2
hp deskjet 980c series
  4

  6

 40
0.0
 41
0.0
 42
0.0
 43
0.0
 44
0.0
 45
0.0
 46
0.0
 47
0.0
 48
0.0
 49
0.0
140
0.0
141
0.0
142
1.0
143
1.0
 70
  1712
 72
     0
 73
     0
 74
     0
  7

 75
     0
147
1.0
148
0.0
149
0.0
100
AcDbLayout
  1
Model
 70
     1
 71
     0
 10
0.0
 20
0.0
 11
12.0
 21
9.0
 12
0.0
 22
0.0
 32
0.0
 14
0.0
 24
0.0
 34
0.0
 15
0.0
 25
0.0
 35
0.0
146
0.0
 13
0.0
 23
0.0
 33
0.0
 16
1.0
 26
0.0
 36
0.0
 17
0.0
 27
1.0
 37
0.0
 76
     0
330
1E
  0
MLINESTYLE
  5
17
102
{ACAD_REACTORS
330
16
102
}
330
16
100
AcDbMlineStyle
  2
STANDARD
 70
     0
  3

 62
   256
 51
90.0
 52
90.0
 71
     2
 49
0.5
 62
   256
  6
BYLAYER
 49
-0.5
 62
   256
  6
BYLAYER
  0
ACDBPLACEHOLDER
  5
F
102
{ACAD_REACTORS
330
E
102
}
330
E
  0
DICTIONARYVAR
  5
18D
102
{ACAD_REACTORS
330
18C
102
}
330
18C
100
DictionaryVariables
280
     0
  1
1
  0
ENDSEC
  0
EOF
