  0
SECTION
  2
HEADER
  9
$ACADVER
  1
AC1015
  9
$ACADMAINTVER
 70
    13
  9
$DWGCODEPAGE
  3
ANSI_1252
  9
$INSBASE
 10
0.0
 20
0.0
 30
0.0
  9
$EXTMIN
 10
-0.0000000000000018
 20
-0.000000000000007
 30
0.0
  9
$EXTMAX
 10
65.0
 20
156.0
 30
0.0
  9
$LIMMIN
 10
0.0
 20
0.0
  9
$LIMMAX
 10
12.0
 20
9.0
  9
$ORTHOMODE
 70
     0
  9
$REGENMODE
 70
     1
  9
$FILLMODE
 70
     1
  9
$QTEXTMODE
 70
     0
  9
$MIRRTEXT
 70
     1
  9
$LTSCALE
 40
1.0
  9
$ATTMODE
 70
     1
  9
$TEXTSIZE
 40
0.2
  9
$TRACEWID
 40
0.05
  9
$TEXTSTYLE
  7
Standard
  9
$CLAYER
  8
0
  9
$CELTYPE
  6
Continuous
  9
$CECOLOR
 62
   256
  9
$CELTSCALE
 40
1.0
  9
$DISPSILH
 70
     0
  9
$DIMSCALE
 40
1.0
  9
$DIMASZ
 40
0.18
  9
$DIMEXO
 40
0.0625
  9
$DIMDLI
 40
0.38
  9
$DIMRND
 40
0.0
  9
$DIMDLE
 40
0.0
  9
$DIMEXE
 40
0.18
  9
$DIMTP
 40
0.0
  9
$DIMTM
 40
0.0
  9
$DIMTXT
 40
0.18
  9
$DIMCEN
 40
0.09
  9
$DIMTSZ
 40
0.0
  9
$DIMTOL
 70
     0
  9
$DIMLIM
 70
     0
  9
$DIMTIH
 70
     1
  9
$DIMTOH
 70
     1
  9
$DIMSE1
 70
     0
  9
$DIMSE2
 70
     0
  9
$DIMTAD
 70
     0
  9
$DIMZIN
 70
     0
  9
$DIMBLK
  1

  9
$DIMASO
 70
     1
  9
$DIMSHO
 70
     1
  9
$DIMPOST
  1

  9
$DIMAPOST
  1

  9
$DIMALT
 70
     0
  9
$DIMALTD
 70
     2
  9
$DIMALTF
 40
25.4
  9
$DIMLFAC
 40
1.0
  9
$DIMTOFL
 70
     0
  9
$DIMTVP
 40
0.0
  9
$DIMTIX
 70
     0
  9
$DIMSOXD
 70
     0
  9
$DIMSAH
 70
     0
  9
$DIMBLK1
  1

  9
$DIMBLK2
  1

  9
$DIMSTYLE
  2
Standard
  9
$DIMCLRD
 70
     0
  9
$DIMCLRE
 70
     0
  9
$DIMCLRT
 70
     0
  9
$DIMTFAC
 40
1.0
  9
$DIMGAP
 40
0.09
  9
$DIMJUST
 70
     0
  9
$DIMSD1
 70
     0
  9
$DIMSD2
 70
     0
  9
$DIMTOLJ
 70
     1
  9
$DIMTZIN
 70
     0
  9
$DIMALTZ
 70
     0
  9
$DIMALTTZ
 70
     0
  9
$DIMUPT
 70
     0
  9
$DIMDEC
 70
     4
  9
$DIMTDEC
 70
     4
  9
$DIMALTU
 70
     2
  9
$DIMALTTD
 70
     2
  9
$DIMTXSTY
  7
Standard
  9
$DIMAUNIT
 70
     0
  9
$DIMADEC
 70
     0
  9
$DIMALTRND
 40
0.0
  9
$DIMAZIN
 70
     0
  9
$DIMDSEP
 70
    46
  9
$DIMATFIT
 70
     3
  9
$DIMFRAC
 70
     0
  9
$DIMLDRBLK
  1

  9
$DIMLUNIT
 70
     2
  9
$DIMLWD
 70
    -2
  9
$DIMLWE
 70
    -2
  9
$DIMTMOVE
 70
     0
  9
$LUNITS
 70
     2
  9
$LUPREC
 70
     4
  9
$SKETCHINC
 40
0.1
  9
$FILLETRAD
 40
0.0
  9
$AUNITS
 70
     0
  9
$AUPREC
 70
     0
  9
$MENU
  1
.
  9
$ELEVATION
 40
0.0
  9
$PELEVATION
 40
0.0
  9
$THICKNESS
 40
0.0
  9
$LIMCHECK
 70
     0
  9
$CHAMFERA
 40
0.0
  9
$CHAMFERB
 40
0.0
  9
$CHAMFERC
 40
0.0
  9
$CHAMFERD
 40
0.0
  9
$SKPOLY
 70
     0
  9
$TDCREATE
 40
2454752.591641701
  9
$TDUCREATE
 40
2454752.508308368
  9
$TDUPDATE
 40
2454752.593736609
  9
$TDUUPDATE
 40
2454752.510403275
  9
$TDINDWG
 40
0.0020950926
  9
$TDUSRTIMER
 40
0.0020950926
  9
$USRTIMER
 70
     1
  9
$ANGBASE
 50
0.0
  9
$ANGDIR
 70
     0
  9
$PDMODE
 70
     0
  9
$PDSIZE
 40
0.0
  9
$PLINEWID
 40
0.0
  9
$SPLFRAME
 70
     0
  9
$SPLINETYPE
 70
     6
  9
$SPLINESEGS
 70
     8
  9
$HANDSEED
  5
187
  9
$SURFTAB1
 70
     6
  9
$SURFTAB2
 70
     6
  9
$SURFTYPE
 70
     6
  9
$SURFU
 70
     6
  9
$SURFV
 70
     6
  9
$UCSBASE
  2

  9
$UCSNAME
  2

  9
$UCSORG
 10
0.0
 20
0.0
 30
0.0
  9
$UCSXDIR
 10
1.0
 20
0.0
 30
0.0
  9
$UCSYDIR
 10
0.0
 20
1.0
 30
0.0
  9
$UCSORTHOREF
  2

  9
$UCSORTHOVIEW
 70
     1
  9
$UCSORGTOP
 10
0.0
 20
0.0
 30
0.0
  9
$UCSORGBOTTOM
 10
0.0
 20
0.0
 30
0.0
  9
$UCSORGLEFT
 10
0.0
 20
0.0
 30
0.0
  9
$UCSORGRIGHT
 10
0.0
 20
0.0
 30
0.0
  9
$UCSORGFRONT
 10
0.0
 20
0.0
 30
0.0
  9
$UCSORGBACK
 10
0.0
 20
0.0
 30
0.0
  9
$PUCSBASE
  2

  9
$PUCSNAME
  2

  9
$PUCSORG
 10
0.0
 20
0.0
 30
0.0
  9
$PUCSXDIR
 10
1.0
 20
0.0
 30
0.0
  9
$PUCSYDIR
 10
0.0
 20
1.0
 30
0.0
  9
$PUCSORTHOREF
  2

  9
$PUCSORTHOVIEW
 70
     0
  9
$PUCSORGTOP
 10
0.0
 20
0.0
 30
0.0
  9
$PUCSORGBOTTOM
 10
0.0
 20
0.0
 30
0.0
  9
$PUCSORGLEFT
 10
0.0
 20
0.0
 30
0.0
  9
$PUCSORGRIGHT
 10
0.0
 20
0.0
 30
0.0
  9
$PUCSORGFRONT
 10
0.0
 20
0.0
 30
0.0
  9
$PUCSORGBACK
 10
0.0
 20
0.0
 30
0.0
  9
$USERI1
 70
     0
  9
$USERI2
 70
     0
  9
$USERI3
 70
     0
  9
$USERI4
 70
     0
  9
$USERI5
 70
     0
  9
$USERR1
 40
0.0
  9
$USERR2
 40
0.0
  9
$USERR3
 40
0.0
  9
$USERR4
 40
0.0
  9
$USERR5
 40
0.0
  9
$WORLDVIEW
 70
     1
  9
$SHADEDGE
 70
     3
  9
$SHADEDIF
 70
    70
  9
$TILEMODE
 70
     1
  9
$MAXACTVP
 70
    64
  9
$PINSBASE
 10
0.0
 20
0.0
 30
0.0
  9
$PLIMCHECK
 70
     0
  9
$PEXTMIN
 10
1.000000000000000E+20
 20
1.000000000000000E+20
 30
1.000000000000000E+20
  9
$PEXTMAX
 10
-1.000000000000000E+20
 20
-1.000000000000000E+20
 30
-1.000000000000000E+20
  9
$PLIMMIN
 10
0.0
 20
0.0
  9
$PLIMMAX
 10
12.0
 20
9.0
  9
$UNITMODE
 70
     0
  9
$VISRETAIN
 70
     1
  9
$PLINEGEN
 70
     0
  9
$PSLTSCALE
 70
     1
  9
$TREEDEPTH
 70
  3020
  9
$CMLSTYLE
  2
Standard
  9
$CMLJUST
 70
     0
  9
$CMLSCALE
 40
1.0
  9
$PROXYGRAPHICS
 70
     1
  9
$MEASUREMENT
 70
     0
  9
$CELWEIGHT
370
    -1
  9
$ENDCAPS
280
     0
  9
$JOINSTYLE
280
     0
  9
$LWDISPLAY
290
     0
  9
$INSUNITS
 70
     0
  9
$HYPERLINKBASE
  1

  9
$STYLESHEET
  1

  9
$XEDIT
290
     1
  9
$CEPSNTYPE
380
     0
  9
$PSTYLEMODE
290
     1
  9
$FINGERPRINTGUID
  2
{8AAF570D-8C13-408D-9B90-207533CF8992}
  9
$VERSIONGUID
  2
{B2C4CB5D-FDF3-4E72-96BB-0D9F92EC4DE5}
  9
$EXTNAMES
290
     1
  9
$PSVPSCALE
 40
0.0
  9
$OLESTARTUP
290
     0
  0
ENDSEC
  0
SECTION
  2
CLASSES
  0
CLASS
  1
ACDBDICTIONARYWDFLT
  2
AcDbDictionaryWithDefault
  3
AutoCAD 2000
 90
        0
280
     0
281
     0
  0
CLASS
  1
ACDBPLACEHOLDER
  2
AcDbPlaceHolder
  3
AutoCAD 2000
 90
        0
280
     0
281
     0
  0
CLASS
  1
LAYOUT
  2
AcDbLayout
  3
AutoCAD 2000
 90
        0
280
     0
281
     0
  0
CLASS
  1
DICTIONARYVAR
  2
AcDbDictionaryVar
  3
AutoCAD 2000
 90
        0
280
     0
281
     0
  0
ENDSEC
  0
SECTION
  2
TABLES
  0
TABLE
  2
VPORT
  5
8
330
0
100
AcDbSymbolTable
 70
     2
  0
VPORT
  5
186
330
8
100
AcDbSymbolTableRecord
100
AcDbViewportTableRecord
  2
*Active
 70
     0
 10
0.0
 20
0.0
 11
1.0
 21
1.0
 12
32.5
 22
78.0
 13
0.0
 23
0.0
 14
1.0
 24
1.0
 15
0.0
 25
0.0
 16
0.0
 26
0.0
 36
1.0
 17
0.0
 27
0.0
 37
0.0
 40
157.1969309462915
 41
2.078104993597951
 42
50.0
 43
0.0
 44
0.0
 50
0.0
 51
0.0
 71
     0
 72
   100
 73
     1
 74
     3
 75
     0
 76
     0
 77
     0
 78
     0
281
     0
 65
     1
110
0.0
120
0.0
130
0.0
111
1.0
121
0.0
131
0.0
112
0.0
122
1.0
132
0.0
 79
     1
146
0.0
  0
ENDTAB
  0
TABLE
  2
LTYPE
  5
5
330
0
100
AcDbSymbolTable
 70
     1
  0
LTYPE
  5
13
330
5
100
AcDbSymbolTableRecord
100
AcDbLinetypeTableRecord
  2
ByBlock
 70
     0
  3

 72
    65
 73
     0
 40
0.0
  0
LTYPE
  5
14
330
5
100
AcDbSymbolTableRecord
100
AcDbLinetypeTableRecord
  2
ByLayer
 70
     0
  3

 72
    65
 73
     0
 40
0.0
  0
LTYPE
  5
15
330
5
100
AcDbSymbolTableRecord
100
AcDbLinetypeTableRecord
  2
Continuous
 70
     0
  3
Solid line
 72
    65
 73
     0
 40
0.0
  0
ENDTAB
  0
TABLE
  2
LAYER
  5
2
330
0
100
AcDbSymbolTable
 70
     1
  0
LAYER
  5
10
330
2
100
AcDbSymbolTableRecord
100
AcDbLayerTableRecord
  2
0
 70
     0
 62
     7
  6
Continuous
370
    -3
390
F
  0
ENDTAB
  0
TABLE
  2
STYLE
  5
3
330
0
100
AcDbSymbolTable
 70
     1
  0
STYLE
  5
11
330
3
100
AcDbSymbolTableRecord
100
AcDbTextStyleTableRecord
  2
Standard
 70
     0
 40
0.0
 41
1.0
 50
0.0
 71
     0
 42
0.2
  3
txt
  4

  0
ENDTAB
  0
TABLE
  2
VIEW
  5
6
330
0
100
AcDbSymbolTable
 70
     0
  0
ENDTAB
  0
TABLE
  2
UCS
  5
7
330
0
100
AcDbSymbolTable
 70
     0
  0
ENDTAB
  0
TABLE
  2
APPID
  5
9
330
0
100
AcDbSymbolTable
 70
     1
  0
APPID
  5
12
330
9
100
AcDbSymbolTableRecord
100
AcDbRegAppTableRecord
  2
ACAD
 70
     0
  0
ENDTAB
  0
TABLE
  2
DIMSTYLE
  5
A
330
0
100
AcDbSymbolTable
 70
     1
100
AcDbDimStyleTable
 71
     0
  0
DIMSTYLE
105
17F
330
A
100
AcDbSymbolTableRecord
100
AcDbDimStyleTableRecord
  2
Standard
 70
     0
340
11
  0
ENDTAB
  0
TABLE
  2
BLOCK_RECORD
  5
1
330
0
100
AcDbSymbolTable
 70
     0
  0
BLOCK_RECORD
  5
1E
330
1
100
AcDbSymbolTableRecord
100
AcDbBlockTableRecord
  2
*Model_Space
340
21
  0
BLOCK_RECORD
  5
1A
330
1
100
AcDbSymbolTableRecord
100
AcDbBlockTableRecord
  2
*Paper_Space
340
1D
  0
ENDTAB
  0
ENDSEC
  0
SECTION
  2
BLOCKS
  0
BLOCK
  5
1F
330
1E
100
AcDbEntity
  8
0
100
AcDbBlockBegin
  2
*Model_Space
 70
     0
 10
0.0
 20
0.0
 30
0.0
  3
*Model_Space
  1

  0
ENDBLK
  5
20
330
1E
100
AcDbEntity
  8
0
100
AcDbBlockEnd
  0
BLOCK
  5
1B
330
1A
100
AcDbEntity
 67
     1
  8
0
100
AcDbBlockBegin
  2
*Paper_Space
 70
     0
 10
0.0
 20
0.0
 30
0.0
  3
*Paper_Space
  1

  0
ENDBLK
  5
1C
330
1A
100
AcDbEntity
 67
     1
  8
0
100
AcDbBlockEnd
  0
ENDSEC
  0
SECTION
  2
ENTITIES
  0
LINE
  5
22
330
1E
100
AcDbEntity
  8
0
100
AcDbLine
 10
-0.0000000000000018
 20
-0.0000000000000049
 30
0.0
 11
0.9999999999999978
 21
2.0
 31
0.0
  0
LINE
  5
23
330
1E
100
AcDbEntity
  8
0
100
AcDbLine
 10
1.1
 20
-0.0000000000000045
 30
0.0
 11
4.299999999999999
 21
-0.000000000000004
 31
0.0
  0
LINE
  5
24
330
1E
100
AcDbEntity
  8
0
100
AcDbLine
 10
4.299999999999999
 20
-0.000000000000004
 30
0.0
 11
9.5
 21
-0.0000000000000036
 31
0.0
  0
LINE
  5
25
330
1E
100
AcDbEntity
  8
0
100
AcDbLine
 10
3.5
 20
9.499999999999991
 30
0.0
 11
4.5
 21
10.5
 31
0.0
  0
LINE
  5
26
330
1E
100
AcDbEntity
  8
0
100
AcDbLine
 10
3.5
 20
9.499999999999991
 30
0.0
 11
3.5
 21
7.99999999999999
 31
0.0
  0
LINE
  5
28
330
1E
100
AcDbEntity
  8
0
100
AcDbLine
 10
3.5
 20
7.99999999999999
 30
0.0
 11
4.5
 21
6.99999999999999
 31
0.0
  0
LINE
  5
29
330
1E
100
AcDbEntity
  8
0
100
AcDbLine
 10
3.5
 20
7.99999999999999
 30
0.0
 11
3.5
 21
9.499999999999991
 31
0.0
  0
LINE
  5
2B
330
1E
100
AcDbEntity
  8
0
100
AcDbLine
 10
2.5
 20
5.0
 30
0.0
 11
4.5
 21
6.99999999999999
 31
0.0
  0
LINE
  5
2C
330
1E
100
AcDbEntity
  8
0
100
AcDbLine
 10
0.9999999999999978
 20
2.0
 30
0.0
 11
2.5
 21
5.0
 31
0.0
  0
LINE
  5
2D
330
1E
100
AcDbEntity
  8
0
100
AcDbLine
 10
-0.0000000000000018
 20
-0.000000000000005
 30
0.0
 11
0.9999999999999978
 21
2.0
 31
0.0
  0
LINE
  5
2E
330
1E
100
AcDbEntity
  8
0
100
AcDbLine
 10
-0.0000000000000018
 20
-0.000000000000005
 30
0.0
 11
1.1
 21
-0.0000000000000055
 31
0.0
  0
LINE
  5
2F
330
1E
100
AcDbEntity
  8
0
100
AcDbLine
 10
-0.0000000000000018
 20
-0.000000000000005
 30
0.0
 11
1.1
 21
-0.0000000000000045
 31
0.0
  0
LINE
  5
30
330
1E
100
AcDbEntity
  8
0
100
AcDbLine
 10
1.1
 20
-0.0000000000000055
 30
0.0
 11
4.299999999999999
 21
-0.000000000000006
 31
0.0
  0
LINE
  5
31
330
1E
100
AcDbEntity
  8
0
100
AcDbLine
 10
4.5
 20
6.99999999999999
 30
0.0
 11
5.5
 21
7.0
 31
0.0
  0
LINE
  5
34
330
1E
100
AcDbEntity
  8
0
100
AcDbLine
 10
4.5
 20
94.0
 30
0.0
 11
5.5
 21
95.0
 31
0.0
  0
LINE
  5
35
330
1E
100
AcDbEntity
  8
0
100
AcDbLine
 10
4.5
 20
94.0
 30
0.0
 11
5.5
 21
94.0
 31
0.0
  0
LINE
  5
36
330
1E
100
AcDbEntity
  8
0
100
AcDbLine
 10
4.5
 20
94.0
 30
0.0
 11
4.5
 21
10.5
 31
0.0
  0
LINE
  5
37
330
1E
100
AcDbEntity
  8
0
100
AcDbLine
 10
5.5
 20
10.5
 30
0.0
 11
8.199999999999999
 21
10.5
 31
0.0
  0
LINE
  5
38
330
1E
100
AcDbEntity
  8
0
100
AcDbLine
 10
5.5
 20
95.0
 30
0.0
 11
6.4
 21
95.0
 31
0.0
  0
LINE
  5
39
330
1E
100
AcDbEntity
  8
0
100
AcDbLine
 10
5.5
 20
94.0
 30
0.0
 11
8.199999999999999
 21
94.0
 31
0.0
  0
LINE
  5
3A
330
1E
100
AcDbEntity
  8
0
100
AcDbLine
 10
5.5
 20
7.0
 30
0.0
 11
8.199999999999999
 21
7.0
 31
0.0
  0
LINE
  5
3B
330
1E
100
AcDbEntity
  8
0
100
AcDbLine
 10
4.5
 20
10.5
 30
0.0
 11
4.5
 21
94.0
 31
0.0
  0
LINE
  5
3C
330
1E
100
AcDbEntity
  8
0
100
AcDbLine
 10
4.5
 20
10.5
 30
0.0
 11
5.5
 21
10.5
 31
0.0
  0
LINE
  5
3D
330
1E
100
AcDbEntity
  8
0
100
AcDbLine
 10
4.299999999999999
 20
-0.000000000000006
 30
0.0
 11
9.5
 21
-0.0000000000000064
 31
0.0
  0
LINE
  5
3E
330
1E
100
AcDbEntity
  8
0
100
AcDbLine
 10
5.5
 20
121.5
 30
0.0
 11
7.5
 21
127.0
 31
0.0
  0
LINE
  5
3F
330
1E
100
AcDbEntity
  8
0
100
AcDbLine
 10
4.5
 20
114.0
 30
0.0
 11
5.5
 21
121.5
 31
0.0
  0
LINE
  5
40
330
1E
100
AcDbEntity
  8
0
100
AcDbLine
 10
4.5
 20
114.0
 30
0.0
 11
4.5
 21
110.0
 31
0.0
  0
LINE
  5
41
330
1E
100
AcDbEntity
  8
0
100
AcDbLine
 10
4.5
 20
110.0
 30
0.0
 11
5.5
 21
102.0
 31
0.0
  0
LINE
  5
42
330
1E
100
AcDbEntity
  8
0
100
AcDbLine
 10
4.5
 20
110.0
 30
0.0
 11
4.5
 21
114.0
 31
0.0
  0
LINE
  5
43
330
1E
100
AcDbEntity
  8
0
100
AcDbLine
 10
6.4
 20
95.0
 30
0.0
 11
9.099999999999999
 21
95.0
 31
0.0
  0
LINE
  5
46
330
1E
100
AcDbEntity
  8
0
100
AcDbLine
 10
8.199999999999999
 20
10.5
 30
0.0
 11
12.7
 21
10.5
 31
0.0
  0
LINE
  5
47
330
1E
100
AcDbEntity
  8
0
100
AcDbLine
 10
8.0
 20
95.0
 30
0.0
 11
8.0
 21
97.0
 31
0.0
  0
LINE
  5
48
330
1E
100
AcDbEntity
  8
0
100
AcDbLine
 10
8.0
 20
97.0
 30
0.0
 11
8.0
 21
95.0
 31
0.0
  0
LINE
  5
49
330
1E
100
AcDbEntity
  8
0
100
AcDbLine
 10
8.0
 20
97.0
 30
0.0
 11
8.166666666666669
 21
98.0
 31
0.0
  0
LINE
  5
4A
330
1E
100
AcDbEntity
  8
0
100
AcDbLine
 10
9.099999999999999
 20
95.0
 30
0.0
 11
13.4
 21
95.0
 31
0.0
  0
LINE
  5
4B
330
1E
100
AcDbEntity
  8
0
100
AcDbLine
 10
8.199999999999999
 20
94.0
 30
0.0
 11
12.7
 21
94.0
 31
0.0
  0
LINE
  5
4C
330
1E
100
AcDbEntity
  8
0
100
AcDbLine
 10
7.599999999999999
 20
77.40000000000001
 30
0.0
 11
9.641110000000001
 21
82.59999999999999
 31
0.0
  0
LINE
  5
4D
330
1E
100
AcDbEntity
  8
0
100
AcDbLine
 10
8.199999999999999
 20
7.0
 30
0.0
 11
12.7
 21
7.0
 31
0.0
  0
LINE
  5
4E
330
1E
100
AcDbEntity
  8
0
100
AcDbLine
 10
9.641110000000001
 20
82.59999999999999
 30
0.0
 11
10.7
 21
87.65489999999999
 31
0.0
  0
LINE
  5
4F
330
1E
100
AcDbEntity
  8
0
100
AcDbLine
 10
9.5
 20
-0.0000000000000036
 30
0.0
 11
16.3
 21
-0.0000000000000032
 31
0.0
  0
LINE
  5
50
330
1E
100
AcDbEntity
  8
0
100
AcDbLine
 10
9.5
 20
-0.0000000000000064
 30
0.0
 11
16.3
 21
-0.0000000000000067
 31
0.0
  0
LINE
  5
51
330
1E
100
AcDbEntity
  8
0
100
AcDbLine
 10
6.5
 20
98.0
 30
0.0
 11
7.4
 21
98.0
 31
0.0
  0
LINE
  5
52
330
1E
100
AcDbEntity
  8
0
100
AcDbLine
 10
7.4
 20
98.0
 30
0.0
 11
9.9
 21
98.0
 31
0.0
  0
LINE
  5
53
330
1E
100
AcDbEntity
  8
0
100
AcDbLine
 10
32.5
 20
-0.000000000000007
 30
0.0
 11
40.89999999999999
 21
-0.0000000000000069
 31
0.0
  0
LINE
  5
55
330
1E
100
AcDbEntity
  8
0
100
AcDbLine
 10
12.7
 20
10.5
 30
0.0
 11
18.6
 21
10.5
 31
0.0
  0
LINE
  5
57
330
1E
100
AcDbEntity
  8
0
100
AcDbLine
 10
12.0
 20
91.37030000000001
 30
0.0
 11
14.1
 21
95.6
 31
0.0
  0
LINE
  5
58
330
1E
100
AcDbEntity
  8
0
100
AcDbLine
 10
10.7
 20
87.65489999999999
 30
0.0
 11
12.0
 21
91.37030000000001
 31
0.0
  0
LINE
  5
59
330
1E
100
AcDbEntity
  8
0
100
AcDbLine
 10
15.09999999999999
 20
79.09600000000001
 30
0.0
 11
16.89999999999999
 21
81.72780000000001
 31
0.0
  0
LINE
  5
5A
330
1E
100
AcDbEntity
  8
0
100
AcDbLine
 10
14.5
 20
76.37430000000001
 30
0.0
 11
15.09999999999999
 21
73.5527
 31
0.0
  0
LINE
  5
5B
330
1E
100
AcDbEntity
  8
0
100
AcDbLine
 10
14.5
 20
76.37430000000001
 30
0.0
 11
15.09999999999999
 21
79.09600000000001
 31
0.0
  0
LINE
  5
5C
330
1E
100
AcDbEntity
  8
0
100
AcDbLine
 10
15.09999999999999
 20
73.5527
 30
0.0
 11
16.89999999999999
 21
71.02079999999999
 31
0.0
  0
LINE
  5
5D
330
1E
100
AcDbEntity
  8
0
100
AcDbLine
 10
13.4
 20
95.0
 30
0.0
 11
13.8021065323782
 21
95.0
 31
0.0
  0
LINE
  5
5E
330
1E
100
AcDbEntity
  8
0
100
AcDbLine
 10
14.1
 20
95.6
 30
0.0
 11
17.5
 21
99.3303
 31
0.0
  0
LINE
  5
5F
330
1E
100
AcDbEntity
  8
0
100
AcDbLine
 10
14.0
 20
82.64689999999999
 30
0.0
 11
14.5
 21
76.37430000000001
 31
0.0
  0
LINE
  5
61
330
1E
100
AcDbEntity
  8
0
100
AcDbLine
 10
12.7
 20
7.0
 30
0.0
 11
18.6
 21
7.0
 31
0.0
  0
LINE
  5
62
330
1E
100
AcDbEntity
  8
0
100
AcDbLine
 10
16.3
 20
-0.0000000000000032
 30
0.0
 11
24.1
 21
-0.0000000000000031
 31
0.0
  0
LINE
  5
67
330
1E
100
AcDbEntity
  8
0
100
AcDbLine
 10
18.7
 20
70.02209999999999
 30
0.0
 11
21.3
 21
68.04949999999999
 31
0.0
  0
LINE
  5
68
330
1E
100
AcDbEntity
  8
0
100
AcDbLine
 10
17.19999999999999
 20
77.25329999999999
 30
0.0
 11
18.7
 21
79.5056
 31
0.0
  0
LINE
  5
69
330
1E
100
AcDbEntity
  8
0
100
AcDbLine
 10
16.89999999999999
 20
81.72780000000001
 30
0.0
 11
19.8
 21
83.98009999999999
 31
0.0
  0
LINE
  5
6A
330
1E
100
AcDbEntity
  8
0
100
AcDbLine
 10
16.6
 20
74.8113
 30
0.0
 11
17.19999999999999
 21
72.2694
 31
0.0
  0
LINE
  5
6B
330
1E
100
AcDbEntity
  8
0
100
AcDbLine
 10
16.6
 20
74.8113
 30
0.0
 11
17.19999999999999
 21
77.25329999999999
 31
0.0
  0
LINE
  5
6C
330
1E
100
AcDbEntity
  8
0
100
AcDbLine
 10
18.7
 20
79.5056
 30
0.0
 11
21.3
 21
81.47820000000001
 31
0.0
  0
LINE
  5
6D
330
1E
100
AcDbEntity
  8
0
100
AcDbLine
 10
19.8
 20
83.98009999999999
 30
0.0
 11
23.5
 21
85.7679
 31
0.0
  0
LINE
  5
6E
330
1E
100
AcDbEntity
  8
0
100
AcDbLine
 10
17.19999999999999
 20
72.2694
 30
0.0
 11
18.7
 21
70.02209999999999
 31
0.0
  0
LINE
  5
6F
330
1E
100
AcDbEntity
  8
0
100
AcDbLine
 10
16.89999999999999
 20
71.02079999999999
 30
0.0
 11
19.8
 21
68.76850000000001
 31
0.0
  0
LINE
  5
70
330
1E
100
AcDbEntity
  8
0
100
AcDbLine
 10
24.0
 20
66.1864
 30
0.0
 11
26.5
 21
65.05580000000001
 31
0.0
  0
LINE
  5
71
330
1E
100
AcDbEntity
  8
0
100
AcDbLine
 10
22.1
 20
67.67399999999999
 30
0.0
 11
24.0
 21
66.1864
 31
0.0
  0
LINE
  5
72
330
1E
100
AcDbEntity
  8
0
100
AcDbLine
 10
20.5
 20
74.8113
 30
0.0
 11
20.5
 21
71.2443
 31
0.0
  0
LINE
  5
73
330
1E
100
AcDbEntity
  8
0
100
AcDbLine
 10
20.89999999999999
 20
69.39960000000001
 30
0.0
 11
22.1
 21
67.67399999999999
 31
0.0
  0
LINE
  5
74
330
1E
100
AcDbEntity
  8
0
100
AcDbLine
 10
22.1
 20
74.8146
 30
0.0
 11
24.0
 21
76.3023
 31
0.0
  0
LINE
  5
75
330
1E
100
AcDbEntity
  8
0
100
AcDbLine
 10
20.89999999999999
 20
73.08889999999999
 30
0.0
 11
22.1
 21
74.8146
 31
0.0
  0
LINE
  5
76
330
1E
100
AcDbEntity
  8
0
100
AcDbLine
 10
20.5
 20
71.2443
 30
0.0
 11
20.89999999999999
 21
73.08889999999999
 31
0.0
  0
LINE
  5
77
330
1E
100
AcDbEntity
  8
0
100
AcDbLine
 10
20.5
 20
71.2443
 30
0.0
 11
20.89999999999999
 21
69.39960000000001
 31
0.0
  0
LINE
  5
78
330
1E
100
AcDbEntity
  8
0
100
AcDbLine
 10
20.5
 20
71.2443
 30
0.0
 11
20.5
 21
74.8113
 31
0.0
  0
LINE
  5
79
330
1E
100
AcDbEntity
  8
0
100
AcDbLine
 10
21.3
 20
81.47820000000001
 30
0.0
 11
24.6
 21
83.0762
 31
0.0
  0
LINE
  5
7A
330
1E
100
AcDbEntity
  8
0
100
AcDbLine
 10
24.0
 20
76.3023
 30
0.0
 11
26.5
 21
77.4328
 31
0.0
  0
LINE
  5
7B
330
1E
100
AcDbEntity
  8
0
100
AcDbLine
 10
24.6
 20
83.0762
 30
0.0
 11
28.39999999999999
 21
84.0201
 31
0.0
  0
LINE
  5
7C
330
1E
100
AcDbEntity
  8
0
100
AcDbLine
 10
23.5
 20
85.7679
 30
0.0
 11
27.8
 21
86.80159999999998
 31
0.0
  0
LINE
  5
7D
330
1E
100
AcDbEntity
  8
0
100
AcDbLine
 10
21.3
 20
68.04949999999999
 30
0.0
 11
22.0887144531491
 21
67.6902286163716
 31
0.0
  0
LINE
  5
7E
330
1E
100
AcDbEntity
  8
0
100
AcDbLine
 10
21.3
 20
68.04949999999999
 30
0.0
 11
22.0887144531491
 21
67.6902286163716
 31
0.0
  0
LINE
  5
7F
330
1E
100
AcDbEntity
  8
0
100
AcDbLine
 10
19.8
 20
68.76850000000001
 30
0.0
 11
22.1561623878897
 21
67.6300278061975
 31
0.0
  0
LINE
  5
80
330
1E
100
AcDbEntity
  8
0
100
AcDbLine
 10
18.6
 20
10.5
 30
0.0
 11
25.3
 21
10.5
 31
0.0
  0
LINE
  5
81
330
1E
100
AcDbEntity
  8
0
100
AcDbLine
 10
25.3
 20
10.5
 30
0.0
 11
32.5
 21
10.5
 31
0.0
  0
LINE
  5
82
330
1E
100
AcDbEntity
  8
0
100
AcDbLine
 10
18.6
 20
7.0
 30
0.0
 11
25.3
 21
7.0
 31
0.0
  0
LINE
  5
83
330
1E
100
AcDbEntity
  8
0
100
AcDbLine
 10
26.5
 20
65.05580000000001
 30
0.0
 11
29.39999999999999
 21
64.3417
 31
0.0
  0
LINE
  5
84
330
1E
100
AcDbEntity
  8
0
100
AcDbLine
 10
26.5
 20
77.4328
 30
0.0
 11
29.39999999999999
 21
78.1469
 31
0.0
  0
LINE
  5
85
330
1E
100
AcDbEntity
  8
0
100
AcDbLine
 10
32.5
 20
64.1037
 30
0.0
 11
35.6
 21
64.3417
 31
0.0
  0
LINE
  5
86
330
1E
100
AcDbEntity
  8
0
100
AcDbLine
 10
29.39999999999999
 20
64.3417
 30
0.0
 11
32.5
 21
64.1037
 31
0.0
  0
LINE
  5
87
330
1E
100
AcDbEntity
  8
0
100
AcDbLine
 10
32.5
 20
78.3849
 30
0.0
 11
35.6
 21
78.1469
 31
0.0
  0
LINE
  5
88
330
1E
100
AcDbEntity
  8
0
100
AcDbLine
 10
29.39999999999999
 20
78.1469
 30
0.0
 11
32.5
 21
78.3849
 31
0.0
  0
LINE
  5
8B
330
1E
100
AcDbEntity
  8
0
100
AcDbLine
 10
32.5
 20
7.0
 30
0.0
 11
39.7
 21
7.0
 31
0.0
  0
LINE
  5
8C
330
1E
100
AcDbEntity
  8
0
100
AcDbLine
 10
32.5
 20
-0.000000000000003
 30
0.0
 11
40.89999999999999
 21
-0.0000000000000031
 31
0.0
  0
LINE
  5
8D
330
1E
100
AcDbEntity
  8
0
100
AcDbLine
 10
35.6
 20
64.3417
 30
0.0
 11
38.5
 21
65.05580000000001
 31
0.0
  0
LINE
  5
8E
330
1E
100
AcDbEntity
  8
0
100
AcDbLine
 10
35.6
 20
78.1469
 30
0.0
 11
38.5
 21
77.4328
 31
0.0
  0
LINE
  5
8F
330
1E
100
AcDbEntity
  8
0
100
AcDbLine
 10
32.5
 20
10.5
 30
0.0
 11
39.7
 21
10.5
 31
0.0
  0
LINE
  5
90
330
1E
100
AcDbEntity
  8
0
100
AcDbLine
 10
32.5
 20
84.29479999999999
 30
0.0
 11
36.6
 21
84.0201
 31
0.0
  0
LINE
  5
91
330
1E
100
AcDbEntity
  8
0
100
AcDbLine
 10
36.6
 20
84.0201
 30
0.0
 11
40.4
 21
83.0762
 31
0.0
  0
LINE
  5
92
330
1E
100
AcDbEntity
  8
0
100
AcDbLine
 10
28.39999999999999
 20
84.0201
 30
0.0
 11
32.5
 21
84.29479999999999
 31
0.0
  0
LINE
  5
93
330
1E
100
AcDbEntity
  8
0
100
AcDbLine
 10
32.5
 20
87.1762
 30
0.0
 11
37.2
 21
86.80159999999998
 31
0.0
  0
LINE
  5
94
330
1E
100
AcDbEntity
  8
0
100
AcDbLine
 10
27.8
 20
86.80159999999998
 30
0.0
 11
32.5
 21
87.1762
 31
0.0
  0
LINE
  5
95
330
1E
100
AcDbEntity
  8
0
100
AcDbLine
 10
25.3
 20
7.0
 30
0.0
 11
32.5
 21
7.0
 31
0.0
  0
LINE
  5
96
330
1E
100
AcDbEntity
  8
0
100
AcDbLine
 10
24.1
 20
-0.0000000000000031
 30
0.0
 11
32.5
 21
-0.000000000000003
 31
0.0
  0
LINE
  5
97
330
1E
100
AcDbEntity
  8
0
100
AcDbLine
 10
16.3
 20
-0.0000000000000067
 30
0.0
 11
24.1
 21
-0.0000000000000069
 31
0.0
  0
LINE
  5
98
330
1E
100
AcDbEntity
  8
0
100
AcDbLine
 10
24.1
 20
-0.0000000000000069
 30
0.0
 11
32.5
 21
-0.000000000000007
 31
0.0
  0
LINE
  5
99
330
1E
100
AcDbEntity
  8
0
100
AcDbLine
 10
9.9
 20
98.0
 30
0.0
 11
14.1
 21
98.0
 31
0.0
  0
LINE
  5
9A
330
1E
100
AcDbEntity
  8
0
100
AcDbLine
 10
32.5
 20
120.046
 30
0.0
 11
34.0097
 21
120.2199999999999
 31
0.0
  0
LINE
  5
9B
330
1E
100
AcDbEntity
  8
0
100
AcDbLine
 10
30.9903
 20
120.2199999999999
 30
0.0
 11
32.5
 21
120.046
 31
0.0
  0
LINE
  5
9C
330
1E
100
AcDbEntity
  8
0
100
AcDbLine
 10
29.5968
 20
120.742
 30
0.0
 11
30.9903
 21
120.2199999999999
 31
0.0
  0
LINE
  5
9D
330
1E
100
AcDbEntity
  8
0
100
AcDbLine
 10
32.5
 20
120.9189999999999
 30
0.0
 11
34.0097
 21
121.0929999999999
 31
0.0
  0
LINE
  5
9E
330
1E
100
AcDbEntity
  8
0
100
AcDbLine
 10
30.9903
 20
121.0929999999999
 30
0.0
 11
32.5
 21
120.9189999999999
 31
0.0
  0
LINE
  5
9F
330
1E
100
AcDbEntity
  8
0
100
AcDbLine
 10
29.5968
 20
121.615
 30
0.0
 11
30.9903
 21
121.0929999999999
 31
0.0
  0
LINE
  5
A0
330
1E
100
AcDbEntity
  8
0
100
AcDbLine
 10
29.5513354151076
 20
120.7736736608079
 30
0.0
 11
29.5968
 21
120.742
 31
0.0
  0
LINE
  5
A1
330
1E
100
AcDbEntity
  8
0
100
AcDbLine
 10
29.5193
 20
120.7859999999999
 30
0.0
 11
29.5968
 21
120.742
 31
0.0
  0
LINE
  5
A2
330
1E
100
AcDbEntity
  8
0
100
AcDbLine
 10
28.2419
 20
121.657
 30
0.0
 11
29.5193
 21
120.7859999999999
 31
0.0
  0
LINE
  5
A3
330
1E
100
AcDbEntity
  8
0
100
AcDbLine
 10
35.40319999999999
 20
121.615
 30
0.0
 11
36.6032
 21
122.451
 31
0.0
  0
LINE
  5
A4
330
1E
100
AcDbEntity
  8
0
100
AcDbLine
 10
34.0097
 20
121.0929999999999
 30
0.0
 11
35.40319999999999
 21
121.615
 31
0.0
  0
LINE
  5
A5
330
1E
100
AcDbEntity
  8
0
100
AcDbLine
 10
36.7581
 20
121.657
 30
0.0
 11
37.7258
 21
122.8069999999999
 31
0.0
  0
LINE
  5
A6
330
1E
100
AcDbEntity
  8
0
100
AcDbLine
 10
35.4806
 20
120.7859999999999
 30
0.0
 11
36.7581
 21
121.657
 31
0.0
  0
LINE
  5
A7
330
1E
100
AcDbEntity
  8
0
100
AcDbLine
 10
35.40319999999999
 20
120.742
 30
0.0
 11
35.4487852827499
 21
120.773757746982
 31
0.0
  0
LINE
  5
A8
330
1E
100
AcDbEntity
  8
0
100
AcDbLine
 10
35.40319999999999
 20
120.742
 30
0.0
 11
35.4806
 21
120.7859999999999
 31
0.0
  0
LINE
  5
A9
330
1E
100
AcDbEntity
  8
0
100
AcDbLine
 10
34.0097
 20
120.2199999999999
 30
0.0
 11
35.40319999999999
 21
120.742
 31
0.0
  0
LINE
  5
AA
330
1E
100
AcDbEntity
  8
0
100
AcDbLine
 10
32.5
 20
105.5029999999999
 30
0.0
 11
37.6
 21
104.804
 31
0.0
  0
LINE
  5
AB
330
1E
100
AcDbEntity
  8
0
100
AcDbLine
 10
27.4
 20
104.804
 30
0.0
 11
32.5
 21
105.5029999999999
 31
0.0
  0
LINE
  5
AC
330
1E
100
AcDbEntity
  8
0
100
AcDbLine
 10
22.7
 20
103.106
 30
0.0
 11
27.4
 21
104.804
 31
0.0
  0
LINE
  5
AD
330
1E
100
AcDbEntity
  8
0
100
AcDbLine
 10
18.6
 20
100.2099999999999
 30
0.0
 11
22.7
 21
103.106
 31
0.0
  0
LINE
  5
AE
330
1E
100
AcDbEntity
  8
0
100
AcDbLine
 10
17.5
 20
99.3303
 30
0.0
 11
18.6
 21
100.2099999999999
 31
0.0
  0
LINE
  5
AF
330
1E
100
AcDbEntity
  8
0
100
AcDbLine
 10
14.1
 20
98.0
 30
0.0
 11
16.2874916226577
 21
98.0
 31
0.0
  0
LINE
  5
B0
330
1E
100
AcDbEntity
  8
0
100
AcDbLine
 10
5.5
 20
102.0
 30
0.0
 11
6.5
 21
98.0
 31
0.0
  0
LINE
  5
B1
330
1E
100
AcDbEntity
  8
0
100
AcDbLine
 10
36.6032
 20
122.451
 30
0.0
 11
37.5323
 21
123.531
 31
0.0
  0
LINE
  5
B2
330
1E
100
AcDbEntity
  8
0
100
AcDbLine
 10
28.39679999999999
 20
122.451
 30
0.0
 11
29.5968
 21
121.615
 31
0.0
  0
LINE
  5
B3
330
1E
100
AcDbEntity
  8
0
100
AcDbLine
 10
27.4677
 20
123.531
 30
0.0
 11
28.39679999999999
 21
122.451
 31
0.0
  0
LINE
  5
B4
330
1E
100
AcDbEntity
  8
0
100
AcDbLine
 10
26.8871
 20
124.7849999999999
 30
0.0
 11
27.4677
 21
123.531
 31
0.0
  0
LINE
  5
B5
330
1E
100
AcDbEntity
  8
0
100
AcDbLine
 10
27.2742
 20
122.8069999999999
 30
0.0
 11
28.2419
 21
121.657
 31
0.0
  0
LINE
  5
B6
330
1E
100
AcDbEntity
  8
0
100
AcDbLine
 10
26.6935
 20
124.0949999999999
 30
0.0
 11
27.2742
 21
122.8069999999999
 31
0.0
  0
LINE
  5
B8
330
1E
100
AcDbEntity
  8
0
100
AcDbLine
 10
37.5323
 20
123.531
 30
0.0
 11
38.1129
 21
124.7849999999999
 31
0.0
  0
LINE
  5
B9
330
1E
100
AcDbEntity
  8
0
100
AcDbLine
 10
37.7258
 20
122.8069999999999
 30
0.0
 11
38.30639999999999
 21
124.0949999999999
 31
0.0
  0
LINE
  5
BA
330
1E
100
AcDbEntity
  8
0
100
AcDbLine
 10
38.1129
 20
124.7849999999999
 30
0.0
 11
38.30639999999999
 21
126.1429999999999
 31
0.0
  0
LINE
  5
BB
330
1E
100
AcDbEntity
  8
0
100
AcDbLine
 10
37.6
 20
104.804
 30
0.0
 11
42.29999999999999
 21
103.106
 31
0.0
  0
LINE
  5
BC
330
1E
100
AcDbEntity
  8
0
100
AcDbLine
 10
37.2
 20
86.80159999999998
 30
0.0
 11
41.5
 21
85.7679
 31
0.0
  0
LINE
  5
BE
330
1E
100
AcDbEntity
  8
0
100
AcDbLine
 10
26.5
 20
125.9249999999999
 30
0.0
 11
26.5
 21
125.4879999999999
 31
0.0
  0
LINE
  5
BF
330
1E
100
AcDbEntity
  8
0
100
AcDbLine
 10
26.5
 20
125.9249999999999
 30
0.0
 11
26.6935
 21
127.3179999999999
 31
0.0
  0
LINE
  5
C0
330
1E
100
AcDbEntity
  8
0
100
AcDbLine
 10
26.5
 20
125.4879999999999
 30
0.0
 11
26.6935
 21
124.0949999999999
 31
0.0
  0
LINE
  5
C1
330
1E
100
AcDbEntity
  8
0
100
AcDbLine
 10
26.5
 20
125.4879999999999
 30
0.0
 11
26.5
 21
125.9249999999999
 31
0.0
  0
LINE
  5
C2
330
1E
100
AcDbEntity
  8
0
100
AcDbLine
 10
17.5
 20
137.0
 30
0.0
 11
18.0
 21
137.0
 31
0.0
  0
LINE
  5
C3
330
1E
100
AcDbEntity
  8
0
100
AcDbLine
 10
18.0
 20
137.0
 30
0.0
 11
19.5
 21
137.0
 31
0.0
  0
LINE
  5
C4
330
1E
100
AcDbEntity
  8
0
100
AcDbLine
 10
19.5
 20
137.0
 30
0.0
 11
21.89999999999999
 21
137.0
 31
0.0
  0
LINE
  5
C5
330
1E
100
AcDbEntity
  8
0
100
AcDbLine
 10
17.0
 20
138.5
 30
0.0
 11
17.5
 21
139.0
 31
0.0
  0
LINE
  5
C6
330
1E
100
AcDbEntity
  8
0
100
AcDbLine
 10
17.0
 20
138.5
 30
0.0
 11
17.0
 21
137.5
 31
0.0
  0
LINE
  5
D1
330
1E
100
AcDbEntity
  8
0
100
AcDbLine
 10
17.0
 20
137.5
 30
0.0
 11
17.0
 21
138.5
 31
0.0
  0
LINE
  5
D3
330
1E
100
AcDbEntity
  8
0
100
AcDbLine
 10
21.89999999999999
 20
137.0
 30
0.0
 11
25.0
 21
137.0
 31
0.0
  0
LINE
  5
D4
330
1E
100
AcDbEntity
  8
0
100
AcDbLine
 10
25.0
 20
137.0
 30
0.0
 11
25.8722540473225
 21
137.0
 31
0.0
  0
LINE
  5
D5
330
1E
100
AcDbEntity
  8
0
100
AcDbLine
 10
11.5
 20
132.0
 30
0.0
 11
17.5
 21
137.0
 31
0.0
  0
LINE
  5
D6
330
1E
100
AcDbEntity
  8
0
100
AcDbLine
 10
7.5
 20
127.0
 30
0.0
 11
11.5
 21
132.0
 31
0.0
  0
LINE
  5
D7
330
1E
100
AcDbEntity
  8
0
100
AcDbLine
 10
25.7
 20
138.7289999999999
 30
0.0
 11
26.5
 21
130.6989999999999
 31
0.0
  0
LINE
  5
D8
330
1E
100
AcDbEntity
  8
0
100
AcDbLine
 10
26.6935
 20
127.3179999999999
 30
0.0
 11
26.951806040336
 21
127.890926089121
 31
0.0
  0
LINE
  5
D9
330
1E
100
AcDbEntity
  8
0
100
AcDbLine
 10
38.1129
 20
127.5009999999999
 30
0.0
 11
38.30639999999999
 21
126.1429999999999
 31
0.0
  0
LINE
  5
DA
330
1E
100
AcDbEntity
  8
0
100
AcDbLine
 10
38.0481777792125
 20
127.890838822553
 30
0.0
 11
38.30639999999999
 21
127.3179999999999
 31
0.0
  0
LINE
  5
DB
330
1E
100
AcDbEntity
  8
0
100
AcDbLine
 10
38.0150725275287
 20
127.712291165138
 30
0.0
 11
38.1129
 21
127.5009999999999
 31
0.0
  0
LINE
  5
DC
330
1E
100
AcDbEntity
  8
0
100
AcDbLine
 10
26.8871
 20
127.5009999999999
 30
0.0
 11
26.98492747247129
 21
127.712291165138
 31
0.0
  0
LINE
  5
DD
330
1E
100
AcDbEntity
  8
0
100
AcDbLine
 10
26.6935
 20
126.1429999999999
 30
0.0
 11
26.8871
 21
124.7849999999999
 31
0.0
  0
LINE
  5
DE
330
1E
100
AcDbEntity
  8
0
100
AcDbLine
 10
26.6935
 20
126.1429999999999
 30
0.0
 11
26.8871
 21
127.5009999999999
 31
0.0
  0
LINE
  5
DF
330
1E
100
AcDbEntity
  8
0
100
AcDbLine
 10
26.69999999999999
 20
129.2489999999999
 30
0.0
 11
27.5001857357561
 21
124.933331598489
 31
0.0
  0
LINE
  5
E0
330
1E
100
AcDbEntity
  8
0
100
AcDbLine
 10
26.5
 20
130.6989999999999
 30
0.0
 11
26.69999999999999
 21
129.2489999999999
 31
0.0
  0
LINE
  5
E1
330
1E
100
AcDbEntity
  8
0
100
AcDbLine
 10
37.49981426424389
 20
124.933331598489
 30
0.0
 11
38.3
 21
129.2489999999999
 31
0.0
  0
LINE
  5
E2
330
1E
100
AcDbEntity
  8
0
100
AcDbLine
 10
38.30639999999999
 20
127.3179999999999
 30
0.0
 11
38.5
 21
125.9249999999999
 31
0.0
  0
LINE
  5
E3
330
1E
100
AcDbEntity
  8
0
100
AcDbLine
 10
38.5
 20
65.05580000000001
 30
0.0
 11
41.0
 21
66.1864
 31
0.0
  0
LINE
  5
E4
330
1E
100
AcDbEntity
  8
0
100
AcDbLine
 10
38.5
 20
77.4328
 30
0.0
 11
41.0
 21
76.3023
 31
0.0
  0
LINE
  5
E5
330
1E
100
AcDbEntity
  8
0
100
AcDbLine
 10
38.5
 20
125.9249999999999
 30
0.0
 11
38.5
 21
125.4879999999999
 31
0.0
  0
LINE
  5
E6
330
1E
100
AcDbEntity
  8
0
100
AcDbLine
 10
38.5
 20
125.4879999999999
 30
0.0
 11
38.5
 21
125.9249999999999
 31
0.0
  0
LINE
  5
E7
330
1E
100
AcDbEntity
  8
0
100
AcDbLine
 10
38.30639999999999
 20
124.0949999999999
 30
0.0
 11
38.5
 21
125.4879999999999
 31
0.0
  0
LINE
  5
E8
330
1E
100
AcDbEntity
  8
0
100
AcDbLine
 10
39.7
 20
10.5
 30
0.0
 11
46.39999999999999
 21
10.5
 31
0.0
  0
LINE
  5
E9
330
1E
100
AcDbEntity
  8
0
100
AcDbLine
 10
39.7
 20
7.0
 30
0.0
 11
46.39999999999999
 21
7.0
 31
0.0
  0
LINE
  5
EC
330
1E
100
AcDbEntity
  8
0
100
AcDbLine
 10
39.1277459526775
 20
137.0
 30
0.0
 11
40.0
 21
137.0
 31
0.0
  0
LINE
  5
ED
330
1E
100
AcDbEntity
  8
0
100
AcDbLine
 10
38.5
 20
130.6989999999999
 30
0.0
 11
39.29999999999999
 21
138.7289999999999
 31
0.0
  0
LINE
  5
EE
330
1E
100
AcDbEntity
  8
0
100
AcDbLine
 10
38.3
 20
129.2489999999999
 30
0.0
 11
38.5
 21
130.6989999999999
 31
0.0
  0
LINE
  5
EF
330
1E
100
AcDbEntity
  8
0
100
AcDbLine
 10
17.5
 20
139.0
 30
0.0
 11
18.0
 21
139.0
 31
0.0
  0
LINE
  5
F0
330
1E
100
AcDbEntity
  8
0
100
AcDbLine
 10
17.5
 20
139.0
 30
0.0
 11
21.0
 21
140.5
 31
0.0
  0
LINE
  5
F1
330
1E
100
AcDbEntity
  8
0
100
AcDbLine
 10
18.0
 20
139.0
 30
0.0
 11
19.5
 21
139.0
 31
0.0
  0
LINE
  5
F2
330
1E
100
AcDbEntity
  8
0
100
AcDbLine
 10
19.5
 20
139.0
 30
0.0
 11
21.89999999999999
 21
139.0
 31
0.0
  0
LINE
  5
F3
330
1E
100
AcDbEntity
  8
0
100
AcDbLine
 10
21.89999999999999
 20
139.0
 30
0.0
 11
25.0
 21
139.0
 31
0.0
  0
LINE
  5
F4
330
1E
100
AcDbEntity
  8
0
100
AcDbLine
 10
21.0
 20
140.5
 30
0.0
 11
25.505453893075
 21
141.4010907786149
 31
0.0
  0
LINE
  5
F5
330
1E
100
AcDbEntity
  8
0
100
AcDbLine
 10
25.0
 20
139.0
 30
0.0
 11
25.6802693847834
 21
139.0
 31
0.0
  0
LINE
  5
F6
330
1E
100
AcDbEntity
  8
0
100
AcDbLine
 10
39.494546106925
 20
141.4010907786149
 30
0.0
 11
44.0
 21
140.5
 31
0.0
  0
LINE
  5
F7
330
1E
100
AcDbEntity
  8
0
100
AcDbLine
 10
39.3197306152166
 20
139.0
 30
0.0
 11
40.0
 21
139.0
 31
0.0
  0
LINE
  5
F8
330
1E
100
AcDbEntity
  8
0
100
AcDbLine
 10
25.3
 20
149.839
 30
0.0
 11
25.8
 21
151.137
 31
0.0
  0
LINE
  5
F9
330
1E
100
AcDbEntity
  8
0
100
AcDbLine
 10
29.0
 20
155.034
 30
0.0
 11
29.5
 21
155.275
 31
0.0
  0
LINE
  5
FA
330
1E
100
AcDbEntity
  8
0
100
AcDbLine
 10
27.5
 20
154.037
 30
0.0
 11
29.0
 21
155.034
 31
0.0
  0
LINE
  5
FB
330
1E
100
AcDbEntity
  8
0
100
AcDbLine
 10
26.4
 20
152.678
 30
0.0
 11
27.5
 21
154.037
 31
0.0
  0
LINE
  5
FC
330
1E
100
AcDbEntity
  8
0
100
AcDbLine
 10
25.8
 20
151.137
 30
0.0
 11
26.4
 21
152.678
 31
0.0
  0
LINE
  5
FD
330
1E
100
AcDbEntity
  8
0
100
AcDbLine
 10
39.2
 20
151.137
 30
0.0
 11
39.7
 21
149.839
 31
0.0
  0
LINE
  5
FE
330
1E
100
AcDbEntity
  8
0
100
AcDbLine
 10
39.7
 20
149.839
 30
0.0
 11
40.0
 21
148.026
 31
0.0
  0
LINE
  5
FF
330
1E
100
AcDbEntity
  8
0
100
AcDbLine
 10
36.0
 20
155.034
 30
0.0
 11
37.5
 21
154.037
 31
0.0
  0
LINE
  5
100
330
1E
100
AcDbEntity
  8
0
100
AcDbLine
 10
35.5
 20
155.275
 30
0.0
 11
36.0
 21
155.034
 31
0.0
  0
LINE
  5
101
330
1E
100
AcDbEntity
  8
0
100
AcDbLine
 10
37.5
 20
154.037
 30
0.0
 11
38.6
 21
152.678
 31
0.0
  0
LINE
  5
102
330
1E
100
AcDbEntity
  8
0
100
AcDbLine
 10
38.6
 20
152.678
 30
0.0
 11
39.2
 21
151.137
 31
0.0
  0
LINE
  5
103
330
1E
100
AcDbEntity
  8
0
100
AcDbLine
 10
34.1
 20
155.8189999999999
 30
0.0
 11
35.5
 21
155.275
 31
0.0
  0
LINE
  5
104
330
1E
100
AcDbEntity
  8
0
100
AcDbLine
 10
32.5
 20
156.0
 30
0.0
 11
34.1
 21
155.8189999999999
 31
0.0
  0
LINE
  5
105
330
1E
100
AcDbEntity
  8
0
100
AcDbLine
 10
30.89999999999999
 20
155.8189999999999
 30
0.0
 11
32.5
 21
156.0
 31
0.0
  0
LINE
  5
106
330
1E
100
AcDbEntity
  8
0
100
AcDbLine
 10
29.5
 20
155.275
 30
0.0
 11
30.89999999999999
 21
155.8189999999999
 31
0.0
  0
LINE
  5
107
330
1E
100
AcDbEntity
  8
0
100
AcDbLine
 10
25.3
 20
144.2229999999999
 30
0.0
 11
25.7
 21
138.7289999999999
 31
0.0
  0
LINE
  5
108
330
1E
100
AcDbEntity
  8
0
100
AcDbLine
 10
25.0
 20
148.026
 30
0.0
 11
25.3
 21
144.2229999999999
 31
0.0
  0
LINE
  5
109
330
1E
100
AcDbEntity
  8
0
100
AcDbLine
 10
25.0
 20
148.026
 30
0.0
 11
25.3
 21
149.839
 31
0.0
  0
LINE
  5
10A
330
1E
100
AcDbEntity
  8
0
100
AcDbLine
 10
39.29999999999999
 20
138.7289999999999
 30
0.0
 11
39.7
 21
144.2229999999999
 31
0.0
  0
LINE
  5
10B
330
1E
100
AcDbEntity
  8
0
100
AcDbLine
 10
40.89999999999999
 20
-0.0000000000000069
 30
0.0
 11
48.7
 21
-0.0000000000000067
 31
0.0
  0
LINE
  5
10D
330
1E
100
AcDbEntity
  8
0
100
AcDbLine
 10
41.0
 20
66.1864
 30
0.0
 11
42.9
 21
67.67399999999999
 31
0.0
  0
LINE
  5
10F
330
1E
100
AcDbEntity
  8
0
100
AcDbLine
 10
40.89999999999999
 20
-0.0000000000000031
 30
0.0
 11
48.7
 21
-0.0000000000000032
 31
0.0
  0
LINE
  5
110
330
1E
100
AcDbEntity
  8
0
100
AcDbLine
 10
42.9
 20
67.67399999999999
 30
0.0
 11
44.1
 21
69.39960000000001
 31
0.0
  0
LINE
  5
111
330
1E
100
AcDbEntity
  8
0
100
AcDbLine
 10
42.84383761211029
 20
67.6300278061975
 30
0.0
 11
45.2
 21
68.76850000000001
 31
0.0
  0
LINE
  5
112
330
1E
100
AcDbEntity
  8
0
100
AcDbLine
 10
41.0
 20
76.3023
 30
0.0
 11
42.9
 21
74.8146
 31
0.0
  0
LINE
  5
113
330
1E
100
AcDbEntity
  8
0
100
AcDbLine
 10
42.9
 20
74.8146
 30
0.0
 11
44.1
 21
73.08889999999999
 31
0.0
  0
LINE
  5
114
330
1E
100
AcDbEntity
  8
0
100
AcDbLine
 10
44.1
 20
69.39960000000001
 30
0.0
 11
44.5
 21
71.2443
 31
0.0
  0
LINE
  5
115
330
1E
100
AcDbEntity
  8
0
100
AcDbLine
 10
44.5
 20
74.8113
 30
0.0
 11
44.5
 21
71.2443
 31
0.0
  0
LINE
  5
116
330
1E
100
AcDbEntity
  8
0
100
AcDbLine
 10
44.5
 20
71.2443
 30
0.0
 11
44.5
 21
74.8113
 31
0.0
  0
LINE
  5
117
330
1E
100
AcDbEntity
  8
0
100
AcDbLine
 10
44.1
 20
73.08889999999999
 30
0.0
 11
44.5
 21
71.2443
 31
0.0
  0
LINE
  5
118
330
1E
100
AcDbEntity
  8
0
100
AcDbLine
 10
45.2
 20
68.76850000000001
 30
0.0
 11
48.1
 21
71.02079999999999
 31
0.0
  0
LINE
  5
119
330
1E
100
AcDbEntity
  8
0
100
AcDbLine
 10
43.7
 20
68.04949999999999
 30
0.0
 11
46.29999999999999
 21
70.02209999999999
 31
0.0
  0
LINE
  5
11A
330
1E
100
AcDbEntity
  8
0
100
AcDbLine
 10
42.9112855468509
 20
67.6902286163716
 30
0.0
 11
43.7
 21
68.04949999999999
 31
0.0
  0
LINE
  5
11B
330
1E
100
AcDbEntity
  8
0
100
AcDbLine
 10
46.29999999999999
 20
70.02209999999999
 30
0.0
 11
47.8
 21
72.2694
 31
0.0
  0
LINE
  5
11C
330
1E
100
AcDbEntity
  8
0
100
AcDbLine
 10
43.7
 20
81.47820000000001
 30
0.0
 11
46.29999999999999
 21
79.5056
 31
0.0
  0
LINE
  5
11D
330
1E
100
AcDbEntity
  8
0
100
AcDbLine
 10
46.39999999999999
 20
10.5
 30
0.0
 11
52.3
 21
10.5
 31
0.0
  0
LINE
  5
120
330
1E
100
AcDbEntity
  8
0
100
AcDbLine
 10
46.39999999999999
 20
7.0
 30
0.0
 11
52.3
 21
7.0
 31
0.0
  0
LINE
  5
121
330
1E
100
AcDbEntity
  8
0
100
AcDbLine
 10
48.7
 20
-0.0000000000000067
 30
0.0
 11
55.5
 21
-0.0000000000000064
 31
0.0
  0
LINE
  5
122
330
1E
100
AcDbEntity
  8
0
100
AcDbLine
 10
48.7
 20
-0.0000000000000032
 30
0.0
 11
55.5
 21
-0.0000000000000036
 31
0.0
  0
LINE
  5
123
330
1E
100
AcDbEntity
  8
0
100
AcDbLine
 10
50.5
 20
76.37430000000001
 30
0.0
 11
51.0
 21
82.64689999999999
 31
0.0
  0
LINE
  5
124
330
1E
100
AcDbEntity
  8
0
100
AcDbLine
 10
49.9
 20
73.5527
 30
0.0
 11
50.5
 21
76.37430000000001
 31
0.0
  0
LINE
  5
125
330
1E
100
AcDbEntity
  8
0
100
AcDbLine
 10
48.1
 20
71.02079999999999
 30
0.0
 11
49.9
 21
73.5527
 31
0.0
  0
LINE
  5
126
330
1E
100
AcDbEntity
  8
0
100
AcDbLine
 10
47.8
 20
72.2694
 30
0.0
 11
48.39999999999999
 21
74.8113
 31
0.0
  0
LINE
  5
127
330
1E
100
AcDbEntity
  8
0
100
AcDbLine
 10
48.1
 20
81.72780000000001
 30
0.0
 11
49.9
 21
79.09600000000001
 31
0.0
  0
LINE
  5
128
330
1E
100
AcDbEntity
  8
0
100
AcDbLine
 10
49.9
 20
79.09600000000001
 30
0.0
 11
50.5
 21
76.37430000000001
 31
0.0
  0
LINE
  5
129
330
1E
100
AcDbEntity
  8
0
100
AcDbLine
 10
47.8
 20
77.25329999999999
 30
0.0
 11
48.39999999999999
 21
74.8113
 31
0.0
  0
LINE
  5
12A
330
1E
100
AcDbEntity
  8
0
100
AcDbLine
 10
46.29999999999999
 20
79.5056
 30
0.0
 11
47.8
 21
77.25329999999999
 31
0.0
  0
LINE
  5
12B
330
1E
100
AcDbEntity
  8
0
100
AcDbLine
 10
41.5
 20
85.7679
 30
0.0
 11
45.2
 21
83.98009999999999
 31
0.0
  0
LINE
  5
12C
330
1E
100
AcDbEntity
  8
0
100
AcDbLine
 10
50.89999999999999
 20
95.6
 30
0.0
 11
53.0
 21
91.37030000000001
 31
0.0
  0
LINE
  5
12D
330
1E
100
AcDbEntity
  8
0
100
AcDbLine
 10
45.2
 20
83.98009999999999
 30
0.0
 11
48.1
 21
81.72780000000001
 31
0.0
  0
LINE
  5
12E
330
1E
100
AcDbEntity
  8
0
100
AcDbLine
 10
40.4
 20
83.0762
 30
0.0
 11
43.7
 21
81.47820000000001
 31
0.0
  0
LINE
  5
12F
330
1E
100
AcDbEntity
  8
0
100
AcDbLine
 10
52.3
 20
10.5
 30
0.0
 11
56.79999999999999
 21
10.5
 31
0.0
  0
LINE
  5
132
330
1E
100
AcDbEntity
  8
0
100
AcDbLine
 10
52.3
 20
7.0
 30
0.0
 11
56.79999999999999
 21
7.0
 31
0.0
  0
LINE
  5
133
330
1E
100
AcDbEntity
  8
0
100
AcDbLine
 10
52.3
 20
94.0
 30
0.0
 11
56.79999999999999
 21
94.0
 31
0.0
  0
LINE
  5
134
330
1E
100
AcDbEntity
  8
0
100
AcDbLine
 10
51.6
 20
95.0
 30
0.0
 11
55.89999999999999
 21
95.0
 31
0.0
  0
LINE
  5
135
330
1E
100
AcDbEntity
  8
0
100
AcDbLine
 10
51.19789346762179
 20
95.0
 30
0.0
 11
51.6
 21
95.0
 31
0.0
  0
LINE
  5
136
330
1E
100
AcDbEntity
  8
0
100
AcDbLine
 10
53.0
 20
91.37030000000001
 30
0.0
 11
54.29999999999999
 21
87.65489999999999
 31
0.0
  0
LINE
  5
137
330
1E
100
AcDbEntity
  8
0
100
AcDbLine
 10
50.90268601306711
 20
81.42607657112931
 30
0.0
 11
51.0
 21
81.9409
 31
0.0
  0
LINE
  5
138
330
1E
100
AcDbEntity
  8
0
100
AcDbLine
 10
55.5
 20
-0.0000000000000064
 30
0.0
 11
60.7
 21
-0.000000000000006
 31
0.0
  0
LINE
  5
139
330
1E
100
AcDbEntity
  8
0
100
AcDbLine
 10
56.79999999999999
 20
10.5
 30
0.0
 11
59.5
 21
10.5
 31
0.0
  0
LINE
  5
13A
330
1E
100
AcDbEntity
  8
0
100
AcDbLine
 10
55.89999999999999
 20
95.0
 30
0.0
 11
58.6
 21
95.0
 31
0.0
  0
LINE
  5
13B
330
1E
100
AcDbEntity
  8
0
100
AcDbLine
 10
56.79999999999999
 20
94.0
 30
0.0
 11
59.5
 21
94.0
 31
0.0
  0
LINE
  5
13C
330
1E
100
AcDbEntity
  8
0
100
AcDbLine
 10
55.3589
 20
82.59999999999999
 30
0.0
 11
57.4
 21
77.40000000000001
 31
0.0
  0
LINE
  5
13F
330
1E
100
AcDbEntity
  8
0
100
AcDbLine
 10
57.0
 20
97.0
 30
0.0
 11
57.0
 21
95.0
 31
0.0
  0
LINE
  5
140
330
1E
100
AcDbEntity
  8
0
100
AcDbLine
 10
56.8333333333333
 20
98.0
 30
0.0
 11
57.0
 21
97.0
 31
0.0
  0
LINE
  5
141
330
1E
100
AcDbEntity
  8
0
100
AcDbLine
 10
57.0
 20
95.0
 30
0.0
 11
57.0
 21
97.0
 31
0.0
  0
LINE
  5
142
330
1E
100
AcDbEntity
  8
0
100
AcDbLine
 10
56.79999999999999
 20
7.0
 30
0.0
 11
59.5
 21
7.0
 31
0.0
  0
LINE
  5
143
330
1E
100
AcDbEntity
  8
0
100
AcDbLine
 10
55.5
 20
-0.0000000000000036
 30
0.0
 11
60.7
 21
-0.000000000000004
 31
0.0
  0
LINE
  5
144
330
1E
100
AcDbEntity
  8
0
100
AcDbLine
 10
54.29999999999999
 20
87.65489999999999
 30
0.0
 11
55.3589
 21
82.59999999999999
 31
0.0
  0
LINE
  5
145
330
1E
100
AcDbEntity
  8
0
100
AcDbLine
 10
57.6
 20
98.0
 30
0.0
 11
58.5
 21
98.0
 31
0.0
  0
LINE
  5
146
330
1E
100
AcDbEntity
  8
0
100
AcDbLine
 10
60.7
 20
-0.000000000000006
 30
0.0
 11
63.9
 21
-0.0000000000000055
 31
0.0
  0
LINE
  5
147
330
1E
100
AcDbEntity
  8
0
100
AcDbLine
 10
60.7
 20
-0.000000000000004
 30
0.0
 11
63.9
 21
-0.0000000000000045
 31
0.0
  0
LINE
  5
148
330
1E
100
AcDbEntity
  8
0
100
AcDbLine
 10
59.5
 20
7.0
 30
0.0
 11
60.5
 21
6.99999999999999
 31
0.0
  0
LINE
  5
149
330
1E
100
AcDbEntity
  8
0
100
AcDbLine
 10
61.5
 20
7.99999999999999
 30
0.0
 11
61.5
 21
9.499999999999991
 31
0.0
  0
LINE
  5
14C
330
1E
100
AcDbEntity
  8
0
100
AcDbLine
 10
61.5
 20
9.499999999999991
 30
0.0
 11
61.5
 21
7.99999999999999
 31
0.0
  0
LINE
  5
14D
330
1E
100
AcDbEntity
  8
0
100
AcDbLine
 10
59.5
 20
10.5
 30
0.0
 11
60.5
 21
10.5
 31
0.0
  0
LINE
  5
14E
330
1E
100
AcDbEntity
  8
0
100
AcDbLine
 10
60.5
 20
6.99999999999999
 30
0.0
 11
62.5
 21
5.0
 31
0.0
  0
LINE
  5
14F
330
1E
100
AcDbEntity
  8
0
100
AcDbLine
 10
60.5
 20
6.99999999999999
 30
0.0
 11
61.5
 21
7.99999999999999
 31
0.0
  0
LINE
  5
150
330
1E
100
AcDbEntity
  8
0
100
AcDbLine
 10
63.9
 20
-0.0000000000000045
 30
0.0
 11
65.0
 21
-0.000000000000005
 31
0.0
  0
LINE
  5
151
330
1E
100
AcDbEntity
  8
0
100
AcDbLine
 10
64.0
 20
2.0
 30
0.0
 11
65.0
 21
-0.0000000000000049
 31
0.0
  0
LINE
  5
152
330
1E
100
AcDbEntity
  8
0
100
AcDbLine
 10
64.0
 20
2.0
 30
0.0
 11
65.0
 21
-0.000000000000005
 31
0.0
  0
LINE
  5
153
330
1E
100
AcDbEntity
  8
0
100
AcDbLine
 10
63.9
 20
-0.0000000000000055
 30
0.0
 11
65.0
 21
-0.000000000000005
 31
0.0
  0
LINE
  5
154
330
1E
100
AcDbEntity
  8
0
100
AcDbLine
 10
62.5
 20
5.0
 30
0.0
 11
64.0
 21
2.0
 31
0.0
  0
LINE
  5
155
330
1E
100
AcDbEntity
  8
0
100
AcDbLine
 10
58.6
 20
95.0
 30
0.0
 11
59.5
 21
95.0
 31
0.0
  0
LINE
  5
156
330
1E
100
AcDbEntity
  8
0
100
AcDbLine
 10
59.5
 20
94.0
 30
0.0
 11
60.5
 21
94.0
 31
0.0
  0
LINE
  5
157
330
1E
100
AcDbEntity
  8
0
100
AcDbLine
 10
59.5
 20
95.0
 30
0.0
 11
60.5
 21
94.0
 31
0.0
  0
LINE
  5
158
330
1E
100
AcDbEntity
  8
0
100
AcDbLine
 10
60.5
 20
94.0
 30
0.0
 11
60.5
 21
10.5
 31
0.0
  0
LINE
  5
159
330
1E
100
AcDbEntity
  8
0
100
AcDbLine
 10
60.5
 20
10.5
 30
0.0
 11
60.5
 21
94.0
 31
0.0
  0
LINE
  5
15A
330
1E
100
AcDbEntity
  8
0
100
AcDbLine
 10
60.5
 20
10.5
 30
0.0
 11
61.5
 21
9.499999999999991
 31
0.0
  0
LINE
  5
15B
330
1E
100
AcDbEntity
  8
0
100
AcDbLine
 10
58.5
 20
98.0
 30
0.0
 11
59.5
 21
102.0
 31
0.0
  0
LINE
  5
15C
330
1E
100
AcDbEntity
  8
0
100
AcDbLine
 10
55.1
 20
98.0
 30
0.0
 11
57.6
 21
98.0
 31
0.0
  0
LINE
  5
15D
330
1E
100
AcDbEntity
  8
0
100
AcDbLine
 10
50.89999999999999
 20
98.0
 30
0.0
 11
55.1
 21
98.0
 31
0.0
  0
LINE
  5
15E
330
1E
100
AcDbEntity
  8
0
100
AcDbLine
 10
42.29999999999999
 20
103.106
 30
0.0
 11
46.39999999999999
 21
100.2099999999999
 31
0.0
  0
LINE
  5
15F
330
1E
100
AcDbEntity
  8
0
100
AcDbLine
 10
47.5
 20
99.3303
 30
0.0
 11
50.89999999999999
 21
95.6
 31
0.0
  0
LINE
  5
160
330
1E
100
AcDbEntity
  8
0
100
AcDbLine
 10
46.39999999999999
 20
100.2099999999999
 30
0.0
 11
47.5
 21
99.3303
 31
0.0
  0
LINE
  5
161
330
1E
100
AcDbEntity
  8
0
100
AcDbLine
 10
40.0
 20
139.0
 30
0.0
 11
43.1
 21
139.0
 31
0.0
  0
LINE
  5
162
330
1E
100
AcDbEntity
  8
0
100
AcDbLine
 10
47.5
 20
137.0
 30
0.0
 11
53.5
 21
132.0
 31
0.0
  0
LINE
  5
163
330
1E
100
AcDbEntity
  8
0
100
AcDbLine
 10
47.5
 20
137.0
 30
0.0
 11
48.0
 21
137.5
 31
0.0
  0
LINE
  5
164
330
1E
100
AcDbEntity
  8
0
100
AcDbLine
 10
47.0
 20
137.0
 30
0.0
 11
47.5
 21
137.0
 31
0.0
  0
LINE
  5
165
330
1E
100
AcDbEntity
  8
0
100
AcDbLine
 10
45.49999999999999
 20
137.0
 30
0.0
 11
47.0
 21
137.0
 31
0.0
  0
LINE
  5
167
330
1E
100
AcDbEntity
  8
0
100
AcDbLine
 10
48.0
 20
137.5
 30
0.0
 11
48.0
 21
138.5
 31
0.0
  0
LINE
  5
16A
330
1E
100
AcDbEntity
  8
0
100
AcDbLine
 10
43.1
 20
139.0
 30
0.0
 11
45.49999999999999
 21
139.0
 31
0.0
  0
LINE
  5
16C
330
1E
100
AcDbEntity
  8
0
100
AcDbLine
 10
47.0
 20
139.0
 30
0.0
 11
47.5
 21
139.0
 31
0.0
  0
LINE
  5
16D
330
1E
100
AcDbEntity
  8
0
100
AcDbLine
 10
45.49999999999999
 20
139.0
 30
0.0
 11
47.0
 21
139.0
 31
0.0
  0
LINE
  5
172
330
1E
100
AcDbEntity
  8
0
100
AcDbLine
 10
44.0
 20
140.5
 30
0.0
 11
47.5
 21
139.0
 31
0.0
  0
LINE
  5
173
330
1E
100
AcDbEntity
  8
0
100
AcDbLine
 10
47.5
 20
139.0
 30
0.0
 11
48.0
 21
138.5
 31
0.0
  0
LINE
  5
174
330
1E
100
AcDbEntity
  8
0
100
AcDbLine
 10
48.0
 20
138.5
 30
0.0
 11
48.0
 21
137.5
 31
0.0
  0
LINE
  5
175
330
1E
100
AcDbEntity
  8
0
100
AcDbLine
 10
43.1
 20
137.0
 30
0.0
 11
45.49999999999999
 21
137.0
 31
0.0
  0
LINE
  5
176
330
1E
100
AcDbEntity
  8
0
100
AcDbLine
 10
40.0
 20
137.0
 30
0.0
 11
43.1
 21
137.0
 31
0.0
  0
LINE
  5
177
330
1E
100
AcDbEntity
  8
0
100
AcDbLine
 10
53.5
 20
132.0
 30
0.0
 11
57.5
 21
127.0
 31
0.0
  0
LINE
  5
178
330
1E
100
AcDbEntity
  8
0
100
AcDbLine
 10
57.5
 20
127.0
 30
0.0
 11
59.5
 21
121.5
 31
0.0
  0
LINE
  5
179
330
1E
100
AcDbEntity
  8
0
100
AcDbLine
 10
59.5
 20
121.5
 30
0.0
 11
60.5
 21
114.0
 31
0.0
  0
LINE
  5
17A
330
1E
100
AcDbEntity
  8
0
100
AcDbLine
 10
60.5
 20
114.0
 30
0.0
 11
60.5
 21
110.0
 31
0.0
  0
LINE
  5
17B
330
1E
100
AcDbEntity
  8
0
100
AcDbLine
 10
60.5
 20
110.0
 30
0.0
 11
60.5
 21
114.0
 31
0.0
  0
LINE
  5
17C
330
1E
100
AcDbEntity
  8
0
100
AcDbLine
 10
59.5
 20
102.0
 30
0.0
 11
60.5
 21
110.0
 31
0.0
  0
LINE
  5
17D
330
1E
100
AcDbEntity
  8
0
100
AcDbLine
 10
48.7125083773423
 20
98.0
 30
0.0
 11
50.89999999999999
 21
98.0
 31
0.0
  0
LINE
  5
17E
330
1E
100
AcDbEntity
  8
0
100
AcDbLine
 10
39.7
 20
144.2229999999999
 30
0.0
 11
40.0
 21
148.026
 31
0.0
  0
LINE
  5
183
330
1E
100
AcDbEntity
  8
0
100
AcDbLine
 10
17.5
 20
137.0
 30
0.0
 11
17.0
 21
137.5
 31
0.0
  0
ENDSEC
  0
SECTION
  2
OBJECTS
  0
DICTIONARY
  5
C
330
0
100
AcDbDictionary
281
     1
  3
ACAD_GROUP
350
D
  3
ACAD_LAYOUT
350
19
  3
ACAD_MLINESTYLE
350
16
  3
ACAD_PLOTSETTINGS
350
18
  3
ACAD_PLOTSTYLENAME
350
E
  3
AcDbVariableDictionary
350
184
  0
DICTIONARY
  5
D
102
{ACAD_REACTORS
330
C
102
}
330
C
100
AcDbDictionary
281
     1
  0
DICTIONARY
  5
19
102
{ACAD_REACTORS
330
C
102
}
330
C
100
AcDbDictionary
281
     1
  3
Layout1
350
1D
  3
Model
350
21
  0
DICTIONARY
  5
16
102
{ACAD_REACTORS
330
C
102
}
330
C
100
AcDbDictionary
281
     1
  3
Standard
350
17
  0
DICTIONARY
  5
18
102
{ACAD_REACTORS
330
C
102
}
330
C
100
AcDbDictionary
281
     1
  0
ACDBDICTIONARYWDFLT
  5
E
102
{ACAD_REACTORS
330
C
102
}
330
C
100
AcDbDictionary
281
     1
  3
Normal
350
F
100
AcDbDictionaryWithDefault
340
F
  0
DICTIONARY
  5
184
102
{ACAD_REACTORS
330
C
102
}
330
C
100
AcDbDictionary
281
     1
  3
DIMASSOC
350
185
  0
LAYOUT
  5
1D
102
{ACAD_REACTORS
330
19
102
}
330
19
100
AcDbPlotSettings
  1

  2
hp deskjet 980c series
  4

  6

 40
0.0
 41
0.0
 42
0.0
 43
0.0
 44
0.0
 45
0.0
 46
0.0
 47
0.0
 48
0.0
 49
0.0
140
0.0
141
0.0
142
1.0
143
1.0
 70
   688
 72
     0
 73
     0
 74
     5
  7

 75
    16
147
1.0
148
0.0
149
0.0
100
AcDbLayout
  1
Layout1
 70
     1
 71
     1
 10
0.0
 20
0.0
 11
12.0
 21
9.0
 12
0.0
 22
0.0
 32
0.0
 14
1.000000000000000E+20
 24
1.000000000000000E+20
 34
1.000000000000000E+20
 15
-1.000000000000000E+20
 25
-1.000000000000000E+20
 35
-1.000000000000000E+20
146
0.0
 13
0.0
 23
0.0
 33
0.0
 16
1.0
 26
0.0
 36
0.0
 17
0.0
 27
1.0
 37
0.0
 76
     0
330
1A
  0
LAYOUT
  5
21
102
{ACAD_REACTORS
330
19
102
}
330
19
100
AcDbPlotSettings
  1

  2
hp deskjet 980c series
  4

  6

 40
0.0
 41
0.0
 42
0.0
 43
0.0
 44
0.0
 45
0.0
 46
0.0
 47
0.0
 48
0.0
 49
0.0
140
0.0
141
0.0
142
1.0
143
1.0
 70
  1712
 72
     0
 73
     0
 74
     0
  7

 75
     0
147
1.0
148
0.0
149
0.0
100
AcDbLayout
  1
Model
 70
     1
 71
     0
 10
0.0
 20
0.0
 11
12.0
 21
9.0
 12
0.0
 22
0.0
 32
0.0
 14
0.0
 24
0.0
 34
0.0
 15
0.0
 25
0.0
 35
0.0
146
0.0
 13
0.0
 23
0.0
 33
0.0
 16
1.0
 26
0.0
 36
0.0
 17
0.0
 27
1.0
 37
0.0
 76
     0
330
1E
  0
MLINESTYLE
  5
17
102
{ACAD_REACTORS
330
16
102
}
330
16
100
AcDbMlineStyle
  2
STANDARD
 70
     0
  3

 62
   256
 51
90.0
 52
90.0
 71
     2
 49
0.5
 62
   256
  6
BYLAYER
 49
-0.5
 62
   256
  6
BYLAYER
  0
ACDBPLACEHOLDER
  5
F
102
{ACAD_REACTORS
330
E
102
}
330
E
  0
DICTIONARYVAR
  5
185
102
{ACAD_REACTORS
330
184
102
}
330
184
100
DictionaryVariables
280
     0
  1
1
  0
ENDSEC
  0
EOF
